  0
SECTION
  2
HEADER
  9
$ACADVER
  1
AC1015
  9
$ACADMAINTVER
 70
     6
  9
$DWGCODEPAGE
  3
ANSI_1252
  9
$INSBASE
 10
0.0
 20
0.0
 30
0.0
  9
$EXTMIN
 10
-1870.9832610853
 20
-720.4992903923
 30
0.0
  9
$EXTMAX
 10
7.0910417119
 20
-596.1727707204
 30
0.0
  9
$LIMMIN
 10
0.0
 20
0.0
  9
$LIMMAX
 10
420.0
 20
297.0
  9
$ORTHOMODE
 70
     0
  9
$REGENMODE
 70
     1
  9
$FILLMODE
 70
     1
  9
$QTEXTMODE
 70
     0
  9
$MIRRTEXT
 70
     1
  9
$LTSCALE
 40
1.0
  9
$ATTMODE
 70
     1
  9
$TEXTSIZE
 40
3.5
  9
$TRACEWID
 40
1.0
  9
$TEXTSTYLE
  7
Standard
  9
$CLAYER
  8
0
  9
$CELTYPE
  6
ByLayer
  9
$CECOLOR
 62
   256
  9
$CELTSCALE
 40
1.0
  9
$DISPSILH
 70
     0
  9
$DIMSCALE
 40
1.0
  9
$DIMASZ
 40
3.302
  9
$DIMEXO
 40
1.0
  9
$DIMDLI
 40
3.75
  9
$DIMRND
 40
0.0
  9
$DIMDLE
 40
0.0
  9
$DIMEXE
 40
1.0
  9
$DIMTP
 40
0.0
  9
$DIMTM
 40
0.0
  9
$DIMTXT
 40
3.5
  9
$DIMCEN
 40
2.5
  9
$DIMTSZ
 40
0.0
  9
$DIMTOL
 70
     0
  9
$DIMLIM
 70
     0
  9
$DIMTIH
 70
     1
  9
$DIMTOH
 70
     1
  9
$DIMSE1
 70
     0
  9
$DIMSE2
 70
     0
  9
$DIMTAD
 70
     1
  9
$DIMZIN
 70
     0
  9
$DIMBLK
  1

  9
$DIMASO
 70
     1
  9
$DIMSHO
 70
     1
  9
$DIMPOST
  1

  9
$DIMAPOST
  1

  9
$DIMALT
 70
     0
  9
$DIMALTD
 70
     3
  9
$DIMALTF
 40
0.0393700787
  9
$DIMLFAC
 40
1.0
  9
$DIMTOFL
 70
     1
  9
$DIMTVP
 40
0.0
  9
$DIMTIX
 70
     0
  9
$DIMSOXD
 70
     0
  9
$DIMSAH
 70
     0
  9
$DIMBLK1
  1

  9
$DIMBLK2
  1

  9
$DIMSTYLE
  2
ISO-25
  9
$DIMCLRD
 70
     0
  9
$DIMCLRE
 70
     0
  9
$DIMCLRT
 70
     0
  9
$DIMTFAC
 40
1.0
  9
$DIMGAP
 40
1.524
  9
$DIMJUST
 70
     0
  9
$DIMSD1
 70
     0
  9
$DIMSD2
 70
     0
  9
$DIMTOLJ
 70
     0
  9
$DIMTZIN
 70
     0
  9
$DIMALTZ
 70
     0
  9
$DIMALTTZ
 70
     0
  9
$DIMUPT
 70
     0
  9
$DIMDEC
 70
     2
  9
$DIMTDEC
 70
     2
  9
$DIMALTU
 70
     2
  9
$DIMALTTD
 70
     3
  9
$DIMTXSTY
  7
Standard
  9
$DIMAUNIT
 70
     0
  9
$DIMADEC
 70
     2
  9
$DIMALTRND
 40
0.0
  9
$DIMAZIN
 70
     0
  9
$DIMDSEP
 70
    44
  9
$DIMATFIT
 70
     3
  9
$DIMFRAC
 70
     0
  9
$DIMLDRBLK
  1

  9
$DIMLUNIT
 70
     2
  9
$DIMLWD
 70
    -2
  9
$DIMLWE
 70
    -2
  9
$DIMTMOVE
 70
     0
  9
$LUNITS
 70
     2
  9
$LUPREC
 70
     2
  9
$SKETCHINC
 40
1.0
  9
$FILLETRAD
 40
10.0
  9
$AUNITS
 70
     0
  9
$AUPREC
 70
     2
  9
$MENU
  1
.
  9
$ELEVATION
 40
0.0
  9
$PELEVATION
 40
0.0
  9
$THICKNESS
 40
0.0
  9
$LIMCHECK
 70
     0
  9
$CHAMFERA
 40
0.0
  9
$CHAMFERB
 40
0.0
  9
$CHAMFERC
 40
0.0
  9
$CHAMFERD
 40
0.0
  9
$SKPOLY
 70
     0
  9
$TDCREATE
 40
2457281.398073391
  9
$TDUCREATE
 40
2457281.314740058
  9
$TDUPDATE
 40
2457281.398139537
  9
$TDUUPDATE
 40
2457281.314806204
  9
$TDINDWG
 40
0.0000000116
  9
$TDUSRTIMER
 40
0.0000000116
  9
$USRTIMER
 70
     1
  9
$ANGBASE
 50
0.0
  9
$ANGDIR
 70
     0
  9
$PDMODE
 70
     0
  9
$PDSIZE
 40
-1.0
  9
$PLINEWID
 40
0.0
  9
$SPLFRAME
 70
     0
  9
$SPLINETYPE
 70
     6
  9
$SPLINESEGS
 70
     8
  9
$HANDSEED
  5
A3
  9
$SURFTAB1
 70
     6
  9
$SURFTAB2
 70
     6
  9
$SURFTYPE
 70
     6
  9
$SURFU
 70
     6
  9
$SURFV
 70
     6
  9
$UCSBASE
  2

  9
$UCSNAME
  2

  9
$UCSORG
 10
0.0
 20
0.0
 30
0.0
  9
$UCSXDIR
 10
1.0
 20
0.0
 30
0.0
  9
$UCSYDIR
 10
0.0
 20
1.0
 30
0.0
  9
$UCSORTHOREF
  2

  9
$UCSORTHOVIEW
 70
     0
  9
$UCSORGTOP
 10
0.0
 20
0.0
 30
0.0
  9
$UCSORGBOTTOM
 10
0.0
 20
0.0
 30
0.0
  9
$UCSORGLEFT
 10
0.0
 20
0.0
 30
0.0
  9
$UCSORGRIGHT
 10
0.0
 20
0.0
 30
0.0
  9
$UCSORGFRONT
 10
0.0
 20
0.0
 30
0.0
  9
$UCSORGBACK
 10
0.0
 20
0.0
 30
0.0
  9
$PUCSBASE
  2

  9
$PUCSNAME
  2

  9
$PUCSORG
 10
0.0
 20
0.0
 30
0.0
  9
$PUCSXDIR
 10
1.0
 20
0.0
 30
0.0
  9
$PUCSYDIR
 10
0.0
 20
1.0
 30
0.0
  9
$PUCSORTHOREF
  2

  9
$PUCSORTHOVIEW
 70
     0
  9
$PUCSORGTOP
 10
0.0
 20
0.0
 30
0.0
  9
$PUCSORGBOTTOM
 10
0.0
 20
0.0
 30
0.0
  9
$PUCSORGLEFT
 10
0.0
 20
0.0
 30
0.0
  9
$PUCSORGRIGHT
 10
0.0
 20
0.0
 30
0.0
  9
$PUCSORGFRONT
 10
0.0
 20
0.0
 30
0.0
  9
$PUCSORGBACK
 10
0.0
 20
0.0
 30
0.0
  9
$USERI1
 70
     0
  9
$USERI2
 70
     0
  9
$USERI3
 70
     0
  9
$USERI4
 70
     0
  9
$USERI5
 70
     0
  9
$USERR1
 40
0.0
  9
$USERR2
 40
0.0
  9
$USERR3
 40
0.0
  9
$USERR4
 40
0.0
  9
$USERR5
 40
0.0
  9
$WORLDVIEW
 70
     1
  9
$SHADEDGE
 70
     3
  9
$SHADEDIF
 70
    70
  9
$TILEMODE
 70
     1
  9
$MAXACTVP
 70
    64
  9
$PINSBASE
 10
0.0
 20
0.0
 30
0.0
  9
$PLIMCHECK
 70
     0
  9
$PEXTMIN
 10
1.0000000000E+20
 20
1.0000000000E+20
 30
1.0000000000E+20
  9
$PEXTMAX
 10
-1.0000000000E+20
 20
-1.0000000000E+20
 30
-1.0000000000E+20
  9
$PLIMMIN
 10
0.0
 20
0.0
  9
$PLIMMAX
 10
420.0
 20
297.0
  9
$UNITMODE
 70
     0
  9
$VISRETAIN
 70
     1
  9
$PLINEGEN
 70
     0
  9
$PSLTSCALE
 70
     1
  9
$TREEDEPTH
 70
  3020
  9
$CMLSTYLE
  2
Standard
  9
$CMLJUST
 70
     0
  9
$CMLSCALE
 40
20.0
  9
$PROXYGRAPHICS
 70
     1
  9
$MEASUREMENT
 70
     1
  9
$CELWEIGHT
370
    -1
  9
$ENDCAPS
280
     0
  9
$JOINSTYLE
280
     0
  9
$LWDISPLAY
290
     1
  9
$INSUNITS
 70
     4
  9
$HYPERLINKBASE
  1

  9
$STYLESHEET
  1

  9
$XEDIT
290
     1
  9
$CEPSNTYPE
380
     0
  9
$PSTYLEMODE
290
     1
  9
$FINGERPRINTGUID
  2
{2EA89D55-936B-451A-B867-9614C8E77800}
  9
$VERSIONGUID
  2
{FAEB1C32-E019-11D5-929B-00C0DF256EC4}
  9
$EXTNAMES
290
     1
  9
$PSVPSCALE
 40
0.0
  9
$OLESTARTUP
290
     0
  0
ENDSEC
  0
SECTION
  2
CLASSES
  0
CLASS
  1
ACDBDICTIONARYWDFLT
  2
AcDbDictionaryWithDefault
  3
ObjectDBX Classes
 90
        0
280
     0
281
     0
  0
CLASS
  1
VISUALSTYLE
  2
AcDbVisualStyle
  3
ObjectDBX Classes
 90
     4095
280
     0
281
     0
  0
CLASS
  1
MATERIAL
  2
AcDbMaterial
  3
ObjectDBX Classes
 90
     1153
280
     0
281
     0
  0
CLASS
  1
SCALE
  2
AcDbScale
  3
ObjectDBX Classes
 90
     1153
280
     0
281
     0
  0
CLASS
  1
SUN
  2
AcDbSun
  3
SCENEOE
 90
     1153
280
     0
281
     0
  0
CLASS
  1
ACDBPLACEHOLDER
  2
AcDbPlaceHolder
  3
ObjectDBX Classes
 90
        0
280
     0
281
     0
  0
CLASS
  1
LAYOUT
  2
AcDbLayout
  3
ObjectDBX Classes
 90
        0
280
     0
281
     0
  0
ENDSEC
  0
SECTION
  2
TABLES
  0
TABLE
  2
VPORT
  5
8
330
0
100
AcDbSymbolTable
 70
     1
  0
VPORT
  5
29
330
8
100
AcDbSymbolTableRecord
100
AcDbViewportTableRecord
  2
*Active
 70
     0
 10
0.0
 20
0.0
 11
1.0
 21
1.0
 12
-931.9461096867
 22
-658.3360305563
 13
0.0
 23
0.0
 14
10.0
 24
10.0
 15
10.0
 25
10.0
 16
0.0
 26
0.0
 36
1.0
 17
0.0
 27
0.0
 37
0.0
 40
126.8130500653
 41
15.1059830819
 42
50.0
 43
0.0
 44
0.0
 50
0.0
 51
0.0
 71
     0
 72
   100
 73
     1
 74
     3
 75
     0
 76
     0
 77
     0
 78
     0
281
     0
 65
     1
110
0.0
120
0.0
130
0.0
111
1.0
121
0.0
131
0.0
112
0.0
122
1.0
132
0.0
 79
     0
146
0.0
  0
ENDTAB
  0
TABLE
  2
LTYPE
  5
5
330
0
100
AcDbSymbolTable
 70
     6
  0
LTYPE
  5
14
330
5
100
AcDbSymbolTableRecord
100
AcDbLinetypeTableRecord
  2
ByBlock
 70
     0
  3

 72
    65
 73
     0
 40
0.0
  0
LTYPE
  5
15
330
5
100
AcDbSymbolTableRecord
100
AcDbLinetypeTableRecord
  2
ByLayer
 70
     0
  3

 72
    65
 73
     0
 40
0.0
  0
LTYPE
  5
16
330
5
100
AcDbSymbolTableRecord
100
AcDbLinetypeTableRecord
  2
Continuous
 70
     0
  3
Solid line
 72
    65
 73
     0
 40
0.0
  0
LTYPE
  5
6A
330
5
100
AcDbSymbolTableRecord
100
AcDbLinetypeTableRecord
  2
HIDDEN
 70
     0
  3
Hidden __ __ __ __ __ __ __ __ __ __ __ __ __ __
 72
    65
 73
     2
 40
1.905
 49
1.27
 74
     0
 49
-0.635
 74
     0
  0
LTYPE
  5
6B
330
5
100
AcDbSymbolTableRecord
100
AcDbLinetypeTableRecord
  2
PHANTOM
 70
     0
  3
Phantom ______  __  __  ______  __  __  ______
 72
    65
 73
     6
 40
12.7
 49
6.35
 74
     0
 49
-1.27
 74
     0
 49
1.27
 74
     0
 49
-1.27
 74
     0
 49
1.27
 74
     0
 49
-1.27
 74
     0
  0
LTYPE
  5
6C
330
5
100
AcDbSymbolTableRecord
100
AcDbLinetypeTableRecord
  2
CENTER
 70
     0
  3
Center ____ _ ____ _ ____ _ ____ _ ____ _ ____
 72
    65
 73
     4
 40
10.16
 49
6.35
 74
     0
 49
-1.27
 74
     0
 49
1.27
 74
     0
 49
-1.27
 74
     0
  0
LTYPE
  5
6D
330
5
100
AcDbSymbolTableRecord
100
AcDbLinetypeTableRecord
  2
CENTERX2
 70
     0
  3
Center (2x) ________  __  ________  __  _____
 72
    65
 73
     4
 40
20.32
 49
12.7
 74
     0
 49
-2.54
 74
     0
 49
2.54
 74
     0
 49
-2.54
 74
     0
  0
LTYPE
  5
6E
330
5
100
AcDbSymbolTableRecord
100
AcDbLinetypeTableRecord
  2
DOT2
 70
     0
  3
Dot (.5x) ........................................
 72
    65
 73
     2
 40
0.635
 49
0.0
 74
     0
 49
-0.635
 74
     0
  0
ENDTAB
  0
TABLE
  2
LAYER
  5
2
330
0
100
AcDbSymbolTable
 70
    11
  0
LAYER
  5
10
330
2
100
AcDbSymbolTableRecord
100
AcDbLayerTableRecord
  2
0
 70
     0
 62
     7
  6
Continuous
370
    -3
390
F
  0
LAYER
  5
6F
330
2
100
AcDbSymbolTableRecord
100
AcDbLayerTableRecord
  2
SLD-DEFPOINTS
 70
     0
 62
     7
  6
Continuous
370
    -1
390
F
  0
LAYER
  5
70
330
2
100
AcDbSymbolTableRecord
100
AcDbLayerTableRecord
  2
GEOMETRIE
 70
     0
 62
     7
  6
Continuous
370
    -1
390
F
  0
LAYER
  5
71
330
2
100
AcDbSymbolTableRecord
100
AcDbLayerTableRecord
  2
SCHRAFFUR
 70
     0
 62
     1
  6
Continuous
370
    -3
390
F
  0
LAYER
  5
72
330
2
100
AcDbSymbolTableRecord
100
AcDbLayerTableRecord
  2
BEMASSUNG
 70
     0
 62
     2
  6
Continuous
370
    -3
390
F
  0
LAYER
  5
73
330
2
100
AcDbSymbolTableRecord
100
AcDbLayerTableRecord
  2
RAHMEN
 70
     0
 62
     8
  6
Continuous
370
    15
390
F
  0
LAYER
  5
74
330
2
100
AcDbSymbolTableRecord
100
AcDbLayerTableRecord
  2
VERDECKTE
 70
     0
 62
     5
  6
HIDDEN
370
    -3
390
F
  0
LAYER
  5
75
330
2
100
AcDbSymbolTableRecord
100
AcDbLayerTableRecord
  2
HINWEISE
 70
     0
 62
     2
  6
Continuous
370
    -3
390
F
  0
LAYER
  5
76
330
2
100
AcDbSymbolTableRecord
100
AcDbLayerTableRecord
  2
SYMBOLE
 70
     0
 62
     2
  6
Continuous
370
    -1
390
F
  0
LAYER
  5
77
330
2
100
AcDbSymbolTableRecord
100
AcDbLayerTableRecord
  2
MITTELLINIE
 70
     0
 62
     3
  6
CENTERX2
370
    -3
390
F
  0
LAYER
  5
78
330
2
100
AcDbSymbolTableRecord
100
AcDbLayerTableRecord
  2
KANTLINIE
 70
     0
 62
     4
  6
CENTERX2
370
    -3
390
F
  0
ENDTAB
  0
TABLE
  2
STYLE
  5
3
330
0
100
AcDbSymbolTable
 70
     1
  0
STYLE
  5
11
330
3
100
AcDbSymbolTableRecord
100
AcDbTextStyleTableRecord
  2
Standard
 70
     0
 40
0.0
 41
1.0
 50
0.0
 71
     0
 42
3.5
  3
txt
  4

  0
ENDTAB
  0
TABLE
  2
VIEW
  5
6
330
0
100
AcDbSymbolTable
 70
     0
  0
ENDTAB
  0
TABLE
  2
UCS
  5
7
330
0
100
AcDbSymbolTable
 70
     0
  0
ENDTAB
  0
TABLE
  2
APPID
  5
9
330
0
100
AcDbSymbolTable
 70
     1
  0
APPID
  5
12
330
9
100
AcDbSymbolTableRecord
100
AcDbRegAppTableRecord
  2
ACAD
 70
     0
  0
ENDTAB
  0
TABLE
  2
DIMSTYLE
  5
A
330
0
100
AcDbSymbolTable
 70
     1
100
AcDbDimStyleTable
  0
DIMSTYLE
105
27
330
A
100
AcDbSymbolTableRecord
100
AcDbDimStyleTableRecord
  2
ISO-25
 70
     0
 41
2.5
 42
0.625
 43
3.75
 44
1.25
 73
     0
 74
     0
 77
     1
 78
     8
140
2.5
141
2.5
143
0.0393700787
147
0.625
171
     3
172
     1
178
     0
271
     2
272
     2
274
     3
278
    44
283
     0
284
     8
340
11
  0
ENDTAB
  0
TABLE
  2
BLOCK_RECORD
  5
1
330
0
100
AcDbSymbolTable
 70
     1
  0
BLOCK_RECORD
  5
1F
330
1
100
AcDbSymbolTableRecord
100
AcDbBlockTableRecord
  2
*Model_Space
340
22
  0
BLOCK_RECORD
  5
1B
330
1
100
AcDbSymbolTableRecord
100
AcDbBlockTableRecord
  2
*Paper_Space
340
1E
  0
BLOCK_RECORD
  5
23
330
1
100
AcDbSymbolTableRecord
100
AcDbBlockTableRecord
  2
*Paper_Space0
340
26
  0
ENDTAB
  0
ENDSEC
  0
SECTION
  2
BLOCKS
  0
BLOCK
  5
20
330
1F
100
AcDbEntity
  8
0
100
AcDbBlockBegin
  2
*Model_Space
 70
     0
 10
0.0
 20
0.0
 30
0.0
  3
*Model_Space
  1
*Model_Space
  0
ENDBLK
  5
21
330
1F
100
AcDbEntity
  8
0
100
AcDbBlockEnd
  0
BLOCK
  5
1C
330
1B
100
AcDbEntity
 67
     1
  8
0
100
AcDbBlockBegin
  2
*Paper_Space
 70
     0
 10
0.0
 20
0.0
 30
0.0
  3
*Paper_Space
  1
*Paper_Space
  0
ENDBLK
  5
1D
330
1B
100
AcDbEntity
 67
     1
  8
0
100
AcDbBlockEnd
  0
BLOCK
  5
24
330
23
100
AcDbEntity
  8
0
100
AcDbBlockBegin
  2
*Paper_Space0
 70
     0
 10
0.0
 20
0.0
 30
0.0
  3
*Paper_Space0
  1
*Paper_Space0
  0
ENDBLK
  5
25
330
23
100
AcDbEntity
  8
0
100
AcDbBlockEnd
  0
ENDSEC
  0
SECTION
  2
ENTITIES
  0
SPLINE
  5
7A
330
1F
100
AcDbEntity
  8
GEOMETRIE
100
AcDbSpline
210
0.0
220
0.0
230
1.0
 70
     8
 71
     3
 72
    28
 73
    24
 74
     0
 42
0.000000001
 43
0.00000001
 40
0.0
 40
0.0
 40
0.0
 40
0.0
 40
0.0162052573251014
 40
0.0322445886862637
 40
0.0481181119548119
 40
0.063825948734736
 40
0.0793682245190583
 40
0.0947450688543152
 40
0.1099566155136501
 40
0.12500300267905
 40
0.1880638791152105
 40
0.2500052622744602
 40
0.3766686374353508
 40
0.5000019320617074
 40
0.6259814176197295
 40
0.7499959031402287
 40
0.8126329379523848
 40
0.8749973621524668
 40
0.8996415348643743
 40
0.9244625590188441
 40
0.9494617747687328
 40
0.9746404938138414
 40
1.0
 40
1.0
 40
1.0
 40
1.0
 10
-732.1097565000869
 20
-650.0367435702472
 30
0.0
 10
-733.1678831454747
 20
-650.3080177987509
 30
0.0
 10
-735.2733022557073
 20
-650.8477886733388
 30
0.0
 10
-738.4178983955195
 20
-651.6426473105414
 30
0.0
 10
-741.5319820055192
 20
-652.4213444197228
 30
0.0
 10
-744.6157434928241
 20
-653.1831396137462
 30
0.0
 10
-747.6691323056923
 20
-653.9282302049825
 30
0.0
 10
-750.6921630764671
 20
-654.6565569579953
 30
0.0
 10
-753.6848272884274
 20
-655.3681620983224
 30
0.0
 10
-759.8089781571672
 20
-656.8045060578664
 30
0.0
 10
-769.016795009889
 20
-658.8878641666192
 30
0.0
 10
-785.6106044561195
 20
-662.4142315158357
 30
0.0
 10
-806.2686879763395
 20
-666.3521942267896
 30
0.0
 10
-831.2999386767627
 20
-670.343116704295
 30
0.0
 10
-856.2716812629448
 20
-673.4926182381546
 30
0.0
 10
-877.2624681747479
 20
-675.4100230373424
 30
0.0
 10
-894.0139609849464
 20
-676.4879320645751
 30
0.0
 10
-904.0910077141472
 20
-676.9535772346765
 30
0.0
 10
-911.6249837950952
 20
-677.2039756949629
 30
0.0
 10
-916.6427811760232
 20
-677.3334823844048
 30
0.0
 10
-921.6974075157783
 20
-677.4264495909198
 30
0.0
 10
-926.7888697630526
 20
-677.4859872012488
 30
0.0
 10
-930.1954963812985
 20
-677.4953175701507
 30
0.0
 10
-931.904902843516
 20
-677.4999994430657
 30
0.0
  0
SPLINE
  5
7B
330
1F
100
AcDbEntity
  8
GEOMETRIE
100
AcDbSpline
210
0.0
220
0.0
230
1.0
 70
     8
 71
     3
 72
   108
 73
   104
 74
     0
 42
0.000000001
 43
0.00000001
 40
0.0
 40
0.0
 40
0.0
 40
0.0
 40
0.03125
 40
0.03125
 40
0.046875
 40
0.046875
 40
0.0546875
 40
0.0546875
 40
0.05859375
 40
0.05859375
 40
0.0625
 40
0.0625
 40
0.078125
 40
0.078125
 40
0.0859375
 40
0.0859375
 40
0.09375
 40
0.09375
 40
0.1015625
 40
0.1015625
 40
0.109375
 40
0.109375
 40
0.125
 40
0.125
 40
0.140625
 40
0.140625
 40
0.1484375
 40
0.1484375
 40
0.15625
 40
0.15625
 40
0.1875
 40
0.1875
 40
0.203125
 40
0.203125
 40
0.21875
 40
0.21875
 40
0.25
 40
0.25
 40
0.265625
 40
0.265625
 40
0.28125
 40
0.28125
 40
0.3125
 40
0.3125
 40
0.34375
 40
0.34375
 40
0.375
 40
0.375
 40
0.40625
 40
0.40625
 40
0.4375
 40
0.4375
 40
0.5
 40
0.5
 40
0.53125
 40
0.53125
 40
0.5625
 40
0.5625
 40
0.59375
 40
0.59375
 40
0.625
 40
0.625
 40
0.65625
 40
0.65625
 40
0.6875
 40
0.6875
 40
0.75
 40
0.75
 40
0.765625
 40
0.765625
 40
0.78125
 40
0.78125
 40
0.8125
 40
0.8125
 40
0.828125
 40
0.828125
 40
0.84375
 40
0.84375
 40
0.875
 40
0.875
 40
0.8828125
 40
0.8828125
 40
0.88671875
 40
0.88671875
 40
0.890625
 40
0.890625
 40
0.90625
 40
0.90625
 40
0.921875
 40
0.921875
 40
0.9296875
 40
0.9296875
 40
0.9375
 40
0.9375
 40
0.953125
 40
0.953125
 40
0.9609375
 40
0.9609375
 40
0.96484375
 40
0.96484375
 40
0.96875
 40
0.96875
 40
1.0
 40
1.0
 40
1.0
 40
1.0
 10
-192.7091238761915
 20
-650.0367408729381
 30
0.0
 10
-197.9230940803692
 20
-648.6949360515722
 30
0.0
 10
-203.4693206866148
 20
-647.2377412957624
 30
0.0
 10
-212.2870451990849
 20
-644.8788642603819
 30
0.0
 10
-215.3093508037585
 20
-644.063724431644
 30
0.0
 10
-219.9674053615444
 20
-642.7977434631212
 30
0.0
 10
-221.5408562392691
 20
-642.3685379360439
 30
0.0
 10
-223.9321815935498
 20
-641.7139118390742
 30
0.0
 10
-224.7344815512589
 20
-641.4939001723584
 30
0.0
 10
-226.349464479242
 20
-641.0502709034758
 30
0.0
 10
-227.1691742122094
 20
-640.8247240287092
 30
0.0
 10
-231.4384080437312
 20
-639.6482383012459
 30
0.0
 10
-235.2979850174782
 20
-638.5790512956238
 30
0.0
 10
-241.7536353408932
 20
-636.7832731517134
 30
0.0
 10
-244.039644629857
 20
-636.1460928122476
 30
0.0
 10
-248.5484648073169
 20
-634.8891735934753
 30
0.0
 10
-250.802797468166
 20
-634.2604364172229
 30
0.0
 10
-255.3113079341026
 20
-633.0024069309846
 30
0.0
 10
-257.5734318160661
 20
-632.3706065996261
 30
0.0
 10
-262.0635255253463
 20
-631.1171819751498
 30
0.0
 10
-264.2529845973546
 20
-630.5077128372009
 30
0.0
 10
-270.6545984654845
 20
-628.7310349462211
 30
0.0
 10
-274.699989913711
 20
-627.6155557160578
 30
0.0
 10
-282.3460705491111
 20
-625.522542650044
 30
0.0
 10
-285.9467597362844
 20
-624.5450088141932
 30
0.0
 10
-291.0142668212543
 20
-623.1821671061524
 30
0.0
 10
-292.6355737825073
 20
-622.7483968747882
 30
0.0
 10
-295.8437341325909
 20
-621.8949209339506
 30
0.0
 10
-297.4291778432911
 20
-621.4755904519888
 30
0.0
 10
-305.2632140750853
 20
-619.4159754844648
 30
0.0
 10
-311.2322596310575
 20
-617.8868033257577
 30
0.0
 10
-319.7385528208208
 20
-615.770824810665
 30
0.0
 10
-322.4994380267094
 20
-615.0951285927954
 30
0.0
 10
-327.8721167237549
 20
-613.8029960647124
 30
0.0
 10
-330.5112270477725
 20
-613.1798692641172
 30
0.0
 10
-338.3534729277253
 20
-611.3629949693851
 30
0.0
 10
-343.4534999276079
 20
-610.2286171421077
 30
0.0
 10
-350.9113350473027
 20
-608.6423579550078
 30
0.0
 10
-353.3652458571792
 20
-608.1328228182774
 30
0.0
 10
-358.2089990168896
 20
-607.1521883960881
 30
0.0
 10
-360.5944392118097
 20
-606.6819767406204
 30
0.0
 10
-367.7114227137433
 20
-605.3175495987634
 30
0.0
 10
-372.3904532080335
 20
-604.4721986296624
 30
0.0
 10
-381.6172638492819
 20
-602.9100309424014
 30
0.0
 10
-386.1650439962403
 20
-602.1932142242412
 30
0.0
 10
-395.1293539428258
 20
-600.8881150388617
 30
0.0
 10
-399.55426175433
 20
-600.2986279354126
 30
0.0
 10
-408.3586452188246
 20
-599.2358485723365
 30
0.0
 10
-412.7282759112604
 20
-598.763971874818
 30
0.0
 10
-421.4024152165094
 20
-597.939244447821
 30
0.0
 10
-425.7014483926339
 20
-597.5868018671058
 30
0.0
 10
-438.5388367754653
 20
-596.7051825787273
 30
0.0
 10
-447.0575300986062
 20
-596.3487289817995
 30
0.0
 10
-459.7762216851971
 20
-596.1609874793944
 30
0.0
 10
-464.0001836710687
 20
-596.1562241835189
 30
0.0
 10
-472.4764010833849
 20
-596.2623939308922
 30
0.0
 10
-476.724585383138
 20
-596.3733227365981
 30
0.0
 10
-485.2411051698348
 20
-596.7108682120479
 30
0.0
 10
-489.5094406567781
 20
-596.9374848817922
 30
0.0
 10
-498.0662628178547
 20
-597.5064060853189
 30
0.0
 10
-502.3595640770163
 20
-597.8490773610912
 30
0.0
 10
-511.0256107278497
 20
-598.6546243056434
 30
0.0
 10
-515.3913871464807
 20
-599.1169691259647
 30
0.0
 10
-524.1884461701717
 20
-600.1608014626973
 30
0.0
 10
-528.6122613156002
 20
-600.7412075076156
 30
0.0
 10
-542.0329164430476
 20
-602.6685185570128
 30
0.0
 10
-551.2436446790966
 20
-604.2108835200061
 30
0.0
 10
-563.0865859963461
 20
-606.4607033863243
 30
0.0
 10
-565.4665139760283
 20
-606.9257218274699
 30
0.0
 10
-570.2931869119348
 20
-607.8947926627953
 30
0.0
 10
-572.7386711742867
 20
-608.3985901330815
 30
0.0
 10
-580.1715673445382
 20
-609.9677687018103
 30
0.0
 10
-585.2554226356334
 20
-611.0909359581236
 30
0.0
 10
-593.0740923386685
 20
-612.8912591583343
 30
0.0
 10
-595.7124633674123
 20
-613.5106289443613
 30
0.0
 10
-601.0535010136966
 20
-614.7878926216624
 30
0.0
 10
-603.7891584282136
 20
-615.4538729429578
 30
0.0
 10
-612.2344439436786
 20
-617.544374032983
 30
0.0
 10
-618.1639214609636
 20
-619.0569292209971
 30
0.0
 10
-625.9498773246221
 20
-621.0962329493447
 30
0.0
 10
-627.5257739457065
 20
-621.5115241821808
 30
0.0
 10
-629.9176770498619
 20
-622.1456067621847
 30
0.0
 10
-630.7196544466684
 20
-622.3588252439775
 30
0.0
 10
-632.3329619644583
 20
-622.7889774511466
 30
0.0
 10
-633.1450404896232
 20
-623.0061149832312
 30
0.0
 10
-637.3470797305534
 20
-624.1332968267211
 30
0.0
 10
-641.0676356990931
 20
-625.1421316063438
 30
0.0
 10
-649.2265967877632
 20
-627.3739797752502
 30
0.0
 10
-653.6650019078938
 20
-628.5969931645338
 30
0.0
 10
-660.8609964517824
 20
-630.592147205705
 30
0.0
 10
-663.3575169281623
 20
-631.28636271213
 30
0.0
 10
-668.4962389565152
 20
-632.7183932511413
 30
0.0
 10
-671.0655082901835
 20
-633.4347371739148
 30
0.0
 10
-678.7730412496636
 20
-635.5847549020391
 30
0.0
 10
-683.9019669147071
 20
-637.0204292550152
 30
0.0
 10
-691.6496020588115
 20
-639.1697782464144
 30
0.0
 10
-694.2397417646987
 20
-639.8856960829809
 30
0.0
 10
-698.1363433103079
 20
-640.9587750969812
 30
0.0
 10
-699.4410331554186
 20
-641.3174904768151
 30
0.0
 10
-702.0148266610844
 20
-642.0230597452413
 30
0.0
 10
-703.2878782051326
 20
-642.3710759981188
 30
0.0
 10
-714.6207352225057
 20
-645.4603068419966
 30
0.0
 10
-723.8082925424025
 20
-647.9011134088581
 30
0.0
 10
-732.109756500088
 20
-650.036743570246
 30
0.0
  0
SPLINE
  5
7C
330
1F
100
AcDbEntity
  8
GEOMETRIE
100
AcDbSpline
210
0.0
220
0.0
230
1.0
 70
     8
 71
     3
 72
    29
 73
    25
 74
     0
 42
0.000000001
 43
0.00000001
 40
0.0
 40
0.0
 40
0.0
 40
0.0
 40
0.0127105983038835
 40
0.0253740315270521
 40
0.0379904571158916
 40
0.0505600342832387
 40
0.0630829240287874
 40
0.0755592891596475
 40
0.0879892943110553
 40
0.1003731059672298
 40
0.1127108924823745
 40
0.1250028241018178
 40
0.1873603310516728
 40
0.2500042753658261
 40
0.3740148215991105
 40
0.4999982062881996
 40
0.6233271040621073
 40
0.7499948902709929
 40
0.8119373651786623
 40
0.8749971424889703
 40
0.9052029859230147
 40
0.9361047205907982
 40
0.9677033975970899
 40
0.9999999999999999
 40
0.9999999999999999
 40
0.9999999999999999
 40
0.9999999999999999
 10
7.091041711947077
 20
-677.4999996246612
 30
0.0
 10
6.234238738785036
 20
-677.4984992099529
 30
0.0
 10
4.523812122058324
 20
-677.4955039481088
 30
0.0
 10
1.962970429624566
 20
-677.4796350520228
 30
0.0
 10
-0.588295773299996
 20
-677.4554320033213
 30
0.0
 10
-3.129985891397569
 20
-677.4220864663606
 30
0.0
 10
-5.662100100911061
 20
-677.379813958512
 30
0.0
 10
-8.184638306042768
 20
-677.3285565562503
 30
0.0
 10
-10.69760073013182
 20
-677.268331523794
 30
0.0
 10
-13.20098659611413
 20
-677.1991274529677
 30
0.0
 10
-15.69479879067626
 20
-677.1209726333898
 30
0.0
 10
-21.55487792954458
 20
-676.9152592388356
 30
0.0
 10
-30.8003884610355
 20
-676.4882460762387
 30
0.0
 10
-47.55202672374181
 20
-675.4103330273401
 30
0.0
 10
-68.54381445622305
 20
-673.4930070021758
 30
0.0
 10
-93.51589310401232
 20
-670.3435493078736
 30
0.0
 10
-118.5480404219122
 20
-666.3525655523252
 30
0.0
 10
-139.2067193817711
 20
-662.4145439504716
 30
0.0
 10
-155.8012428786015
 20
-658.8880531220017
 30
0.0
 10
-166.0060246615278
 20
-656.5792742377694
 30
0.0
 10
-174.1519078504332
 20
-654.6554106792332
 30
0.0
 10
-180.224932342801
 20
-653.1818977236094
 30
0.0
 10
-186.4268321469564
 20
-651.6421459282882
 30
0.0
 10
-190.5998327974028
 20
-650.575758592433
 30
0.0
 10
-192.7091238761917
 20
-650.0367408729385
 30
0.0
  0
SPLINE
  5
7E
330
1F
100
AcDbEntity
  8
GEOMETRIE
100
AcDbSpline
210
0.0
220
0.0
230
1.0
 70
     8
 71
     3
 72
    33
 73
    29
 74
     0
 42
0.000000001
 43
0.00000001
 40
0.0
 40
0.0
 40
0.0
 40
0.0
 40
0.0185364445578071
 40
0.0368785281558035
 40
0.0550264124140527
 40
0.0729802641971494
 40
0.0907402558388049
 40
0.1083065653783077
 40
0.1256793768096005
 40
0.1428588803437705
 40
0.1968334787415598
 40
0.2500026711698088
 40
0.3766842840613362
 40
0.4999973391632623
 40
0.5632464862687526
 40
0.6259851968449237
 40
0.6882300103703418
 40
0.749997863074904
 40
0.7749804250999149
 40
0.7999637026668208
 40
0.8249488992689399
 40
0.849937218122316
 40
0.8749298619920511
 40
0.8999280330189636
 40
0.9249329325466977
 40
0.9499457609494066
 40
0.9749677174601316
 40
1.0
 40
1.0
 40
1.0
 40
1.0
 10
-192.7091238761917
 20
-694.3452756493762
 30
0.0
 10
-191.4964142140321
 20
-694.6405245101037
 30
0.0
 10
-189.0837105652121
 20
-695.2279264462913
 30
0.0
 10
-185.4804916981035
 20
-696.0910521551391
 30
0.0
 10
-181.9130523081136
 20
-696.9350703736644
 30
0.0
 10
-178.3811656933015
 20
-697.7590533350691
 30
0.0
 10
-174.8848919545006
 20
-698.5632478480446
 30
0.0
 10
-171.4242139010818
 20
-699.3475811135319
 30
0.0
 10
-167.9991408311348
 20
-700.112100933464
 30
0.0
 10
-162.1770908582745
 20
-701.3910652388121
 30
0.0
 10
-153.9884373799282
 20
-703.1305575822239
 30
0.0
 10
-138.5531762409441
 20
-706.2362505480579
 30
0.0
 10
-118.4651050929526
 20
-709.881119864657
 30
0.0
 10
-97.60890412267686
 20
-713.0479889745232
 30
0.0
 10
-80.95793543430241
 20
-715.1811093505513
 30
0.0
 10
-68.36134365577395
 20
-716.5890538208654
 30
0.0
 10
-55.8427149984283
 20
-717.7811333018302
 30
0.0
 10
-45.84051505408193
 20
-718.5662214791258
 30
0.0
 10
-38.33357120372571
 20
-719.0653393820578
 30
0.0
 10
-33.29568750157452
 20
-719.3651026323126
 30
0.0
 10
-28.25546245433141
 20
-719.6299382518475
 30
0.0
 10
-23.21288978767877
 20
-719.8598131911829
 30
0.0
 10
-18.16797123563463
 20
-720.0547514874263
 30
0.0
 10
-13.12070634778872
 20
-720.2146900313704
 30
0.0
 10
-8.07109540172235
 20
-720.3398573126769
 30
0.0
 10
-3.019137947143369
 20
-720.4294021365965
 30
0.0
 10
2.035164282608859
 20
-720.4865023750223
 30
0.0
 10
5.405517471146259
 20
-720.495026326237
 30
0.0
 10
7.091041711947077
 20
-720.4992891810763
 30
0.0
  0
SPLINE
  5
7F
330
1F
100
AcDbEntity
  8
GEOMETRIE
100
AcDbSpline
210
0.0
220
0.0
230
1.0
 70
     8
 71
     3
 72
   108
 73
   104
 74
     0
 42
0.000000001
 43
0.00000001
 40
0.0
 40
0.0
 40
0.0
 40
0.0
 40
0.03125
 40
0.03125
 40
0.046875
 40
0.046875
 40
0.0546875
 40
0.0546875
 40
0.05859375
 40
0.05859375
 40
0.0625
 40
0.0625
 40
0.078125
 40
0.078125
 40
0.08203125
 40
0.08203125
 40
0.0859375
 40
0.0859375
 40
0.09375
 40
0.09375
 40
0.1015625
 40
0.1015625
 40
0.10546875
 40
0.10546875
 40
0.109375
 40
0.109375
 40
0.125
 40
0.125
 40
0.140625
 40
0.140625
 40
0.15625
 40
0.15625
 40
0.1875
 40
0.1875
 40
0.203125
 40
0.203125
 40
0.21875
 40
0.21875
 40
0.25
 40
0.25
 40
0.265625
 40
0.265625
 40
0.28125
 40
0.28125
 40
0.3125
 40
0.3125
 40
0.34375
 40
0.34375
 40
0.375
 40
0.375
 40
0.4375
 40
0.4375
 40
0.5
 40
0.5
 40
0.53125
 40
0.53125
 40
0.5625
 40
0.5625
 40
0.59375
 40
0.59375
 40
0.625
 40
0.625
 40
0.65625
 40
0.65625
 40
0.6875
 40
0.6875
 40
0.75
 40
0.75
 40
0.765625
 40
0.765625
 40
0.78125
 40
0.78125
 40
0.8125
 40
0.8125
 40
0.828125
 40
0.828125
 40
0.84375
 40
0.84375
 40
0.875
 40
0.875
 40
0.8828125
 40
0.8828125
 40
0.88671875
 40
0.88671875
 40
0.890625
 40
0.890625
 40
0.90625
 40
0.90625
 40
0.921875
 40
0.921875
 40
0.92578125
 40
0.92578125
 40
0.9296875
 40
0.9296875
 40
0.9375
 40
0.9375
 40
0.953125
 40
0.953125
 40
0.9609375
 40
0.9609375
 40
0.96875
 40
0.96875
 40
1.0
 40
1.0
 40
1.0
 40
1.0
 10
-732.1097565000885
 20
-694.3452782240273
 30
0.0
 10
-727.0550371055632
 20
-693.1036157627955
 30
0.0
 10
-721.67758349935
 20
-691.7560016511808
 30
0.0
 10
-713.127301772498
 20
-689.5756530081848
 30
0.0
 10
-710.1965243106255
 20
-688.8223822145904
 30
0.0
 10
-705.6793327884336
 20
-687.6527441553055
 30
0.0
 10
-704.1534313928057
 20
-687.2562428240616
 30
0.0
 10
-701.8343229670182
 20
-686.6515578599723
 30
0.0
 10
-701.0562441030314
 20
-686.4483407107386
 30
0.0
 10
-699.4900009309426
 20
-686.0385954231969
 30
0.0
 10
-698.7093803184667
 20
-685.8340424885434
 30
0.0
 10
-694.6622882103925
 20
-684.7719007747241
 30
0.0
 10
-690.9800844981779
 20
-683.8004317445437
 30
0.0
 10
-685.8216673257162
 20
-682.4339008829115
 30
0.0
 10
-684.762200764614
 20
-682.1529849818899
 30
0.0
 10
-682.5877013891904
 20
-681.5759337224558
 30
0.0
 10
-681.4665468196068
 20
-681.27813289636
 30
0.0
 10
-678.1260714094884
 20
-680.390831164566
 30
0.0
 10
-675.8991384971363
 20
-679.7991059538186
 30
0.0
 10
-671.4453740612184
 20
-678.6152740865558
 30
0.0
 10
-669.2185425376529
 20
-678.0231674300401
 30
0.0
 10
-665.8783712938944
 20
-677.13472136094
 30
0.0
 10
-664.7624266668348
 20
-676.8377501590436
 30
0.0
 10
-662.5645471969821
 20
-676.2539708200784
 30
0.0
 10
-661.478781021773
 20
-675.9660061700732
 30
0.0
 10
-656.1158179443152
 20
-674.545808017435
 30
0.0
 10
-652.0362244378273
 20
-673.4724498069645
 30
0.0
 10
-644.2985913358076
 20
-671.4513340093026
 30
0.0
 10
-640.6405517402764
 20
-670.5035764221118
 30
0.0
 10
-633.7460264601701
 20
-668.7336618710094
 30
0.0
 10
-630.5439283782878
 20
-667.9201962885882
 30
0.0
 10
-621.0550986356266
 20
-665.5380692768953
 30
0.0
 10
-615.0229603754343
 20
-664.0623365727444
 30
0.0
 10
-606.4153753375191
 20
-662.0172654719844
 30
0.0
 10
-603.6196173836096
 20
-661.3636630976422
 30
0.0
 10
-598.174975593248
 20
-660.1126343341132
 30
0.0
 10
-595.5201399526754
 20
-659.5138232014484
 30
0.0
 10
-587.6109084155751
 20
-657.7632566445594
 30
0.0
 10
-582.4652116841272
 20
-656.6697976088622
 30
0.0
 10
-574.9373530268845
 20
-655.1399870586592
 30
0.0
 10
-572.4598478811248
 20
-654.6484465424822
 30
0.0
 10
-567.5683997362489
 20
-653.7021581779093
 30
0.0
 10
-565.1595948323313
 20
-653.2483928237796
 30
0.0
 10
-557.9839711589436
 20
-651.9337666015283
 30
0.0
 10
-553.2654809121352
 20
-651.1191046971854
 30
0.0
 10
-543.9590181560851
 20
-649.6132920428158
 30
0.0
 10
-539.3710456468433
 20
-648.9221412927891
 30
0.0
 10
-530.325618365927
 20
-647.6633509470514
 30
0.0
 10
-525.8645030408285
 20
-647.0952128059394
 30
0.0
 10
-512.5463981451253
 20
-645.5582869589648
 30
0.0
 10
-503.8076287415555
 20
-644.7635314373953
 30
0.0
 10
-486.546343017733
 20
-643.6292414525911
 30
0.0
 10
-477.9552227098152
 20
-643.2848565872616
 30
0.0
 10
-465.1278260789277
 20
-643.1024194798762
 30
0.0
 10
-460.8676649501502
 20
-643.0972936643335
 30
0.0
 10
-452.3194852567975
 20
-643.1984508658333
 30
0.0
 10
-448.0353972373463
 20
-643.3047315082202
 30
0.0
 10
-439.4472248528938
 20
-643.6286968762678
 30
0.0
 10
-435.1431404878928
 20
-643.8463816019286
 30
0.0
 10
-426.5149754123412
 20
-644.3931551365242
 30
0.0
 10
-422.1847403271227
 20
-644.7226859142212
 30
0.0
 10
-413.4458881653633
 20
-645.4973444454236
 30
0.0
 10
-409.0438848085323
 20
-645.9419972428736
 30
0.0
 10
-400.1747235429669
 20
-646.9459499014715
 30
0.0
 10
-395.7165163969497
 20
-647.5040235331757
 30
0.0
 10
-382.1797161477321
 20
-649.3590440801958
 30
0.0
 10
-372.8933051628979
 20
-650.8430430723542
 30
0.0
 10
-360.9579445751603
 20
-653.0071900969009
 30
0.0
 10
-358.5582911066735
 20
-653.454751398629
 30
0.0
 10
-353.687316671135
 20
-654.3882496053735
 30
0.0
 10
-351.2199584954571
 20
-654.8734271125446
 30
0.0
 10
-343.7222710946976
 20
-656.3842448454535
 30
0.0
 10
-338.5963289958898
 20
-657.4651702825877
 30
0.0
 10
-330.7161901002264
 20
-659.1971288610808
 30
0.0
 10
-328.0641267430244
 20
-659.7913588692329
 30
0.0
 10
-322.6681285096825
 20
-661.0232239802895
 30
0.0
 10
-319.8965588338817
 20
-661.667292185107
 30
0.0
 10
-311.3611381290903
 20
-663.6839037474268
 30
0.0
 10
-305.3765754227102
 20
-665.1408540527966
 30
0.0
 10
-297.5280192440864
 20
-667.1027201809546
 30
0.0
 10
-295.9399153685793
 20
-667.5021273189085
 30
0.0
 10
-293.5301705956449
 20
-668.1117888943228
 30
0.0
 10
-292.7278190780596
 20
-668.3153446449536
 30
0.0
 10
-291.0828969595034
 20
-668.734008413007
 30
0.0
 10
-290.2391959024793
 20
-668.9494092336656
 30
0.0
 10
-285.9144906286281
 20
-670.0567580201184
 30
0.0
 10
-282.1148864456105
 20
-671.0397400353912
 30
0.0
 10
-273.8359981517023
 20
-673.1999100381586
 30
0.0
 10
-269.3567140408115
 20
-674.377098025653
 30
0.0
 10
-263.3328089472775
 20
-675.9699617426594
 30
0.0
 10
-262.1067879308247
 20
-676.2946034226926
 30
0.0
 10
-259.6122659024269
 20
-676.956024656023
 30
0.0
 10
-258.3410716005693
 20
-677.293560196065
 30
0.0
 10
-254.5478737449802
 20
-678.3007659566853
 30
0.0
 10
-252.0191810628408
 20
-678.972634841262
 30
0.0
 10
-244.4334206811843
 20
-680.9894366274821
 30
0.0
 10
-239.3789769558626
 20
-682.3370339698596
 30
0.0
 10
-231.7742610347884
 20
-684.3457305389139
 30
0.0
 10
-229.2364116847021
 20
-685.0137513830631
 30
0.0
 10
-224.1548248984066
 20
-686.346703713623
 30
0.0
 10
-221.6523811135361
 20
-687.0000795833387
 30
0.0
 10
-209.4685145941219
 20
-690.1632300846811
 30
0.0
 10
-200.6330199496346
 20
-692.4007520732708
 30
0.0
 10
-192.7091238761917
 20
-694.345275649376
 30
0.0
  0
SPLINE
  5
80
330
1F
100
AcDbEntity
  8
GEOMETRIE
100
AcDbSpline
210
0.0
220
0.0
230
1.0
 70
     8
 71
     3
 72
    29
 73
    25
 74
     0
 42
0.000000001
 43
0.00000001
 40
0.0
 40
0.0
 40
0.0
 40
0.0
 40
0.0141178605233377
 40
0.0281780807985991
 40
0.0421808572847322
 40
0.0561263888684198
 40
0.0700148768956282
 40
0.0838465252034579
 40
0.0976215401522821
 40
0.1113401306581775
 40
0.1250025082256382
 40
0.1873744352102117
 40
0.2500037842425707
 40
0.3740093040501477
 40
0.4999981889056797
 40
0.623308014794627
 40
0.749995105238852
 40
0.7996524518332089
 40
0.8499969391696713
 40
0.8789628571751894
 40
0.9084452592109984
 40
0.9384450305452832
 40
0.968963011422583
 40
1.0
 40
1.0
 40
1.0
 40
1.0
 10
-931.9049028435163
 20
-720.4992888211951
 30
0.0
 10
-930.9543239747758
 20
-720.4975481381435
 30
0.0
 10
-929.0570472504072
 20
-720.4940738788825
 30
0.0
 10
-926.2169897379686
 20
-720.4754963221243
 30
0.0
 10
-923.3886217000514
 20
-720.447125632018
 30
0.0
 10
-920.5719438308594
 20
-720.4080132756478
 30
0.0
 10
-917.7669559978602
 20
-720.3584112677925
 30
0.0
 10
-914.9736580163598
 20
-720.2982546511837
 30
0.0
 10
-912.1920507255646
 20
-720.227552705475
 30
0.0
 10
-909.4221309456475
 20
-720.1463326799335
 30
0.0
 10
-903.38226028559
 20
-719.9451899190409
 30
0.0
 10
-894.0542876184759
 20
-719.5342983507225
 30
0.0
 10
-877.319036797886
 20
-718.5075515111777
 30
0.0
 10
-856.3446555781813
 20
-716.6812808491093
 30
0.0
 10
-831.3847230887476
 20
-713.6819113099522
 30
0.0
 10
-806.3522779568963
 20
-709.8808747385442
 30
0.0
 10
-786.4973455490511
 20
-706.2782611998853
 30
0.0
 10
-771.5326018664539
 20
-703.273054326808
 30
0.0
 10
-763.0364186627501
 20
-701.4777712313897
 30
0.0
 10
-755.8814842534142
 20
-699.9074336444183
 30
0.0
 10
-750.0717644853909
 20
-698.5982876622841
 30
0.0
 10
-744.1674759735319
 20
-697.2338920433157
 30
0.0
 10
-738.1679997331232
 20
-695.8167577633831
 30
0.0
 10
-734.1404903782678
 20
-694.8385207758167
 30
0.0
 10
-732.1097565000869
 20
-694.3452782240282
 30
0.0
  0
SPLINE
  5
82
330
1F
100
AcDbEntity
  8
GEOMETRIE
100
AcDbSpline
210
0.0
220
0.0
230
1.0
 70
     8
 71
     3
 72
    33
 73
    29
 74
     0
 42
0.000000001
 43
0.00000001
 40
0.0
 40
0.0
 40
0.0
 40
0.0
 40
0.0185333695662657
 40
0.036873256683173
 40
0.0550198230024864
 40
0.0729732353979298
 40
0.0907336661877424
 40
0.108301293368947
 40
0.1256763008640579
 40
0.1428588787809992
 40
0.1968381915838781
 40
0.2500026681141184
 40
0.376682530922509
 40
0.4999973327672541
 40
0.5632457229086464
 40
0.6259841814672105
 40
0.6882292480611588
 40
0.749997858652778
 40
0.7749807790384237
 40
0.7999643356218825
 40
0.8249497318038271
 40
0.8499381707191528
 40
0.8749308550633287
 40
0.8999289869190641
 40
0.924933767583414
 40
0.9499463973954543
 40
0.9749680755646445
 40
0.9999999999999999
 40
0.9999999999999999
 40
0.9999999999999999
 40
0.9999999999999999
 10
-1131.782462873309
 20
-694.3452782240273
 30
0.0
 10
-1130.56998432512
 20
-694.64046998908
 30
0.0
 10
-1128.157685116904
 20
-695.2277718115913
 30
0.0
 10
-1124.554985967152
 20
-696.0907673297374
 30
0.0
 10
-1120.987892803203
 20
-696.9346969915465
 30
0.0
 10
-1117.456178873758
 20
-697.7586328251315
 30
0.0
 10
-1113.959904295225
 20
-698.5628217014315
 30
0.0
 10
-1110.499051879084
 20
-699.347190830283
 30
0.0
 10
-1107.073630897853
 20
-700.1117879009116
 30
0.0
 10
-1101.251070597692
 20
-701.3908721017008
 30
0.0
 10
-1093.062426346224
 20
-703.1304022654992
 30
0.0
 10
-1077.627674482369
 20
-706.2360458187362
 30
0.0
 10
-1057.540416386964
 20
-709.8807749843974
 30
0.0
 10
-1036.684795472141
 20
-713.0476267321247
 30
0.0
 10
-1020.034201029857
 20
-715.1807768759825
 30
0.0
 10
-1007.437978325301
 20
-716.58872993335
 30
0.0
 10
-994.9196147286644
 20
-717.7808354720269
 30
0.0
 10
-984.9175748105827
 20
-718.565954363643
 30
0.0
 10
-977.4107261755416
 20
-719.0651023300294
 30
0.0
 10
-972.3729129605488
 20
-719.3648875686661
 30
0.0
 10
-967.332774351868
 20
-719.629746222501
 30
0.0
 10
-962.2903040777943
 20
-719.8596452837198
 30
0.0
 10
-957.2455038717238
 20
-720.0546087781303
 30
0.0
 10
-952.1983732830602
 20
-720.214573599904
 30
0.0
 10
-947.1489125907392
 20
-720.3397682352208
 30
0.0
 10
-942.097121339225
 20
-720.429341503357
 30
0.0
 10
-937.043001281478
 20
-720.486471209177
 30
0.0
 10
-933.6727747487956
 20
-720.4950157008193
 30
0.0
 10
-931.9873165298808
 20
-720.4992888211946
 30
0.0
  0
SPLINE
  5
83
330
1F
100
AcDbEntity
  8
GEOMETRIE
100
AcDbSpline
210
0.0
220
0.0
230
1.0
 70
     8
 71
     3
 72
   108
 73
   104
 74
     0
 42
0.000000001
 43
0.00000001
 40
0.0
 40
0.0
 40
0.0
 40
0.0
 40
0.03125
 40
0.03125
 40
0.046875
 40
0.046875
 40
0.0546875
 40
0.0546875
 40
0.05859375
 40
0.05859375
 40
0.0625
 40
0.0625
 40
0.078125
 40
0.078125
 40
0.08203125
 40
0.08203125
 40
0.0859375
 40
0.0859375
 40
0.09375
 40
0.09375
 40
0.1015625
 40
0.1015625
 40
0.10546875
 40
0.10546875
 40
0.109375
 40
0.109375
 40
0.125
 40
0.125
 40
0.140625
 40
0.140625
 40
0.15625
 40
0.15625
 40
0.1875
 40
0.1875
 40
0.203125
 40
0.203125
 40
0.21875
 40
0.21875
 40
0.25
 40
0.25
 40
0.265625
 40
0.265625
 40
0.28125
 40
0.28125
 40
0.3125
 40
0.3125
 40
0.34375
 40
0.34375
 40
0.375
 40
0.375
 40
0.4375
 40
0.4375
 40
0.5
 40
0.5
 40
0.53125
 40
0.53125
 40
0.5625
 40
0.5625
 40
0.59375
 40
0.59375
 40
0.625
 40
0.625
 40
0.65625
 40
0.65625
 40
0.6875
 40
0.6875
 40
0.75
 40
0.75
 40
0.765625
 40
0.765625
 40
0.78125
 40
0.78125
 40
0.8125
 40
0.8125
 40
0.828125
 40
0.828125
 40
0.84375
 40
0.84375
 40
0.875
 40
0.875
 40
0.8828125
 40
0.8828125
 40
0.890625
 40
0.890625
 40
0.90625
 40
0.90625
 40
0.921875
 40
0.921875
 40
0.92578125
 40
0.92578125
 40
0.9296875
 40
0.9296875
 40
0.9375
 40
0.9375
 40
0.953125
 40
0.953125
 40
0.9609375
 40
0.9609375
 40
0.96484375
 40
0.96484375
 40
0.96875
 40
0.96875
 40
1.0
 40
1.0
 40
1.0
 40
1.0
 10
-1671.183095497206
 20
-694.3452756493754
 30
0.0
 10
-1666.155006003843
 20
-693.1101562846686
 30
0.0
 10
-1660.807634065819
 20
-691.7702136452141
 30
0.0
 10
-1652.307652491788
 20
-689.6030647739096
 30
0.0
 10
-1649.394504689278
 20
-688.854475998121
 30
0.0
 10
-1644.905052068766
 20
-687.6922841064076
 30
0.0
 10
-1643.388612709137
 20
-687.2983353544979
 30
0.0
 10
-1641.084020940507
 20
-686.697585044626
 30
0.0
 10
-1640.310834896099
 20
-686.4956970776675
 30
0.0
 10
-1638.754485230887
 20
-686.0886454164142
 30
0.0
 10
-1637.978849170922
 20
-685.885454011595
 30
0.0
 10
-1633.974300162656
 20
-684.834733456652
 30
0.0
 10
-1630.31740332493
 20
-683.8701072947755
 30
0.0
 10
-1625.179710238881
 20
-682.509262445027
 30
0.0
 10
-1624.123843019727
 20
-682.2293403677072
 30
0.0
 10
-1621.95545137753
 20
-681.6539899983271
 30
0.0
 10
-1620.834430926091
 20
-681.3562514577858
 30
0.0
 10
-1617.486537603889
 20
-680.467010445161
 30
0.0
 10
-1615.254658264382
 20
-679.8739967117632
 30
0.0
 10
-1610.790998669293
 20
-678.6875964616709
 30
0.0
 10
-1608.559218413712
 20
-678.0942099449763
 30
0.0
 10
-1605.211622343281
 20
-677.2038505824626
 30
0.0
 10
-1604.092091639686
 20
-676.9059090160673
 30
0.0
 10
-1601.885428080233
 20
-676.3196903359751
 30
0.0
 10
-1600.795397293349
 20
-676.0305397497748
 30
0.0
 10
-1595.411748323137
 20
-674.6045805880018
 30
0.0
 10
-1591.317645032443
 20
-673.5271533201151
 30
0.0
 10
-1583.555070222005
 20
-671.4989789074052
 30
0.0
 10
-1579.886598702261
 20
-670.5482317625822
 30
0.0
 10
-1572.975287433723
 20
-668.7734175959998
 30
0.0
 10
-1569.769441908527
 20
-667.9587075088081
 30
0.0
 10
-1560.274663473122
 20
-665.5741642833159
 30
0.0
 10
-1554.238450787444
 20
-664.0967894404811
 30
0.0
 10
-1545.624591165815
 20
-662.0492081374683
 30
0.0
 10
-1542.82671452642
 20
-661.3947611966707
 30
0.0
 10
-1537.377781049925
 20
-660.1420276354886
 30
0.0
 10
-1534.722348729144
 20
-659.54272293977
 30
0.0
 10
-1526.810653443814
 20
-657.7905114662019
 30
0.0
 10
-1521.663303526342
 20
-656.6959443199789
 30
0.0
 10
-1514.132949059255
 20
-655.1644543548778
 30
0.0
 10
-1511.654609305079
 20
-654.6723511588832
 30
0.0
 10
-1506.761486599768
 20
-653.7249316849716
 30
0.0
 10
-1504.351799258362
 20
-653.2705896166744
 30
0.0
 10
-1497.175179539105
 20
-651.9545432638149
 30
0.0
 10
-1492.456017818579
 20
-651.1389256773127
 30
0.0
 10
-1483.148197228816
 20
-649.6311838017833
 30
0.0
 10
-1478.559538359579
 20
-648.9390595127561
 30
0.0
 10
-1469.512723472395
 20
-647.6783042321766
 30
0.0
 10
-1465.051543346323
 20
-647.1092609947739
 30
0.0
 10
-1451.733057650508
 20
-645.5695542846448
 30
0.0
 10
-1442.993444151172
 20
-644.7728578622956
 30
0.0
 10
-1425.733379320845
 20
-643.6348010465535
 30
0.0
 10
-1417.142825461176
 20
-643.288484087897
 30
0.0
 10
-1404.316212504913
 20
-643.1030758237343
 30
0.0
 10
-1400.05642205952
 20
-643.0969469982508
 30
0.0
 10
-1391.509463057005
 20
-643.1960766012284
 30
0.0
 10
-1387.225989127787
 20
-643.3013325573714
 30
0.0
 10
-1378.639052413426
 20
-643.6232267789665
 30
0.0
 10
-1374.335589628284
 20
-643.8398650444184
 30
0.0
 10
-1365.708675202074
 20
-644.3845238846309
 30
0.0
 10
-1361.379629724589
 20
-644.712945836736
 30
0.0
 10
-1352.642901798652
 20
-645.4853802578116
 30
0.0
 10
-1348.241971069294
 20
-645.9289082673017
 30
0.0
 10
-1339.374976077803
 20
-646.9305858841872
 30
0.0
 10
-1334.917577368066
 20
-647.4875485634382
 30
0.0
 10
-1321.386002826192
 20
-649.3388171021566
 30
0.0
 10
-1312.103225794229
 20
-650.8202455499671
 30
0.0
 10
-1300.172595332547
 20
-652.9810928872284
 30
0.0
 10
-1297.774192460207
 20
-653.4279337329707
 30
0.0
 10
-1292.906383631555
 20
-654.3598551415088
 30
0.0
 10
-1290.440625991946
 20
-654.8442369042579
 30
0.0
 10
-1282.947793397268
 20
-656.352645367946
 30
0.0
 10
-1277.82515876635
 20
-657.4319352443256
 30
0.0
 10
-1269.950087468272
 20
-659.1613964097762
 30
0.0
 10
-1267.298446498174
 20
-659.7550856145424
 30
0.0
 10
-1261.909282559508
 20
-660.9844684524195
 30
0.0
 10
-1259.141137209755
 20
-661.6272907602176
 30
0.0
 10
-1250.616011019243
 20
-663.64015035019
 30
0.0
 10
-1244.638340037224
 20
-665.0945802989424
 30
0.0
 10
-1236.798434407607
 20
-667.05327217918
 30
0.0
 10
-1235.212062436579
 20
-667.4520432774424
 30
0.0
 10
-1232.002536804313
 20
-668.2636509183968
 30
0.0
 10
-1230.386416326868
 20
-668.6746657512989
 30
0.0
 10
-1225.218734973753
 20
-669.9972269156183
 30
0.0
 10
-1221.433897473336
 20
-670.9760032897819
 30
0.0
 10
-1213.184789275823
 20
-673.1276939006774
 30
0.0
 10
-1208.720518578726
 20
-674.3006081374094
 30
0.0
 10
-1202.715534459431
 20
-675.8880870974297
 30
0.0
 10
-1201.493305348176
 20
-676.211649697639
 30
0.0
 10
-1199.006382550873
 20
-676.870908514468
 30
0.0
 10
-1197.736613442965
 20
-677.2080291435291
 30
0.0
 10
-1193.944003008097
 20
-678.2150290236061
 30
0.0
 10
-1191.415702893678
 20
-678.88676423754
 30
0.0
 10
-1183.831123076902
 20
-680.9031757609887
 30
0.0
 10
-1178.7814942159
 20
-682.2497799578629
 30
0.0
 10
-1171.15145328642
 20
-684.2656836979261
 30
0.0
 10
-1168.600880733674
 20
-684.9372172709378
 30
0.0
 10
-1164.764183540174
 20
-685.943866119941
 30
0.0
 10
-1163.487103648676
 20
-686.2782955526196
 30
0.0
 10
-1160.971746779855
 20
-686.9351025022199
 30
0.0
 10
-1159.728514252392
 20
-687.2588627069665
 30
0.0
 10
-1148.669434667745
 20
-690.1309151192045
 30
0.0
 10
-1139.763679748223
 20
-692.3866813133267
 30
0.0
 10
-1131.78246287331
 20
-694.3452782240264
 30
0.0
  0
SPLINE
  5
84
330
1F
100
AcDbEntity
  8
GEOMETRIE
100
AcDbSpline
210
0.0
220
0.0
230
1.0
 70
     8
 71
     3
 72
    32
 73
    28
 74
     0
 42
0.000000001
 43
0.00000001
 40
0.0
 40
0.0
 40
0.0
 40
0.0
 40
0.014115902779346
 40
0.0281746324538095
 40
0.0421763856157546
 40
0.0561213612672624
 40
0.0700097608510481
 40
0.0838417882816656
 40
0.09761764997698
 40
0.1113375548899224
 40
0.1250017145405093
 40
0.1873734693047791
 40
0.2500021995540571
 40
0.3740075620112662
 40
0.4999950066845205
 40
0.5612369147931765
 40
0.6233091223122548
 40
0.6862248552318886
 40
0.7499968147153352
 40
0.77988607689288
 40
0.8101620064508781
 40
0.8408257703671279
 40
0.8718784918943993
 40
0.9033212526004368
 40
0.9351550942977879
 40
0.9673810208699594
 40
1.0
 40
1.0
 40
1.0
 40
1.0
 10
-1870.983261085345
 20
-720.4992891810753
 30
0.0
 10
-1870.032784383828
 20
-720.4975597822938
 30
0.0
 10
-1868.135680660476
 20
-720.4941079892491
 30
0.0
 10
-1865.295835513366
 20
-720.4755590564658
 30
0.0
 10
-1862.467585757119
 20
-720.447213246035
 30
0.0
 10
-1859.650932074996
 20
-720.4081215819153
 30
0.0
 10
-1856.845874337046
 20
-720.3585362133464
 30
0.0
 10
-1854.052412359674
 20
-720.2983921293908
 30
0.0
 10
-1851.270546975813
 20
-720.227698678218
 30
0.0
 10
-1848.500275029955
 20
-720.1464828943167
 30
0.0
 10
-1842.460018064207
 20
-719.9453614961038
 30
0.0
 10
-1833.131687133988
 20
-719.5345095923517
 30
0.0
 10
-1816.395963425416
 20
-718.5078204527056
 30
0.0
 10
-1795.421139826526
 20
-716.6816137032986
 30
0.0
 10
-1774.61040377789
 20
-714.1809143612622
 30
0.0
 10
-1757.994708699761
 20
-711.7894004733473
 30
0.0
 10
-1745.61036804224
 20
-709.8194823606783
 30
0.0
 10
-1733.087910611436
 20
-707.6422154909292
 30
0.0
 10
-1722.72674105704
 20
-705.691033583228
 30
0.0
 10
-1714.541578397084
 20
-704.0645372538236
 30
0.0
 10
-1708.550610382326
 20
-702.8346881355906
 30
0.0
 10
-1702.490642800281
 20
-701.5519806254289
 30
0.0
 10
-1696.361695206413
 20
-700.2163055613047
 30
0.0
 10
-1690.163715057809
 20
-698.8278843095011
 30
0.0
 10
-1683.896894556666
 20
-697.3859272852892
 30
0.0
 10
-1677.560503592392
 20
-695.8934210752557
 30
0.0
 10
-1673.317471137154
 20
-694.8634052460355
 30
0.0
 10
-1671.183095497206
 20
-694.3452756493754
 30
0.0
  0
SPLINE
  5
86
330
1F
100
AcDbEntity
  8
GEOMETRIE
100
AcDbSpline
210
0.0
220
0.0
230
1.0
 70
     8
 71
     3
 72
    28
 73
    24
 74
     0
 42
0.000000001
 43
0.00000001
 40
0.0
 40
0.0
 40
0.0
 40
0.0
 40
0.0162052541721379
 40
0.0322445832762916
 40
0.048118105190716
 40
0.0638259415265269
 40
0.0793682177840798
 40
0.09474506351746
 40
0.1099566125075791
 40
0.1250030029444243
 40
0.1880638823556636
 40
0.2500052627585023
 40
0.3766686395352097
 40
0.5000019325068618
 40
0.6259814031238138
 40
0.7499959034123732
 40
0.81263293189759
 40
0.8749973626007761
 40
0.8996404656833564
 40
0.9244609550084231
 40
0.9494601707407835
 40
0.9746394245071444
 40
1.0
 40
1.0
 40
1.0
 40
1.0
 10
-1671.183095497206
 20
-650.0367408729372
 30
0.0
 10
-1672.241248197572
 20
-650.3080217695673
 30
0.0
 10
-1674.346719207378
 20
-650.8478059265898
 30
0.0
 10
-1677.491393028078
 20
-651.642683830246
 30
0.0
 10
-1680.605553795099
 20
-652.4213996200514
 30
0.0
 10
-1683.689391925919
 20
-653.1832128686253
 30
0.0
 10
-1686.742856866056
 20
-653.9283208990364
 30
0.0
 10
-1689.765963248595
 20
-654.65666447278
 30
0.0
 10
-1692.758702556559
 20
-655.3682858171057
 30
0.0
 10
-1698.883006839741
 20
-656.8046618126808
 30
0.0
 10
-1708.091054187864
 20
-658.8880639411506
 30
0.0
 10
-1724.685279892765
 20
-662.4144984469032
 30
0.0
 10
-1745.343883373866
 20
-666.3525205318806
 30
0.0
 10
-1770.375765520236
 20
-670.3434727008802
 30
0.0
 10
-1795.348139744009
 20
-673.4929588491788
 30
0.0
 10
-1816.339456493092
 20
-675.4103116890697
 30
0.0
 10
-1833.091372013424
 20
-676.4881545970067
 30
0.0
 10
-1843.168599586801
 20
-676.9537485525608
 30
0.0
 10
-1850.702656601991
 20
-677.2041007454255
 30
0.0
 10
-1855.720471280462
 20
-677.3335731207351
 30
0.0
 10
-1860.775223676974
 20
-677.4265082198674
 30
0.0
 10
-1865.866920767819
 20
-677.4860152777096
 30
0.0
 10
-1869.273740098025
 20
-677.4953270397415
 30
0.0
 10
-1870.983261085345
 20
-677.4999996246602
 30
0.0
  0
SPLINE
  5
87
330
1F
100
AcDbEntity
  8
GEOMETRIE
100
AcDbSpline
210
0.0
220
0.0
230
1.0
 70
     8
 71
     3
 72
   108
 73
   104
 74
     0
 42
0.000000001
 43
0.00000001
 40
0.0
 40
0.0
 40
0.0
 40
0.0
 40
0.03125
 40
0.03125
 40
0.046875
 40
0.046875
 40
0.0546875
 40
0.0546875
 40
0.05859375
 40
0.05859375
 40
0.0625
 40
0.0625
 40
0.078125
 40
0.078125
 40
0.0859375
 40
0.0859375
 40
0.09375
 40
0.09375
 40
0.1015625
 40
0.1015625
 40
0.109375
 40
0.109375
 40
0.125
 40
0.125
 40
0.140625
 40
0.140625
 40
0.1484375
 40
0.1484375
 40
0.15625
 40
0.15625
 40
0.1875
 40
0.1875
 40
0.203125
 40
0.203125
 40
0.21875
 40
0.21875
 40
0.25
 40
0.25
 40
0.265625
 40
0.265625
 40
0.28125
 40
0.28125
 40
0.3125
 40
0.3125
 40
0.34375
 40
0.34375
 40
0.375
 40
0.375
 40
0.40625
 40
0.40625
 40
0.4375
 40
0.4375
 40
0.5
 40
0.5
 40
0.53125
 40
0.53125
 40
0.5625
 40
0.5625
 40
0.59375
 40
0.59375
 40
0.625
 40
0.625
 40
0.65625
 40
0.65625
 40
0.6875
 40
0.6875
 40
0.75
 40
0.75
 40
0.765625
 40
0.765625
 40
0.78125
 40
0.78125
 40
0.8125
 40
0.8125
 40
0.828125
 40
0.828125
 40
0.84375
 40
0.84375
 40
0.875
 40
0.875
 40
0.8828125
 40
0.8828125
 40
0.88671875
 40
0.88671875
 40
0.890625
 40
0.890625
 40
0.90625
 40
0.90625
 40
0.921875
 40
0.921875
 40
0.9296875
 40
0.9296875
 40
0.9375
 40
0.9375
 40
0.953125
 40
0.953125
 40
0.9609375
 40
0.9609375
 40
0.96484375
 40
0.96484375
 40
0.96875
 40
0.96875
 40
1.0
 40
1.0
 40
1.0
 40
1.0
 10
-1131.78246287331
 20
-650.0367435702452
 30
0.0
 10
-1136.996435700456
 20
-648.6949381133327
 30
0.0
 10
-1142.54266510127
 20
-647.2377426471037
 30
0.0
 10
-1151.360394062992
 20
-644.8788644337858
 30
0.0
 10
-1154.382701193649
 20
-644.0637241936842
 30
0.0
 10
-1159.040758104761
 20
-642.797742580038
 30
0.0
 10
-1160.614209777652
 20
-642.3685368332403
 30
0.0
 10
-1163.005536340771
 20
-641.7139103996706
 30
0.0
 10
-1163.807836704107
 20
-641.4938986195849
 30
0.0
 10
-1165.422820448707
 20
-641.0502691216228
 30
0.0
 10
-1166.242531023508
 20
-640.8247220129027
 30
0.0
 10
-1170.511768416918
 20
-639.6482352922425
 30
0.0
 10
-1174.371348153435
 20
-638.5790475114816
 30
0.0
 10
-1180.827002490893
 20
-636.7832682339911
 30
0.0
 10
-1183.113012514747
 20
-636.146087687476
 30
0.0
 10
-1187.621833447933
 20
-634.8891682560568
 30
0.0
 10
-1189.876166486329
 20
-634.2604309723473
 30
0.0
 10
-1194.384677706726
 20
-633.002401268928
 30
0.0
 10
-1196.646802359237
 20
-632.3706007036386
 30
0.0
 10
-1201.136895781109
 20
-631.1171761858095
 30
0.0
 10
-1203.32635467774
 20
-630.5077071096931
 30
0.0
 10
-1209.727967924721
 20
-628.7310294297376
 30
0.0
 10
-1213.773358832155
 20
-627.615550374293
 30
0.0
 10
-1221.419438132589
 20
-625.522537725788
 30
0.0
 10
-1225.020126525588
 20
-624.5450041327274
 30
0.0
 10
-1230.087632229258
 20
-623.182162839925
 30
0.0
 10
-1231.708938712542
 20
-622.7483927517851
 30
0.0
 10
-1234.917098843312
 20
-621.8949169010696
 30
0.0
 10
-1236.502542440192
 20
-621.475586465158
 30
0.0
 10
-1244.336578082085
 20
-619.4159717328303
 30
0.0
 10
-1250.305623099551
 20
-617.8867997781056
 30
0.0
 10
-1258.811915381679
 20
-615.770821592725
 30
0.0
 10
-1261.572800268377
 20
-615.0951254887158
 30
0.0
 10
-1266.945478293748
 20
-613.8029931962662
 30
0.0
 10
-1269.584588686529
 20
-613.1798664140733
 30
0.0
 10
-1277.426834240933
 20
-611.3629923033658
 30
0.0
 10
-1282.526860997489
 20
-610.2286146034935
 30
0.0
 10
-1289.984695712757
 20
-608.6423556145841
 30
0.0
 10
-1292.438606381252
 20
-608.1328205450972
 30
0.0
 10
-1297.282359245051
 20
-607.1521862597568
 30
0.0
 10
-1299.667799321101
 20
-606.6819746668002
 30
0.0
 10
-1306.784782626949
 20
-605.3175476784343
 30
0.0
 10
-1311.463812976755
 20
-604.4721968124901
 30
0.0
 10
-1320.690623301516
 20
-602.9100293332016
 30
0.0
 10
-1325.238403276471
 20
-602.1932127198571
 30
0.0
 10
-1334.202712851529
 20
-600.8881137457681
 30
0.0
 10
-1338.627620597911
 20
-600.2986267292589
 30
0.0
 10
-1347.432003856579
 20
-599.2358475464819
 30
0.0
 10
-1351.801634439007
 20
-598.7639709381557
 30
0.0
 10
-1360.475773510052
 20
-597.9392436876284
 30
0.0
 10
-1364.774806525527
 20
-597.5868011969992
 30
0.0
 10
-1377.612194721995
 20
-596.7051821517553
 30
0.0
 10
-1386.130887900707
 20
-596.3487287109699
 30
0.0
 10
-1398.849579240373
 20
-596.1609874338577
 30
0.0
 10
-1403.073541161918
 20
-596.1562242117183
 30
0.0
 10
-1411.549758503721
 20
-596.2623941028086
 30
0.0
 10
-1415.797942760807
 20
-596.3733229785295
 30
0.0
 10
-1424.31446244735
 20
-596.7108685903235
 30
0.0
 10
-1428.582797876807
 20
-596.9374853263962
 30
0.0
 10
-1437.13961990809
 20
-597.5064066588935
 30
0.0
 10
-1441.432921177516
 20
-597.8490780034165
 30
0.0
 10
-1450.098967790042
 20
-598.6546250761984
 30
0.0
 10
-1454.464744179174
 20
-599.1169699577141
 30
0.0
 10
-1463.261803123173
 20
-600.1608024109947
 30
0.0
 10
-1467.685618167492
 20
-600.7412085039969
 30
0.0
 10
-1481.106273381927
 20
-602.6685197491921
 30
0.0
 10
-1490.317001630318
 20
-604.2108848285578
 30
0.0
 10
-1502.159942905931
 20
-606.4607048226424
 30
0.0
 10
-1504.539870886418
 20
-606.925723290915
 30
0.0
 10
-1509.366543943713
 20
-607.8947942038676
 30
0.0
 10
-1511.812028258384
 20
-608.3985917108593
 30
0.0
 10
-1519.244924560468
 20
-609.9677703833801
 30
0.0
 10
-1524.328779905952
 20
-611.0909377004549
 30
0.0
 10
-1532.147449640319
 20
-612.8912609791591
 30
0.0
 10
-1534.785820671132
 20
-613.5106307892426
 30
0.0
 10
-1540.126858304805
 20
-614.7878945104399
 30
0.0
 10
-1542.862516045578
 20
-615.4538749346385
 30
0.0
 10
-1551.307801971026
 20
-617.5443761916248
 30
0.0
 10
-1557.237279652862
 20
-619.0569314614555
 30
0.0
 10
-1565.023235586242
 20
-621.0962352552106
 30
0.0
 10
-1566.599132214474
 20
-621.5115264992847
 30
0.0
 10
-1568.991035319151
 20
-622.1456090933813
 30
0.0
 10
-1569.793012714432
 20
-622.3588275794109
 30
0.0
 10
-1571.406320225771
 20
-622.7889797941318
 30
0.0
 10
-1572.218399043821
 20
-623.0061174106276
 30
0.0
 10
-1576.420439536512
 20
-624.1332996176221
 30
0.0
 10
-1580.140996196104
 20
-625.1421346020064
 30
0.0
 10
-1588.299958046166
 20
-627.3739830083531
 30
0.0
 10
-1592.738363236636
 20
-628.5969964303154
 30
0.0
 10
-1599.9343574205
 20
-630.5921503914419
 30
0.0
 10
-1602.430878119659
 20
-631.2863659734486
 30
0.0
 10
-1607.569598611402
 20
-632.7183960826749
 30
0.0
 10
-1610.138867176468
 20
-633.4347397916254
 30
0.0
 10
-1617.846397829246
 20
-635.5847568814886
 30
0.0
 10
-1622.975321977565
 20
-637.0204308085083
 30
0.0
 10
-1630.722954910782
 20
-639.1697791735043
 30
0.0
 10
-1633.313093879521
 20
-639.8856968042207
 30
0.0
 10
-1637.209694319126
 20
-640.9587755138718
 30
0.0
 10
-1638.51438374648
 20
-641.3174907785624
 30
0.0
 10
-1641.088176334868
 20
-642.0230597940495
 30
0.0
 10
-1642.361227425412
 20
-642.3710759226884
 30
0.0
 10
-1653.694080407476
 20
-645.4603056684957
 30
0.0
 10
-1662.881634469108
 20
-647.9011114020672
 30
0.0
 10
-1671.183095497206
 20
-650.0367408729373
 30
0.0
  0
SPLINE
  5
88
330
1F
100
AcDbEntity
  8
GEOMETRIE
100
AcDbSpline
210
0.0
220
0.0
230
1.0
 70
     8
 71
     3
 72
    29
 73
    25
 74
     0
 42
0.000000001
 43
0.00000001
 40
0.0
 40
0.0
 40
0.0
 40
0.0
 40
0.0127105995679107
 40
0.0253740337924435
 40
0.0379904601115848
 40
0.0505600377296904
 40
0.0630829276378869
 40
0.0755592926346325
 40
0.0879892973464259
 40
0.1003731082486635
 40
0.1127108936866395
 40
0.1250028238966864
 40
0.1873603237192372
 40
0.2500042750387146
 40
0.3740148049666489
 40
0.4999982062545772
 40
0.6233271046589155
 40
0.7499948903767917
 40
0.8119373682717042
 40
0.8749971424304488
 40
0.9052041840575947
 40
0.9361063181138534
 40
0.9677045957137519
 40
1.0
 40
1.0
 40
1.0
 40
1.0
 10
-931.9873165298808
 20
-677.4999994430648
 30
0.0
 10
-932.84409831546
 20
-677.4984928930019
 30
0.0
 10
-934.5544826182527
 20
-677.4954853832454
 30
0.0
 10
-937.1152608513761
 20
-677.4795987357303
 30
0.0
 10
-939.6664637210689
 20
-677.455378434047
 30
0.0
 10
-942.2080906261998
 20
-677.4220161842161
 30
0.0
 10
-944.7401417445599
 20
-677.379727492497
 30
0.0
 10
-947.2626169799399
 20
-677.328454438341
 30
0.0
 10
-949.7755165557862
 20
-677.2682142851212
 30
0.0
 10
-952.2788396950101
 20
-677.198995625085
 30
0.0
 10
-954.7725892842939
 20
-677.120826747005
 30
0.0
 10
-960.6325210550638
 20
-676.9150814476149
 30
0.0
 10
-969.8777994476395
 20
-676.4880232252308
 30
0.0
 10
-986.6290149182187
 20
-675.4100445726108
 30
0.0
 10
-1007.620272837304
 20
-673.4926663322891
 30
0.0
 10
-1032.591719784046
 20
-670.3431933389336
 30
0.0
 10
-1057.623235771996
 20
-666.3522393173951
 30
0.0
 10
-1078.281394735313
 20
-662.4142768885757
 30
0.0
 10
-1094.875502125335
 20
-658.8878535828989
 30
0.0
 10
-1105.080107252863
 20
-656.5791046312843
 30
0.0
 10
-1113.2258920328
 20
-654.6552604673984
 30
0.0
 10
-1119.298844031274
 20
-653.1817639001354
 30
0.0
 10
-1125.500511073794
 20
-651.6420678284453
 30
0.0
 10
-1129.673302872471
 20
-650.5757298314957
 30
0.0
 10
-1131.78246287331
 20
-650.0367435702461
 30
0.0
  0
LWPOLYLINE
  5
89
330
1F
100
AcDbEntity
  8
0
  6
HIDDEN
 62
     7
370
     0
100
AcDbPolyline
 90
        2
 70
   128
 43
0.0
 10
-1131.7824628733
 20
-694.345278224
 10
-1131.7824628733
 20
-694.345278224
  0
LWPOLYLINE
  5
8A
330
1F
100
AcDbEntity
  8
0
  6
HIDDEN
 62
     7
370
     0
100
AcDbPolyline
 90
        2
 70
   128
 43
0.0
 10
-1131.7824628733
 20
-650.0367435702
 10
-1131.7824628733
 20
-650.0367435702
  0
LWPOLYLINE
  5
8B
330
1F
100
AcDbEntity
  8
0
  6
HIDDEN
 62
     7
370
     0
100
AcDbPolyline
 90
        2
 70
   128
 43
0.0
 10
-732.1097565001
 20
-694.345278224
 10
-732.1097565001
 20
-694.345278224
  0
LWPOLYLINE
  5
8C
330
1F
100
AcDbEntity
  8
0
  6
HIDDEN
 62
     7
370
     0
100
AcDbPolyline
 90
        2
 70
   128
 43
0.0
 10
-732.1097565001
 20
-650.0367435702
 10
-732.1097565001
 20
-650.0367435702
  0
LWPOLYLINE
  5
8D
330
1F
100
AcDbEntity
  8
0
  6
HIDDEN
 62
     7
370
     0
100
AcDbPolyline
 90
        2
 70
   128
 43
0.0
 10
-1671.1830954972
 20
-694.3452756494
 10
-1671.1830954972
 20
-694.3452756494
  0
LWPOLYLINE
  5
8E
330
1F
100
AcDbEntity
  8
0
  6
HIDDEN
 62
     7
370
     0
100
AcDbPolyline
 90
        2
 70
   128
 43
0.0
 10
-1671.1830954972
 20
-650.0367408729
 10
-1671.1830954972
 20
-650.0367408729
  0
LWPOLYLINE
  5
8F
330
1F
100
AcDbEntity
  8
0
  6
HIDDEN
 62
     7
370
     0
100
AcDbPolyline
 90
        2
 70
   128
 43
0.0
 10
-192.7091238762
 20
-650.0367408729
 10
-192.7091238762
 20
-650.0367408729
  0
LWPOLYLINE
  5
90
330
1F
100
AcDbEntity
  8
0
  6
HIDDEN
 62
     7
370
     0
100
AcDbPolyline
 90
        2
 70
   128
 43
0.0
 10
-192.7091238762
 20
-694.3452756494
 10
-192.7091238762
 20
-694.3452756494
  0
LINE
  5
91
330
1F
100
AcDbEntity
  8
GEOMETRIE
100
AcDbLine
 10
-931.9049028435
 20
-677.4999977723
 30
0.0
 11
-931.9873165299
 21
-677.4999977723
 31
0.0
  0
LINE
  5
92
330
1F
100
AcDbEntity
  8
GEOMETRIE
100
AcDbLine
 10
7.0910417119
 20
-720.4992891811
 30
0.0
 11
7.0910417119
 21
-677.4999996247
 31
0.0
  0
LINE
  5
93
330
1F
100
AcDbEntity
  8
GEOMETRIE
100
AcDbLine
 10
-931.9873165299
 20
-720.4992903923
 30
0.0
 11
-931.9049028435
 21
-720.4992903923
 31
0.0
  0
LINE
  5
94
330
1F
100
AcDbEntity
  8
GEOMETRIE
100
AcDbLine
 10
-1870.9832610853
 20
-677.4999996247
 30
0.0
 11
-1870.9832610853
 21
-720.4992891811
 31
0.0
  0
LINE
  5
9C
330
1F
100
AcDbEntity
  8
KANTLINIE
100
AcDbLine
 10
-92.8090410821
 20
-670.3055058082
 30
0.0
 11
-92.8090410821
 21
-713.6349043158
 31
0.0
  0
LINE
  5
9D
330
1F
100
AcDbEntity
  8
KANTLINIE
100
AcDbLine
 10
-462.4094401881
 20
-596.1727707204
 30
0.0
 11
-462.4094401881
 21
-643.1134272536
 31
0.0
  0
LINE
  5
9E
330
1F
100
AcDbEntity
  8
KANTLINIE
100
AcDbLine
 10
-832.0073296718
 20
-670.3051581365
 30
0.0
 11
-832.0073296718
 21
-713.6345707465
 31
0.0
  0
LINE
  5
9F
330
1F
100
AcDbEntity
  8
KANTLINIE
100
AcDbLine
 10
-1031.8848897016
 20
-670.3051566055
 30
0.0
 11
-1031.8848897016
 21
-713.6345733783
 31
0.0
  0
LINE
  5
A0
330
1F
100
AcDbEntity
  8
KANTLINIE
100
AcDbLine
 10
-1401.4827791853
 20
-596.1727707204
 30
0.0
 11
-1401.4827791853
 21
-643.1134272454
 31
0.0
  0
LINE
  5
A1
330
1F
100
AcDbEntity
  8
KANTLINIE
100
AcDbLine
 10
-1771.0831782913
 20
-713.6349033569
 30
0.0
 11
-1771.0831782913
 21
-670.305507338
 31
0.0
  0
LINE
  5
A2
330
1F
100
AcDbEntity
  8
KANTLINIE
100
AcDbLine
 10
-931.9461096867
 20
-677.4999977723
 30
0.0
 11
-931.9461096867
 21
-720.4992903923
 31
0.0
  0
ENDSEC
  0
SECTION
  2
OBJECTS
  0
DICTIONARY
  5
C
330
0
100
AcDbDictionary
281
     1
  3
ACAD_GROUP
350
D
  3
ACAD_LAYOUT
350
1A
  3
ACAD_MLINESTYLE
350
17
  3
ACAD_PLOTSETTINGS
350
19
  3
ACAD_PLOTSTYLENAME
350
E
  3
ACAD_SCALELIST
350
47
  0
DICTIONARY
  5
D
102
{ACAD_REACTORS
330
C
102
}
330
C
100
AcDbDictionary
281
     1
  0
DICTIONARY
  5
1A
102
{ACAD_REACTORS
330
C
102
}
330
C
100
AcDbDictionary
281
     1
  3
Layout1
350
1E
  3
Layout2
350
26
  3
Model
350
22
  0
DICTIONARY
  5
17
102
{ACAD_REACTORS
330
C
102
}
330
C
100
AcDbDictionary
281
     1
  3
Standard
350
18
  0
DICTIONARY
  5
19
102
{ACAD_REACTORS
330
C
102
}
330
C
100
AcDbDictionary
281
     1
  0
ACDBDICTIONARYWDFLT
  5
E
102
{ACAD_REACTORS
330
C
102
}
330
C
100
AcDbDictionary
281
     1
  3
Normal
350
F
100
AcDbDictionaryWithDefault
340
F
  0
DICTIONARY
  5
47
102
{ACAD_REACTORS
330
C
102
}
330
C
100
AcDbDictionary
281
     1
  3
A0
350
48
  3
A1
350
49
  3
A2
350
4A
  3
A3
350
4B
  3
A4
350
4C
  3
A5
350
4D
  3
A6
350
4E
  3
A7
350
4F
  3
A8
350
50
  3
A9
350
51
  3
B0
350
52
  3
B1
350
53
  3
B2
350
54
  3
B3
350
55
  3
B4
350
56
  3
B5
350
57
  3
B6
350
58
  3
B7
350
59
  3
B8
350
5A
  3
B9
350
5B
  3
C0
350
5C
  3
C1
350
5D
  3
C2
350
5E
  3
C3
350
5F
  3
C4
350
60
  3
C5
350
61
  3
C6
350
62
  3
C7
350
63
  3
C8
350
64
  3
C9
350
65
  3
D0
350
66
  3
D1
350
67
  3
D2
350
68
  0
LAYOUT
  5
1E
102
{ACAD_REACTORS
330
1A
102
}
330
1A
100
AcDbPlotSettings
  1

  2
none_device
  4

  6

 40
0.0
 41
0.0
 42
0.0
 43
0.0
 44
0.0
 45
0.0
 46
0.0
 47
0.0
 48
0.0
 49
0.0
140
0.0
141
0.0
142
1.0
143
1.0
 70
   688
 72
     1
 73
     0
 74
     5
  7

 75
    16
147
1.0
148
0.0
149
0.0
100
AcDbLayout
  1
Layout1
 70
     1
 71
     1
 10
0.0
 20
0.0
 11
420.0
 21
297.0
 12
0.0
 22
0.0
 32
0.0
 14
1.0000000000E+20
 24
1.0000000000E+20
 34
1.0000000000E+20
 15
-1.0000000000E+20
 25
-1.0000000000E+20
 35
-1.0000000000E+20
146
0.0
 13
0.0
 23
0.0
 33
0.0
 16
1.0
 26
0.0
 36
0.0
 17
0.0
 27
1.0
 37
0.0
 76
     0
330
1B
  0
LAYOUT
  5
26
102
{ACAD_REACTORS
330
1A
102
}
330
1A
100
AcDbPlotSettings
  1

  2
none_device
  4

  6

 40
0.0
 41
0.0
 42
0.0
 43
0.0
 44
0.0
 45
0.0
 46
0.0
 47
0.0
 48
0.0
 49
0.0
140
0.0
141
0.0
142
1.0
143
1.0
 70
   688
 72
     1
 73
     0
 74
     5
  7

 75
    16
147
1.0
148
0.0
149
0.0
100
AcDbLayout
  1
Layout2
 70
     1
 71
     2
 10
0.0
 20
0.0
 11
0.0
 21
0.0
 12
0.0
 22
0.0
 32
0.0
 14
0.0
 24
0.0
 34
0.0
 15
0.0
 25
0.0
 35
0.0
146
0.0
 13
0.0
 23
0.0
 33
0.0
 16
1.0
 26
0.0
 36
0.0
 17
0.0
 27
1.0
 37
0.0
 76
     0
330
23
  0
LAYOUT
  5
22
102
{ACAD_REACTORS
330
1A
102
}
330
1A
100
AcDbPlotSettings
  1

  2
none_device
  4
ANSI_A_(11.00_x_8.50_Inches)
  6

 40
6.35
 41
19.05
 42
6.35000508
 43
19.05000254
 44
279.4
 45
215.9
 46
270.6086166914
 47
185.8608568797
 48
0.0
 49
0.0
140
0.0
141
0.0
142
0.0057984926
143
1.0
 70
  1696
 72
     0
 73
     0
 74
     0
  7

 75
     0
147
0.0179189148
148
-1300.4909072572
149
0.0
100
AcDbLayout
  1
Model
 70
     1
 71
     0
 10
0.0
 20
0.0
 11
420.0
 21
297.0
 12
0.0
 22
0.0
 32
0.0
 14
-1870.9832610853
 24
-720.4992903923
 34
0.0
 15
7.0910417119
 25
-596.1727707204
 35
0.0
146
0.0
 13
0.0
 23
0.0
 33
0.0
 16
1.0
 26
0.0
 36
0.0
 17
0.0
 27
1.0
 37
0.0
 76
     0
330
1F
331
29
  0
MLINESTYLE
  5
18
102
{ACAD_REACTORS
330
17
102
}
330
17
100
AcDbMlineStyle
  2
Standard
 70
     0
  3

 62
   256
 51
90.0
 52
90.0
 71
     2
 49
0.5
 62
   256
  6
BYLAYER
 49
-0.5
 62
   256
  6
BYLAYER
  0
ACDBPLACEHOLDER
  5
F
102
{ACAD_REACTORS
330
E
102
}
330
E
  0
SCALE
  5
48
102
{ACAD_REACTORS
330
47
102
}
330
47
100
AcDbScale
 70
     0
300
1:1
140
1.0
141
1.0
290
     1
  0
SCALE
  5
49
102
{ACAD_REACTORS
330
47
102
}
330
47
100
AcDbScale
 70
     0
300
1:2
140
1.0
141
2.0
290
     0
  0
SCALE
  5
4A
102
{ACAD_REACTORS
330
47
102
}
330
47
100
AcDbScale
 70
     0
300
1:4
140
1.0
141
4.0
290
     0
  0
SCALE
  5
4B
102
{ACAD_REACTORS
330
47
102
}
330
47
100
AcDbScale
 70
     0
300
1:5
140
1.0
141
5.0
290
     0
  0
SCALE
  5
4C
102
{ACAD_REACTORS
330
47
102
}
330
47
100
AcDbScale
 70
     0
300
1:8
140
1.0
141
8.0
290
     0
  0
SCALE
  5
4D
102
{ACAD_REACTORS
330
47
102
}
330
47
100
AcDbScale
 70
     0
300
1:10
140
1.0
141
10.0
290
     0
  0
SCALE
  5
4E
102
{ACAD_REACTORS
330
47
102
}
330
47
100
AcDbScale
 70
     0
300
1:16
140
1.0
141
16.0
290
     0
  0
SCALE
  5
4F
102
{ACAD_REACTORS
330
47
102
}
330
47
100
AcDbScale
 70
     0
300
1:20
140
1.0
141
20.0
290
     0
  0
SCALE
  5
50
102
{ACAD_REACTORS
330
47
102
}
330
47
100
AcDbScale
 70
     0
300
1:30
140
1.0
141
30.0
290
     0
  0
SCALE
  5
51
102
{ACAD_REACTORS
330
47
102
}
330
47
100
AcDbScale
 70
     0
300
1:40
140
1.0
141
40.0
290
     0
  0
SCALE
  5
52
102
{ACAD_REACTORS
330
47
102
}
330
47
100
AcDbScale
 70
     0
300
1:50
140
1.0
141
50.0
290
     0
  0
SCALE
  5
53
102
{ACAD_REACTORS
330
47
102
}
330
47
100
AcDbScale
 70
     0
300
1:100
140
1.0
141
100.0
290
     0
  0
SCALE
  5
54
102
{ACAD_REACTORS
330
47
102
}
330
47
100
AcDbScale
 70
     0
300
2:1
140
2.0
141
1.0
290
     0
  0
SCALE
  5
55
102
{ACAD_REACTORS
330
47
102
}
330
47
100
AcDbScale
 70
     0
300
4:1
140
4.0
141
1.0
290
     0
  0
SCALE
  5
56
102
{ACAD_REACTORS
330
47
102
}
330
47
100
AcDbScale
 70
     0
300
8:1
140
8.0
141
1.0
290
     0
  0
SCALE
  5
57
102
{ACAD_REACTORS
330
47
102
}
330
47
100
AcDbScale
 70
     0
300
10:1
140
10.0
141
1.0
290
     0
  0
SCALE
  5
58
102
{ACAD_REACTORS
330
47
102
}
330
47
100
AcDbScale
 70
     0
300
100:1
140
100.0
141
1.0
290
     0
  0
SCALE
  5
59
102
{ACAD_REACTORS
330
47
102
}
330
47
100
AcDbScale
 70
     0
300
1/128" = 1'-0"
140
0.0078125
141
12.0
290
     0
  0
SCALE
  5
5A
102
{ACAD_REACTORS
330
47
102
}
330
47
100
AcDbScale
 70
     0
300
1/64" = 1'-0"
140
0.015625
141
12.0
290
     0
  0
SCALE
  5
5B
102
{ACAD_REACTORS
330
47
102
}
330
47
100
AcDbScale
 70
     0
300
1/32" = 1'-0"
140
0.03125
141
12.0
290
     0
  0
SCALE
  5
5C
102
{ACAD_REACTORS
330
47
102
}
330
47
100
AcDbScale
 70
     0
300
1/16" = 1'-0"
140
0.0625
141
12.0
290
     0
  0
SCALE
  5
5D
102
{ACAD_REACTORS
330
47
102
}
330
47
100
AcDbScale
 70
     0
300
3/32" = 1'-0"
140
0.09375
141
12.0
290
     0
  0
SCALE
  5
5E
102
{ACAD_REACTORS
330
47
102
}
330
47
100
AcDbScale
 70
     0
300
1/8" = 1'-0"
140
0.125
141
12.0
290
     0
  0
SCALE
  5
5F
102
{ACAD_REACTORS
330
47
102
}
330
47
100
AcDbScale
 70
     0
300
3/16" = 1'-0"
140
0.1875
141
12.0
290
     0
  0
SCALE
  5
60
102
{ACAD_REACTORS
330
47
102
}
330
47
100
AcDbScale
 70
     0
300
1/4" = 1'-0"
140
0.25
141
12.0
290
     0
  0
SCALE
  5
61
102
{ACAD_REACTORS
330
47
102
}
330
47
100
AcDbScale
 70
     0
300
3/8" = 1'-0"
140
0.375
141
12.0
290
     0
  0
SCALE
  5
62
102
{ACAD_REACTORS
330
47
102
}
330
47
100
AcDbScale
 70
     0
300
1/2" = 1'-0"
140
0.5
141
12.0
290
     0
  0
SCALE
  5
63
102
{ACAD_REACTORS
330
47
102
}
330
47
100
AcDbScale
 70
     0
300
3/4" = 1'-0"
140
0.75
141
12.0
290
     0
  0
SCALE
  5
64
102
{ACAD_REACTORS
330
47
102
}
330
47
100
AcDbScale
 70
     0
300
1" = 1'-0"
140
1.0
141
12.0
290
     0
  0
SCALE
  5
65
102
{ACAD_REACTORS
330
47
102
}
330
47
100
AcDbScale
 70
     0
300
1-1/2" = 1'-0"
140
1.5
141
12.0
290
     0
  0
SCALE
  5
66
102
{ACAD_REACTORS
330
47
102
}
330
47
100
AcDbScale
 70
     0
300
3" = 1'-0"
140
3.0
141
12.0
290
     0
  0
SCALE
  5
67
102
{ACAD_REACTORS
330
47
102
}
330
47
100
AcDbScale
 70
     0
300
6" = 1'-0"
140
6.0
141
12.0
290
     0
  0
SCALE
  5
68
102
{ACAD_REACTORS
330
47
102
}
330
47
100
AcDbScale
 70
     0
300
1'-0" = 1'-0"
140
12.0
141
12.0
290
     0
  0
ENDSEC
  0
EOF
