  0
SECTION
  2
HEADER
  9
$ACADVER
  1
AC1009
  9
$LIMMIN
 10
0.000000
 20
-0.000000
  9
$LIMMAX
 10
334.957912
 20
463.697599
  0
ENDSEC
  0
SECTION
  2
TABLES
  0
TABLE
  2
LTYPE
 70
     4
  0
LTYPE
  2
CONTINUOUS
 70
     0
  3
Solid line
 72
     65
 73
     0
 40
0.000000
  0
LTYPE
  2
HIDDEN
 70
     0
  3
 _ _ _ _ _ _ _ _ _ _ _
 72
     65
 73
     2
 40
0.375000
 49
0.250000
 49
-0.125000
  0
LTYPE
  2
DASHED
 70
     0
  3
 ___ ___ ___ ___ ___ ___ ___ 
 72
     65
 73
     2
 40
0.750000
 49
0.500000
 49
-0.250000
  0
LTYPE
  2
CENTER
 70
     0
  3
___ _ ___ _ ___ _ ___
 72
     65
 73
     4
 40
2.000000
 49
1.250000
 49
-0.250000
 49
0.250000
 49
-0.250000
  0
LTYPE
  2
BORDER
 70
     0
  3
___ ___ . ___ ___ . ___ ___
 72
     65
 73
     6
 40
1.750000
 49
0.500000
 49
-0.250000
 49
0.500000
 49
-0.250000
 49
0.000000
 49
-0.250000
  0
LTYPE
  2
DOT
 70
     0
  3
.................
 72
     65
 73
     2
 40
0.250000
 49
0.000000
 49
-0.250000
  0
LTYPE
  2
DASHDOT
 70
     0
  3
__ . __ . __ . __
 72
     65
 73
     4
 40
1.000000
 49
0.500000
 49
-0.250000
 49
0.000000
 49
-0.250000
  0
LTYPE
  2
DIVIDE
 70
     0
  3
___ .. ___ .. ___ .. ___
 72
     65
 73
     6
 40
1.250000
 49
0.500000
 49
-0.250000
 49
0.000000
 49
-0.250000
 49
0.000000
 49
-0.250000
  0
ENDTAB
  0
TABLE
  2
LAYER
 70
     8
  0
LAYER
  2
BLACK
 70
     0
 62
     1
  6
CONTINUOUS
  0
LAYER
  2
WHITE
 70
     0
 62
     7
  6
CONTINUOUS
  0
LAYER
  2
RED
 70
     0
 62
     1
  6
CONTINUOUS
  0
LAYER
  2
YELLOW
 70
     0
 62
     2
  6
CONTINUOUS
  0
LAYER
  2
GREEN
 70
     0
 62
     3
  6
CONTINUOUS
  0
LAYER
  2
CYAN
 70
     0
 62
     4
  6
CONTINUOUS
  0
LAYER
  2
BLUE
 70
     0
 62
     5
  6
CONTINUOUS
  0
LAYER
  2
MAGENTA
 70
     0
 62
     6
  6
CONTINUOUS
  0
ENDTAB
  0
TABLE
  2
APPID
 70
     1
  0
APPID
  2
TC_BEND_DATA
 70
     0
  0
ENDTAB
  0
ENDSEC
  0
SECTION
  2
BLOCKS
  0
ENDSEC
  0
SECTION
  2
ENTITIES
  0
LINE
  8
WHITE
 10
112.384440
 20
20.655112
 30
0.000000
 11
113.008032
 21
21.917357
 31
0.000000
  6
CONTINUOUS
  0
LINE
  8
WHITE
 10
113.008032
 20
21.917357
 30
0.000000
 11
113.736857
 21
24.834383
 31
0.000000
  6
CONTINUOUS
  0
LINE
  8
WHITE
 10
113.736857
 20
24.834383
 30
0.000000
 11
114.260895
 21
27.287518
 31
0.000000
  6
CONTINUOUS
  0
LINE
  8
WHITE
 10
114.260895
 20
27.287518
 30
0.000000
 11
114.615900
 21
29.729344
 31
0.000000
  6
CONTINUOUS
  0
LINE
  8
WHITE
 10
114.615900
 20
29.729344
 30
0.000000
 11
114.824389
 21
34.047625
 31
0.000000
  6
CONTINUOUS
  0
LINE
  8
WHITE
 10
114.824389
 20
34.047625
 30
0.000000
 11
115.134309
 21
38.208131
 31
0.000000
  6
CONTINUOUS
  0
LINE
  8
WHITE
 10
115.134309
 20
38.208131
 30
0.000000
 11
115.072335
 21
42.255949
 31
0.000000
  6
CONTINUOUS
  0
LINE
  8
WHITE
 10
115.072335
 20
42.255949
 30
0.000000
 11
115.166969
 21
46.163844
 31
0.000000
  6
CONTINUOUS
  0
LINE
  8
WHITE
 10
115.166969
 20
46.163844
 30
0.000000
 11
115.085470
 21
49.649080
 31
0.000000
  6
CONTINUOUS
  0
LINE
  8
WHITE
 10
115.085470
 20
49.649080
 30
0.000000
 11
114.964566
 21
53.134316
 31
0.000000
  6
CONTINUOUS
  0
LINE
  8
WHITE
 10
114.964566
 20
53.134316
 30
0.000000
 11
114.788686
 21
56.585776
 31
0.000000
  6
CONTINUOUS
  0
LINE
  8
WHITE
 10
114.788686
 20
56.585776
 30
0.000000
 11
114.542414
 21
59.969583
 31
0.000000
  6
CONTINUOUS
  0
LINE
  8
WHITE
 10
114.542414
 20
59.969583
 30
0.000000
 11
114.059911
 21
64.010807
 31
0.000000
  6
CONTINUOUS
  0
LINE
  8
WHITE
 10
114.059911
 20
64.010807
 30
0.000000
 11
113.804460
 21
65.483419
 31
0.000000
  6
CONTINUOUS
  0
LINE
  8
WHITE
 10
113.804460
 20
65.483419
 30
0.000000
 11
113.389358
 21
67.688558
 31
0.000000
  6
CONTINUOUS
  0
LINE
  8
WHITE
 10
113.389358
 20
67.688558
 30
0.000000
 11
112.613621
 21
71.122166
 31
0.000000
  6
CONTINUOUS
  0
LINE
  8
WHITE
 10
112.613621
 20
71.122166
 30
0.000000
 11
112.029435
 21
72.989239
 31
0.000000
  6
CONTINUOUS
  0
LINE
  8
WHITE
 10
112.029435
 20
72.989239
 30
0.000000
 11
111.671913
 21
74.010200
 31
0.000000
  6
CONTINUOUS
  0
ARC
  8
WHITE
 10
110.760198
 20
73.690933
 30
0.000000
 40
0.966000
 50
19.299326
 51
31.168038
  6
CONTINUOUS
  0
LINE
  8
WHITE
 10
111.586759
 20
74.190887
 30
0.000000
 11
110.799140
 21
75.493038
 31
0.000000
  6
CONTINUOUS
  0
LINE
  8
WHITE
 10
110.799140
 20
75.493038
 30
0.000000
 11
110.362341
 21
76.372654
 31
0.000000
  6
CONTINUOUS
  0
ARC
  8
WHITE
 10
109.497144
 20
75.943015
 30
0.000000
 40
0.966000
 50
26.408022
 51
54.611410
  6
CONTINUOUS
  0
LINE
  8
WHITE
 10
110.056573
 20
76.730540
 30
0.000000
 11
108.673591
 21
77.712959
 31
0.000000
  6
CONTINUOUS
  0
ARC
  8
WHITE
 10
108.114163
 20
76.925435
 30
0.000000
 40
0.966000
 50
54.611410
 51
82.574542
  6
CONTINUOUS
  0
LINE
  8
WHITE
 10
108.239005
 20
77.883333
 30
0.000000
 11
107.169486
 21
78.022723
 31
0.000000
  6
CONTINUOUS
  0
ARC
  8
WHITE
 10
107.044644
 20
77.064824
 30
0.000000
 40
0.966000
 50
82.574542
 51
119.572176
  6
CONTINUOUS
  0
LINE
  8
WHITE
 10
106.567904
 20
77.904988
 30
0.000000
 11
105.366922
 21
77.223507
 31
0.000000
  6
CONTINUOUS
  0
ARC
  8
WHITE
 10
105.843662
 20
76.383343
 30
0.000000
 40
0.966000
 50
119.572176
 51
137.602562
  6
CONTINUOUS
  0
LINE
  8
WHITE
 10
105.130285
 20
77.034687
 30
0.000000
 11
104.168610
 21
75.981424
 31
0.000000
  6
CONTINUOUS
  0
LINE
  8
WHITE
 10
104.168610
 20
75.981424
 30
0.000000
 11
102.957079
 21
74.955865
 31
0.000000
  6
CONTINUOUS
  0
LINE
  8
WHITE
 10
102.957079
 20
74.955865
 30
0.000000
 11
102.049988
 21
74.098885
 31
0.000000
  6
CONTINUOUS
  0
ARC
  8
WHITE
 10
102.713382
 20
73.396699
 30
0.000000
 40
0.966000
 50
133.372875
 51
151.631145
  6
CONTINUOUS
  0
LINE
  8
WHITE
 10
101.863392
 20
73.855690
 30
0.000000
 11
101.176425
 21
72.583519
 31
0.000000
  6
CONTINUOUS
  0
LINE
  8
WHITE
 10
101.176425
 20
72.583519
 30
0.000000
 11
100.147113
 21
70.750273
 31
0.000000
  6
CONTINUOUS
  0
LINE
  8
WHITE
 10
100.147113
 20
70.750273
 30
0.000000
 11
99.392018
 21
69.362153
 31
0.000000
  6
CONTINUOUS
  0
LINE
  8
WHITE
 10
99.392018
 20
69.362153
 30
0.000000
 11
98.821018
 21
67.912109
 31
0.000000
  6
CONTINUOUS
  0
LINE
  8
WHITE
 10
98.821018
 20
67.912109
 30
0.000000
 11
98.559886
 21
66.721220
 31
0.000000
  6
CONTINUOUS
  0
LINE
  8
WHITE
 10
98.559886
 20
66.721220
 30
0.000000
 11
98.603095
 21
65.107773
 31
0.000000
  6
CONTINUOUS
  0
LINE
  8
WHITE
 10
98.603095
 20
65.107773
 30
0.000000
 11
98.691390
 21
63.809824
 31
0.000000
  6
CONTINUOUS
  0
LINE
  8
WHITE
 10
98.691390
 20
63.809824
 30
0.000000
 11
99.097110
 21
61.274074
 31
0.000000
  6
CONTINUOUS
  0
LINE
  8
WHITE
 10
99.097110
 20
61.274074
 30
0.000000
 11
99.756405
 21
60.257897
 31
0.000000
  6
CONTINUOUS
  0
LINE
  8
WHITE
 10
99.756405
 20
60.257897
 30
0.000000
 11
100.291753
 21
58.407713
 31
0.000000
  6
CONTINUOUS
  0
LINE
  8
WHITE
 10
100.291753
 20
58.407713
 30
0.000000
 11
100.742507
 21
55.637203
 31
0.000000
  6
CONTINUOUS
  0
LINE
  8
WHITE
 10
100.742507
 20
55.637203
 30
0.000000
 11
101.024280
 21
53.362534
 31
0.000000
  6
CONTINUOUS
  0
LINE
  8
WHITE
 10
101.024280
 20
53.362534
 30
0.000000
 11
101.024280
 21
49.898902
 31
0.000000
  6
CONTINUOUS
  0
LINE
  8
WHITE
 10
101.024280
 20
49.898902
 30
0.000000
 11
100.836432
 21
47.464582
 31
0.000000
  6
CONTINUOUS
  0
LINE
  8
WHITE
 10
100.836432
 20
47.464582
 30
0.000000
 11
100.517130
 21
46.059574
 31
0.000000
  6
CONTINUOUS
  0
LINE
  8
WHITE
 10
100.517130
 20
46.059574
 30
0.000000
 11
100.111410
 21
44.994559
 31
0.000000
  6
CONTINUOUS
  0
LINE
  8
WHITE
 10
100.111410
 20
44.994559
 30
0.000000
 11
99.046395
 21
43.828114
 31
0.000000
  6
CONTINUOUS
  0
LINE
  8
WHITE
 10
99.046395
 20
43.828114
 30
0.000000
 11
98.028022
 21
43.612737
 31
0.000000
  6
CONTINUOUS
  0
ARC
  8
WHITE
 10
97.828143
 20
44.557832
 30
0.000000
 40
0.966000
 50
-126.020767
 51
-78.058425
  6
CONTINUOUS
  0
LINE
  8
WHITE
 10
97.260059
 20
43.776527
 30
0.000000
 11
96.871849
 21
44.058793
 31
0.000000
  6
CONTINUOUS
  0
ARC
  8
WHITE
 10
97.439933
 20
44.840098
 30
0.000000
 40
0.966000
 50
-169.366367
 51
-126.020767
  6
CONTINUOUS
  0
LINE
  8
WHITE
 10
96.490522
 20
44.661843
 30
0.000000
 11
96.302156
 21
45.665113
 31
0.000000
  6
CONTINUOUS
  0
LINE
  8
WHITE
 10
96.302156
 20
45.665113
 30
0.000000
 11
96.144381
 21
46.876643
 31
0.000000
  6
CONTINUOUS
  0
ARC
  8
WHITE
 10
70.580194
 20
48.011407
 30
0.000000
 40
25.589360
 50
-2.541623
 51
33.062766
  6
CONTINUOUS
  0
LINE
  8
WHITE
 10
92.025957
 20
61.971873
 30
0.000000
 11
90.931995
 21
62.694094
 31
0.000000
  6
CONTINUOUS
  0
LINE
  8
WHITE
 10
90.931995
 20
62.694094
 30
0.000000
 11
88.133288
 21
63.667061
 31
0.000000
  6
CONTINUOUS
  0
LINE
  8
WHITE
 10
88.133288
 20
63.667061
 30
0.000000
 11
85.217574
 21
64.273784
 31
0.000000
  6
CONTINUOUS
  0
ARC
  8
WHITE
 10
85.020777
 20
63.328042
 30
0.000000
 40
0.966000
 50
78.245228
 51
107.136437
  6
CONTINUOUS
  0
LINE
  8
WHITE
 10
84.736147
 20
64.251158
 30
0.000000
 11
81.842751
 21
63.359018
 31
0.000000
  6
CONTINUOUS
  0
LINE
  8
WHITE
 10
81.842751
 20
63.359018
 30
0.000000
 11
80.836254
 21
62.634728
 31
0.000000
  6
CONTINUOUS
  0
ARC
  8
WHITE
 10
81.400493
 20
61.850642
 30
0.000000
 40
0.966000
 50
125.739348
 51
154.276637
  6
CONTINUOUS
  0
LINE
  8
WHITE
 10
80.530224
 20
62.269912
 30
0.000000
 11
80.140959
 21
61.461922
 31
0.000000
  6
CONTINUOUS
  0
LINE
  8
WHITE
 10
80.140959
 20
61.461922
 30
0.000000
 11
79.738992
 21
60.257897
 31
0.000000
  6
CONTINUOUS
  0
LINE
  8
WHITE
 10
79.738992
 20
60.257897
 30
0.000000
 11
79.631984
 21
59.280891
 31
0.000000
  6
CONTINUOUS
  0
ARC
  8
WHITE
 10
80.592241
 20
59.175717
 30
0.000000
 40
0.966000
 50
173.749519
 51
184.000577
  6
CONTINUOUS
  0
LINE
  8
WHITE
 10
79.628595
 20
59.108323
 30
0.000000
 11
79.711959
 21
57.916330
 31
0.000000
  6
CONTINUOUS
  0
ARC
  8
WHITE
 10
80.675606
 20
57.983724
 30
0.000000
 40
0.966000
 50
-175.999423
 51
-168.334357
  6
CONTINUOUS
  0
LINE
  8
WHITE
 10
79.729559
 20
57.788399
 30
0.000000
 11
79.968173
 21
56.632688
 31
0.000000
  6
CONTINUOUS
  0
LINE
  8
WHITE
 10
79.968173
 20
56.632688
 30
0.000000
 11
80.636850
 21
55.188274
 31
0.000000
  6
CONTINUOUS
  0
LINE
  8
WHITE
 10
80.636850
 20
55.188274
 30
0.000000
 11
81.405081
 21
53.989878
 31
0.000000
  6
CONTINUOUS
  0
LINE
  8
WHITE
 10
81.405081
 20
53.989878
 30
0.000000
 11
82.122597
 21
52.851631
 31
0.000000
  6
CONTINUOUS
  0
LINE
  8
WHITE
 10
82.122597
 20
52.851631
 30
0.000000
 11
82.802583
 21
51.506720
 31
0.000000
  6
CONTINUOUS
  0
LINE
  8
WHITE
 10
82.802583
 20
51.506720
 30
0.000000
 11
84.339045
 21
48.493894
 31
0.000000
  6
CONTINUOUS
  0
LINE
  8
WHITE
 10
84.339045
 20
48.493894
 30
0.000000
 11
84.538152
 21
46.910470
 31
0.000000
  6
CONTINUOUS
  0
LINE
  8
WHITE
 10
84.538152
 20
46.910470
 30
0.000000
 11
84.680915
 21
45.056533
 31
0.000000
  6
CONTINUOUS
  0
LINE
  8
WHITE
 10
84.680915
 20
45.056533
 30
0.000000
 11
84.256380
 21
42.492636
 31
0.000000
  6
CONTINUOUS
  0
LINE
  8
WHITE
 10
84.256380
 20
42.492636
 30
0.000000
 11
83.982164
 21
41.140219
 31
0.000000
  6
CONTINUOUS
  0
LINE
  8
WHITE
 10
83.982164
 20
41.140219
 30
0.000000
 11
83.831895
 21
40.125919
 31
0.000000
  6
CONTINUOUS
  0
LINE
  8
WHITE
 10
83.831895
 20
40.125919
 30
0.000000
 11
83.441187
 21
38.908759
 31
0.000000
  6
CONTINUOUS
  0
LINE
  8
WHITE
 10
83.441187
 20
38.908759
 30
0.000000
 11
82.776262
 21
37.836238
 31
0.000000
  6
CONTINUOUS
  0
LINE
  8
WHITE
 10
82.776262
 20
37.836238
 30
0.000000
 11
81.701865
 21
36.423724
 31
0.000000
  6
CONTINUOUS
  0
LINE
  8
WHITE
 10
81.701865
 20
36.423724
 30
0.000000
 11
80.535420
 21
35.409424
 31
0.000000
  6
CONTINUOUS
  0
LINE
  8
WHITE
 10
80.535420
 20
35.409424
 30
0.000000
 11
79.419690
 21
34.750129
 31
0.000000
  6
CONTINUOUS
  0
LINE
  8
WHITE
 10
79.419690
 20
34.750129
 30
0.000000
 11
78.033497
 21
34.447715
 31
0.000000
  6
CONTINUOUS
  0
LINE
  8
WHITE
 10
78.033497
 20
34.447715
 30
0.000000
 11
76.859649
 21
34.234997
 31
0.000000
  6
CONTINUOUS
  0
ARC
  8
WHITE
 10
76.687401
 20
35.185516
 30
0.000000
 40
0.966000
 50
-108.768291
 51
-79.728651
  6
CONTINUOUS
  0
LINE
  8
WHITE
 10
76.376599
 20
34.270881
 30
0.000000
 11
75.289031
 21
34.640448
 31
0.000000
  6
CONTINUOUS
  0
ARC
  8
WHITE
 10
75.599834
 20
35.555083
 30
0.000000
 40
0.966000
 50
-147.027431
 51
-108.768291
  6
CONTINUOUS
  0
LINE
  8
WHITE
 10
74.789426
 20
35.029350
 30
0.000000
 11
74.361884
 21
35.688397
 31
0.000000
  6
CONTINUOUS
  0
ARC
  8
WHITE
 10
75.172292
 20
36.214131
 30
0.000000
 40
0.966000
 50
-171.730556
 51
-147.027431
  6
CONTINUOUS
  0
LINE
  8
WHITE
 10
74.216336
 20
36.075192
 30
0.000000
 11
74.010073
 21
37.494368
 31
0.000000
  6
CONTINUOUS
  0
LINE
  8
WHITE
 10
74.010073
 20
37.494368
 30
0.000000
 11
73.942470
 21
39.122878
 31
0.000000
  6
CONTINUOUS
  0
LINE
  8
WHITE
 10
73.942470
 20
39.122878
 30
0.000000
 11
73.942470
 21
40.582354
 31
0.000000
  6
CONTINUOUS
  0
LINE
  8
WHITE
 10
73.942470
 20
40.582354
 30
0.000000
 11
74.058912
 21
41.784502
 31
0.000000
  6
CONTINUOUS
  0
LINE
  8
WHITE
 10
74.058912
 20
41.784502
 30
0.000000
 11
74.312487
 21
43.371679
 31
0.000000
  6
CONTINUOUS
  0
LINE
  8
WHITE
 10
74.312487
 20
43.371679
 30
0.000000
 11
74.500335
 21
45.095989
 31
0.000000
  6
CONTINUOUS
  0
LINE
  8
WHITE
 10
74.500335
 20
45.095989
 30
0.000000
 11
75.018744
 21
47.517174
 31
0.000000
  6
CONTINUOUS
  0
LINE
  8
WHITE
 10
75.018744
 20
47.517174
 30
0.000000
 11
75.401946
 21
49.960876
 31
0.000000
  6
CONTINUOUS
  0
LINE
  8
WHITE
 10
75.401946
 20
49.960876
 30
0.000000
 11
75.514635
 21
53.261104
 31
0.000000
  6
CONTINUOUS
  0
LINE
  8
WHITE
 10
75.514635
 20
53.261104
 30
0.000000
 11
74.956770
 21
54.681124
 31
0.000000
  6
CONTINUOUS
  0
LINE
  8
WHITE
 10
74.956770
 20
54.681124
 30
0.000000
 11
73.904890
 21
55.511328
 31
0.000000
  6
CONTINUOUS
  0
LINE
  8
WHITE
 10
73.904890
 20
55.511328
 30
0.000000
 11
72.623880
 21
56.202574
 31
0.000000
  6
CONTINUOUS
  0
LINE
  8
WHITE
 10
72.623880
 20
56.202574
 30
0.000000
 11
70.409308
 21
56.012849
 31
0.000000
  6
CONTINUOUS
  0
LINE
  8
WHITE
 10
70.409308
 20
56.012849
 30
0.000000
 11
68.431423
 21
55.361060
 31
0.000000
  6
CONTINUOUS
  0
LINE
  8
WHITE
 10
68.431423
 20
55.361060
 30
0.000000
 11
66.985133
 21
53.201007
 31
0.000000
  6
CONTINUOUS
  0
LINE
  8
WHITE
 10
66.985133
 20
53.201007
 30
0.000000
 11
66.740940
 21
51.435364
 31
0.000000
  6
CONTINUOUS
  0
LINE
  8
WHITE
 10
66.740940
 20
51.435364
 30
0.000000
 11
66.669584
 21
50.246401
 31
0.000000
  6
CONTINUOUS
  0
LINE
  8
WHITE
 10
66.669584
 20
50.246401
 30
0.000000
 11
66.438526
 21
48.644162
 31
0.000000
  6
CONTINUOUS
  0
LINE
  8
WHITE
 10
66.438526
 20
48.644162
 30
0.000000
 11
66.385935
 21
47.073874
 31
0.000000
  6
CONTINUOUS
  0
LINE
  8
WHITE
 10
66.385935
 20
47.073874
 30
0.000000
 11
66.829235
 21
45.218060
 31
0.000000
  6
CONTINUOUS
  0
LINE
  8
WHITE
 10
66.829235
 20
45.218060
 30
0.000000
 11
67.045230
 21
44.081689
 31
0.000000
  6
CONTINUOUS
  0
LINE
  8
WHITE
 10
67.045230
 20
44.081689
 30
0.000000
 11
67.381470
 21
42.870158
 31
0.000000
  6
CONTINUOUS
  0
LINE
  8
WHITE
 10
67.381470
 20
42.870158
 30
0.000000
 11
67.672575
 21
41.489594
 31
0.000000
  6
CONTINUOUS
  0
LINE
  8
WHITE
 10
67.672575
 20
41.489594
 30
0.000000
 11
68.211675
 21
39.973774
 31
0.000000
  6
CONTINUOUS
  0
LINE
  8
WHITE
 10
68.211675
 20
39.973774
 30
0.000000
 11
68.867217
 21
38.444818
 31
0.000000
  6
CONTINUOUS
  0
LINE
  8
WHITE
 10
68.867217
 20
38.444818
 30
0.000000
 11
69.595992
 21
37.000353
 31
0.000000
  6
CONTINUOUS
  0
LINE
  8
WHITE
 10
69.595992
 20
37.000353
 30
0.000000
 11
70.595280
 21
35.358709
 31
0.000000
  6
CONTINUOUS
  0
LINE
  8
WHITE
 10
70.595280
 20
35.358709
 30
0.000000
 11
71.254575
 21
33.887974
 31
0.000000
  6
CONTINUOUS
  0
LINE
  8
WHITE
 10
71.254575
 20
33.887974
 30
0.000000
 11
71.973967
 21
31.983321
 31
0.000000
  6
CONTINUOUS
  0
LINE
  8
WHITE
 10
71.973967
 20
31.983321
 30
0.000000
 11
72.370305
 21
30.845074
 31
0.000000
  6
CONTINUOUS
  0
LINE
  8
WHITE
 10
72.370305
 20
30.845074
 30
0.000000
 11
72.637848
 21
29.982612
 31
0.000000
  6
CONTINUOUS
  0
ARC
  8
WHITE
 10
71.715221
 20
29.696405
 30
0.000000
 40
0.966000
 50
-3.267006
 51
17.234356
  6
CONTINUOUS
  0
LINE
  8
WHITE
 10
72.679651
 20
29.641353
 30
0.000000
 11
72.609850
 21
28.418536
 31
0.000000
  6
CONTINUOUS
  0
ARC
  8
WHITE
 10
71.645420
 20
28.473587
 30
0.000000
 40
0.966000
 50
-39.329993
 51
-3.267006
  6
CONTINUOUS
  0
LINE
  8
WHITE
 10
72.392630
 20
27.861350
 30
0.000000
 11
71.487595
 21
26.756795
 31
0.000000
  6
CONTINUOUS
  0
ARC
  8
WHITE
 10
70.740386
 20
27.369032
 30
0.000000
 40
0.966000
 50
-72.493808
 51
-39.329993
  6
CONTINUOUS
  0
LINE
  8
WHITE
 10
71.030967
 20
26.447773
 30
0.000000
 11
69.697422
 21
26.027149
 31
0.000000
  6
CONTINUOUS
  0
LINE
  8
WHITE
 10
69.697422
 20
26.027149
 30
0.000000
 11
68.507295
 21
25.791909
 31
0.000000
  6
CONTINUOUS
  0
ARC
  8
WHITE
 10
68.319980
 20
26.739574
 30
0.000000
 40
0.966000
 50
-90.000000
 51
-78.819057
  6
CONTINUOUS
  0
LINE
  8
WHITE
 10
68.319980
 20
25.773574
 30
0.000000
 11
67.691195
 21
25.773574
 31
0.000000
  6
CONTINUOUS
  0
ARC
  8
WHITE
 10
67.691195
 20
26.739574
 30
0.000000
 40
0.966000
 50
-123.524641
 51
-90.000000
  6
CONTINUOUS
  0
LINE
  8
WHITE
 10
67.157677
 20
25.934270
 30
0.000000
 11
66.198087
 21
26.570002
 31
0.000000
  6
CONTINUOUS
  0
LINE
  8
WHITE
 10
66.198087
 20
26.570002
 30
0.000000
 11
65.180034
 21
27.231174
 31
0.000000
  6
CONTINUOUS
  0
LINE
  8
WHITE
 10
65.180034
 20
27.231174
 30
0.000000
 11
64.103760
 21
27.990022
 31
0.000000
  6
CONTINUOUS
  0
LINE
  8
WHITE
 10
64.103760
 20
27.990022
 30
0.000000
 11
63.053757
 21
29.169602
 31
0.000000
  6
CONTINUOUS
  0
LINE
  8
WHITE
 10
63.053757
 20
29.169602
 30
0.000000
 11
61.669440
 21
30.845074
 31
0.000000
  6
CONTINUOUS
  0
LINE
  8
WHITE
 10
61.669440
 20
30.845074
 30
0.000000
 11
61.139773
 21
32.065987
 31
0.000000
  6
CONTINUOUS
  0
LINE
  8
WHITE
 10
61.139773
 20
32.065987
 30
0.000000
 11
60.711484
 21
33.275641
 31
0.000000
  6
CONTINUOUS
  0
LINE
  8
WHITE
 10
60.711484
 20
33.275641
 30
0.000000
 11
60.300135
 21
34.445839
 31
0.000000
  6
CONTINUOUS
  0
LINE
  8
WHITE
 10
60.300135
 20
34.445839
 30
0.000000
 11
59.894415
 21
36.459427
 31
0.000000
  6
CONTINUOUS
  0
LINE
  8
WHITE
 10
59.894415
 20
36.459427
 30
0.000000
 11
59.402277
 21
38.196872
 31
0.000000
  6
CONTINUOUS
  0
LINE
  8
WHITE
 10
59.402277
 20
38.196872
 30
0.000000
 11
59.040921
 21
39.215976
 31
0.000000
  6
CONTINUOUS
  0
ARC
  8
WHITE
 10
58.130462
 20
38.893143
 30
0.000000
 40
0.966000
 50
19.523595
 51
72.480241
  6
CONTINUOUS
  0
LINE
  8
WHITE
 10
58.421262
 20
39.814334
 30
0.000000
 11
58.051364
 21
39.931102
 31
0.000000
  6
CONTINUOUS
  0
ARC
  8
WHITE
 10
57.760564
 20
39.009912
 30
0.000000
 40
0.966000
 50
72.480241
 51
97.045611
  6
CONTINUOUS
  0
LINE
  8
WHITE
 10
57.642075
 20
39.968618
 30
0.000000
 11
57.034928
 21
39.893579
 31
0.000000
  6
CONTINUOUS
  0
ARC
  8
WHITE
 10
57.153417
 20
38.934873
 30
0.000000
 40
0.966000
 50
97.045611
 51
120.862367
  6
CONTINUOUS
  0
LINE
  8
WHITE
 10
56.657881
 20
39.764089
 30
0.000000
 11
55.868074
 21
39.292104
 31
0.000000
  6
CONTINUOUS
  0
ARC
  8
WHITE
 10
56.363610
 20
38.462888
 30
0.000000
 40
0.966000
 50
120.862367
 51
138.990913
  6
CONTINUOUS
  0
LINE
  8
WHITE
 10
55.634661
 20
39.096756
 30
0.000000
 11
54.892175
 21
38.242897
 31
0.000000
  6
CONTINUOUS
  0
ARC
  8
WHITE
 10
55.621124
 20
37.609029
 30
0.000000
 40
0.966000
 50
138.990913
 51
169.133460
  6
CONTINUOUS
  0
LINE
  8
WHITE
 10
54.672445
 20
37.791141
 30
0.000000
 11
54.524254
 21
37.019169
 31
0.000000
  6
CONTINUOUS
  0
LINE
  8
WHITE
 10
54.524254
 20
37.019169
 30
0.000000
 11
54.157991
 21
35.811391
 31
0.000000
  6
CONTINUOUS
  0
LINE
  8
WHITE
 10
54.157991
 20
35.811391
 30
0.000000
 11
53.802145
 21
34.687063
 31
0.000000
  6
CONTINUOUS
  0
ARC
  8
WHITE
 10
52.881171
 20
34.978549
 30
0.000000
 40
0.966000
 50
-34.824489
 51
-17.562414
  6
CONTINUOUS
  0
LINE
  8
WHITE
 10
53.674165
 20
34.426900
 30
0.000000
 11
53.127586
 21
33.641193
 31
0.000000
  6
CONTINUOUS
  0
ARC
  8
WHITE
 10
52.334592
 20
34.192841
 30
0.000000
 40
0.966000
 50
-71.178307
 51
-34.824489
  6
CONTINUOUS
  0
LINE
  8
WHITE
 10
52.646247
 20
33.278496
 30
0.000000
 11
51.925898
 21
33.032965
 31
0.000000
  6
CONTINUOUS
  0
ARC
  8
WHITE
 10
51.614243
 20
33.947310
 30
0.000000
 40
0.966000
 50
-108.977108
 51
-71.178307
  6
CONTINUOUS
  0
LINE
  8
WHITE
 10
51.300109
 20
33.033814
 30
0.000000
 11
50.091156
 21
33.449549
 31
0.000000
  6
CONTINUOUS
  0
ARC
  8
WHITE
 10
50.405290
 20
34.363046
 30
0.000000
 40
0.966000
 50
-126.251190
 51
-108.977108
  6
CONTINUOUS
  0
LINE
  8
WHITE
 10
49.834069
 20
33.584032
 30
0.000000
 11
48.518042
 21
34.549025
 31
0.000000
  6
CONTINUOUS
  0
ARC
  8
WHITE
 10
49.089263
 20
35.328039
 30
0.000000
 40
0.966000
 50
-146.047224
 51
-126.251190
  6
CONTINUOUS
  0
LINE
  8
WHITE
 10
48.287968
 20
34.788519
 30
0.000000
 11
47.367810
 21
36.155137
 31
0.000000
  6
CONTINUOUS
  0
LINE
  8
WHITE
 10
47.367810
 20
36.155137
 30
0.000000
 11
46.267092
 21
37.625872
 31
0.000000
  6
CONTINUOUS
  0
LINE
  8
WHITE
 10
46.267092
 20
37.625872
 30
0.000000
 11
45.389925
 21
38.959474
 31
0.000000
  6
CONTINUOUS
  0
LINE
  8
WHITE
 10
45.389925
 20
38.959474
 30
0.000000
 11
44.749395
 21
41.006838
 31
0.000000
  6
CONTINUOUS
  0
LINE
  8
WHITE
 10
44.749395
 20
41.006838
 30
0.000000
 11
44.593497
 21
43.031685
 31
0.000000
  6
CONTINUOUS
  0
LINE
  8
WHITE
 10
44.593497
 20
43.031685
 30
0.000000
 11
44.832060
 21
44.943844
 31
0.000000
  6
CONTINUOUS
  0
LINE
  8
WHITE
 10
44.832060
 20
44.943844
 30
0.000000
 11
44.922231
 21
47.331202
 31
0.000000
  6
CONTINUOUS
  0
LINE
  8
WHITE
 10
44.922231
 20
47.331202
 30
0.000000
 11
45.147609
 21
49.808731
 31
0.000000
  6
CONTINUOUS
  0
LINE
  8
WHITE
 10
45.147609
 20
49.808731
 30
0.000000
 11
45.694215
 21
52.094659
 31
0.000000
  6
CONTINUOUS
  0
LINE
  8
WHITE
 10
45.694215
 20
52.094659
 30
0.000000
 11
46.556370
 21
53.362534
 31
0.000000
  6
CONTINUOUS
  0
LINE
  8
WHITE
 10
46.556370
 20
53.362534
 30
0.000000
 11
46.883177
 21
54.405031
 31
0.000000
  6
CONTINUOUS
  0
LINE
  8
WHITE
 10
46.883177
 20
54.405031
 30
0.000000
 11
47.446723
 21
55.650338
 31
0.000000
  6
CONTINUOUS
  0
LINE
  8
WHITE
 10
47.446723
 20
55.650338
 30
0.000000
 11
48.391492
 21
57.111691
 31
0.000000
  6
CONTINUOUS
  0
LINE
  8
WHITE
 10
48.391492
 20
57.111691
 30
0.000000
 11
49.244265
 21
58.738324
 31
0.000000
  6
CONTINUOUS
  0
LINE
  8
WHITE
 10
49.244265
 20
58.738324
 30
0.000000
 11
49.995608
 21
59.880375
 31
0.000000
  6
CONTINUOUS
  0
LINE
  8
WHITE
 10
49.995608
 20
59.880375
 30
0.000000
 11
50.833318
 21
61.341677
 31
0.000000
  6
CONTINUOUS
  0
LINE
  8
WHITE
 10
50.833318
 20
61.341677
 30
0.000000
 11
51.475725
 21
62.440519
 31
0.000000
  6
CONTINUOUS
  0
LINE
  8
WHITE
 10
51.475725
 20
62.440519
 30
0.000000
 11
52.236450
 21
63.490522
 31
0.000000
  6
CONTINUOUS
  0
LINE
  8
WHITE
 10
52.236450
 20
63.490522
 30
0.000000
 11
53.224429
 21
64.532969
 31
0.000000
  6
CONTINUOUS
  0
LINE
  8
WHITE
 10
53.224429
 20
64.532969
 30
0.000000
 11
54.456651
 21
66.026272
 31
0.000000
  6
CONTINUOUS
  0
LINE
  8
WHITE
 10
54.456651
 20
66.026272
 30
0.000000
 11
55.425866
 21
67.294147
 31
0.000000
  6
CONTINUOUS
  0
LINE
  8
WHITE
 10
55.425866
 20
67.294147
 30
0.000000
 11
56.789541
 21
68.556393
 31
0.000000
  6
CONTINUOUS
  0
LINE
  8
WHITE
 10
56.789541
 20
68.556393
 30
0.000000
 11
58.012331
 21
70.000807
 31
0.000000
  6
CONTINUOUS
  0
LINE
  8
WHITE
 10
58.012331
 20
70.000807
 30
0.000000
 11
59.235120
 21
71.062069
 31
0.000000
  6
CONTINUOUS
  0
LINE
  8
WHITE
 10
59.235120
 20
71.062069
 30
0.000000
 11
59.995845
 21
72.076369
 31
0.000000
  6
CONTINUOUS
  0
LINE
  8
WHITE
 10
59.995845
 20
72.076369
 30
0.000000
 11
61.060860
 21
72.938524
 31
0.000000
  6
CONTINUOUS
  0
LINE
  8
WHITE
 10
61.060860
 20
72.938524
 30
0.000000
 11
62.253626
 21
74.136919
 31
0.000000
  6
CONTINUOUS
  0
LINE
  8
WHITE
 10
62.253626
 20
74.136919
 30
0.000000
 11
63.292320
 21
74.967124
 31
0.000000
  6
CONTINUOUS
  0
LINE
  8
WHITE
 10
63.292320
 20
74.967124
 30
0.000000
 11
64.661625
 21
75.981424
 31
0.000000
  6
CONTINUOUS
  0
LINE
  8
WHITE
 10
64.661625
 20
75.981424
 30
0.000000
 11
66.791655
 21
77.636254
 31
0.000000
  6
CONTINUOUS
  0
LINE
  8
WHITE
 10
66.791655
 20
77.636254
 30
0.000000
 11
67.856670
 21
78.010024
 31
0.000000
  6
CONTINUOUS
  0
LINE
  8
WHITE
 10
67.856670
 20
78.010024
 30
0.000000
 11
69.088842
 21
78.812082
 31
0.000000
  6
CONTINUOUS
  0
LINE
  8
WHITE
 10
69.088842
 20
78.812082
 30
0.000000
 11
70.191436
 21
79.377452
 31
0.000000
  6
CONTINUOUS
  0
LINE
  8
WHITE
 10
70.191436
 20
79.377452
 30
0.000000
 11
72.620127
 21
80.536392
 31
0.000000
  6
CONTINUOUS
  0
LINE
  8
WHITE
 10
72.620127
 20
80.536392
 30
0.000000
 11
74.487200
 21
81.332820
 31
0.000000
  6
CONTINUOUS
  0
LINE
  8
WHITE
 10
74.487200
 20
81.332820
 30
0.000000
 11
76.478220
 21
82.016509
 31
0.000000
  6
CONTINUOUS
  0
LINE
  8
WHITE
 10
76.478220
 20
82.016509
 30
0.000000
 11
77.898240
 21
82.574374
 31
0.000000
  6
CONTINUOUS
  0
LINE
  8
WHITE
 10
77.898240
 20
82.574374
 30
0.000000
 11
79.164239
 21
82.953773
 31
0.000000
  6
CONTINUOUS
  0
LINE
  8
WHITE
 10
79.164239
 20
82.953773
 30
0.000000
 11
80.486581
 21
83.192336
 31
0.000000
  6
CONTINUOUS
  0
LINE
  8
WHITE
 10
80.486581
 20
83.192336
 30
0.000000
 11
81.955440
 21
83.385814
 31
0.000000
  6
CONTINUOUS
  0
LINE
  8
WHITE
 10
81.955440
 20
83.385814
 30
0.000000
 11
85.976937
 21
84.095824
 31
0.000000
  6
CONTINUOUS
  0
LINE
  8
WHITE
 10
85.976937
 20
84.095824
 30
0.000000
 11
89.615281
 21
84.602974
 31
0.000000
  6
CONTINUOUS
  0
LINE
  8
WHITE
 10
89.615281
 20
84.602974
 30
0.000000
 11
93.264885
 21
85.110124
 31
0.000000
  6
CONTINUOUS
  0
LINE
  8
WHITE
 10
93.264885
 20
85.110124
 30
0.000000
 11
94.636066
 21
85.513967
 31
0.000000
  6
CONTINUOUS
  0
LINE
  8
WHITE
 10
94.636066
 20
85.513967
 30
0.000000
 11
96.548225
 21
86.244618
 31
0.000000
  6
CONTINUOUS
  0
LINE
  8
WHITE
 10
96.548225
 20
86.244618
 30
0.000000
 11
97.774767
 21
86.967814
 31
0.000000
  6
CONTINUOUS
  0
LINE
  8
WHITE
 10
97.774767
 20
86.967814
 30
0.000000
 11
98.944965
 21
87.645874
 31
0.000000
  6
CONTINUOUS
  0
LINE
  8
WHITE
 10
98.944965
 20
87.645874
 30
0.000000
 11
100.665522
 21
88.932513
 31
0.000000
  6
CONTINUOUS
  0
LINE
  8
WHITE
 10
100.665522
 20
88.932513
 30
0.000000
 11
101.888311
 21
90.767686
 31
0.000000
  6
CONTINUOUS
  0
LINE
  8
WHITE
 10
101.888311
 20
90.767686
 30
0.000000
 11
102.205737
 21
91.996105
 31
0.000000
  6
CONTINUOUS
  0
LINE
  8
WHITE
 10
102.205737
 20
91.996105
 30
0.000000
 11
102.444300
 21
93.224524
 31
0.000000
  6
CONTINUOUS
  0
LINE
  8
WHITE
 10
102.444300
 20
93.224524
 30
0.000000
 11
102.241440
 21
95.707682
 31
0.000000
  6
CONTINUOUS
  0
LINE
  8
WHITE
 10
102.241440
 20
95.707682
 30
0.000000
 11
102.038580
 21
98.179582
 31
0.000000
  6
CONTINUOUS
  0
LINE
  8
WHITE
 10
102.038580
 20
98.179582
 30
0.000000
 11
101.835720
 21
100.628914
 31
0.000000
  6
CONTINUOUS
  0
LINE
  8
WHITE
 10
101.835720
 20
100.628914
 30
0.000000
 11
101.242152
 21
101.692052
 31
0.000000
  6
CONTINUOUS
  0
LINE
  8
WHITE
 10
101.242152
 20
101.692052
 30
0.000000
 11
100.671151
 21
102.743932
 31
0.000000
  6
CONTINUOUS
  0
LINE
  8
WHITE
 10
100.671151
 20
102.743932
 30
0.000000
 11
99.519718
 21
104.193975
 31
0.000000
  6
CONTINUOUS
  0
LINE
  8
WHITE
 10
99.519718
 20
104.193975
 30
0.000000
 11
98.272535
 21
105.685402
 31
0.000000
  6
CONTINUOUS
  0
LINE
  8
WHITE
 10
98.272535
 20
105.685402
 30
0.000000
 11
97.017795
 21
106.410424
 31
0.000000
  6
CONTINUOUS
  0
LINE
  8
WHITE
 10
97.017795
 20
106.410424
 30
0.000000
 11
95.297238
 21
107.650101
 31
0.000000
  6
CONTINUOUS
  0
LINE
  8
WHITE
 10
95.297238
 20
107.650101
 30
0.000000
 11
93.362562
 21
108.872941
 31
0.000000
  6
CONTINUOUS
  0
LINE
  8
WHITE
 10
93.362562
 20
108.872941
 30
0.000000
 11
91.946295
 21
109.453324
 31
0.000000
  6
CONTINUOUS
  0
LINE
  8
WHITE
 10
91.946295
 20
109.453324
 30
0.000000
 11
90.576990
 21
110.337996
 31
0.000000
  6
CONTINUOUS
  0
LINE
  8
WHITE
 10
90.576990
 20
110.337996
 30
0.000000
 11
88.700535
 21
111.273434
 31
0.000000
  6
CONTINUOUS
  0
LINE
  8
WHITE
 10
88.700535
 20
111.273434
 30
0.000000
 11
87.229800
 21
111.735499
 31
0.000000
  6
CONTINUOUS
  0
LINE
  8
WHITE
 10
87.229800
 20
111.735499
 30
0.000000
 11
85.188065
 21
112.653998
 31
0.000000
  6
CONTINUOUS
  0
LINE
  8
WHITE
 10
85.188065
 20
112.653998
 30
0.000000
 11
83.135020
 21
113.454179
 31
0.000000
  6
CONTINUOUS
  0
LINE
  8
WHITE
 10
83.135020
 20
113.454179
 30
0.000000
 11
81.296145
 21
114.220534
 31
0.000000
  6
CONTINUOUS
  0
LINE
  8
WHITE
 10
81.296145
 20
114.220534
 30
0.000000
 11
79.981308
 21
114.695733
 31
0.000000
  6
CONTINUOUS
  0
LINE
  8
WHITE
 10
79.981308
 20
114.695733
 30
0.000000
 11
77.746095
 21
115.792699
 31
0.000000
  6
CONTINUOUS
  0
LINE
  8
WHITE
 10
77.746095
 20
115.792699
 30
0.000000
 11
76.226521
 21
116.553424
 31
0.000000
  6
CONTINUOUS
  0
LINE
  8
WHITE
 10
76.226521
 20
116.553424
 30
0.000000
 11
74.718207
 21
117.314149
 31
0.000000
  6
CONTINUOUS
  0
LINE
  8
WHITE
 10
74.718207
 20
117.314149
 30
0.000000
 11
73.232460
 21
118.074874
 31
0.000000
  6
CONTINUOUS
  0
LINE
  8
WHITE
 10
73.232460
 20
118.074874
 30
0.000000
 11
72.173074
 21
118.567012
 31
0.000000
  6
CONTINUOUS
  0
LINE
  8
WHITE
 10
72.173074
 20
118.567012
 30
0.000000
 11
70.493850
 21
119.444179
 31
0.000000
  6
CONTINUOUS
  0
LINE
  8
WHITE
 10
70.493850
 20
119.444179
 30
0.000000
 11
69.479550
 21
119.951329
 31
0.000000
  6
CONTINUOUS
  0
LINE
  8
WHITE
 10
69.479550
 20
119.951329
 30
0.000000
 11
67.856670
 21
120.610624
 31
0.000000
  6
CONTINUOUS
  0
LINE
  8
WHITE
 10
67.856670
 20
120.610624
 30
0.000000
 11
66.690225
 21
121.371349
 31
0.000000
  6
CONTINUOUS
  0
LINE
  8
WHITE
 10
66.690225
 20
121.371349
 30
0.000000
 11
64.939594
 21
122.237257
 31
0.000000
  6
CONTINUOUS
  0
LINE
  8
WHITE
 10
64.939594
 20
122.237257
 30
0.000000
 11
63.525254
 21
122.992352
 31
0.000000
  6
CONTINUOUS
  0
LINE
  8
WHITE
 10
63.525254
 20
122.992352
 30
0.000000
 11
62.278020
 21
123.653524
 31
0.000000
  6
CONTINUOUS
  0
LINE
  8
WHITE
 10
62.278020
 20
123.653524
 30
0.000000
 11
61.060860
 21
124.534443
 31
0.000000
  6
CONTINUOUS
  0
LINE
  8
WHITE
 10
61.060860
 20
124.534443
 30
0.000000
 11
59.792985
 21
125.479264
 31
0.000000
  6
CONTINUOUS
  0
LINE
  8
WHITE
 10
59.792985
 20
125.479264
 30
0.000000
 11
58.425556
 21
126.290704
 31
0.000000
  6
CONTINUOUS
  0
LINE
  8
WHITE
 10
58.425556
 20
126.290704
 30
0.000000
 11
56.751961
 21
127.492852
 31
0.000000
  6
CONTINUOUS
  0
LINE
  8
WHITE
 10
56.751961
 20
127.492852
 30
0.000000
 11
55.482210
 21
128.420734
 31
0.000000
  6
CONTINUOUS
  0
LINE
  8
WHITE
 10
55.482210
 20
128.420734
 30
0.000000
 11
54.265050
 21
129.331727
 31
0.000000
  6
CONTINUOUS
  0
LINE
  8
WHITE
 10
54.265050
 20
129.331727
 30
0.000000
 11
53.149320
 21
130.195759
 31
0.000000
  6
CONTINUOUS
  0
LINE
  8
WHITE
 10
53.149320
 20
130.195759
 30
0.000000
 11
51.413751
 21
131.360327
 31
0.000000
  6
CONTINUOUS
  0
LINE
  8
WHITE
 10
51.413751
 20
131.360327
 30
0.000000
 11
50.207850
 21
132.275074
 31
0.000000
  6
CONTINUOUS
  0
LINE
  8
WHITE
 10
50.207850
 20
132.275074
 30
0.000000
 11
48.939975
 21
133.289374
 31
0.000000
  6
CONTINUOUS
  0
LINE
  8
WHITE
 10
48.939975
 20
133.289374
 30
0.000000
 11
47.837380
 21
134.388216
 31
0.000000
  6
CONTINUOUS
  0
LINE
  8
WHITE
 10
47.837380
 20
134.388216
 30
0.000000
 11
46.556370
 21
135.317974
 31
0.000000
  6
CONTINUOUS
  0
LINE
  8
WHITE
 10
46.556370
 20
135.317974
 30
0.000000
 11
45.542070
 21
136.078699
 31
0.000000
  6
CONTINUOUS
  0
LINE
  8
WHITE
 10
45.542070
 20
136.078699
 30
0.000000
 11
44.524017
 21
136.995322
 31
0.000000
  6
CONTINUOUS
  0
LINE
  8
WHITE
 10
44.524017
 20
136.995322
 30
0.000000
 11
43.412040
 21
137.853724
 31
0.000000
  6
CONTINUOUS
  0
LINE
  8
WHITE
 10
43.412040
 20
137.853724
 30
0.000000
 11
41.383440
 21
139.882324
 31
0.000000
  6
CONTINUOUS
  0
LINE
  8
WHITE
 10
41.383440
 20
139.882324
 30
0.000000
 11
40.470570
 21
140.896624
 31
0.000000
  6
CONTINUOUS
  0
LINE
  8
WHITE
 10
40.470570
 20
140.896624
 30
0.000000
 11
39.202695
 21
141.910924
 31
0.000000
  6
CONTINUOUS
  0
LINE
  8
WHITE
 10
39.202695
 20
141.910924
 30
0.000000
 11
38.098224
 21
143.066110
 31
0.000000
  6
CONTINUOUS
  0
LINE
  8
WHITE
 10
38.098224
 20
143.066110
 30
0.000000
 11
37.174095
 21
144.091669
 31
0.000000
  6
CONTINUOUS
  0
LINE
  8
WHITE
 10
37.174095
 20
144.091669
 30
0.000000
 11
36.007650
 21
144.953824
 31
0.000000
  6
CONTINUOUS
  0
LINE
  8
WHITE
 10
36.007650
 20
144.953824
 30
0.000000
 11
34.745404
 21
146.512854
 31
0.000000
  6
CONTINUOUS
  0
LINE
  8
WHITE
 10
34.745404
 20
146.512854
 30
0.000000
 11
33.727351
 21
147.591004
 31
0.000000
  6
CONTINUOUS
  0
LINE
  8
WHITE
 10
33.727351
 20
147.591004
 30
0.000000
 11
32.609745
 21
148.503874
 31
0.000000
  6
CONTINUOUS
  0
LINE
  8
WHITE
 10
32.609745
 20
148.503874
 30
0.000000
 11
31.114616
 21
150.171839
 31
0.000000
  6
CONTINUOUS
  0
LINE
  8
WHITE
 10
31.114616
 20
150.171839
 30
0.000000
 11
29.871135
 21
151.496059
 31
0.000000
  6
CONTINUOUS
  0
LINE
  8
WHITE
 10
29.871135
 20
151.496059
 30
0.000000
 11
29.057819
 21
152.527247
 31
0.000000
  6
CONTINUOUS
  0
LINE
  8
WHITE
 10
29.057819
 20
152.527247
 30
0.000000
 11
27.741105
 21
153.928502
 31
0.000000
  6
CONTINUOUS
  0
LINE
  8
WHITE
 10
27.741105
 20
153.928502
 30
0.000000
 11
26.219655
 21
155.401114
 31
0.000000
  6
CONTINUOUS
  0
LINE
  8
WHITE
 10
26.219655
 20
155.401114
 30
0.000000
 11
25.103925
 21
156.772295
 31
0.000000
  6
CONTINUOUS
  0
LINE
  8
WHITE
 10
25.103925
 20
156.772295
 30
0.000000
 11
24.224882
 21
158.053305
 31
0.000000
  6
CONTINUOUS
  0
LINE
  8
WHITE
 10
24.224882
 20
158.053305
 30
0.000000
 11
22.795429
 21
160.083782
 31
0.000000
  6
CONTINUOUS
  0
LINE
  8
WHITE
 10
22.795429
 20
160.083782
 30
0.000000
 11
22.053519
 21
161.148797
 31
0.000000
  6
CONTINUOUS
  0
LINE
  8
WHITE
 10
22.053519
 20
161.148797
 30
0.000000
 11
21.249585
 21
162.465510
 31
0.000000
  6
CONTINUOUS
  0
LINE
  8
WHITE
 10
21.249585
 20
162.465510
 30
0.000000
 11
20.336715
 21
163.615067
 31
0.000000
  6
CONTINUOUS
  0
LINE
  8
WHITE
 10
20.336715
 20
163.615067
 30
0.000000
 11
19.692432
 21
164.629367
 31
0.000000
  6
CONTINUOUS
  0
LINE
  8
WHITE
 10
19.692432
 20
164.629367
 30
0.000000
 11
19.036890
 21
165.675618
 31
0.000000
  6
CONTINUOUS
  0
LINE
  8
WHITE
 10
19.036890
 20
165.675618
 30
0.000000
 11
18.206685
 21
166.761274
 31
0.000000
  6
CONTINUOUS
  0
LINE
  8
WHITE
 10
18.206685
 20
166.761274
 30
0.000000
 11
17.699535
 21
167.775574
 31
0.000000
  6
CONTINUOUS
  0
LINE
  8
WHITE
 10
17.699535
 20
167.775574
 30
0.000000
 11
16.553731
 21
169.233174
 31
0.000000
  6
CONTINUOUS
  0
LINE
  8
WHITE
 10
16.553731
 20
169.233174
 30
0.000000
 11
15.939522
 21
170.311324
 31
0.000000
  6
CONTINUOUS
  0
LINE
  8
WHITE
 10
15.939522
 20
170.311324
 30
0.000000
 11
15.113070
 21
171.528484
 31
0.000000
  6
CONTINUOUS
  0
LINE
  8
WHITE
 10
15.113070
 20
171.528484
 30
0.000000
 11
14.425577
 21
172.764408
 31
0.000000
  6
CONTINUOUS
  0
LINE
  8
WHITE
 10
14.425577
 20
172.764408
 30
0.000000
 11
13.839566
 21
173.842609
 31
0.000000
  6
CONTINUOUS
  0
LINE
  8
WHITE
 10
13.839566
 20
173.842609
 30
0.000000
 11
12.966152
 21
175.382824
 31
0.000000
  6
CONTINUOUS
  0
LINE
  8
WHITE
 10
12.966152
 20
175.382824
 30
0.000000
 11
12.526605
 21
176.599984
 31
0.000000
  6
CONTINUOUS
  0
LINE
  8
WHITE
 10
12.526605
 20
176.599984
 30
0.000000
 11
11.301939
 21
179.199584
 31
0.000000
  6
CONTINUOUS
  0
LINE
  8
WHITE
 10
11.301939
 20
179.199584
 30
0.000000
 11
10.437908
 21
181.742840
 31
0.000000
  6
CONTINUOUS
  0
LINE
  8
WHITE
 10
10.437908
 20
181.742840
 30
0.000000
 11
9.292104
 21
184.857147
 31
0.000000
  6
CONTINUOUS
  0
LINE
  8
WHITE
 10
9.292104
 20
184.857147
 30
0.000000
 11
8.877001
 21
186.233957
 31
0.000000
  6
CONTINUOUS
  0
LINE
  8
WHITE
 10
8.877001
 20
186.233957
 30
0.000000
 11
8.215830
 21
187.655854
 31
0.000000
  6
CONTINUOUS
  0
LINE
  8
WHITE
 10
8.215830
 20
187.655854
 30
0.000000
 11
7.825122
 21
188.871137
 31
0.000000
  6
CONTINUOUS
  0
LINE
  8
WHITE
 10
7.825122
 20
188.871137
 30
0.000000
 11
7.456981
 21
190.075162
 31
0.000000
  6
CONTINUOUS
  0
LINE
  8
WHITE
 10
7.456981
 20
190.075162
 30
0.000000
 11
7.100100
 21
191.256619
 31
0.000000
  6
CONTINUOUS
  0
LINE
  8
WHITE
 10
7.100100
 20
191.256619
 30
0.000000
 11
6.339375
 21
192.879499
 31
0.000000
  6
CONTINUOUS
  0
LINE
  8
WHITE
 10
6.339375
 20
192.879499
 30
0.000000
 11
6.035085
 21
193.893799
 31
0.000000
  6
CONTINUOUS
  0
LINE
  8
WHITE
 10
6.035085
 20
193.893799
 30
0.000000
 11
5.426505
 21
195.768377
 31
0.000000
  6
CONTINUOUS
  0
LINE
  8
WHITE
 10
5.426505
 20
195.768377
 30
0.000000
 11
4.817925
 21
197.631697
 31
0.000000
  6
CONTINUOUS
  0
LINE
  8
WHITE
 10
4.817925
 20
197.631697
 30
0.000000
 11
3.747281
 21
200.047202
 31
0.000000
  6
CONTINUOUS
  0
LINE
  8
WHITE
 10
3.747281
 20
200.047202
 30
0.000000
 11
3.871228
 21
201.110340
 31
0.000000
  6
CONTINUOUS
  0
LINE
  8
WHITE
 10
3.871228
 20
201.110340
 30
0.000000
 11
3.499335
 21
202.211059
 31
0.000000
  6
CONTINUOUS
  0
LINE
  8
WHITE
 10
3.499335
 20
202.211059
 30
0.000000
 11
3.245760
 21
203.631079
 31
0.000000
  6
CONTINUOUS
  0
LINE
  8
WHITE
 10
3.245760
 20
203.631079
 30
0.000000
 11
2.992185
 21
205.304674
 31
0.000000
  6
CONTINUOUS
  0
LINE
  8
WHITE
 10
2.992185
 20
205.304674
 30
0.000000
 11
2.272793
 21
208.572951
 31
0.000000
  6
CONTINUOUS
  0
LINE
  8
WHITE
 10
2.272793
 20
208.572951
 30
0.000000
 11
1.733692
 21
211.807453
 31
0.000000
  6
CONTINUOUS
  0
LINE
  8
WHITE
 10
1.733692
 20
211.807453
 30
0.000000
 11
1.521450
 21
214.737664
 31
0.000000
  6
CONTINUOUS
  0
LINE
  8
WHITE
 10
1.521450
 20
214.737664
 30
0.000000
 11
0.969214
 21
217.902635
 31
0.000000
  6
CONTINUOUS
  0
LINE
  8
WHITE
 10
0.969214
 20
217.902635
 30
0.000000
 11
0.721269
 21
220.954968
 31
0.000000
  6
CONTINUOUS
  0
LINE
  8
WHITE
 10
0.721269
 20
220.954968
 30
0.000000
 11
0.608580
 21
223.815649
 31
0.000000
  6
CONTINUOUS
  0
LINE
  8
WHITE
 10
0.608580
 20
223.815649
 30
0.000000
 11
0.507150
 21
224.829949
 31
0.000000
  6
CONTINUOUS
  0
LINE
  8
WHITE
 10
0.507150
 20
224.829949
 30
0.000000
 11
0.507150
 21
226.805957
 31
0.000000
  6
CONTINUOUS
  0
LINE
  8
WHITE
 10
0.507150
 20
226.805957
 30
0.000000
 11
0.358758
 21
229.805648
 31
0.000000
  6
CONTINUOUS
  0
LINE
  8
WHITE
 10
0.358758
 20
229.805648
 30
0.000000
 11
0.368140
 21
231.670844
 31
0.000000
  6
CONTINUOUS
  0
LINE
  8
WHITE
 10
0.368140
 20
231.670844
 30
0.000000
 11
0.000000
 21
233.502214
 31
0.000000
  6
CONTINUOUS
  0
LINE
  8
WHITE
 10
0.000000
 20
233.502214
 30
0.000000
 11
0.522162
 21
234.755077
 31
0.000000
  6
CONTINUOUS
  0
LINE
  8
WHITE
 10
0.522162
 20
234.755077
 30
0.000000
 11
0.601074
 21
236.776171
 31
0.000000
  6
CONTINUOUS
  0
LINE
  8
WHITE
 10
0.601074
 20
236.776171
 30
0.000000
 11
0.683689
 21
238.156735
 31
0.000000
  6
CONTINUOUS
  0
LINE
  8
WHITE
 10
0.683689
 20
238.156735
 30
0.000000
 11
1.014300
 21
239.334439
 31
0.000000
  6
CONTINUOUS
  0
LINE
  8
WHITE
 10
1.014300
 20
239.334439
 30
0.000000
 11
1.134495
 21
241.520813
 31
0.000000
  6
CONTINUOUS
  0
LINE
  8
WHITE
 10
1.134495
 20
241.520813
 30
0.000000
 11
1.267875
 21
242.985919
 31
0.000000
  6
CONTINUOUS
  0
LINE
  8
WHITE
 10
1.267875
 20
242.985919
 30
0.000000
 11
1.421896
 21
244.492357
 31
0.000000
  6
CONTINUOUS
  0
LINE
  8
WHITE
 10
1.421896
 20
244.492357
 30
0.000000
 11
1.675471
 21
245.756479
 31
0.000000
  6
CONTINUOUS
  0
LINE
  8
WHITE
 10
1.675471
 20
245.756479
 30
0.000000
 11
2.130030
 21
246.789544
 31
0.000000
  6
CONTINUOUS
  0
LINE
  8
WHITE
 10
2.130030
 20
246.789544
 30
0.000000
 11
2.231460
 21
248.209564
 31
0.000000
  6
CONTINUOUS
  0
LINE
  8
WHITE
 10
2.231460
 20
248.209564
 30
0.000000
 11
2.434320
 21
249.374132
 31
0.000000
  6
CONTINUOUS
  0
LINE
  8
WHITE
 10
2.434320
 20
249.374132
 30
0.000000
 11
2.535750
 21
250.643884
 31
0.000000
  6
CONTINUOUS
  0
LINE
  8
WHITE
 10
2.535750
 20
250.643884
 30
0.000000
 11
2.791201
 21
251.693887
 31
0.000000
  6
CONTINUOUS
  0
LINE
  8
WHITE
 10
2.791201
 20
251.693887
 30
0.000000
 11
3.142454
 21
252.976774
 31
0.000000
  6
CONTINUOUS
  0
LINE
  8
WHITE
 10
3.142454
 20
252.976774
 30
0.000000
 11
3.467385
 21
254.210822
 31
0.000000
  6
CONTINUOUS
  0
LINE
  8
WHITE
 10
3.467385
 20
254.210822
 30
0.000000
 11
3.550050
 21
255.257072
 31
0.000000
  6
CONTINUOUS
  0
LINE
  8
WHITE
 10
3.550050
 20
255.257072
 30
0.000000
 11
3.856216
 21
256.271372
 31
0.000000
  6
CONTINUOUS
  0
LINE
  8
WHITE
 10
3.856216
 20
256.271372
 30
0.000000
 11
4.399070
 21
258.330046
 31
0.000000
  6
CONTINUOUS
  0
LINE
  8
WHITE
 10
4.399070
 20
258.330046
 30
0.000000
 11
4.847999
 21
260.234648
 31
0.000000
  6
CONTINUOUS
  0
LINE
  8
WHITE
 10
4.847999
 20
260.234648
 30
0.000000
 11
5.477220
 21
261.801184
 31
0.000000
  6
CONTINUOUS
  0
LINE
  8
WHITE
 10
5.477220
 20
261.801184
 30
0.000000
 11
6.018197
 21
263.450385
 31
0.000000
  6
CONTINUOUS
  0
LINE
  8
WHITE
 10
6.018197
 20
263.450385
 30
0.000000
 11
6.440805
 21
264.575497
 31
0.000000
  6
CONTINUOUS
  0
LINE
  8
WHITE
 10
6.440805
 20
264.575497
 30
0.000000
 11
7.049385
 21
265.796410
 31
0.000000
  6
CONTINUOUS
  0
LINE
  8
WHITE
 10
7.049385
 20
265.796410
 30
0.000000
 11
7.659841
 21
267.124382
 31
0.000000
  6
CONTINUOUS
  0
LINE
  8
WHITE
 10
7.659841
 20
267.124382
 30
0.000000
 11
8.322889
 21
268.319025
 31
0.000000
  6
CONTINUOUS
  0
LINE
  8
WHITE
 10
8.322889
 20
268.319025
 30
0.000000
 11
8.991567
 21
269.494852
 31
0.000000
  6
CONTINUOUS
  0
ARC
  8
WHITE
 10
88.234854
 20
225.188672
 30
0.000000
 40
90.788414
 50
134.833228
 51
150.789751
  6
CONTINUOUS
  0
ARC
  8
WHITE
 10
17.128510
 20
296.074931
 30
0.000000
 40
9.625066
 50
-42.499740
 51
-20.934414
  6
CONTINUOUS
  0
ARC
  8
WHITE
 10
24.427897
 20
292.396483
 30
0.000000
 40
1.707199
 50
8.061841
 51
112.922913
  6
CONTINUOUS
  0
ARC
  8
WHITE
 10
23.570143
 20
295.404979
 30
0.000000
 40
1.449000
 50
-119.658174
 51
-82.353171
  6
CONTINUOUS
  0
LINE
  8
WHITE
 10
22.853142
 20
294.145808
 30
0.000000
 11
21.681626
 21
294.812896
 31
0.000000
  6
CONTINUOUS
  0
LINE
  8
WHITE
 10
21.681626
 20
294.812896
 30
0.000000
 11
20.543328
 21
295.611201
 31
0.000000
  6
CONTINUOUS
  0
LINE
  8
WHITE
 10
20.543328
 20
295.611201
 30
0.000000
 11
19.179652
 21
296.749448
 31
0.000000
  6
CONTINUOUS
  0
LINE
  8
WHITE
 10
19.179652
 20
296.749448
 30
0.000000
 11
18.510975
 21
297.808834
 31
0.000000
  6
CONTINUOUS
  0
LINE
  8
WHITE
 10
18.510975
 20
297.808834
 30
0.000000
 11
17.932469
 21
299.279569
 31
0.000000
  6
CONTINUOUS
  0
LINE
  8
WHITE
 10
17.932469
 20
299.279569
 30
0.000000
 11
17.906148
 21
300.682701
 31
0.000000
  6
CONTINUOUS
  0
LINE
  8
WHITE
 10
17.906148
 20
300.682701
 30
0.000000
 11
18.105255
 21
301.916749
 31
0.000000
  6
CONTINUOUS
  0
ARC
  8
WHITE
 10
68.251400
 20
284.608907
 30
0.000000
 40
53.049008
 50
115.224748
 51
160.957988
  6
CONTINUOUS
  0
LINE
  8
WHITE
 10
45.643500
 20
332.599324
 30
0.000000
 11
47.168703
 21
333.316840
 31
0.000000
  6
CONTINUOUS
  0
LINE
  8
WHITE
 10
47.168703
 20
333.316840
 30
0.000000
 11
48.485416
 21
333.916037
 31
0.000000
  6
CONTINUOUS
  0
LINE
  8
WHITE
 10
48.485416
 20
333.916037
 30
0.000000
 11
49.676306
 21
334.650441
 31
0.000000
  6
CONTINUOUS
  0
LINE
  8
WHITE
 10
49.676306
 20
334.650441
 30
0.000000
 11
51.477601
 21
335.337934
 31
0.000000
  6
CONTINUOUS
  0
LINE
  8
WHITE
 10
51.477601
 20
335.337934
 30
0.000000
 11
53.149320
 21
335.946514
 31
0.000000
  6
CONTINUOUS
  0
LINE
  8
WHITE
 10
53.149320
 20
335.946514
 30
0.000000
 11
54.351468
 21
336.701609
 31
0.000000
  6
CONTINUOUS
  0
LINE
  8
WHITE
 10
54.351468
 20
336.701609
 30
0.000000
 11
55.540431
 21
337.364657
 31
0.000000
  6
CONTINUOUS
  0
LINE
  8
WHITE
 10
55.540431
 20
337.364657
 30
0.000000
 11
56.952945
 21
337.721539
 31
0.000000
  6
CONTINUOUS
  0
LINE
  8
WHITE
 10
56.952945
 20
337.721539
 30
0.000000
 11
58.119390
 21
338.431549
 31
0.000000
  6
CONTINUOUS
  0
LINE
  8
WHITE
 10
58.119390
 20
338.431549
 30
0.000000
 11
59.267070
 21
339.445849
 31
0.000000
  6
CONTINUOUS
  0
LINE
  8
WHITE
 10
59.267070
 20
339.445849
 30
0.000000
 11
60.568722
 21
340.493976
 31
0.000000
  6
CONTINUOUS
  0
ARC
  8
WHITE
 10
59.501480
 20
342.005147
 30
0.000000
 40
1.850039
 50
-54.768925
 51
71.213373
  6
CONTINUOUS
  0
LINE
  8
WHITE
 10
60.097275
 20
343.756624
 30
0.000000
 11
58.577701
 21
344.130393
 31
0.000000
  6
CONTINUOUS
  0
LINE
  8
WHITE
 10
58.577701
 20
344.130393
 30
0.000000
 11
56.967957
 21
344.498584
 31
0.000000
  6
CONTINUOUS
  0
LINE
  8
WHITE
 10
56.967957
 20
344.498584
 30
0.000000
 11
55.228635
 21
345.430219
 31
0.000000
  6
CONTINUOUS
  0
LINE
  8
WHITE
 10
55.228635
 20
345.430219
 30
0.000000
 11
53.943872
 21
346.085761
 31
0.000000
  6
CONTINUOUS
  0
LINE
  8
WHITE
 10
53.943872
 20
346.085761
 30
0.000000
 11
51.881445
 21
347.610964
 31
0.000000
  6
CONTINUOUS
  0
LINE
  8
WHITE
 10
51.881445
 20
347.610964
 30
0.000000
 11
50.070717
 21
349.109896
 31
0.000000
  6
CONTINUOUS
  0
LINE
  8
WHITE
 10
50.070717
 20
349.109896
 30
0.000000
 11
48.889260
 21
350.501719
 31
0.000000
  6
CONTINUOUS
  0
LINE
  8
WHITE
 10
48.889260
 20
350.501719
 30
0.000000
 11
47.627014
 21
351.551722
 31
0.000000
  6
CONTINUOUS
  0
LINE
  8
WHITE
 10
47.627014
 20
351.551722
 30
0.000000
 11
46.875672
 21
352.631749
 31
0.000000
  6
CONTINUOUS
  0
LINE
  8
WHITE
 10
46.875672
 20
352.631749
 30
0.000000
 11
46.099935
 21
353.646049
 31
0.000000
  6
CONTINUOUS
  0
LINE
  8
WHITE
 10
46.099935
 20
353.646049
 30
0.000000
 11
44.850825
 21
356.752799
 31
0.000000
  6
CONTINUOUS
  0
LINE
  8
WHITE
 10
44.850825
 20
356.752799
 30
0.000000
 11
43.984917
 21
359.769429
 31
0.000000
  6
CONTINUOUS
  0
LINE
  8
WHITE
 10
43.984917
 20
359.769429
 30
0.000000
 11
43.412040
 21
362.673319
 31
0.000000
  6
CONTINUOUS
  0
LINE
  8
WHITE
 10
43.412040
 20
362.673319
 30
0.000000
 11
42.964987
 21
364.863446
 31
0.000000
  6
CONTINUOUS
  0
LINE
  8
WHITE
 10
42.964987
 20
364.863446
 30
0.000000
 11
43.030714
 21
367.059203
 31
0.000000
  6
CONTINUOUS
  0
LINE
  8
WHITE
 10
43.030714
 20
367.059203
 30
0.000000
 11
43.209180
 21
368.556259
 31
0.000000
  6
CONTINUOUS
  0
LINE
  8
WHITE
 10
43.209180
 20
368.556259
 30
0.000000
 11
43.928572
 21
372.083791
 31
0.000000
  6
CONTINUOUS
  0
LINE
  8
WHITE
 10
43.928572
 20
372.083791
 30
0.000000
 11
44.924108
 21
374.901263
 31
0.000000
  6
CONTINUOUS
  0
LINE
  8
WHITE
 10
44.924108
 20
374.901263
 30
0.000000
 11
46.607085
 21
377.279239
 31
0.000000
  6
CONTINUOUS
  0
LINE
  8
WHITE
 10
46.607085
 20
377.279239
 30
0.000000
 11
47.621385
 21
378.242824
 31
0.000000
  6
CONTINUOUS
  0
LINE
  8
WHITE
 10
47.621385
 20
378.242824
 30
0.000000
 11
49.101502
 21
379.722941
 31
0.000000
  6
CONTINUOUS
  0
LINE
  8
WHITE
 10
49.101502
 20
379.722941
 30
0.000000
 11
50.192838
 21
380.233844
 31
0.000000
  6
CONTINUOUS
  0
LINE
  8
WHITE
 10
50.192838
 20
380.233844
 30
0.000000
 11
51.425010
 21
380.662132
 31
0.000000
  6
CONTINUOUS
  0
LINE
  8
WHITE
 10
51.425010
 20
380.662132
 30
0.000000
 11
53.252626
 21
381.235009
 31
0.000000
  6
CONTINUOUS
  0
LINE
  8
WHITE
 10
53.252626
 20
381.235009
 30
0.000000
 11
54.837927
 21
381.691444
 31
0.000000
  6
CONTINUOUS
  0
LINE
  8
WHITE
 10
54.837927
 20
381.691444
 30
0.000000
 11
56.445795
 21
382.147879
 31
0.000000
  6
CONTINUOUS
  0
LINE
  8
WHITE
 10
56.445795
 20
382.147879
 30
0.000000
 11
57.584042
 21
382.485996
 31
0.000000
  6
CONTINUOUS
  0
LINE
  8
WHITE
 10
57.584042
 20
382.485996
 30
0.000000
 11
58.626540
 21
382.906727
 31
0.000000
  6
CONTINUOUS
  0
LINE
  8
WHITE
 10
58.626540
 20
382.906727
 30
0.000000
 11
60.198705
 21
383.517184
 31
0.000000
  6
CONTINUOUS
  0
LINE
  8
WHITE
 10
60.198705
 20
383.517184
 30
0.000000
 11
61.618725
 21
383.922904
 31
0.000000
  6
CONTINUOUS
  0
LINE
  8
WHITE
 10
61.618725
 20
383.922904
 30
0.000000
 11
62.734455
 21
384.617902
 31
0.000000
  6
CONTINUOUS
  0
LINE
  8
WHITE
 10
62.734455
 20
384.617902
 30
0.000000
 11
63.835173
 21
385.282827
 31
0.000000
  6
CONTINUOUS
  0
LINE
  8
WHITE
 10
63.835173
 20
385.282827
 30
0.000000
 11
65.067345
 21
385.951504
 31
0.000000
  6
CONTINUOUS
  0
LINE
  8
WHITE
 10
65.067345
 20
385.951504
 30
0.000000
 11
66.183075
 21
386.864374
 31
0.000000
  6
CONTINUOUS
  0
LINE
  8
WHITE
 10
66.183075
 20
386.864374
 30
0.000000
 11
67.248090
 21
387.371524
 31
0.000000
  6
CONTINUOUS
  0
LINE
  8
WHITE
 10
67.248090
 20
387.371524
 30
0.000000
 11
68.003186
 21
389.452715
 31
0.000000
  6
CONTINUOUS
  0
LINE
  8
WHITE
 10
68.003186
 20
389.452715
 30
0.000000
 11
68.617395
 21
390.617284
 31
0.000000
  6
CONTINUOUS
  0
LINE
  8
WHITE
 10
68.617395
 20
390.617284
 30
0.000000
 11
68.771416
 21
391.885159
 31
0.000000
  6
CONTINUOUS
  0
LINE
  8
WHITE
 10
68.771416
 20
391.885159
 30
0.000000
 11
68.936697
 21
393.153034
 31
0.000000
  6
CONTINUOUS
  0
LINE
  8
WHITE
 10
68.936697
 20
393.153034
 30
0.000000
 11
69.124545
 21
394.420909
 31
0.000000
  6
CONTINUOUS
  0
LINE
  8
WHITE
 10
69.124545
 20
394.420909
 30
0.000000
 11
69.192148
 21
396.735034
 31
0.000000
  6
CONTINUOUS
  0
LINE
  8
WHITE
 10
69.192148
 20
396.735034
 30
0.000000
 11
68.684998
 21
399.646430
 31
0.000000
  6
CONTINUOUS
  0
LINE
  8
WHITE
 10
68.684998
 20
399.646430
 30
0.000000
 11
67.907385
 21
401.521009
 31
0.000000
  6
CONTINUOUS
  0
LINE
  8
WHITE
 10
67.907385
 20
401.521009
 30
0.000000
 11
67.434062
 21
402.734416
 31
0.000000
  6
CONTINUOUS
  0
LINE
  8
WHITE
 10
67.434062
 20
402.734416
 30
0.000000
 11
65.929500
 21
404.766769
 31
0.000000
  6
CONTINUOUS
  0
LINE
  8
WHITE
 10
65.929500
 20
404.766769
 30
0.000000
 11
64.917076
 21
406.361451
 31
0.000000
  6
CONTINUOUS
  0
LINE
  8
WHITE
 10
64.917076
 20
406.361451
 30
0.000000
 11
63.814482
 21
407.685721
 31
0.000000
  6
CONTINUOUS
  0
LINE
  8
WHITE
 10
63.814482
 20
407.685721
 30
0.000000
 11
62.685616
 21
409.077544
 31
0.000000
  6
CONTINUOUS
  0
LINE
  8
WHITE
 10
62.685616
 20
409.077544
 30
0.000000
 11
61.468456
 21
410.170756
 31
0.000000
  6
CONTINUOUS
  0
LINE
  8
WHITE
 10
61.468456
 20
410.170756
 30
0.000000
 11
59.858712
 21
411.461149
 31
0.000000
  6
CONTINUOUS
  0
LINE
  8
WHITE
 10
59.858712
 20
411.461149
 30
0.000000
 11
58.679131
 21
412.308292
 31
0.000000
  6
CONTINUOUS
  0
LINE
  8
WHITE
 10
58.679131
 20
412.308292
 30
0.000000
 11
57.563401
 21
413.084029
 31
0.000000
  6
CONTINUOUS
  0
LINE
  8
WHITE
 10
57.563401
 20
413.084029
 30
0.000000
 11
56.344365
 21
413.743324
 31
0.000000
  6
CONTINUOUS
  0
LINE
  8
WHITE
 10
56.344365
 20
413.743324
 30
0.000000
 11
55.200437
 21
414.652441
 31
0.000000
  6
CONTINUOUS
  0
LINE
  8
WHITE
 10
55.200437
 20
414.652441
 30
0.000000
 11
54.112905
 21
415.214059
 31
0.000000
  6
CONTINUOUS
  0
LINE
  8
WHITE
 10
54.112905
 20
415.214059
 30
0.000000
 11
52.490025
 21
416.513884
 31
0.000000
  6
CONTINUOUS
  0
LINE
  8
WHITE
 10
52.490025
 20
416.513884
 30
0.000000
 11
51.147041
 21
417.317768
 31
0.000000
  6
CONTINUOUS
  0
LINE
  8
WHITE
 10
51.147041
 20
417.317768
 30
0.000000
 11
49.751415
 21
418.307674
 31
0.000000
  6
CONTINUOUS
  0
LINE
  8
WHITE
 10
49.751415
 20
418.307674
 30
0.000000
 11
48.519243
 21
419.367059
 31
0.000000
  6
CONTINUOUS
  0
LINE
  8
WHITE
 10
48.519243
 20
419.367059
 30
0.000000
 11
47.420401
 21
420.080822
 31
0.000000
  6
CONTINUOUS
  0
LINE
  8
WHITE
 10
47.420401
 20
420.080822
 30
0.000000
 11
46.272721
 21
420.839671
 31
0.000000
  6
CONTINUOUS
  0
LINE
  8
WHITE
 10
46.272721
 20
420.839671
 30
0.000000
 11
45.187065
 21
421.350574
 31
0.000000
  6
CONTINUOUS
  0
LINE
  8
WHITE
 10
45.187065
 20
421.350574
 30
0.000000
 11
44.859186
 21
421.574128
 31
0.000000
  6
CONTINUOUS
  0
ARC
  8
WHITE
 10
45.131277
 20
421.973196
 30
0.000000
 40
0.483000
 50
109.440035
 51
235.713123
  6
CONTINUOUS
  0
LINE
  8
WHITE
 10
44.970525
 20
422.428660
 30
0.000000
 11
45.795645
 21
422.719879
 31
0.000000
  6
CONTINUOUS
  0
LINE
  8
WHITE
 10
45.795645
 20
422.719879
 30
0.000000
 11
47.189344
 21
422.712373
 31
0.000000
  6
CONTINUOUS
  0
LINE
  8
WHITE
 10
47.189344
 20
422.712373
 30
0.000000
 11
49.405792
 21
422.592128
 31
0.000000
  6
CONTINUOUS
  0
LINE
  8
WHITE
 10
49.405792
 20
422.592128
 30
0.000000
 11
50.867145
 21
422.212729
 31
0.000000
  6
CONTINUOUS
  0
LINE
  8
WHITE
 10
50.867145
 20
422.212729
 30
0.000000
 11
51.984751
 21
422.212729
 31
0.000000
  6
CONTINUOUS
  0
LINE
  8
WHITE
 10
51.984751
 20
422.212729
 30
0.000000
 11
53.656470
 21
421.908439
 31
0.000000
  6
CONTINUOUS
  0
LINE
  8
WHITE
 10
53.656470
 20
421.908439
 30
0.000000
 11
57.217779
 21
421.515854
 31
0.000000
  6
CONTINUOUS
  0
LINE
  8
WHITE
 10
57.217779
 20
421.515854
 30
0.000000
 11
60.762199
 21
421.185294
 31
0.000000
  6
CONTINUOUS
  0
LINE
  8
WHITE
 10
60.762199
 20
421.185294
 30
0.000000
 11
64.408050
 21
421.147714
 31
0.000000
  6
CONTINUOUS
  0
LINE
  8
WHITE
 10
64.408050
 20
421.147714
 30
0.000000
 11
65.189416
 21
423.273991
 31
0.000000
  6
CONTINUOUS
  0
LINE
  8
WHITE
 10
65.189416
 20
423.273991
 30
0.000000
 11
64.285979
 21
425.022695
 31
0.000000
  6
CONTINUOUS
  0
LINE
  8
WHITE
 10
64.285979
 20
425.022695
 30
0.000000
 11
63.393750
 21
426.168499
 31
0.000000
  6
CONTINUOUS
  0
LINE
  8
WHITE
 10
63.393750
 20
426.168499
 30
0.000000
 11
62.490262
 21
427.383782
 31
0.000000
  6
CONTINUOUS
  0
LINE
  8
WHITE
 10
62.490262
 20
427.383782
 30
0.000000
 11
61.423371
 21
428.567115
 31
0.000000
  6
CONTINUOUS
  0
LINE
  8
WHITE
 10
61.423371
 20
428.567115
 30
0.000000
 11
60.568722
 21
429.652822
 31
0.000000
  6
CONTINUOUS
  0
LINE
  8
WHITE
 10
60.568722
 20
429.652822
 30
0.000000
 11
59.655852
 21
430.809885
 31
0.000000
  6
CONTINUOUS
  0
LINE
  8
WHITE
 10
59.655852
 20
430.809885
 30
0.000000
 11
58.175734
 21
432.047686
 31
0.000000
  6
CONTINUOUS
  0
LINE
  8
WHITE
 10
58.175734
 20
432.047686
 30
0.000000
 11
57.054375
 21
433.015024
 31
0.000000
  6
CONTINUOUS
  0
LINE
  8
WHITE
 10
57.054375
 20
433.015024
 30
0.000000
 11
56.295526
 21
434.130754
 31
0.000000
  6
CONTINUOUS
  0
LINE
  8
WHITE
 10
56.295526
 20
434.130754
 30
0.000000
 11
55.228635
 21
435.398629
 31
0.000000
  6
CONTINUOUS
  0
LINE
  8
WHITE
 10
55.228635
 20
435.398629
 30
0.000000
 11
54.178632
 21
436.315252
 31
0.000000
  6
CONTINUOUS
  0
LINE
  8
WHITE
 10
54.178632
 20
436.315252
 30
0.000000
 11
53.653558
 21
437.019024
 31
0.000000
  6
CONTINUOUS
  0
ARC
  8
WHITE
 10
54.040684
 20
437.307853
 30
0.000000
 40
0.483000
 50
71.945876
 51
216.726048
  6
CONTINUOUS
  0
LINE
  8
WHITE
 10
54.190373
 20
437.767072
 30
0.000000
 11
54.443516
 21
437.684557
 31
0.000000
  6
CONTINUOUS
  0
LINE
  8
WHITE
 10
54.443516
 20
437.684557
 30
0.000000
 11
56.520904
 21
437.051583
 31
0.000000
  6
CONTINUOUS
  0
LINE
  8
WHITE
 10
56.520904
 20
437.051583
 30
0.000000
 11
58.068675
 21
436.666504
 31
0.000000
  6
CONTINUOUS
  0
LINE
  8
WHITE
 10
58.068675
 20
436.666504
 30
0.000000
 11
59.792985
 21
436.159354
 31
0.000000
  6
CONTINUOUS
  0
LINE
  8
WHITE
 10
59.792985
 20
436.159354
 30
0.000000
 11
62.191602
 21
435.586477
 31
0.000000
  6
CONTINUOUS
  0
LINE
  8
WHITE
 10
62.191602
 20
435.586477
 30
0.000000
 11
63.750631
 21
435.244607
 31
0.000000
  6
CONTINUOUS
  0
LINE
  8
WHITE
 10
63.750631
 20
435.244607
 30
0.000000
 11
65.320920
 21
434.891479
 31
0.000000
  6
CONTINUOUS
  0
LINE
  8
WHITE
 10
65.320920
 20
434.891479
 30
0.000000
 11
66.376553
 21
434.823876
 31
0.000000
  6
CONTINUOUS
  0
LINE
  8
WHITE
 10
66.376553
 20
434.823876
 30
0.000000
 11
67.984421
 21
434.823876
 31
0.000000
  6
CONTINUOUS
  0
LINE
  8
WHITE
 10
67.984421
 20
434.823876
 30
0.000000
 11
69.175260
 21
434.992909
 31
0.000000
  6
CONTINUOUS
  0
LINE
  8
WHITE
 10
69.175260
 20
434.992909
 30
0.000000
 11
70.546441
 21
435.244607
 31
0.000000
  6
CONTINUOUS
  0
LINE
  8
WHITE
 10
70.546441
 20
435.244607
 30
0.000000
 11
71.660295
 21
435.650327
 31
0.000000
  6
CONTINUOUS
  0
LINE
  8
WHITE
 10
71.660295
 20
435.650327
 30
0.000000
 11
71.919437
 21
435.740299
 31
0.000000
  6
CONTINUOUS
  0
ARC
  8
WHITE
 10
71.444184
 20
437.109144
 30
0.000000
 40
1.449000
 50
-70.853391
 51
-5.880206
  6
CONTINUOUS
  0
LINE
  8
WHITE
 10
72.885560
 20
436.960696
 30
0.000000
 11
72.999958
 21
438.071461
 31
0.000000
  6
CONTINUOUS
  0
ARC
  8
WHITE
 10
71.558583
 20
438.219909
 30
0.000000
 40
1.449000
 50
-5.880206
 51
22.217857
  6
CONTINUOUS
  0
LINE
  8
WHITE
 10
72.899999
 20
438.767819
 30
0.000000
 11
72.437908
 21
439.899129
 31
0.000000
  6
CONTINUOUS
  0
LINE
  8
WHITE
 10
72.437908
 20
439.899129
 30
0.000000
 11
71.656542
 21
441.351048
 31
0.000000
  6
CONTINUOUS
  0
LINE
  8
WHITE
 10
71.656542
 20
441.351048
 30
0.000000
 11
71.254575
 21
442.549444
 31
0.000000
  6
CONTINUOUS
  0
LINE
  8
WHITE
 10
71.254575
 20
442.549444
 30
0.000000
 11
70.959667
 21
445.010085
 31
0.000000
  6
CONTINUOUS
  0
LINE
  8
WHITE
 10
70.959667
 20
445.010085
 30
0.000000
 11
71.084665
 21
446.664679
 31
0.000000
  6
CONTINUOUS
  0
ARC
  8
WHITE
 10
72.529548
 20
446.555524
 30
0.000000
 40
1.449000
 50
133.444076
 51
175.679735
  6
CONTINUOUS
  0
LINE
  8
WHITE
 10
71.533149
 20
447.607564
 30
0.000000
 11
72.412668
 21
448.440567
 31
0.000000
  6
CONTINUOUS
  0
ARC
  8
WHITE
 10
73.409067
 20
447.388526
 30
0.000000
 40
1.449000
 50
100.342602
 51
133.444076
  6
CONTINUOUS
  0
LINE
  8
WHITE
 10
73.148923
 20
448.813983
 30
0.000000
 11
73.754622
 21
448.924522
 31
0.000000
  6
CONTINUOUS
  0
LINE
  8
WHITE
 10
73.754622
 20
448.924522
 30
0.000000
 11
75.595424
 21
448.997755
 31
0.000000
  6
CONTINUOUS
  0
LINE
  8
WHITE
 10
75.595424
 20
448.997755
 30
0.000000
 11
77.377955
 21
448.779883
 31
0.000000
  6
CONTINUOUS
  0
LINE
  8
WHITE
 10
77.377955
 20
448.779883
 30
0.000000
 11
78.608250
 21
447.975949
 31
0.000000
  6
CONTINUOUS
  0
LINE
  8
WHITE
 10
78.608250
 20
447.975949
 30
0.000000
 11
79.825410
 21
447.012364
 31
0.000000
  6
CONTINUOUS
  0
LINE
  8
WHITE
 10
79.825410
 20
447.012364
 30
0.000000
 11
80.778809
 21
446.285964
 31
0.000000
  6
CONTINUOUS
  0
ARC
  8
WHITE
 10
79.900653
 20
445.133384
 30
0.000000
 40
1.449000
 50
41.633539
 51
52.696052
  6
CONTINUOUS
  0
LINE
  8
WHITE
 10
80.983649
 20
446.096047
 30
0.000000
 11
82.001192
 21
444.951311
 31
0.000000
  6
CONTINUOUS
  0
ARC
  8
WHITE
 10
83.084188
 20
445.913974
 30
0.000000
 40
1.449000
 50
-138.366461
 51
-125.753058
  6
CONTINUOUS
  0
LINE
  8
WHITE
 10
82.237548
 20
444.738049
 30
0.000000
 11
83.892124
 21
443.546790
 31
0.000000
  6
CONTINUOUS
  0
ARC
  8
WHITE
 10
83.045484
 20
442.370864
 30
0.000000
 40
1.449000
 50
39.335452
 51
54.246942
  6
CONTINUOUS
  0
LINE
  8
WHITE
 10
84.166210
 20
443.289327
 30
0.000000
 11
84.763024
 21
442.561083
 31
0.000000
  6
CONTINUOUS
  0
ARC
  8
WHITE
 10
85.883750
 20
443.479545
 30
0.000000
 40
1.449000
 50
-140.664548
 51
-123.847959
  6
CONTINUOUS
  0
LINE
  8
WHITE
 10
85.076670
 20
442.276124
 30
0.000000
 11
85.988246
 21
441.664771
 31
0.000000
  6
CONTINUOUS
  0
LINE
  8
WHITE
 10
85.988246
 20
441.664771
 30
0.000000
 11
87.495576
 21
440.748428
 31
0.000000
  6
CONTINUOUS
  0
ARC
  8
WHITE
 10
88.248283
 20
441.986585
 30
0.000000
 40
1.449000
 50
-121.296456
 51
-110.982274
  6
CONTINUOUS
  0
LINE
  8
WHITE
 10
87.729426
 20
440.633667
 30
0.000000
 11
88.929716
 21
440.173345
 31
0.000000
  6
CONTINUOUS
  0
LINE
  8
WHITE
 10
88.929716
 20
440.173345
 30
0.000000
 11
90.738328
 21
439.616849
 31
0.000000
  6
CONTINUOUS
  0
ARC
  8
WHITE
 10
90.312198
 20
438.231925
 30
0.000000
 40
1.449000
 50
56.976132
 51
72.897271
  6
CONTINUOUS
  0
LINE
  8
WHITE
 10
91.101886
 20
439.446830
 30
0.000000
 11
91.946295
 21
438.897964
 31
0.000000
  6
CONTINUOUS
  0
LINE
  8
WHITE
 10
91.946295
 20
438.897964
 30
0.000000
 11
92.210248
 21
438.917516
 31
0.000000
  6
CONTINUOUS
  0
ARC
  8
WHITE
 10
92.103208
 20
440.362557
 30
0.000000
 40
1.449000
 50
-85.763605
 51
-10.936866
  6
CONTINUOUS
  0
LINE
  8
WHITE
 10
93.525890
 20
440.087642
 30
0.000000
 11
93.616137
 21
440.554671
 31
0.000000
  6
CONTINUOUS
  0
LINE
  8
WHITE
 10
93.616137
 20
440.554671
 30
0.000000
 11
94.027486
 21
443.597571
 31
0.000000
  6
CONTINUOUS
  0
LINE
  8
WHITE
 10
94.027486
 20
443.597571
 30
0.000000
 11
94.513995
 21
446.031891
 31
0.000000
  6
CONTINUOUS
  0
LINE
  8
WHITE
 10
94.513995
 20
446.031891
 30
0.000000
 11
94.989195
 21
448.432384
 31
0.000000
  6
CONTINUOUS
  0
LINE
  8
WHITE
 10
94.989195
 20
448.432384
 30
0.000000
 11
95.736785
 21
450.911789
 31
0.000000
  6
CONTINUOUS
  0
LINE
  8
WHITE
 10
95.736785
 20
450.911789
 30
0.000000
 11
96.185714
 21
452.825824
 31
0.000000
  6
CONTINUOUS
  0
LINE
  8
WHITE
 10
96.185714
 20
452.825824
 30
0.000000
 11
96.412968
 21
453.945307
 31
0.000000
  6
CONTINUOUS
  0
LINE
  8
WHITE
 10
96.412968
 20
453.945307
 30
0.000000
 11
97.014042
 21
455.868724
 31
0.000000
  6
CONTINUOUS
  0
LINE
  8
WHITE
 10
97.014042
 20
455.868724
 30
0.000000
 11
98.032095
 21
457.611799
 31
0.000000
  6
CONTINUOUS
  0
LINE
  8
WHITE
 10
98.032095
 20
457.611799
 30
0.000000
 11
99.001309
 21
459.276012
 31
0.000000
  6
CONTINUOUS
  0
LINE
  8
WHITE
 10
99.001309
 20
459.276012
 30
0.000000
 11
99.857835
 21
460.297817
 31
0.000000
  6
CONTINUOUS
  0
LINE
  8
WHITE
 10
99.857835
 20
460.297817
 30
0.000000
 11
101.379285
 21
461.415424
 31
0.000000
  6
CONTINUOUS
  0
LINE
  8
WHITE
 10
101.379285
 20
461.415424
 30
0.000000
 11
102.540101
 21
462.322664
 31
0.000000
  6
CONTINUOUS
  0
LINE
  8
WHITE
 10
102.540101
 20
462.322664
 30
0.000000
 11
103.869949
 21
462.773470
 31
0.000000
  6
CONTINUOUS
  0
LINE
  8
WHITE
 10
103.869949
 20
462.773470
 30
0.000000
 11
104.929335
 21
463.190449
 31
0.000000
  6
CONTINUOUS
  0
LINE
  8
WHITE
 10
104.929335
 20
463.190449
 30
0.000000
 11
106.030053
 21
463.254299
 31
0.000000
  6
CONTINUOUS
  0
LINE
  8
WHITE
 10
106.030053
 20
463.254299
 30
0.000000
 11
107.311064
 21
463.430889
 31
0.000000
  6
CONTINUOUS
  0
LINE
  8
WHITE
 10
107.311064
 20
463.430889
 30
0.000000
 11
108.479385
 21
463.697599
 31
0.000000
  6
CONTINUOUS
  0
LINE
  8
WHITE
 10
108.479385
 20
463.697599
 30
0.000000
 11
110.421567
 21
463.697599
 31
0.000000
  6
CONTINUOUS
  0
LINE
  8
WHITE
 10
110.421567
 20
463.697599
 30
0.000000
 11
111.841587
 21
463.429012
 31
0.000000
  6
CONTINUOUS
  0
LINE
  8
WHITE
 10
111.841587
 20
463.429012
 30
0.000000
 11
112.906602
 21
462.617572
 31
0.000000
  6
CONTINUOUS
  0
LINE
  8
WHITE
 10
112.906602
 20
462.617572
 30
0.000000
 11
113.988555
 21
461.225699
 31
0.000000
  6
CONTINUOUS
  0
LINE
  8
WHITE
 10
113.988555
 20
461.225699
 30
0.000000
 11
115.123050
 21
459.031819
 31
0.000000
  6
CONTINUOUS
  0
LINE
  8
WHITE
 10
115.123050
 20
459.031819
 30
0.000000
 11
115.340922
 21
457.812782
 31
0.000000
  6
CONTINUOUS
  0
LINE
  8
WHITE
 10
115.340922
 20
457.812782
 30
0.000000
 11
115.581361
 21
456.582487
 31
0.000000
  6
CONTINUOUS
  0
LINE
  8
WHITE
 10
115.581361
 20
456.582487
 30
0.000000
 11
115.833060
 21
455.329624
 31
0.000000
  6
CONTINUOUS
  0
LINE
  8
WHITE
 10
115.833060
 20
455.329624
 30
0.000000
 11
116.122338
 21
454.078637
 31
0.000000
  6
CONTINUOUS
  0
LINE
  8
WHITE
 10
116.122338
 20
454.078637
 30
0.000000
 11
116.287619
 21
452.219121
 31
0.000000
  6
CONTINUOUS
  0
LINE
  8
WHITE
 10
116.287619
 20
452.219121
 30
0.000000
 11
116.340210
 21
450.460984
 31
0.000000
  6
CONTINUOUS
  0
LINE
  8
WHITE
 10
116.340210
 20
450.460984
 30
0.000000
 11
116.336955
 21
450.067238
 31
0.000000
  6
CONTINUOUS
  0
ARC
  8
WHITE
 10
117.302922
 20
450.059252
 30
0.000000
 40
0.966000
 50
179.526316
 51
269.649919
  6
CONTINUOUS
  0
LINE
  8
WHITE
 10
117.297019
 20
449.093270
 30
0.000000
 11
117.557370
 21
449.091679
 31
0.000000
  6
CONTINUOUS
  0
LINE
  8
WHITE
 10
117.557370
 20
449.091679
 30
0.000000
 11
118.588558
 21
449.486140
 31
0.000000
  6
CONTINUOUS
  0
LINE
  8
WHITE
 10
118.588558
 20
449.486140
 30
0.000000
 11
120.137496
 21
449.945095
 31
0.000000
  6
CONTINUOUS
  0
ARC
  8
WHITE
 10
120.411931
 20
449.018898
 30
0.000000
 40
0.966000
 50
91.173940
 51
106.504716
  6
CONTINUOUS
  0
LINE
  8
WHITE
 10
120.392140
 20
449.984695
 30
0.000000
 11
121.360995
 21
450.004549
 31
0.000000
  6
CONTINUOUS
  0
LINE
  8
WHITE
 10
121.360995
 20
450.004549
 30
0.000000
 11
122.255081
 21
450.093957
 31
0.000000
  6
CONTINUOUS
  0
ARC
  8
WHITE
 10
122.158960
 20
451.055163
 30
0.000000
 40
0.966000
 50
-84.289407
 51
-70.031938
  6
CONTINUOUS
  0
LINE
  8
WHITE
 10
122.488846
 20
450.147236
 30
0.000000
 11
123.317736
 21
450.448405
 31
0.000000
  6
CONTINUOUS
  0
ARC
  8
WHITE
 10
123.647622
 20
449.540477
 30
0.000000
 40
0.966000
 50
92.040297
 51
109.968062
  6
CONTINUOUS
  0
LINE
  8
WHITE
 10
123.613230
 20
450.505865
 30
0.000000
 11
124.922584
 21
450.552511
 31
0.000000
  6
CONTINUOUS
  0
ARC
  8
WHITE
 10
124.956976
 20
449.587123
 30
0.000000
 40
0.966000
 50
77.873124
 51
92.040297
  6
CONTINUOUS
  0
LINE
  8
WHITE
 10
125.159911
 20
450.531567
 30
0.000000
 11
126.432495
 21
450.258124
 31
0.000000
  6
CONTINUOUS
  0
LINE
  8
WHITE
 10
126.432495
 20
450.258124
 30
0.000000
 11
127.925747
 21
450.109732
 31
0.000000
  6
CONTINUOUS
  0
LINE
  8
WHITE
 10
127.925747
 20
450.109732
 30
0.000000
 11
129.013331
 21
450.000796
 31
0.000000
  6
CONTINUOUS
  0
LINE
  8
WHITE
 10
129.013331
 20
450.000796
 30
0.000000
 11
130.236120
 21
449.598829
 31
0.000000
  6
CONTINUOUS
  0
LINE
  8
WHITE
 10
130.236120
 20
449.598829
 30
0.000000
 11
131.308641
 21
448.732921
 31
0.000000
  6
CONTINUOUS
  0
LINE
  8
WHITE
 10
131.308641
 20
448.732921
 30
0.000000
 11
132.469456
 21
448.329077
 31
0.000000
  6
CONTINUOUS
  0
LINE
  8
WHITE
 10
132.469456
 20
448.329077
 30
0.000000
 11
133.838761
 21
446.693062
 31
0.000000
  6
CONTINUOUS
  0
LINE
  8
WHITE
 10
133.838761
 20
446.693062
 30
0.000000
 11
134.699040
 21
444.882334
 31
0.000000
  6
CONTINUOUS
  0
LINE
  8
WHITE
 10
134.699040
 20
444.882334
 30
0.000000
 11
134.903776
 21
443.612582
 31
0.000000
  6
CONTINUOUS
  0
LINE
  8
WHITE
 10
134.903776
 20
443.612582
 30
0.000000
 11
134.749755
 21
442.448014
 31
0.000000
  6
CONTINUOUS
  0
LINE
  8
WHITE
 10
134.749755
 20
442.448014
 30
0.000000
 11
134.201272
 21
441.243989
 31
0.000000
  6
CONTINUOUS
  0
LINE
  8
WHITE
 10
134.201272
 20
441.243989
 30
0.000000
 11
134.039745
 21
440.064409
 31
0.000000
  6
CONTINUOUS
  0
LINE
  8
WHITE
 10
134.039745
 20
440.064409
 30
0.000000
 11
133.585186
 21
438.847249
 31
0.000000
  6
CONTINUOUS
  0
LINE
  8
WHITE
 10
133.585186
 20
438.847249
 30
0.000000
 11
132.811326
 21
437.466685
 31
0.000000
  6
CONTINUOUS
  0
LINE
  8
WHITE
 10
132.811326
 20
437.466685
 30
0.000000
 11
132.242203
 21
436.424188
 31
0.000000
  6
CONTINUOUS
  0
LINE
  8
WHITE
 10
132.242203
 20
436.424188
 30
0.000000
 11
131.210964
 21
434.818246
 31
0.000000
  6
CONTINUOUS
  0
LINE
  8
WHITE
 10
131.210964
 20
434.818246
 30
0.000000
 11
130.388265
 21
433.710022
 31
0.000000
  6
CONTINUOUS
  0
LINE
  8
WHITE
 10
130.388265
 20
433.710022
 30
0.000000
 11
130.276109
 21
433.488728
 31
0.000000
  6
CONTINUOUS
  0
ARC
  8
WHITE
 10
131.568589
 20
432.833674
 30
0.000000
 40
1.449000
 50
153.123241
 51
221.587194
  6
CONTINUOUS
  0
LINE
  8
WHITE
 10
130.484815
 20
431.871887
 30
0.000000
 11
130.867217
 21
431.440982
 31
0.000000
  6
CONTINUOUS
  0
LINE
  8
WHITE
 10
130.867217
 20
431.440982
 30
0.000000
 11
132.076872
 21
431.288837
 31
0.000000
  6
CONTINUOUS
  0
LINE
  8
WHITE
 10
132.076872
 20
431.288837
 30
0.000000
 11
133.624310
 21
431.251305
 31
0.000000
  6
CONTINUOUS
  0
ARC
  8
WHITE
 10
133.659444
 20
432.699879
 30
0.000000
 40
1.449000
 50
-91.389407
 51
-55.713123
  6
CONTINUOUS
  0
LINE
  8
WHITE
 10
134.475719
 20
431.502676
 30
0.000000
 11
135.206190
 21
432.000724
 31
0.000000
  6
CONTINUOUS
  0
LINE
  8
WHITE
 10
135.206190
 20
432.000724
 30
0.000000
 11
136.342566
 21
433.005391
 31
0.000000
  6
CONTINUOUS
  0
ARC
  8
WHITE
 10
137.302320
 20
431.919816
 30
0.000000
 40
1.449000
 50
118.056913
 51
131.479799
  6
CONTINUOUS
  0
LINE
  8
WHITE
 10
136.620785
 20
433.198530
 30
0.000000
 11
137.894085
 21
433.877179
 31
0.000000
  6
CONTINUOUS
  0
LINE
  8
WHITE
 10
137.894085
 20
433.877179
 30
0.000000
 11
139.263390
 21
434.318602
 31
0.000000
  6
CONTINUOUS
  0
LINE
  8
WHITE
 10
139.263390
 20
434.318602
 30
0.000000
 11
140.886270
 21
434.637904
 31
0.000000
  6
CONTINUOUS
  0
LINE
  8
WHITE
 10
140.886270
 20
434.637904
 30
0.000000
 11
141.923087
 21
435.006044
 31
0.000000
  6
CONTINUOUS
  0
LINE
  8
WHITE
 10
141.923087
 20
435.006044
 30
0.000000
 11
143.386317
 21
435.332902
 31
0.000000
  6
CONTINUOUS
  0
LINE
  8
WHITE
 10
143.386317
 20
435.332902
 30
0.000000
 11
144.791325
 21
435.550774
 31
0.000000
  6
CONTINUOUS
  0
LINE
  8
WHITE
 10
144.791325
 20
435.550774
 30
0.000000
 11
146.534400
 21
435.408011
 31
0.000000
  6
CONTINUOUS
  0
LINE
  8
WHITE
 10
146.534400
 20
435.408011
 30
0.000000
 11
147.646377
 21
435.270878
 31
0.000000
  6
CONTINUOUS
  0
LINE
  8
WHITE
 10
147.646377
 20
435.270878
 30
0.000000
 11
148.848525
 21
434.739334
 31
0.000000
  6
CONTINUOUS
  0
LINE
  8
WHITE
 10
148.848525
 20
434.739334
 30
0.000000
 11
150.249780
 21
434.391835
 31
0.000000
  6
CONTINUOUS
  0
LINE
  8
WHITE
 10
150.249780
 20
434.391835
 30
0.000000
 11
151.444372
 21
433.691207
 31
0.000000
  6
CONTINUOUS
  0
LINE
  8
WHITE
 10
151.444372
 20
433.691207
 30
0.000000
 11
152.905725
 21
432.507874
 31
0.000000
  6
CONTINUOUS
  0
LINE
  8
WHITE
 10
152.905725
 20
432.507874
 30
0.000000
 11
154.124761
 21
430.933832
 31
0.000000
  6
CONTINUOUS
  0
LINE
  8
WHITE
 10
154.124761
 20
430.933832
 30
0.000000
 11
154.784056
 21
429.008539
 31
0.000000
  6
CONTINUOUS
  0
LINE
  8
WHITE
 10
154.784056
 20
429.008539
 30
0.000000
 11
154.543617
 21
427.674937
 31
0.000000
  6
CONTINUOUS
  0
LINE
  8
WHITE
 10
154.543617
 20
427.674937
 30
0.000000
 11
153.970740
 21
426.067069
 31
0.000000
  6
CONTINUOUS
  0
LINE
  8
WHITE
 10
153.970740
 20
426.067069
 30
0.000000
 11
153.519934
 21
424.829268
 31
0.000000
  6
CONTINUOUS
  0
LINE
  8
WHITE
 10
153.519934
 20
424.829268
 30
0.000000
 11
153.305816
 21
423.433642
 31
0.000000
  6
CONTINUOUS
  0
LINE
  8
WHITE
 10
153.305816
 20
423.433642
 30
0.000000
 11
154.275030
 21
422.162014
 31
0.000000
  6
CONTINUOUS
  0
LINE
  8
WHITE
 10
154.275030
 20
422.162014
 30
0.000000
 11
155.811492
 21
421.553434
 31
0.000000
  6
CONTINUOUS
  0
LINE
  8
WHITE
 10
155.811492
 20
421.553434
 30
0.000000
 11
156.861495
 21
421.081987
 31
0.000000
  6
CONTINUOUS
  0
LINE
  8
WHITE
 10
156.861495
 20
421.081987
 30
0.000000
 11
158.523831
 21
420.447086
 31
0.000000
  6
CONTINUOUS
  0
LINE
  8
WHITE
 10
158.523831
 20
420.447086
 30
0.000000
 11
159.746621
 21
419.802803
 31
0.000000
  6
CONTINUOUS
  0
LINE
  8
WHITE
 10
159.746621
 20
419.802803
 30
0.000000
 11
161.172270
 21
419.271259
 31
0.000000
  6
CONTINUOUS
  0
LINE
  8
WHITE
 10
161.172270
 20
419.271259
 30
0.000000
 11
162.490860
 21
418.662679
 31
0.000000
  6
CONTINUOUS
  0
LINE
  8
WHITE
 10
162.490860
 20
418.662679
 30
0.000000
 11
163.672317
 21
418.191232
 31
0.000000
  6
CONTINUOUS
  0
LINE
  8
WHITE
 10
163.672317
 20
418.191232
 30
0.000000
 11
165.533760
 21
416.989084
 31
0.000000
  6
CONTINUOUS
  0
LINE
  8
WHITE
 10
165.533760
 20
416.989084
 30
0.000000
 11
166.904941
 21
415.905304
 31
0.000000
  6
CONTINUOUS
  0
LINE
  8
WHITE
 10
166.904941
 20
415.905304
 30
0.000000
 11
167.359500
 21
414.706909
 31
0.000000
  6
CONTINUOUS
  0
LINE
  8
WHITE
 10
167.359500
 20
414.706909
 30
0.000000
 11
168.005660
 21
411.181253
 31
0.000000
  6
CONTINUOUS
  0
LINE
  8
WHITE
 10
168.005660
 20
411.181253
 30
0.000000
 11
168.048869
 21
407.903593
 31
0.000000
  6
CONTINUOUS
  0
LINE
  8
WHITE
 10
168.048869
 20
407.903593
 30
0.000000
 11
167.562360
 21
405.020344
 31
0.000000
  6
CONTINUOUS
  0
LINE
  8
WHITE
 10
167.562360
 20
405.020344
 30
0.000000
 11
167.562360
 21
402.890314
 31
0.000000
  6
CONTINUOUS
  0
LINE
  8
WHITE
 10
167.562360
 20
402.890314
 30
0.000000
 11
167.265576
 21
401.832805
 31
0.000000
  6
CONTINUOUS
  0
LINE
  8
WHITE
 10
167.265576
 20
401.832805
 30
0.000000
 11
166.878671
 21
400.617521
 31
0.000000
  6
CONTINUOUS
  0
LINE
  8
WHITE
 10
166.878671
 20
400.617521
 30
0.000000
 11
165.605116
 21
399.103577
 31
0.000000
  6
CONTINUOUS
  0
LINE
  8
WHITE
 10
165.605116
 20
399.103577
 30
0.000000
 11
164.519460
 21
398.123104
 31
0.000000
  6
CONTINUOUS
  0
LINE
  8
WHITE
 10
164.519460
 20
398.123104
 30
0.000000
 11
162.693720
 21
397.360502
 31
0.000000
  6
CONTINUOUS
  0
LINE
  8
WHITE
 10
162.693720
 20
397.360502
 30
0.000000
 11
160.922448
 21
396.278599
 31
0.000000
  6
CONTINUOUS
  0
LINE
  8
WHITE
 10
160.922448
 20
396.278599
 30
0.000000
 11
159.849927
 21
395.859693
 31
0.000000
  6
CONTINUOUS
  0
LINE
  8
WHITE
 10
159.849927
 20
395.859693
 30
0.000000
 11
158.027940
 21
395.065192
 31
0.000000
  6
CONTINUOUS
  0
LINE
  8
WHITE
 10
158.027940
 20
395.065192
 30
0.000000
 11
156.100770
 21
394.218049
 31
0.000000
  6
CONTINUOUS
  0
LINE
  8
WHITE
 10
156.100770
 20
394.218049
 30
0.000000
 11
154.579320
 21
393.812329
 31
0.000000
  6
CONTINUOUS
  0
LINE
  8
WHITE
 10
154.579320
 20
393.812329
 30
0.000000
 11
151.500717
 21
393.577518
 31
0.000000
  6
CONTINUOUS
  0
LINE
  8
WHITE
 10
151.500717
 20
393.577518
 30
0.000000
 11
148.512285
 21
393.354017
 31
0.000000
  6
CONTINUOUS
  0
LINE
  8
WHITE
 10
148.512285
 20
393.354017
 30
0.000000
 11
145.704195
 21
393.254464
 31
0.000000
  6
CONTINUOUS
  0
LINE
  8
WHITE
 10
145.704195
 20
393.254464
 30
0.000000
 11
143.820234
 21
393.468583
 31
0.000000
  6
CONTINUOUS
  0
LINE
  8
WHITE
 10
143.820234
 20
393.468583
 30
0.000000
 11
142.610580
 21
393.558754
 31
0.000000
  6
CONTINUOUS
  0
LINE
  8
WHITE
 10
142.610580
 20
393.558754
 30
0.000000
 11
140.707804
 21
393.750355
 31
0.000000
  6
CONTINUOUS
  0
LINE
  8
WHITE
 10
140.707804
 20
393.750355
 30
0.000000
 11
138.850164
 21
394.077163
 31
0.000000
  6
CONTINUOUS
  0
LINE
  8
WHITE
 10
138.850164
 20
394.077163
 30
0.000000
 11
137.082645
 21
394.471624
 31
0.000000
  6
CONTINUOUS
  0
LINE
  8
WHITE
 10
137.082645
 20
394.471624
 30
0.000000
 11
135.764055
 21
394.978774
 31
0.000000
  6
CONTINUOUS
  0
LINE
  8
WHITE
 10
135.764055
 20
394.978774
 30
0.000000
 11
134.471786
 21
395.114031
 31
0.000000
  6
CONTINUOUS
  0
LINE
  8
WHITE
 10
134.471786
 20
395.114031
 30
0.000000
 11
133.371068
 21
395.384494
 31
0.000000
  6
CONTINUOUS
  0
LINE
  8
WHITE
 10
133.371068
 20
395.384494
 30
0.000000
 11
131.519007
 21
396.041912
 31
0.000000
  6
CONTINUOUS
  0
LINE
  8
WHITE
 10
131.519007
 20
396.041912
 30
0.000000
 11
130.142196
 21
396.410053
 31
0.000000
  6
CONTINUOUS
  0
LINE
  8
WHITE
 10
130.142196
 20
396.410053
 30
0.000000
 11
128.816100
 21
397.007374
 31
0.000000
  6
CONTINUOUS
  0
LINE
  8
WHITE
 10
128.816100
 20
397.007374
 30
0.000000
 11
126.804388
 21
397.980341
 31
0.000000
  6
CONTINUOUS
  0
LINE
  8
WHITE
 10
126.804388
 20
397.980341
 30
0.000000
 11
124.894157
 21
398.908223
 31
0.000000
  6
CONTINUOUS
  0
LINE
  8
WHITE
 10
124.894157
 20
398.908223
 30
0.000000
 11
123.136020
 21
399.695269
 31
0.000000
  6
CONTINUOUS
  0
LINE
  8
WHITE
 10
123.136020
 20
399.695269
 30
0.000000
 11
121.969575
 21
400.050274
 31
0.000000
  6
CONTINUOUS
  0
LINE
  8
WHITE
 10
121.969575
 20
400.050274
 30
0.000000
 11
120.823771
 21
400.424043
 31
0.000000
  6
CONTINUOUS
  0
LINE
  8
WHITE
 10
120.823771
 20
400.424043
 30
0.000000
 11
119.411170
 21
400.411421
 31
0.000000
  6
CONTINUOUS
  0
ARC
  8
WHITE
 10
119.415485
 20
399.928440
 30
0.000000
 40
0.483000
 50
90.511964
 51
200.323137
  6
CONTINUOUS
  0
LINE
  8
WHITE
 10
118.962553
 20
399.760687
 30
0.000000
 11
119.230965
 21
399.035974
 31
0.000000
  6
CONTINUOUS
  0
ARC
  8
WHITE
 10
-38.545475
 20
330.321175
 30
0.000000
 40
172.090467
 50
-12.771243
 51
23.534090
  6
CONTINUOUS
  0
ARC
  8
WHITE
 10
664.195230
 20
195.352226
 30
0.000000
 40
543.618463
 50
169.729285
 51
175.004106
  6
CONTINUOUS
  0
ARC
  8
WHITE
 10
126.558820
 20
242.792642
 30
0.000000
 40
3.918085
 50
-178.541097
 51
-21.429233
  6
CONTINUOUS
  0
LINE
  8
WHITE
 10
130.206046
 20
241.361162
 30
0.000000
 11
131.094522
 21
243.891283
 31
0.000000
  6
CONTINUOUS
  0
LINE
  8
WHITE
 10
131.094522
 20
243.891283
 30
0.000000
 11
131.845865
 21
245.918007
 31
0.000000
  6
CONTINUOUS
  0
LINE
  8
WHITE
 10
131.845865
 20
245.918007
 30
0.000000
 11
132.619725
 21
247.854559
 31
0.000000
  6
CONTINUOUS
  0
LINE
  8
WHITE
 10
132.619725
 20
247.854559
 30
0.000000
 11
133.611508
 21
250.129228
 31
0.000000
  6
CONTINUOUS
  0
LINE
  8
WHITE
 10
133.611508
 20
250.129228
 30
0.000000
 11
134.146804
 21
251.631863
 31
0.000000
  6
CONTINUOUS
  0
LINE
  8
WHITE
 10
134.146804
 20
251.631863
 30
0.000000
 11
134.851185
 21
252.976774
 31
0.000000
  6
CONTINUOUS
  0
LINE
  8
WHITE
 10
134.851185
 20
252.976774
 30
0.000000
 11
135.459765
 21
254.295364
 31
0.000000
  6
CONTINUOUS
  0
LINE
  8
WHITE
 10
135.459765
 20
254.295364
 30
0.000000
 11
136.504139
 21
256.106092
 31
0.000000
  6
CONTINUOUS
  0
LINE
  8
WHITE
 10
136.504139
 20
256.106092
 30
0.000000
 11
137.229161
 21
257.582457
 31
0.000000
  6
CONTINUOUS
  0
LINE
  8
WHITE
 10
137.229161
 20
257.582457
 30
0.000000
 11
137.944800
 21
258.844702
 31
0.000000
  6
CONTINUOUS
  0
LINE
  8
WHITE
 10
137.944800
 20
258.844702
 30
0.000000
 11
138.662316
 21
260.245907
 31
0.000000
  6
CONTINUOUS
  0
LINE
  8
WHITE
 10
138.662316
 20
260.245907
 30
0.000000
 11
139.334746
 21
261.699754
 31
0.000000
  6
CONTINUOUS
  0
LINE
  8
WHITE
 10
139.334746
 20
261.699754
 30
0.000000
 11
140.480550
 21
263.626924
 31
0.000000
  6
CONTINUOUS
  0
LINE
  8
WHITE
 10
140.480550
 20
263.626924
 30
0.000000
 11
141.241275
 21
264.793369
 31
0.000000
  6
CONTINUOUS
  0
LINE
  8
WHITE
 10
141.241275
 20
264.793369
 30
0.000000
 11
142.088418
 21
266.265980
 31
0.000000
  6
CONTINUOUS
  0
LINE
  8
WHITE
 10
142.088418
 20
266.265980
 30
0.000000
 11
143.082027
 21
267.689753
 31
0.000000
  6
CONTINUOUS
  0
ARC
  8
WHITE
 10
230.599406
 20
195.084633
 30
0.000000
 40
113.713655
 50
100.379340
 51
140.320627
  6
CONTINUOUS
  0
LINE
  8
WHITE
 10
210.112245
 20
306.937534
 30
0.000000
 11
211.534141
 21
307.055852
 31
0.000000
  6
CONTINUOUS
  0
LINE
  8
WHITE
 10
211.534141
 20
307.055852
 30
0.000000
 11
214.787407
 21
307.388339
 31
0.000000
  6
CONTINUOUS
  0
LINE
  8
WHITE
 10
214.787407
 20
307.388339
 30
0.000000
 11
217.422711
 21
307.501028
 31
0.000000
  6
CONTINUOUS
  0
LINE
  8
WHITE
 10
217.422711
 20
307.501028
 30
0.000000
 11
220.204530
 21
307.546114
 31
0.000000
  6
CONTINUOUS
  0
LINE
  8
WHITE
 10
220.204530
 20
307.546114
 30
0.000000
 11
221.675265
 21
307.546114
 31
0.000000
  6
CONTINUOUS
  0
LINE
  8
WHITE
 10
221.675265
 20
307.546114
 30
0.000000
 11
225.274154
 21
307.658803
 31
0.000000
  6
CONTINUOUS
  0
LINE
  8
WHITE
 10
225.274154
 20
307.658803
 30
0.000000
 11
228.929386
 21
307.517916
 31
0.000000
  6
CONTINUOUS
  0
LINE
  8
WHITE
 10
228.929386
 20
307.517916
 30
0.000000
 11
232.731135
 21
307.241824
 31
0.000000
  6
CONTINUOUS
  0
LINE
  8
WHITE
 10
232.731135
 20
307.241824
 30
0.000000
 11
234.470457
 21
306.937534
 31
0.000000
  6
CONTINUOUS
  0
LINE
  8
WHITE
 10
234.470457
 20
306.937534
 30
0.000000
 11
236.296197
 21
306.633244
 31
0.000000
  6
CONTINUOUS
  0
LINE
  8
WHITE
 10
236.296197
 20
306.633244
 30
0.000000
 11
238.208355
 21
306.328954
 31
0.000000
  6
CONTINUOUS
  0
LINE
  8
WHITE
 10
238.208355
 20
306.328954
 30
0.000000
 11
239.243296
 21
306.064120
 31
0.000000
  6
CONTINUOUS
  0
LINE
  8
WHITE
 10
239.243296
 20
306.064120
 30
0.000000
 11
240.605095
 21
305.833063
 31
0.000000
  6
CONTINUOUS
  0
LINE
  8
WHITE
 10
240.605095
 20
305.833063
 30
0.000000
 11
242.113410
 21
305.568229
 31
0.000000
  6
CONTINUOUS
  0
LINE
  8
WHITE
 10
242.113410
 20
305.568229
 30
0.000000
 11
246.178116
 21
304.589632
 31
0.000000
  6
CONTINUOUS
  0
LINE
  8
WHITE
 10
246.178116
 20
304.589632
 30
0.000000
 11
250.456991
 21
303.487037
 31
0.000000
  6
CONTINUOUS
  0
LINE
  8
WHITE
 10
250.456991
 20
303.487037
 30
0.000000
 11
254.792160
 21
302.271754
 31
0.000000
  6
CONTINUOUS
  0
LINE
  8
WHITE
 10
254.792160
 20
302.271754
 30
0.000000
 11
256.747528
 21
301.612459
 31
0.000000
  6
CONTINUOUS
  0
LINE
  8
WHITE
 10
256.747528
 20
301.612459
 30
0.000000
 11
258.973307
 21
300.986991
 31
0.000000
  6
CONTINUOUS
  0
LINE
  8
WHITE
 10
258.973307
 20
300.986991
 30
0.000000
 11
261.334395
 21
300.141724
 31
0.000000
  6
CONTINUOUS
  0
LINE
  8
WHITE
 10
261.334395
 20
300.141724
 30
0.000000
 11
262.602270
 21
299.634574
 31
0.000000
  6
CONTINUOUS
  0
LINE
  8
WHITE
 10
262.602270
 20
299.634574
 30
0.000000
 11
263.755580
 21
299.403516
 31
0.000000
  6
CONTINUOUS
  0
LINE
  8
WHITE
 10
263.755580
 20
299.403516
 30
0.000000
 11
265.134267
 21
298.868219
 31
0.000000
  6
CONTINUOUS
  0
LINE
  8
WHITE
 10
265.134267
 20
298.868219
 30
0.000000
 11
266.659470
 21
298.113124
 31
0.000000
  6
CONTINUOUS
  0
LINE
  8
WHITE
 10
266.659470
 20
298.113124
 30
0.000000
 11
268.068231
 21
297.669824
 31
0.000000
  6
CONTINUOUS
  0
LINE
  8
WHITE
 10
268.068231
 20
297.669824
 30
0.000000
 11
269.354871
 21
297.123218
 31
0.000000
  6
CONTINUOUS
  0
LINE
  8
WHITE
 10
269.354871
 20
297.123218
 30
0.000000
 11
271.725341
 21
296.246051
 31
0.000000
  6
CONTINUOUS
  0
LINE
  8
WHITE
 10
271.725341
 20
296.246051
 30
0.000000
 11
273.291876
 21
295.584880
 31
0.000000
  6
CONTINUOUS
  0
LINE
  8
WHITE
 10
273.291876
 20
295.584880
 30
0.000000
 11
274.926015
 21
294.867364
 31
0.000000
  6
CONTINUOUS
  0
LINE
  8
WHITE
 10
274.926015
 20
294.867364
 30
0.000000
 11
276.346035
 21
294.446632
 31
0.000000
  6
CONTINUOUS
  0
LINE
  8
WHITE
 10
276.346035
 20
294.446632
 30
0.000000
 11
277.884373
 21
293.845558
 31
0.000000
  6
CONTINUOUS
  0
LINE
  8
WHITE
 10
277.884373
 20
293.845558
 30
0.000000
 11
278.949388
 21
293.387247
 31
0.000000
  6
CONTINUOUS
  0
LINE
  8
WHITE
 10
278.949388
 20
293.387247
 30
0.000000
 11
280.251090
 21
292.940194
 31
0.000000
  6
CONTINUOUS
  0
LINE
  8
WHITE
 10
280.251090
 20
292.940194
 30
0.000000
 11
281.426917
 21
292.186975
 31
0.000000
  6
CONTINUOUS
  0
LINE
  8
WHITE
 10
281.426917
 20
292.186975
 30
0.000000
 11
282.555782
 21
291.674195
 31
0.000000
  6
CONTINUOUS
  0
ARC
  8
WHITE
 10
226.732172
 20
197.846764
 30
0.000000
 40
109.178122
 50
11.089105
 51
59.249028
  6
CONTINUOUS
  0
ARC
  8
WHITE
 10
265.870577
 20
206.643701
 30
0.000000
 40
69.087335
 50
-9.776881
 51
10.172670
  6
CONTINUOUS
  0
LINE
  8
WHITE
 10
333.954522
 20
194.911852
 30
0.000000
 11
333.466137
 21
193.067347
 31
0.000000
  6
CONTINUOUS
  0
LINE
  8
WHITE
 10
333.466137
 20
193.067347
 30
0.000000
 11
332.893260
 21
191.966629
 31
0.000000
  6
CONTINUOUS
  0
ARC
  8
WHITE
 10
329.142576
 20
195.694789
 30
0.000000
 40
5.288365
 50
-152.974963
 51
-44.827439
  6
CONTINUOUS
  0
ARC
  8
WHITE
 10
322.766956
 20
191.845336
 30
0.000000
 40
2.205372
 50
40.988698
 51
208.288527
  6
CONTINUOUS
  0
ARC
  8
WHITE
 10
275.795130
 20
176.180361
 30
0.000000
 40
47.343694
 50
-11.475637
 51
17.987043
  6
CONTINUOUS
  0
LINE
  8
WHITE
 10
322.192395
 20
166.761274
 30
0.000000
 11
321.903117
 21
165.461448
 31
0.000000
  6
CONTINUOUS
  0
LINE
  8
WHITE
 10
321.903117
 20
165.461448
 30
0.000000
 11
321.681492
 21
163.938122
 31
0.000000
  6
CONTINUOUS
  0
LINE
  8
WHITE
 10
321.681492
 20
163.938122
 30
0.000000
 11
321.469250
 21
162.906934
 31
0.000000
  6
CONTINUOUS
  0
LINE
  8
WHITE
 10
321.469250
 20
162.906934
 30
0.000000
 11
320.975235
 21
160.996652
 31
0.000000
  6
CONTINUOUS
  0
LINE
  8
WHITE
 10
320.975235
 20
160.996652
 30
0.000000
 11
320.622106
 21
159.723148
 31
0.000000
  6
CONTINUOUS
  0
LINE
  8
WHITE
 10
320.622106
 20
159.723148
 30
0.000000
 11
320.366655
 21
158.190439
 31
0.000000
  6
CONTINUOUS
  0
LINE
  8
WHITE
 10
320.366655
 20
158.190439
 30
0.000000
 11
319.960935
 21
156.973279
 31
0.000000
  6
CONTINUOUS
  0
LINE
  8
WHITE
 10
319.960935
 20
156.973279
 30
0.000000
 11
319.438773
 21
155.658442
 31
0.000000
  6
CONTINUOUS
  0
LINE
  8
WHITE
 10
319.438773
 20
155.658442
 30
0.000000
 11
318.961647
 21
153.928502
 31
0.000000
  6
CONTINUOUS
  0
LINE
  8
WHITE
 10
318.961647
 20
153.928502
 30
0.000000
 11
318.657357
 21
152.850352
 31
0.000000
  6
CONTINUOUS
  0
LINE
  8
WHITE
 10
318.657357
 20
152.850352
 30
0.000000
 11
318.093862
 21
151.529886
 31
0.000000
  6
CONTINUOUS
  0
LINE
  8
WHITE
 10
318.093862
 20
151.529886
 30
0.000000
 11
317.718216
 21
150.076039
 31
0.000000
  6
CONTINUOUS
  0
LINE
  8
WHITE
 10
317.718216
 20
150.076039
 30
0.000000
 11
317.267411
 21
148.560218
 31
0.000000
  6
CONTINUOUS
  0
LINE
  8
WHITE
 10
317.267411
 20
148.560218
 30
0.000000
 11
316.918035
 21
147.438859
 31
0.000000
  6
CONTINUOUS
  0
LINE
  8
WHITE
 10
316.918035
 20
147.438859
 30
0.000000
 11
316.613745
 21
146.409547
 31
0.000000
  6
CONTINUOUS
  0
LINE
  8
WHITE
 10
316.613745
 20
146.409547
 30
0.000000
 11
316.134793
 21
145.228040
 31
0.000000
  6
CONTINUOUS
  0
LINE
  8
WHITE
 10
316.134793
 20
145.228040
 30
0.000000
 11
315.605074
 21
143.513163
 31
0.000000
  6
CONTINUOUS
  0
LINE
  8
WHITE
 10
315.605074
 20
143.513163
 30
0.000000
 11
314.990865
 21
141.910924
 31
0.000000
  6
CONTINUOUS
  0
LINE
  8
WHITE
 10
314.990865
 20
141.910924
 30
0.000000
 11
314.397297
 21
140.235452
 31
0.000000
  6
CONTINUOUS
  0
LINE
  8
WHITE
 10
314.397297
 20
140.235452
 30
0.000000
 11
313.758693
 21
138.672670
 31
0.000000
  6
CONTINUOUS
  0
LINE
  8
WHITE
 10
313.758693
 20
138.672670
 30
0.000000
 11
313.063695
 21
136.839424
 31
0.000000
  6
CONTINUOUS
  0
LINE
  8
WHITE
 10
313.063695
 20
136.839424
 30
0.000000
 11
312.372450
 21
135.757521
 31
0.000000
  6
CONTINUOUS
  0
LINE
  8
WHITE
 10
312.372450
 20
135.757521
 30
0.000000
 11
311.947965
 21
134.303674
 31
0.000000
  6
CONTINUOUS
  0
LINE
  8
WHITE
 10
311.947965
 20
134.303674
 30
0.000000
 11
311.206005
 21
132.947504
 31
0.000000
  6
CONTINUOUS
  0
LINE
  8
WHITE
 10
311.206005
 20
132.947504
 30
0.000000
 11
310.375800
 21
131.260774
 31
0.000000
  6
CONTINUOUS
  0
LINE
  8
WHITE
 10
310.375800
 20
131.260774
 30
0.000000
 11
309.823564
 21
129.709250
 31
0.000000
  6
CONTINUOUS
  0
LINE
  8
WHITE
 10
309.823564
 20
129.709250
 30
0.000000
 11
309.017754
 21
128.229133
 31
0.000000
  6
CONTINUOUS
  0
LINE
  8
WHITE
 10
309.017754
 20
128.229133
 30
0.000000
 11
308.347200
 21
127.102144
 31
0.000000
  6
CONTINUOUS
  0
LINE
  8
WHITE
 10
308.347200
 20
127.102144
 30
0.000000
 11
307.678523
 21
125.471758
 31
0.000000
  6
CONTINUOUS
  0
LINE
  8
WHITE
 10
307.678523
 20
125.471758
 30
0.000000
 11
306.790047
 21
124.145662
 31
0.000000
  6
CONTINUOUS
  0
LINE
  8
WHITE
 10
306.790047
 20
124.145662
 30
0.000000
 11
306.115740
 21
122.639224
 31
0.000000
  6
CONTINUOUS
  0
LINE
  8
WHITE
 10
306.115740
 20
122.639224
 30
0.000000
 11
305.368150
 21
121.260537
 31
0.000000
  6
CONTINUOUS
  0
LINE
  8
WHITE
 10
305.368150
 20
121.260537
 30
0.000000
 11
304.695720
 21
120.052759
 31
0.000000
  6
CONTINUOUS
  0
LINE
  8
WHITE
 10
304.695720
 20
120.052759
 30
0.000000
 11
303.835441
 21
118.734169
 31
0.000000
  6
CONTINUOUS
  0
LINE
  8
WHITE
 10
303.835441
 20
118.734169
 30
0.000000
 11
302.986422
 21
117.501997
 31
0.000000
  6
CONTINUOUS
  0
LINE
  8
WHITE
 10
302.986422
 20
117.501997
 30
0.000000
 11
302.464260
 21
116.299849
 31
0.000000
  6
CONTINUOUS
  0
LINE
  8
WHITE
 10
302.464260
 20
116.299849
 30
0.000000
 11
301.399245
 21
115.133404
 31
0.000000
  6
CONTINUOUS
  0
LINE
  8
WHITE
 10
301.399245
 20
115.133404
 30
0.000000
 11
300.704247
 21
113.914367
 31
0.000000
  6
CONTINUOUS
  0
LINE
  8
WHITE
 10
300.704247
 20
113.914367
 30
0.000000
 11
300.029940
 21
112.800514
 31
0.000000
  6
CONTINUOUS
  0
LINE
  8
WHITE
 10
300.029940
 20
112.800514
 30
0.000000
 11
299.267339
 21
111.696043
 31
0.000000
  6
CONTINUOUS
  0
LINE
  8
WHITE
 10
299.267339
 20
111.696043
 30
0.000000
 11
298.155361
 21
110.110742
 31
0.000000
  6
CONTINUOUS
  0
LINE
  8
WHITE
 10
298.155361
 20
110.110742
 30
0.000000
 11
297.296959
 21
109.025086
 31
0.000000
  6
CONTINUOUS
  0
LINE
  8
WHITE
 10
297.296959
 20
109.025086
 30
0.000000
 11
296.481766
 21
107.879282
 31
0.000000
  6
CONTINUOUS
  0
LINE
  8
WHITE
 10
296.481766
 20
107.879282
 30
0.000000
 11
295.465590
 21
106.521236
 31
0.000000
  6
CONTINUOUS
  0
LINE
  8
WHITE
 10
295.465590
 20
106.521236
 30
0.000000
 11
294.618447
 21
105.396124
 31
0.000000
  6
CONTINUOUS
  0
LINE
  8
WHITE
 10
294.618447
 20
105.396124
 30
0.000000
 11
293.660491
 21
104.321727
 31
0.000000
  6
CONTINUOUS
  0
LINE
  8
WHITE
 10
293.660491
 20
104.321727
 30
0.000000
 11
292.473405
 21
103.063234
 31
0.000000
  6
CONTINUOUS
  0
LINE
  8
WHITE
 10
292.473405
 20
103.063234
 30
0.000000
 11
291.609374
 21
101.887407
 31
0.000000
  6
CONTINUOUS
  0
LINE
  8
WHITE
 10
291.609374
 20
101.887407
 30
0.000000
 11
290.345251
 21
100.816762
 31
0.000000
  6
CONTINUOUS
  0
LINE
  8
WHITE
 10
290.345251
 20
100.816762
 30
0.000000
 11
289.280236
 21
99.917027
 31
0.000000
  6
CONTINUOUS
  0
LINE
  8
WHITE
 10
289.280236
 20
99.917027
 30
0.000000
 11
288.264060
 21
98.803174
 31
0.000000
  6
CONTINUOUS
  0
LINE
  8
WHITE
 10
288.264060
 20
98.803174
 30
0.000000
 11
286.844040
 21
97.738159
 31
0.000000
  6
CONTINUOUS
  0
LINE
  8
WHITE
 10
286.844040
 20
97.738159
 30
0.000000
 11
285.375181
 21
97.013137
 31
0.000000
  6
CONTINUOUS
  0
LINE
  8
WHITE
 10
285.375181
 20
97.013137
 30
0.000000
 11
283.750425
 21
95.760274
 31
0.000000
  6
CONTINUOUS
  0
LINE
  8
WHITE
 10
283.750425
 20
95.760274
 30
0.000000
 11
282.969059
 21
94.708394
 31
0.000000
  6
CONTINUOUS
  0
LINE
  8
WHITE
 10
282.969059
 20
94.708394
 30
0.000000
 11
282.431835
 21
93.630244
 31
0.000000
  6
CONTINUOUS
  0
LINE
  8
WHITE
 10
282.431835
 20
93.630244
 30
0.000000
 11
281.736837
 21
91.688062
 31
0.000000
  6
CONTINUOUS
  0
LINE
  8
WHITE
 10
281.736837
 20
91.688062
 30
0.000000
 11
281.113245
 21
90.129032
 31
0.000000
  6
CONTINUOUS
  0
LINE
  8
WHITE
 10
281.113245
 20
90.129032
 30
0.000000
 11
280.808955
 21
88.964464
 31
0.000000
  6
CONTINUOUS
  0
LINE
  8
WHITE
 10
280.808955
 20
88.964464
 30
0.000000
 11
280.335632
 21
87.683454
 31
0.000000
  6
CONTINUOUS
  0
LINE
  8
WHITE
 10
280.335632
 20
87.683454
 30
0.000000
 11
279.659398
 21
85.207801
 31
0.000000
  6
CONTINUOUS
  0
LINE
  8
WHITE
 10
279.659398
 20
85.207801
 30
0.000000
 11
279.287505
 21
83.588674
 31
0.000000
  6
CONTINUOUS
  0
LINE
  8
WHITE
 10
279.287505
 20
83.588674
 30
0.000000
 11
278.883661
 21
82.471067
 31
0.000000
  6
CONTINUOUS
  0
LINE
  8
WHITE
 10
278.883661
 20
82.471067
 30
0.000000
 11
278.440362
 21
81.291487
 31
0.000000
  6
CONTINUOUS
  0
LINE
  8
WHITE
 10
278.440362
 20
81.291487
 30
0.000000
 11
278.128566
 21
80.228349
 31
0.000000
  6
CONTINUOUS
  0
LINE
  8
WHITE
 10
278.128566
 20
80.228349
 30
0.000000
 11
277.576330
 21
79.082545
 31
0.000000
  6
CONTINUOUS
  0
LINE
  8
WHITE
 10
277.576330
 20
79.082545
 30
0.000000
 11
277.042910
 21
77.681340
 31
0.000000
  6
CONTINUOUS
  0
LINE
  8
WHITE
 10
277.042910
 20
77.681340
 30
0.000000
 11
276.346035
 21
76.285714
 31
0.000000
  6
CONTINUOUS
  0
LINE
  8
WHITE
 10
276.346035
 20
76.285714
 30
0.000000
 11
275.632272
 21
74.640316
 31
0.000000
  6
CONTINUOUS
  0
LINE
  8
WHITE
 10
275.632272
 20
74.640316
 30
0.000000
 11
274.621725
 21
72.735664
 31
0.000000
  6
CONTINUOUS
  0
LINE
  8
WHITE
 10
274.621725
 20
72.735664
 30
0.000000
 11
273.682534
 21
70.921183
 31
0.000000
  6
CONTINUOUS
  0
LINE
  8
WHITE
 10
273.682534
 20
70.921183
 30
0.000000
 11
273.049560
 21
69.690887
 31
0.000000
  6
CONTINUOUS
  0
LINE
  8
WHITE
 10
273.049560
 20
69.690887
 30
0.000000
 11
272.335797
 21
68.530072
 31
0.000000
  6
CONTINUOUS
  0
LINE
  8
WHITE
 10
272.335797
 20
68.530072
 30
0.000000
 11
271.426680
 21
67.004869
 31
0.000000
  6
CONTINUOUS
  0
LINE
  8
WHITE
 10
271.426680
 20
67.004869
 30
0.000000
 11
270.665955
 21
65.736994
 31
0.000000
  6
CONTINUOUS
  0
LINE
  8
WHITE
 10
270.665955
 20
65.736994
 30
0.000000
 11
269.388698
 21
64.275641
 31
0.000000
  6
CONTINUOUS
  0
LINE
  8
WHITE
 10
269.388698
 20
64.275641
 30
0.000000
 11
268.385656
 21
62.729797
 31
0.000000
  6
CONTINUOUS
  0
LINE
  8
WHITE
 10
268.385656
 20
62.729797
 30
0.000000
 11
267.420195
 21
61.426219
 31
0.000000
  6
CONTINUOUS
  0
LINE
  8
WHITE
 10
267.420195
 20
61.426219
 30
0.000000
 11
266.253750
 21
60.513349
 31
0.000000
  6
CONTINUOUS
  0
LINE
  8
WHITE
 10
266.253750
 20
60.513349
 30
0.000000
 11
265.267648
 21
59.267991
 31
0.000000
  6
CONTINUOUS
  0
LINE
  8
WHITE
 10
265.267648
 20
59.267991
 30
0.000000
 11
264.041055
 21
57.911872
 31
0.000000
  6
CONTINUOUS
  0
LINE
  8
WHITE
 10
264.041055
 20
57.911872
 30
0.000000
 11
263.039940
 21
56.876880
 31
0.000000
  6
CONTINUOUS
  0
LINE
  8
WHITE
 10
263.039940
 20
56.876880
 30
0.000000
 11
261.942975
 21
55.695424
 31
0.000000
  6
CONTINUOUS
  0
LINE
  8
WHITE
 10
261.942975
 20
55.695424
 30
0.000000
 11
260.740827
 21
54.527102
 31
0.000000
  6
CONTINUOUS
  0
LINE
  8
WHITE
 10
260.740827
 20
54.527102
 30
0.000000
 11
260.066520
 21
53.463964
 31
0.000000
  6
CONTINUOUS
  0
LINE
  8
WHITE
 10
260.066520
 20
53.463964
 30
0.000000
 11
258.868125
 21
52.532329
 31
0.000000
  6
CONTINUOUS
  0
LINE
  8
WHITE
 10
258.868125
 20
52.532329
 30
0.000000
 11
257.632200
 21
51.638224
 31
0.000000
  6
CONTINUOUS
  0
LINE
  8
WHITE
 10
257.632200
 20
51.638224
 30
0.000000
 11
257.023620
 21
50.522494
 31
0.000000
  6
CONTINUOUS
  0
LINE
  8
WHITE
 10
257.023620
 20
50.522494
 30
0.000000
 11
255.667450
 21
49.414270
 31
0.000000
  6
CONTINUOUS
  0
LINE
  8
WHITE
 10
255.667450
 20
49.414270
 30
0.000000
 11
254.401452
 21
48.433797
 31
0.000000
  6
CONTINUOUS
  0
LINE
  8
WHITE
 10
254.401452
 20
48.433797
 30
0.000000
 11
253.379646
 21
47.406361
 31
0.000000
  6
CONTINUOUS
  0
LINE
  8
WHITE
 10
253.379646
 20
47.406361
 30
0.000000
 11
252.004711
 21
46.247422
 31
0.000000
  6
CONTINUOUS
  0
LINE
  8
WHITE
 10
252.004711
 20
46.247422
 30
0.000000
 11
250.966018
 21
45.186160
 31
0.000000
  6
CONTINUOUS
  0
LINE
  8
WHITE
 10
250.966018
 20
45.186160
 30
0.000000
 11
249.607971
 21
44.008456
 31
0.000000
  6
CONTINUOUS
  0
LINE
  8
WHITE
 10
249.607971
 20
44.008456
 30
0.000000
 11
248.178569
 21
42.731148
 31
0.000000
  6
CONTINUOUS
  0
LINE
  8
WHITE
 10
248.178569
 20
42.731148
 30
0.000000
 11
246.486159
 21
41.222884
 31
0.000000
  6
CONTINUOUS
  0
LINE
  8
WHITE
 10
246.486159
 20
41.222884
 30
0.000000
 11
244.699875
 21
39.973774
 31
0.000000
  6
CONTINUOUS
  0
LINE
  8
WHITE
 10
244.699875
 20
39.973774
 30
0.000000
 11
243.687451
 21
38.957597
 31
0.000000
  6
CONTINUOUS
  0
LINE
  8
WHITE
 10
243.687451
 20
38.957597
 30
0.000000
 11
242.406441
 21
38.102948
 31
0.000000
  6
CONTINUOUS
  0
LINE
  8
WHITE
 10
242.406441
 20
38.102948
 30
0.000000
 11
240.809832
 21
36.728014
 31
0.000000
  6
CONTINUOUS
  0
LINE
  8
WHITE
 10
240.809832
 20
36.728014
 30
0.000000
 11
239.780520
 21
35.815144
 31
0.000000
  6
CONTINUOUS
  0
LINE
  8
WHITE
 10
239.780520
 20
35.815144
 30
0.000000
 11
238.766220
 21
35.206564
 31
0.000000
  6
CONTINUOUS
  0
LINE
  8
WHITE
 10
238.766220
 20
35.206564
 30
0.000000
 11
237.549060
 21
34.395124
 31
0.000000
  6
CONTINUOUS
  0
LINE
  8
WHITE
 10
237.549060
 20
34.395124
 30
0.000000
 11
236.493427
 21
33.688867
 31
0.000000
  6
CONTINUOUS
  0
LINE
  8
WHITE
 10
236.493427
 20
33.688867
 30
0.000000
 11
235.325106
 21
33.208038
 31
0.000000
  6
CONTINUOUS
  0
LINE
  8
WHITE
 10
235.325106
 20
33.208038
 30
0.000000
 11
233.897580
 21
32.569384
 31
0.000000
  6
CONTINUOUS
  0
LINE
  8
WHITE
 10
233.897580
 20
32.569384
 30
0.000000
 11
232.733011
 21
32.111072
 31
0.000000
  6
CONTINUOUS
  0
LINE
  8
WHITE
 10
232.733011
 20
32.111072
 30
0.000000
 11
231.361830
 21
31.654637
 31
0.000000
  6
CONTINUOUS
  0
LINE
  8
WHITE
 10
231.361830
 20
31.654637
 30
0.000000
 11
229.536090
 21
30.845074
 31
0.000000
  6
CONTINUOUS
  0
LINE
  8
WHITE
 10
229.536090
 20
30.845074
 30
0.000000
 11
226.046137
 21
29.990425
 31
0.000000
  6
CONTINUOUS
  0
LINE
  8
WHITE
 10
226.046137
 20
29.990425
 30
0.000000
 11
222.612529
 21
29.383721
 31
0.000000
  6
CONTINUOUS
  0
LINE
  8
WHITE
 10
222.612529
 20
29.383721
 30
0.000000
 11
219.291660
 21
29.070049
 31
0.000000
  6
CONTINUOUS
  0
LINE
  8
WHITE
 10
219.291660
 20
29.070049
 30
0.000000
 11
215.781066
 21
28.914151
 31
0.000000
  6
CONTINUOUS
  0
LINE
  8
WHITE
 10
215.781066
 20
28.914151
 30
0.000000
 11
212.507109
 21
29.039975
 31
0.000000
  6
CONTINUOUS
  0
LINE
  8
WHITE
 10
212.507109
 20
29.039975
 30
0.000000
 11
209.250090
 21
29.524607
 31
0.000000
  6
CONTINUOUS
  0
LINE
  8
WHITE
 10
209.250090
 20
29.524607
 30
0.000000
 11
208.085521
 21
29.855168
 31
0.000000
  6
CONTINUOUS
  0
LINE
  8
WHITE
 10
208.085521
 20
29.855168
 30
0.000000
 11
206.714340
 21
30.490069
 31
0.000000
  6
CONTINUOUS
  0
LINE
  8
WHITE
 10
206.714340
 20
30.490069
 30
0.000000
 11
205.585475
 21
30.713570
 31
0.000000
  6
CONTINUOUS
  0
LINE
  8
WHITE
 10
205.585475
 20
30.713570
 30
0.000000
 11
203.925015
 21
31.352224
 31
0.000000
  6
CONTINUOUS
  0
LINE
  8
WHITE
 10
203.925015
 20
31.352224
 30
0.000000
 11
202.771705
 21
32.005889
 31
0.000000
  6
CONTINUOUS
  0
LINE
  8
WHITE
 10
202.771705
 20
32.005889
 30
0.000000
 11
201.084975
 21
32.873674
 31
0.000000
  6
CONTINUOUS
  0
LINE
  8
WHITE
 10
201.084975
 20
32.873674
 30
0.000000
 11
200.059416
 21
33.647534
 31
0.000000
  6
CONTINUOUS
  0
LINE
  8
WHITE
 10
200.059416
 20
33.647534
 30
0.000000
 11
198.853515
 21
34.798967
 31
0.000000
  6
CONTINUOUS
  0
LINE
  8
WHITE
 10
198.853515
 20
34.798967
 30
0.000000
 11
198.297526
 21
35.815144
 31
0.000000
  6
CONTINUOUS
  0
LINE
  8
WHITE
 10
198.297526
 20
35.815144
 30
0.000000
 11
197.433495
 21
36.880159
 31
0.000000
  6
CONTINUOUS
  0
LINE
  8
WHITE
 10
197.433495
 20
36.880159
 30
0.000000
 11
197.891806
 21
38.285167
 31
0.000000
  6
CONTINUOUS
  0
LINE
  8
WHITE
 10
197.891806
 20
38.285167
 30
0.000000
 11
198.346365
 21
39.618769
 31
0.000000
  6
CONTINUOUS
  0
LINE
  8
WHITE
 10
198.346365
 20
39.618769
 30
0.000000
 11
198.752085
 21
40.937359
 31
0.000000
  6
CONTINUOUS
  0
LINE
  8
WHITE
 10
198.752085
 20
40.937359
 30
0.000000
 11
199.448960
 21
42.270960
 31
0.000000
  6
CONTINUOUS
  0
LINE
  8
WHITE
 10
199.448960
 20
42.270960
 30
0.000000
 11
200.527110
 21
43.473109
 31
0.000000
  6
CONTINUOUS
  0
LINE
  8
WHITE
 10
200.527110
 20
43.473109
 30
0.000000
 11
201.744270
 21
44.538124
 31
0.000000
  6
CONTINUOUS
  0
LINE
  8
WHITE
 10
201.744270
 20
44.538124
 30
0.000000
 11
202.713484
 21
45.672618
 31
0.000000
  6
CONTINUOUS
  0
LINE
  8
WHITE
 10
202.713484
 20
45.672618
 30
0.000000
 11
203.782252
 21
46.632450
 31
0.000000
  6
CONTINUOUS
  0
LINE
  8
WHITE
 10
203.782252
 20
46.632450
 30
0.000000
 11
205.040745
 21
47.530309
 31
0.000000
  6
CONTINUOUS
  0
LINE
  8
WHITE
 10
205.040745
 20
47.530309
 30
0.000000
 11
207.360500
 21
49.115609
 31
0.000000
  6
CONTINUOUS
  0
LINE
  8
WHITE
 10
207.360500
 20
49.115609
 30
0.000000
 11
209.381594
 21
50.441705
 31
0.000000
  6
CONTINUOUS
  0
LINE
  8
WHITE
 10
209.381594
 20
50.441705
 30
0.000000
 11
211.481550
 21
51.688939
 31
0.000000
  6
CONTINUOUS
  0
LINE
  8
WHITE
 10
211.481550
 20
51.688939
 30
0.000000
 11
212.544689
 21
52.355740
 31
0.000000
  6
CONTINUOUS
  0
LINE
  8
WHITE
 10
212.544689
 20
52.355740
 30
0.000000
 11
214.220160
 21
53.159674
 31
0.000000
  6
CONTINUOUS
  0
LINE
  8
WHITE
 10
214.220160
 20
53.159674
 30
0.000000
 11
215.959482
 21
54.418167
 31
0.000000
  6
CONTINUOUS
  0
LINE
  8
WHITE
 10
215.959482
 20
54.418167
 30
0.000000
 11
217.110915
 21
55.238989
 31
0.000000
  6
CONTINUOUS
  0
LINE
  8
WHITE
 10
217.110915
 20
55.238989
 30
0.000000
 11
217.618065
 21
56.354719
 31
0.000000
  6
CONTINUOUS
  0
LINE
  8
WHITE
 10
217.618065
 20
56.354719
 30
0.000000
 11
216.973782
 21
58.122238
 31
0.000000
  6
CONTINUOUS
  0
LINE
  8
WHITE
 10
216.973782
 20
58.122238
 30
0.000000
 11
215.944470
 21
58.839754
 31
0.000000
  6
CONTINUOUS
  0
LINE
  8
WHITE
 10
215.944470
 20
58.839754
 30
0.000000
 11
214.137495
 21
58.926172
 31
0.000000
  6
CONTINUOUS
  0
LINE
  8
WHITE
 10
214.137495
 20
58.926172
 30
0.000000
 11
212.443259
 21
59.091452
 31
0.000000
  6
CONTINUOUS
  0
LINE
  8
WHITE
 10
212.443259
 20
59.091452
 30
0.000000
 11
210.974400
 21
59.346904
 31
0.000000
  6
CONTINUOUS
  0
LINE
  8
WHITE
 10
210.974400
 20
59.346904
 30
0.000000
 11
209.960100
 21
59.499049
 31
0.000000
  6
CONTINUOUS
  0
LINE
  8
WHITE
 10
209.960100
 20
59.499049
 30
0.000000
 11
208.151248
 21
59.901016
 31
0.000000
  6
CONTINUOUS
  0
LINE
  8
WHITE
 10
208.151248
 20
59.901016
 30
0.000000
 11
206.477653
 21
60.314242
 31
0.000000
  6
CONTINUOUS
  0
LINE
  8
WHITE
 10
206.477653
 20
60.314242
 30
0.000000
 11
204.330735
 21
60.954772
 31
0.000000
  6
CONTINUOUS
  0
LINE
  8
WHITE
 10
204.330735
 20
60.954772
 30
0.000000
 11
202.758570
 21
62.222647
 31
0.000000
  6
CONTINUOUS
  0
LINE
  8
WHITE
 10
202.758570
 20
62.222647
 30
0.000000
 11
201.896415
 21
63.454819
 31
0.000000
  6
CONTINUOUS
  0
LINE
  8
WHITE
 10
201.896415
 20
63.454819
 30
0.000000
 11
201.049272
 21
64.570549
 31
0.000000
  6
CONTINUOUS
  0
LINE
  8
WHITE
 10
201.049272
 20
64.570549
 30
0.000000
 11
200.649181
 21
65.629934
 31
0.000000
  6
CONTINUOUS
  0
LINE
  8
WHITE
 10
200.649181
 20
65.629934
 30
0.000000
 11
200.827647
 21
66.672381
 31
0.000000
  6
CONTINUOUS
  0
LINE
  8
WHITE
 10
200.827647
 20
66.672381
 30
0.000000
 11
201.492571
 21
68.456839
 31
0.000000
  6
CONTINUOUS
  0
LINE
  8
WHITE
 10
201.492571
 20
68.456839
 30
0.000000
 11
202.657140
 21
69.591334
 31
0.000000
  6
CONTINUOUS
  0
LINE
  8
WHITE
 10
202.657140
 20
69.591334
 30
0.000000
 11
203.682699
 21
70.511710
 31
0.000000
  6
CONTINUOUS
  0
LINE
  8
WHITE
 10
203.682699
 20
70.511710
 30
0.000000
 11
204.905488
 21
71.604922
 31
0.000000
  6
CONTINUOUS
  0
LINE
  8
WHITE
 10
204.905488
 20
71.604922
 30
0.000000
 11
206.135834
 21
72.534680
 31
0.000000
  6
CONTINUOUS
  0
LINE
  8
WHITE
 10
206.135834
 20
72.534680
 30
0.000000
 11
207.213984
 21
73.445674
 31
0.000000
  6
CONTINUOUS
  0
LINE
  8
WHITE
 10
207.213984
 20
73.445674
 30
0.000000
 11
208.641510
 21
74.459974
 31
0.000000
  6
CONTINUOUS
  0
LINE
  8
WHITE
 10
208.641510
 20
74.459974
 30
0.000000
 11
210.872970
 21
76.488574
 31
0.000000
  6
CONTINUOUS
  0
LINE
  8
WHITE
 10
210.872970
 20
76.488574
 30
0.000000
 11
211.851567
 21
77.502874
 31
0.000000
  6
CONTINUOUS
  0
LINE
  8
WHITE
 10
211.851567
 20
77.502874
 30
0.000000
 11
212.954161
 21
78.528433
 31
0.000000
  6
CONTINUOUS
  0
LINE
  8
WHITE
 10
212.954161
 20
78.528433
 30
0.000000
 11
213.981597
 21
79.531474
 31
0.000000
  6
CONTINUOUS
  0
LINE
  8
WHITE
 10
213.981597
 20
79.531474
 30
0.000000
 11
215.345272
 21
80.876385
 31
0.000000
  6
CONTINUOUS
  0
LINE
  8
WHITE
 10
215.345272
 20
80.876385
 30
0.000000
 11
216.541791
 21
82.164901
 31
0.000000
  6
CONTINUOUS
  0
LINE
  8
WHITE
 10
216.541791
 20
82.164901
 30
0.000000
 11
217.567350
 21
83.282507
 31
0.000000
  6
CONTINUOUS
  0
LINE
  8
WHITE
 10
217.567350
 20
83.282507
 30
0.000000
 11
218.735671
 21
84.638677
 31
0.000000
  6
CONTINUOUS
  0
LINE
  8
WHITE
 10
218.735671
 20
84.638677
 30
0.000000
 11
219.394966
 21
85.868972
 31
0.000000
  6
CONTINUOUS
  0
LINE
  8
WHITE
 10
219.394966
 20
85.868972
 30
0.000000
 11
219.965967
 21
86.883272
 31
0.000000
  6
CONTINUOUS
  0
LINE
  8
WHITE
 10
219.965967
 20
86.883272
 30
0.000000
 11
220.493808
 21
87.929523
 31
0.000000
  6
CONTINUOUS
  0
LINE
  8
WHITE
 10
220.493808
 20
87.929523
 30
0.000000
 11
221.029105
 21
88.998291
 31
0.000000
  6
CONTINUOUS
  0
LINE
  8
WHITE
 10
221.029105
 20
88.998291
 30
0.000000
 11
221.575711
 21
90.207945
 31
0.000000
  6
CONTINUOUS
  0
LINE
  8
WHITE
 10
221.575711
 20
90.207945
 30
0.000000
 11
222.032146
 21
91.485202
 31
0.000000
  6
CONTINUOUS
  0
LINE
  8
WHITE
 10
222.032146
 20
91.485202
 30
0.000000
 11
222.377769
 21
92.747448
 31
0.000000
  6
CONTINUOUS
  0
LINE
  8
WHITE
 10
222.377769
 20
92.747448
 30
0.000000
 11
222.730898
 21
94.443560
 31
0.000000
  6
CONTINUOUS
  0
LINE
  8
WHITE
 10
222.730898
 20
94.443560
 30
0.000000
 11
223.053952
 21
96.586725
 31
0.000000
  6
CONTINUOUS
  0
LINE
  8
WHITE
 10
223.053952
 20
96.586725
 30
0.000000
 11
223.196715
 21
97.738159
 31
0.000000
  6
CONTINUOUS
  0
LINE
  8
WHITE
 10
223.196715
 20
97.738159
 30
0.000000
 11
223.551720
 21
99.411754
 31
0.000000
  6
CONTINUOUS
  0
LINE
  8
WHITE
 10
223.551720
 20
99.411754
 30
0.000000
 11
223.602435
 21
101.491069
 31
0.000000
  6
CONTINUOUS
  0
LINE
  8
WHITE
 10
223.602435
 20
101.491069
 30
0.000000
 11
222.824822
 21
102.526010
 31
0.000000
  6
CONTINUOUS
  0
LINE
  8
WHITE
 10
222.824822
 20
102.526010
 30
0.000000
 11
221.776695
 21
102.860374
 31
0.000000
  6
CONTINUOUS
  0
LINE
  8
WHITE
 10
221.776695
 20
102.860374
 30
0.000000
 11
218.675574
 21
103.205997
 31
0.000000
  6
CONTINUOUS
  0
LINE
  8
WHITE
 10
218.675574
 20
103.205997
 30
0.000000
 11
213.872661
 21
103.258588
 31
0.000000
  6
CONTINUOUS
  0
LINE
  8
WHITE
 10
213.872661
 20
103.258588
 30
0.000000
 11
210.929314
 21
101.322036
 31
0.000000
  6
CONTINUOUS
  0
LINE
  8
WHITE
 10
210.929314
 20
101.322036
 30
0.000000
 11
210.467250
 21
99.563899
 31
0.000000
  6
CONTINUOUS
  0
LINE
  8
WHITE
 10
210.467250
 20
99.563899
 30
0.000000
 11
210.431547
 21
98.281012
 31
0.000000
  6
CONTINUOUS
  0
LINE
  8
WHITE
 10
210.431547
 20
98.281012
 30
0.000000
 11
210.213675
 21
96.774574
 31
0.000000
  6
CONTINUOUS
  0
LINE
  8
WHITE
 10
210.213675
 20
96.774574
 30
0.000000
 11
210.177972
 21
95.587488
 31
0.000000
  6
CONTINUOUS
  0
LINE
  8
WHITE
 10
210.177972
 20
95.587488
 30
0.000000
 11
210.131010
 21
94.411610
 31
0.000000
  6
CONTINUOUS
  0
LINE
  8
WHITE
 10
210.131010
 20
94.411610
 30
0.000000
 11
210.127257
 21
92.413084
 31
0.000000
  6
CONTINUOUS
  0
LINE
  8
WHITE
 10
210.127257
 20
92.413084
 30
0.000000
 11
209.960100
 21
91.195924
 31
0.000000
  6
CONTINUOUS
  0
LINE
  8
WHITE
 10
209.960100
 20
91.195924
 30
0.000000
 11
209.760993
 21
89.610624
 31
0.000000
  6
CONTINUOUS
  0
LINE
  8
WHITE
 10
209.760993
 20
89.610624
 30
0.000000
 11
209.178734
 21
87.844981
 31
0.000000
  6
CONTINUOUS
  0
LINE
  8
WHITE
 10
209.178734
 20
87.844981
 30
0.000000
 11
208.641510
 21
86.124424
 31
0.000000
  6
CONTINUOUS
  0
LINE
  8
WHITE
 10
208.641510
 20
86.124424
 30
0.000000
 11
208.297764
 21
85.033088
 31
0.000000
  6
CONTINUOUS
  0
LINE
  8
WHITE
 10
208.297764
 20
85.033088
 30
0.000000
 11
207.649727
 21
83.479738
 31
0.000000
  6
CONTINUOUS
  0
LINE
  8
WHITE
 10
207.649727
 20
83.479738
 30
0.000000
 11
206.751920
 21
81.947029
 31
0.000000
  6
CONTINUOUS
  0
LINE
  8
WHITE
 10
206.751920
 20
81.947029
 30
0.000000
 11
206.105760
 21
80.545774
 31
0.000000
  6
CONTINUOUS
  0
LINE
  8
WHITE
 10
206.105760
 20
80.545774
 30
0.000000
 11
204.888600
 21
79.176469
 31
0.000000
  6
CONTINUOUS
  0
LINE
  8
WHITE
 10
204.888600
 20
79.176469
 30
0.000000
 11
204.064025
 21
78.040098
 31
0.000000
  6
CONTINUOUS
  0
LINE
  8
WHITE
 10
204.064025
 20
78.040098
 30
0.000000
 11
203.062860
 21
76.843579
 31
0.000000
  6
CONTINUOUS
  0
LINE
  8
WHITE
 10
203.062860
 20
76.843579
 30
0.000000
 11
202.294629
 21
75.804885
 31
0.000000
  6
CONTINUOUS
  0
LINE
  8
WHITE
 10
202.294629
 20
75.804885
 30
0.000000
 11
200.882115
 21
74.155684
 31
0.000000
  6
CONTINUOUS
  0
LINE
  8
WHITE
 10
200.882115
 20
74.155684
 30
0.000000
 11
199.969245
 21
73.141384
 31
0.000000
  6
CONTINUOUS
  0
LINE
  8
WHITE
 10
199.969245
 20
73.141384
 30
0.000000
 11
198.864774
 21
72.053851
 31
0.000000
  6
CONTINUOUS
  0
LINE
  8
WHITE
 10
198.864774
 20
72.053851
 30
0.000000
 11
197.760302
 21
70.932441
 31
0.000000
  6
CONTINUOUS
  0
LINE
  8
WHITE
 10
197.760302
 20
70.932441
 30
0.000000
 11
196.622055
 21
69.946339
 31
0.000000
  6
CONTINUOUS
  0
LINE
  8
WHITE
 10
196.622055
 20
69.946339
 30
0.000000
 11
195.252750
 21
68.779894
 31
0.000000
  6
CONTINUOUS
  0
LINE
  8
WHITE
 10
195.252750
 20
68.779894
 30
0.000000
 11
193.614858
 21
67.205852
 31
0.000000
  6
CONTINUOUS
  0
LINE
  8
WHITE
 10
193.614858
 20
67.205852
 30
0.000000
 11
192.006990
 21
65.889139
 31
0.000000
  6
CONTINUOUS
  0
LINE
  8
WHITE
 10
192.006990
 20
65.889139
 30
0.000000
 11
190.891260
 21
65.278682
 31
0.000000
  6
CONTINUOUS
  0
LINE
  8
WHITE
 10
190.891260
 20
65.278682
 30
0.000000
 11
189.828121
 21
64.656967
 31
0.000000
  6
CONTINUOUS
  0
LINE
  8
WHITE
 10
189.828121
 20
64.656967
 30
0.000000
 11
188.712391
 21
64.099102
 31
0.000000
  6
CONTINUOUS
  0
LINE
  8
WHITE
 10
188.712391
 20
64.099102
 30
0.000000
 11
187.583526
 21
63.629481
 31
0.000000
  6
CONTINUOUS
  0
LINE
  8
WHITE
 10
187.583526
 20
63.629481
 30
0.000000
 11
186.073335
 21
62.896954
 31
0.000000
  6
CONTINUOUS
  0
LINE
  8
WHITE
 10
186.073335
 20
62.896954
 30
0.000000
 11
183.590176
 21
62.288374
 31
0.000000
  6
CONTINUOUS
  0
LINE
  8
WHITE
 10
183.590176
 20
62.288374
 30
0.000000
 11
181.118277
 21
61.679794
 31
0.000000
  6
CONTINUOUS
  0
LINE
  8
WHITE
 10
181.118277
 20
61.679794
 30
0.000000
 11
178.417246
 21
60.815762
 31
0.000000
  6
CONTINUOUS
  0
LINE
  8
WHITE
 10
178.417246
 20
60.815762
 30
0.000000
 11
177.756075
 21
59.752624
 31
0.000000
  6
CONTINUOUS
  0
LINE
  8
WHITE
 10
177.756075
 20
59.752624
 30
0.000000
 11
176.997226
 21
58.432157
 31
0.000000
  6
CONTINUOUS
  0
LINE
  8
WHITE
 10
176.997226
 20
58.432157
 30
0.000000
 11
176.249637
 21
57.100432
 31
0.000000
  6
CONTINUOUS
  0
LINE
  8
WHITE
 10
176.249637
 20
57.100432
 30
0.000000
 11
175.524615
 21
55.746139
 31
0.000000
  6
CONTINUOUS
  0
LINE
  8
WHITE
 10
175.524615
 20
55.746139
 30
0.000000
 11
174.615498
 21
54.269774
 31
0.000000
  6
CONTINUOUS
  0
LINE
  8
WHITE
 10
174.615498
 20
54.269774
 30
0.000000
 11
174.018177
 21
53.005652
 31
0.000000
  6
CONTINUOUS
  0
LINE
  8
WHITE
 10
174.018177
 20
53.005652
 30
0.000000
 11
173.428412
 21
51.848590
 31
0.000000
  6
CONTINUOUS
  0
LINE
  8
WHITE
 10
173.428412
 20
51.848590
 30
0.000000
 11
172.887435
 21
50.826784
 31
0.000000
  6
CONTINUOUS
  0
LINE
  8
WHITE
 10
172.887435
 20
50.826784
 30
0.000000
 11
172.248781
 21
49.226421
 31
0.000000
  6
CONTINUOUS
  0
LINE
  8
WHITE
 10
172.248781
 20
49.226421
 30
0.000000
 11
171.264555
 21
47.498358
 31
0.000000
  6
CONTINUOUS
  0
LINE
  8
WHITE
 10
171.264555
 20
47.498358
 30
0.000000
 11
170.548916
 21
45.988218
 31
0.000000
  6
CONTINUOUS
  0
LINE
  8
WHITE
 10
170.548916
 20
45.988218
 30
0.000000
 11
169.976039
 21
44.840537
 31
0.000000
  6
CONTINUOUS
  0
LINE
  8
WHITE
 10
169.976039
 20
44.840537
 30
0.000000
 11
169.743105
 21
43.777399
 31
0.000000
  6
CONTINUOUS
  0
LINE
  8
WHITE
 10
169.743105
 20
43.777399
 30
0.000000
 11
168.986133
 21
42.378020
 31
0.000000
  6
CONTINUOUS
  0
LINE
  8
WHITE
 10
168.986133
 20
42.378020
 30
0.000000
 11
168.285505
 21
40.730746
 31
0.000000
  6
CONTINUOUS
  0
LINE
  8
WHITE
 10
168.285505
 20
40.730746
 30
0.000000
 11
167.410215
 21
38.756614
 31
0.000000
  6
CONTINUOUS
  0
LINE
  8
WHITE
 10
167.410215
 20
38.756614
 30
0.000000
 11
166.790376
 21
37.503750
 31
0.000000
  6
CONTINUOUS
  0
LINE
  8
WHITE
 10
166.790376
 20
37.503750
 30
0.000000
 11
165.967678
 21
36.070595
 31
0.000000
  6
CONTINUOUS
  0
LINE
  8
WHITE
 10
165.967678
 20
36.070595
 30
0.000000
 11
164.363562
 21
34.806473
 31
0.000000
  6
CONTINUOUS
  0
LINE
  8
WHITE
 10
164.363562
 20
34.806473
 30
0.000000
 11
163.319188
 21
33.987527
 31
0.000000
  6
CONTINUOUS
  0
LINE
  8
WHITE
 10
163.319188
 20
33.987527
 30
0.000000
 11
162.201582
 21
33.277517
 31
0.000000
  6
CONTINUOUS
  0
LINE
  8
WHITE
 10
162.201582
 20
33.277517
 30
0.000000
 11
161.104667
 21
32.629481
 31
0.000000
  6
CONTINUOUS
  0
LINE
  8
WHITE
 10
161.104667
 20
32.629481
 30
0.000000
 11
160.056540
 21
32.120455
 31
0.000000
  6
CONTINUOUS
  0
LINE
  8
WHITE
 10
160.056540
 20
32.120455
 30
0.000000
 11
158.610199
 21
31.479975
 31
0.000000
  6
CONTINUOUS
  0
LINE
  8
WHITE
 10
158.610199
 20
31.479975
 30
0.000000
 11
157.115070
 21
31.352224
 31
0.000000
  6
CONTINUOUS
  0
LINE
  8
WHITE
 10
157.115070
 20
31.352224
 30
0.000000
 11
155.948625
 21
31.859374
 31
0.000000
  6
CONTINUOUS
  0
LINE
  8
WHITE
 10
155.948625
 20
31.859374
 30
0.000000
 11
154.898622
 21
32.554372
 31
0.000000
  6
CONTINUOUS
  0
LINE
  8
WHITE
 10
154.898622
 20
32.554372
 30
0.000000
 11
153.869310
 21
33.076534
 31
0.000000
  6
CONTINUOUS
  0
LINE
  8
WHITE
 10
153.869310
 20
33.076534
 30
0.000000
 11
152.855010
 21
34.141549
 31
0.000000
  6
CONTINUOUS
  0
LINE
  8
WHITE
 10
152.855010
 20
34.141549
 30
0.000000
 11
153.046611
 21
35.249773
 31
0.000000
  6
CONTINUOUS
  0
LINE
  8
WHITE
 10
153.046611
 20
35.249773
 30
0.000000
 11
153.427887
 21
36.966577
 31
0.000000
  6
CONTINUOUS
  0
LINE
  8
WHITE
 10
153.427887
 20
36.966577
 30
0.000000
 11
154.021455
 21
38.705899
 31
0.000000
  6
CONTINUOUS
  0
LINE
  8
WHITE
 10
154.021455
 20
38.705899
 30
0.000000
 11
154.477890
 21
40.193522
 31
0.000000
  6
CONTINUOUS
  0
LINE
  8
WHITE
 10
154.477890
 20
40.193522
 30
0.000000
 11
154.832895
 21
41.613542
 31
0.000000
  6
CONTINUOUS
  0
LINE
  8
WHITE
 10
154.832895
 20
41.613542
 30
0.000000
 11
155.086470
 21
42.965959
 31
0.000000
  6
CONTINUOUS
  0
LINE
  8
WHITE
 10
155.086470
 20
42.965959
 30
0.000000
 11
155.075211
 21
44.801081
 31
0.000000
  6
CONTINUOUS
  0
LINE
  8
WHITE
 10
155.075211
 20
44.801081
 30
0.000000
 11
154.928696
 21
46.624945
 31
0.000000
  6
CONTINUOUS
  0
LINE
  8
WHITE
 10
154.928696
 20
46.624945
 30
0.000000
 11
154.340757
 21
48.088174
 31
0.000000
  6
CONTINUOUS
  0
LINE
  8
WHITE
 10
154.340757
 20
48.088174
 30
0.000000
 11
153.315198
 21
48.289157
 31
0.000000
  6
CONTINUOUS
  0
LINE
  8
WHITE
 10
153.315198
 20
48.289157
 30
0.000000
 11
152.732235
 21
48.168976
 31
0.000000
  6
CONTINUOUS
  0
ARC
  8
WHITE
 10
152.829757
 20
47.695924
 30
0.000000
 40
0.483000
 50
101.648676
 51
208.533362
  6
CONTINUOUS
  0
LINE
  8
WHITE
 10
152.405423
 20
47.465209
 30
0.000000
 11
152.782831
 21
46.771073
 31
0.000000
  6
CONTINUOUS
  0
ARC
  8
WHITE
 10
152.358497
 20
46.540358
 30
0.000000
 40
0.483000
 50
-20.820926
 51
28.533362
  6
CONTINUOUS
  0
LINE
  8
WHITE
 10
152.809955
 20
46.368677
 30
0.000000
 11
152.483117
 21
45.509215
 31
0.000000
  6
CONTINUOUS
  0
LINE
  8
WHITE
 10
152.483117
 20
45.509215
 30
0.000000
 11
151.840710
 21
44.282672
 31
0.000000
  6
CONTINUOUS
  0
LINE
  8
WHITE
 10
151.840710
 20
44.282672
 30
0.000000
 11
151.181415
 21
43.168819
 31
0.000000
  6
CONTINUOUS
  0
LINE
  8
WHITE
 10
151.181415
 20
43.168819
 30
0.000000
 11
150.465776
 21
41.925338
 31
0.000000
  6
CONTINUOUS
  0
LINE
  8
WHITE
 10
150.465776
 20
41.925338
 30
0.000000
 11
149.445846
 21
40.557960
 31
0.000000
  6
CONTINUOUS
  0
LINE
  8
WHITE
 10
149.445846
 20
40.557960
 30
0.000000
 11
147.683956
 21
39.299467
 31
0.000000
  6
CONTINUOUS
  0
LINE
  8
WHITE
 10
147.683956
 20
39.299467
 30
0.000000
 11
146.515635
 21
38.401609
 31
0.000000
  6
CONTINUOUS
  0
LINE
  8
WHITE
 10
146.515635
 20
38.401609
 30
0.000000
 11
145.313487
 21
38.183737
 31
0.000000
  6
CONTINUOUS
  0
LINE
  8
WHITE
 10
145.313487
 20
38.183737
 30
0.000000
 11
144.132030
 21
38.146157
 31
0.000000
  6
CONTINUOUS
  0
LINE
  8
WHITE
 10
144.132030
 20
38.146157
 30
0.000000
 11
142.914870
 21
38.300179
 31
0.000000
  6
CONTINUOUS
  0
LINE
  8
WHITE
 10
142.914870
 20
38.300179
 30
0.000000
 11
141.059056
 21
39.693878
 31
0.000000
  6
CONTINUOUS
  0
LINE
  8
WHITE
 10
141.059056
 20
39.693878
 30
0.000000
 11
139.719825
 21
41.292364
 31
0.000000
  6
CONTINUOUS
  0
LINE
  8
WHITE
 10
139.719825
 20
41.292364
 30
0.000000
 11
140.148062
 21
43.582045
 31
0.000000
  6
CONTINUOUS
  0
LINE
  8
WHITE
 10
140.148062
 20
43.582045
 30
0.000000
 11
140.779211
 21
45.680175
 31
0.000000
  6
CONTINUOUS
  0
LINE
  8
WHITE
 10
140.779211
 20
45.680175
 30
0.000000
 11
141.241275
 21
47.733169
 31
0.000000
  6
CONTINUOUS
  0
LINE
  8
WHITE
 10
141.241275
 20
47.733169
 30
0.000000
 11
141.699586
 21
49.746757
 31
0.000000
  6
CONTINUOUS
  0
LINE
  8
WHITE
 10
141.699586
 20
49.746757
 30
0.000000
 11
142.105306
 21
51.059718
 31
0.000000
  6
CONTINUOUS
  0
LINE
  8
WHITE
 10
142.105306
 20
51.059718
 30
0.000000
 11
142.484756
 21
53.542876
 31
0.000000
  6
CONTINUOUS
  0
LINE
  8
WHITE
 10
142.484756
 20
53.542876
 30
0.000000
 11
142.465941
 21
55.278445
 31
0.000000
  6
CONTINUOUS
  0
LINE
  8
WHITE
 10
142.465941
 20
55.278445
 30
0.000000
 11
142.864155
 21
56.709724
 31
0.000000
  6
CONTINUOUS
  0
LINE
  8
WHITE
 10
142.864155
 20
56.709724
 30
0.000000
 11
142.839761
 21
58.261248
 31
0.000000
  6
CONTINUOUS
  0
LINE
  8
WHITE
 10
142.839761
 20
58.261248
 30
0.000000
 11
142.871661
 21
59.621120
 31
0.000000
  6
CONTINUOUS
  0
LINE
  8
WHITE
 10
142.871661
 20
59.621120
 30
0.000000
 11
143.117730
 21
60.868354
 31
0.000000
  6
CONTINUOUS
  0
LINE
  8
WHITE
 10
143.117730
 20
60.868354
 30
0.000000
 11
143.313084
 21
64.365812
 31
0.000000
  6
CONTINUOUS
  0
LINE
  8
WHITE
 10
143.313084
 20
64.365812
 30
0.000000
 11
143.733816
 21
67.716755
 31
0.000000
  6
CONTINUOUS
  0
LINE
  8
WHITE
 10
143.733816
 20
67.716755
 30
0.000000
 11
144.132030
 21
71.011354
 31
0.000000
  6
CONTINUOUS
  0
LINE
  8
WHITE
 10
144.132030
 20
71.011354
 30
0.000000
 11
144.434444
 21
75.872488
 31
0.000000
  6
CONTINUOUS
  0
LINE
  8
WHITE
 10
144.434444
 20
75.872488
 30
0.000000
 11
144.860805
 21
80.756140
 31
0.000000
  6
CONTINUOUS
  0
LINE
  8
WHITE
 10
144.860805
 20
80.756140
 30
0.000000
 11
145.298475
 21
85.414414
 31
0.000000
  6
CONTINUOUS
  0
LINE
  8
WHITE
 10
145.298475
 20
85.414414
 30
0.000000
 11
145.184366
 21
97.281724
 31
0.000000
  6
CONTINUOUS
  0
LINE
  8
WHITE
 10
145.184366
 20
97.281724
 30
0.000000
 11
145.042422
 21
100.574826
 31
0.000000
  6
CONTINUOUS
  0
ARC
  8
WHITE
 10
144.077318
 20
100.533227
 30
0.000000
 40
0.966000
 50
2.468118
 51
100.919747
  6
CONTINUOUS
  0
LINE
  8
WHITE
 10
143.894325
 20
101.481736
 30
0.000000
 11
143.290516
 21
101.365245
 31
0.000000
  6
CONTINUOUS
  0
LINE
  8
WHITE
 10
143.290516
 20
101.365245
 30
0.000000
 11
141.812275
 21
100.754738
 31
0.000000
  6
CONTINUOUS
  0
LINE
  8
WHITE
 10
141.812275
 20
100.754738
 30
0.000000
 11
140.024115
 21
100.071049
 31
0.000000
  6
CONTINUOUS
  0
LINE
  8
WHITE
 10
140.024115
 20
100.071049
 30
0.000000
 11
138.756240
 21
99.665329
 31
0.000000
  6
CONTINUOUS
  0
LINE
  8
WHITE
 10
138.756240
 20
99.665329
 30
0.000000
 11
136.996227
 21
99.193882
 31
0.000000
  6
CONTINUOUS
  0
LINE
  8
WHITE
 10
136.996227
 20
99.193882
 30
0.000000
 11
135.258781
 21
98.699867
 31
0.000000
  6
CONTINUOUS
  0
LINE
  8
WHITE
 10
135.258781
 20
98.699867
 30
0.000000
 11
133.532595
 21
98.194594
 31
0.000000
  6
CONTINUOUS
  0
LINE
  8
WHITE
 10
133.532595
 20
98.194594
 30
0.000000
 11
132.304176
 21
98.134497
 31
0.000000
  6
CONTINUOUS
  0
LINE
  8
WHITE
 10
132.304176
 20
98.134497
 30
0.000000
 11
130.744486
 21
97.677933
 31
0.000000
  6
CONTINUOUS
  0
ARC
  8
WHITE
 10
131.015872
 20
96.750838
 30
0.000000
 40
0.966000
 50
106.316175
 51
177.252289
  6
CONTINUOUS
  0
LINE
  8
WHITE
 10
130.050983
 20
96.797146
 30
0.000000
 11
130.001310
 21
95.762150
 31
0.000000
  6
CONTINUOUS
  0
LINE
  8
WHITE
 10
130.001310
 20
95.762150
 30
0.000000
 11
129.963780
 21
93.983372
 31
0.000000
  6
CONTINUOUS
  0
LINE
  8
WHITE
 10
129.963780
 20
93.983372
 30
0.000000
 11
129.779685
 21
92.260939
 31
0.000000
  6
CONTINUOUS
  0
LINE
  8
WHITE
 10
129.779685
 20
92.260939
 30
0.000000
 11
129.576825
 21
85.566559
 31
0.000000
  6
CONTINUOUS
  0
LINE
  8
WHITE
 10
129.576825
 20
85.566559
 30
0.000000
 11
129.323250
 21
82.219369
 31
0.000000
  6
CONTINUOUS
  0
LINE
  8
WHITE
 10
129.323250
 20
82.219369
 30
0.000000
 11
129.287547
 21
80.637822
 31
0.000000
  6
CONTINUOUS
  0
LINE
  8
WHITE
 10
129.287547
 20
80.637822
 30
0.000000
 11
129.206808
 21
78.830846
 31
0.000000
  6
CONTINUOUS
  0
LINE
  8
WHITE
 10
129.206808
 20
78.830846
 30
0.000000
 11
128.968245
 21
76.945009
 31
0.000000
  6
CONTINUOUS
  0
LINE
  8
WHITE
 10
128.968245
 20
76.945009
 30
0.000000
 11
129.084687
 21
72.974227
 31
0.000000
  6
CONTINUOUS
  0
LINE
  8
WHITE
 10
129.084687
 20
72.974227
 30
0.000000
 11
129.020836
 21
69.893747
 31
0.000000
  6
CONTINUOUS
  0
LINE
  8
WHITE
 10
129.020836
 20
69.893747
 30
0.000000
 11
128.968245
 21
66.802009
 31
0.000000
  6
CONTINUOUS
  0
LINE
  8
WHITE
 10
128.968245
 20
66.802009
 30
0.000000
 11
129.015207
 21
65.472160
 31
0.000000
  6
CONTINUOUS
  0
LINE
  8
WHITE
 10
129.015207
 20
65.472160
 30
0.000000
 11
129.073428
 21
63.871798
 31
0.000000
  6
CONTINUOUS
  0
LINE
  8
WHITE
 10
129.073428
 20
63.871798
 30
0.000000
 11
129.018960
 21
62.237659
 31
0.000000
  6
CONTINUOUS
  0
LINE
  8
WHITE
 10
129.018960
 20
62.237659
 30
0.000000
 11
129.323250
 21
59.752624
 31
0.000000
  6
CONTINUOUS
  0
LINE
  8
WHITE
 10
129.323250
 20
59.752624
 30
0.000000
 11
129.417174
 21
56.985816
 31
0.000000
  6
CONTINUOUS
  0
LINE
  8
WHITE
 10
129.417174
 20
56.985816
 30
0.000000
 11
129.601219
 21
54.117629
 31
0.000000
  6
CONTINUOUS
  0
LINE
  8
WHITE
 10
129.601219
 20
54.117629
 30
0.000000
 11
129.728970
 21
51.080359
 31
0.000000
  6
CONTINUOUS
  0
LINE
  8
WHITE
 10
129.728970
 20
51.080359
 30
0.000000
 11
129.941212
 21
49.318469
 31
0.000000
  6
CONTINUOUS
  0
LINE
  8
WHITE
 10
129.941212
 20
49.318469
 30
0.000000
 11
130.412659
 21
47.263599
 31
0.000000
  6
CONTINUOUS
  0
LINE
  8
WHITE
 10
130.412659
 20
47.263599
 30
0.000000
 11
130.895415
 21
45.197419
 31
0.000000
  6
CONTINUOUS
  0
LINE
  8
WHITE
 10
130.895415
 20
45.197419
 30
0.000000
 11
131.272937
 21
44.081689
 31
0.000000
  6
CONTINUOUS
  0
LINE
  8
WHITE
 10
131.272937
 20
44.081689
 30
0.000000
 11
131.768829
 21
42.627842
 31
0.000000
  6
CONTINUOUS
  0
LINE
  8
WHITE
 10
131.768829
 20
42.627842
 30
0.000000
 11
132.264720
 21
41.241649
 31
0.000000
  6
CONTINUOUS
  0
LINE
  8
WHITE
 10
132.264720
 20
41.241649
 30
0.000000
 11
133.179466
 21
39.958762
 31
0.000000
  6
CONTINUOUS
  0
LINE
  8
WHITE
 10
133.179466
 20
39.958762
 30
0.000000
 11
134.546895
 21
37.945174
 31
0.000000
  6
CONTINUOUS
  0
LINE
  8
WHITE
 10
134.546895
 20
37.945174
 30
0.000000
 11
135.886126
 21
36.840703
 31
0.000000
  6
CONTINUOUS
  0
LINE
  8
WHITE
 10
135.886126
 20
36.840703
 30
0.000000
 11
137.133360
 21
35.307994
 31
0.000000
  6
CONTINUOUS
  0
LINE
  8
WHITE
 10
137.133360
 20
35.307994
 30
0.000000
 11
139.285907
 21
33.504771
 31
0.000000
  6
CONTINUOUS
  0
LINE
  8
WHITE
 10
139.285907
 20
33.504771
 30
0.000000
 11
140.632695
 21
32.569384
 31
0.000000
  6
CONTINUOUS
  0
LINE
  8
WHITE
 10
140.632695
 20
32.569384
 30
0.000000
 11
141.898694
 21
31.615181
 31
0.000000
  6
CONTINUOUS
  0
LINE
  8
WHITE
 10
141.898694
 20
31.615181
 30
0.000000
 11
143.204148
 21
30.621573
 31
0.000000
  6
CONTINUOUS
  0
LINE
  8
WHITE
 10
143.204148
 20
30.621573
 30
0.000000
 11
144.233460
 21
29.780059
 31
0.000000
  6
CONTINUOUS
  0
LINE
  8
WHITE
 10
144.233460
 20
29.780059
 30
0.000000
 11
145.249636
 21
28.801462
 31
0.000000
  6
CONTINUOUS
  0
LINE
  8
WHITE
 10
145.249636
 20
28.801462
 30
0.000000
 11
146.365366
 21
27.954319
 31
0.000000
  6
CONTINUOUS
  0
LINE
  8
WHITE
 10
146.365366
 20
27.954319
 30
0.000000
 11
147.430381
 21
26.940019
 31
0.000000
  6
CONTINUOUS
  0
LINE
  8
WHITE
 10
147.430381
 20
26.940019
 30
0.000000
 11
148.797810
 21
25.722859
 31
0.000000
  6
CONTINUOUS
  0
ARC
  8
WHITE
 10
146.834655
 20
21.817009
 30
0.000000
 40
4.371458
 50
-56.834106
 51
63.315018
  6
CONTINUOUS
  0
ARC
  8
WHITE
 10
149.664631
 20
15.501722
 30
0.000000
 40
2.691938
 50
99.374999
 51
261.231068
  6
CONTINUOUS
  0
LINE
  8
WHITE
 10
149.254245
 20
12.841249
 30
0.000000
 11
150.587847
 21
12.636512
 31
0.000000
  6
CONTINUOUS
  0
ARC
  8
WHITE
 10
149.710145
 20
6.780983
 30
0.000000
 40
5.920944
 50
-81.622097
 51
81.475237
  6
CONTINUOUS
  0
ARC
  8
WHITE
 10
118.903796
 20
-204.783060
 30
0.000000
 40
208.129775
 50
81.247874
 51
100.287509
  6
CONTINUOUS
  0
ARC
  8
WHITE
 10
81.627861
 20
6.922843
 30
0.000000
 40
6.922843
 50
77.473271
 51
270.881570
  6
CONTINUOUS
  0
ARC
  8
WHITE
 10
88.808224
 20
54.705415
 30
0.000000
 40
41.415711
 50
-97.881103
 51
-55.301515
  6
CONTINUOUS
  0
LINE
  8
WHITE
 10
292.473405
 20
220.199872
 30
0.000000
 11
292.270545
 21
221.381329
 31
0.000000
  6
CONTINUOUS
  0
ARC
  8
WHITE
 10
216.567625
 20
211.208513
 30
0.000000
 40
76.383364
 50
7.653451
 51
35.920438
  6
CONTINUOUS
  0
LINE
  8
WHITE
 10
278.425350
 20
256.019674
 30
0.000000
 11
276.915159
 21
257.394608
 31
0.000000
  6
CONTINUOUS
  0
LINE
  8
WHITE
 10
276.915159
 20
257.394608
 30
0.000000
 11
275.821997
 21
258.718828
 31
0.000000
  6
CONTINUOUS
  0
LINE
  8
WHITE
 10
275.821997
 20
258.718828
 30
0.000000
 11
274.319311
 21
260.330449
 31
0.000000
  6
CONTINUOUS
  0
LINE
  8
WHITE
 10
274.319311
 20
260.330449
 30
0.000000
 11
273.252420
 21
261.192604
 31
0.000000
  6
CONTINUOUS
  0
LINE
  8
WHITE
 10
273.252420
 20
261.192604
 30
0.000000
 11
271.984545
 21
262.156189
 31
0.000000
  6
CONTINUOUS
  0
LINE
  8
WHITE
 10
271.984545
 20
262.156189
 30
0.000000
 11
271.019084
 21
263.241845
 31
0.000000
  6
CONTINUOUS
  0
LINE
  8
WHITE
 10
271.019084
 20
263.241845
 30
0.000000
 11
269.753085
 21
264.385772
 31
0.000000
  6
CONTINUOUS
  0
LINE
  8
WHITE
 10
269.753085
 20
264.385772
 30
0.000000
 11
268.601652
 21
265.184077
 31
0.000000
  6
CONTINUOUS
  0
LINE
  8
WHITE
 10
268.601652
 20
265.184077
 30
0.000000
 11
267.420195
 21
265.959814
 31
0.000000
  6
CONTINUOUS
  0
LINE
  8
WHITE
 10
267.420195
 20
265.959814
 30
0.000000
 11
265.737218
 21
267.485017
 31
0.000000
  6
CONTINUOUS
  0
LINE
  8
WHITE
 10
265.737218
 20
267.485017
 30
0.000000
 11
264.123720
 21
268.698424
 31
0.000000
  6
CONTINUOUS
  0
LINE
  8
WHITE
 10
264.123720
 20
268.698424
 30
0.000000
 11
262.504593
 21
269.802895
 31
0.000000
  6
CONTINUOUS
  0
LINE
  8
WHITE
 10
262.504593
 20
269.802895
 30
0.000000
 11
261.458342
 21
270.441498
 31
0.000000
  6
CONTINUOUS
  0
LINE
  8
WHITE
 10
261.458342
 20
270.441498
 30
0.000000
 11
260.316342
 21
271.010673
 31
0.000000
  6
CONTINUOUS
  0
LINE
  8
WHITE
 10
260.316342
 20
271.010673
 30
0.000000
 11
259.204365
 21
271.893469
 31
0.000000
  6
CONTINUOUS
  0
LINE
  8
WHITE
 10
259.204365
 20
271.893469
 30
0.000000
 11
258.190065
 21
272.147044
 31
0.000000
  6
CONTINUOUS
  0
LINE
  8
WHITE
 10
258.190065
 20
272.147044
 30
0.000000
 11
255.872187
 21
273.146332
 31
0.000000
  6
CONTINUOUS
  0
LINE
  8
WHITE
 10
255.872187
 20
273.146332
 30
0.000000
 11
253.576876
 21
274.123052
 31
0.000000
  6
CONTINUOUS
  0
LINE
  8
WHITE
 10
253.576876
 20
274.123052
 30
0.000000
 11
250.785675
 21
275.088514
 31
0.000000
  6
CONTINUOUS
  0
LINE
  8
WHITE
 10
250.785675
 20
275.088514
 30
0.000000
 11
249.517800
 21
275.494234
 31
0.000000
  6
CONTINUOUS
  0
LINE
  8
WHITE
 10
249.517800
 20
275.494234
 30
0.000000
 11
248.199210
 21
275.986372
 31
0.000000
  6
CONTINUOUS
  0
LINE
  8
WHITE
 10
248.199210
 20
275.986372
 30
0.000000
 11
246.593218
 21
276.401474
 31
0.000000
  6
CONTINUOUS
  0
LINE
  8
WHITE
 10
246.593218
 20
276.401474
 30
0.000000
 11
245.105595
 21
276.964969
 31
0.000000
  6
CONTINUOUS
  0
LINE
  8
WHITE
 10
245.105595
 20
276.964969
 30
0.000000
 11
243.864041
 21
277.199779
 31
0.000000
  6
CONTINUOUS
  0
LINE
  8
WHITE
 10
243.864041
 20
277.199779
 30
0.000000
 11
241.403400
 21
277.827124
 31
0.000000
  6
CONTINUOUS
  0
LINE
  8
WHITE
 10
241.403400
 20
277.827124
 30
0.000000
 11
239.592672
 21
278.238473
 31
0.000000
  6
CONTINUOUS
  0
LINE
  8
WHITE
 10
239.592672
 20
278.238473
 30
0.000000
 11
237.939768
 21
278.616046
 31
0.000000
  6
CONTINUOUS
  0
LINE
  8
WHITE
 10
237.939768
 20
278.616046
 30
0.000000
 11
236.129040
 21
279.044284
 31
0.000000
  6
CONTINUOUS
  0
LINE
  8
WHITE
 10
236.129040
 20
279.044284
 30
0.000000
 11
233.963307
 21
279.397412
 31
0.000000
  6
CONTINUOUS
  0
LINE
  8
WHITE
 10
233.963307
 20
279.397412
 30
0.000000
 11
231.820141
 21
279.739282
 31
0.000000
  6
CONTINUOUS
  0
LINE
  8
WHITE
 10
231.820141
 20
279.739282
 30
0.000000
 11
229.688235
 21
280.058584
 31
0.000000
  6
CONTINUOUS
  0
LINE
  8
WHITE
 10
229.688235
 20
280.058584
 30
0.000000
 11
228.029652
 21
280.603314
 31
0.000000
  6
CONTINUOUS
  0
LINE
  8
WHITE
 10
228.029652
 20
280.603314
 30
0.000000
 11
226.427463
 21
281.271991
 31
0.000000
  6
CONTINUOUS
  0
LINE
  8
WHITE
 10
226.427463
 20
281.271991
 30
0.000000
 11
224.579155
 21
281.974495
 31
0.000000
  6
CONTINUOUS
  0
LINE
  8
WHITE
 10
224.579155
 20
281.974495
 30
0.000000
 11
223.450290
 21
282.645049
 31
0.000000
  6
CONTINUOUS
  0
LINE
  8
WHITE
 10
223.450290
 20
282.645049
 30
0.000000
 11
222.837957
 21
284.294250
 31
0.000000
  6
CONTINUOUS
  0
LINE
  8
WHITE
 10
222.837957
 20
284.294250
 30
0.000000
 11
222.841710
 21
285.383659
 31
0.000000
  6
CONTINUOUS
  0
LINE
  8
WHITE
 10
222.841710
 20
285.383659
 30
0.000000
 11
224.006279
 21
286.670298
 31
0.000000
  6
CONTINUOUS
  0
LINE
  8
WHITE
 10
224.006279
 20
286.670298
 30
0.000000
 11
225.326745
 21
287.767264
 31
0.000000
  6
CONTINUOUS
  0
LINE
  8
WHITE
 10
225.326745
 20
287.767264
 30
0.000000
 11
226.913922
 21
287.549392
 31
0.000000
  6
CONTINUOUS
  0
LINE
  8
WHITE
 10
226.913922
 20
287.549392
 30
0.000000
 11
228.523666
 21
287.308952
 31
0.000000
  6
CONTINUOUS
  0
LINE
  8
WHITE
 10
228.523666
 20
287.308952
 30
0.000000
 11
230.144670
 21
287.057254
 31
0.000000
  6
CONTINUOUS
  0
LINE
  8
WHITE
 10
230.144670
 20
287.057254
 30
0.000000
 11
232.188282
 21
286.854394
 31
0.000000
  6
CONTINUOUS
  0
LINE
  8
WHITE
 10
232.188282
 20
286.854394
 30
0.000000
 11
234.102316
 21
286.550104
 31
0.000000
  6
CONTINUOUS
  0
LINE
  8
WHITE
 10
234.102316
 20
286.550104
 30
0.000000
 11
236.027610
 21
286.245814
 31
0.000000
  6
CONTINUOUS
  0
LINE
  8
WHITE
 10
236.027610
 20
286.245814
 30
0.000000
 11
238.856391
 21
285.813773
 31
0.000000
  6
CONTINUOUS
  0
LINE
  8
WHITE
 10
238.856391
 20
285.813773
 30
0.000000
 11
241.786603
 21
285.054975
 31
0.000000
  6
CONTINUOUS
  0
LINE
  8
WHITE
 10
241.786603
 20
285.054975
 30
0.000000
 11
244.852020
 21
284.318644
 31
0.000000
  6
CONTINUOUS
  0
LINE
  8
WHITE
 10
244.852020
 20
284.318644
 30
0.000000
 11
246.444826
 21
283.764532
 31
0.000000
  6
CONTINUOUS
  0
LINE
  8
WHITE
 10
246.444826
 20
283.764532
 30
0.000000
 11
248.263060
 21
283.165334
 31
0.000000
  6
CONTINUOUS
  0
LINE
  8
WHITE
 10
248.263060
 20
283.165334
 30
0.000000
 11
250.126380
 21
282.137899
 31
0.000000
  6
CONTINUOUS
  0
LINE
  8
WHITE
 10
250.126380
 20
282.137899
 30
0.000000
 11
251.476920
 21
281.666452
 31
0.000000
  6
CONTINUOUS
  0
LINE
  8
WHITE
 10
251.476920
 20
281.666452
 30
0.000000
 11
252.951408
 21
281.037180
 31
0.000000
  6
CONTINUOUS
  0
LINE
  8
WHITE
 10
252.951408
 20
281.037180
 30
0.000000
 11
254.640015
 21
280.362874
 31
0.000000
  6
CONTINUOUS
  0
LINE
  8
WHITE
 10
254.640015
 20
280.362874
 30
0.000000
 11
255.958605
 21
279.399289
 31
0.000000
  6
CONTINUOUS
  0
LINE
  8
WHITE
 10
255.958605
 20
279.399289
 30
0.000000
 11
257.570226
 21
278.651699
 31
0.000000
  6
CONTINUOUS
  0
LINE
  8
WHITE
 10
257.570226
 20
278.651699
 30
0.000000
 11
259.713391
 21
277.710682
 31
0.000000
  6
CONTINUOUS
  0
LINE
  8
WHITE
 10
259.713391
 20
277.710682
 30
0.000000
 11
262.095120
 21
276.508534
 31
0.000000
  6
CONTINUOUS
  0
LINE
  8
WHITE
 10
262.095120
 20
276.508534
 30
0.000000
 11
263.517016
 21
275.783512
 31
0.000000
  6
CONTINUOUS
  0
LINE
  8
WHITE
 10
263.517016
 20
275.783512
 30
0.000000
 11
264.950172
 21
275.035922
 31
0.000000
  6
CONTINUOUS
  0
LINE
  8
WHITE
 10
264.950172
 20
275.035922
 30
0.000000
 11
266.405895
 21
274.277074
 31
0.000000
  6
CONTINUOUS
  0
LINE
  8
WHITE
 10
266.405895
 20
274.277074
 30
0.000000
 11
268.329312
 21
273.048655
 31
0.000000
  6
CONTINUOUS
  0
LINE
  8
WHITE
 10
268.329312
 20
273.048655
 30
0.000000
 11
269.550225
 21
272.299189
 31
0.000000
  6
CONTINUOUS
  0
LINE
  8
WHITE
 10
269.550225
 20
272.299189
 30
0.000000
 11
270.878197
 21
271.519699
 31
0.000000
  6
CONTINUOUS
  0
LINE
  8
WHITE
 10
270.878197
 20
271.519699
 30
0.000000
 11
271.995804
 21
270.845342
 31
0.000000
  6
CONTINUOUS
  0
LINE
  8
WHITE
 10
271.995804
 20
270.845342
 30
0.000000
 11
273.592413
 21
269.558702
 31
0.000000
  6
CONTINUOUS
  0
LINE
  8
WHITE
 10
273.592413
 20
269.558702
 30
0.000000
 11
274.704390
 21
268.632697
 31
0.000000
  6
CONTINUOUS
  0
LINE
  8
WHITE
 10
274.704390
 20
268.632697
 30
0.000000
 11
275.940315
 21
267.684124
 31
0.000000
  6
CONTINUOUS
  0
LINE
  8
WHITE
 10
275.940315
 20
267.684124
 30
0.000000
 11
277.983927
 21
265.740066
 31
0.000000
  6
CONTINUOUS
  0
LINE
  8
WHITE
 10
277.983927
 20
265.740066
 30
0.000000
 11
279.559845
 21
264.438364
 31
0.000000
  6
CONTINUOUS
  0
LINE
  8
WHITE
 10
279.559845
 20
264.438364
 30
0.000000
 11
281.011815
 21
262.866199
 31
0.000000
  6
CONTINUOUS
  0
LINE
  8
WHITE
 10
281.011815
 20
262.866199
 30
0.000000
 11
282.217716
 21
261.788049
 31
0.000000
  6
CONTINUOUS
  0
LINE
  8
WHITE
 10
282.217716
 20
261.788049
 30
0.000000
 11
283.271473
 21
260.482594
 31
0.000000
  6
CONTINUOUS
  0
LINE
  8
WHITE
 10
283.271473
 20
260.482594
 30
0.000000
 11
284.511150
 21
258.961144
 31
0.000000
  6
CONTINUOUS
  0
LINE
  8
WHITE
 10
284.511150
 20
258.961144
 30
0.000000
 11
285.780901
 21
257.221822
 31
0.000000
  6
CONTINUOUS
  0
LINE
  8
WHITE
 10
285.780901
 20
257.221822
 30
0.000000
 11
286.785819
 21
255.974588
 31
0.000000
  6
CONTINUOUS
  0
LINE
  8
WHITE
 10
286.785819
 20
255.974588
 30
0.000000
 11
287.604765
 21
254.498224
 31
0.000000
  6
CONTINUOUS
  0
LINE
  8
WHITE
 10
287.604765
 20
254.498224
 30
0.000000
 11
288.532647
 21
253.273558
 31
0.000000
  6
CONTINUOUS
  0
LINE
  8
WHITE
 10
288.532647
 20
253.273558
 30
0.000000
 11
289.353469
 21
252.001930
 31
0.000000
  6
CONTINUOUS
  0
LINE
  8
WHITE
 10
289.353469
 20
252.001930
 30
0.000000
 11
290.183724
 21
250.621366
 31
0.000000
  6
CONTINUOUS
  0
LINE
  8
WHITE
 10
290.183724
 20
250.621366
 30
0.000000
 11
291.002670
 21
249.173149
 31
0.000000
  6
CONTINUOUS
  0
LINE
  8
WHITE
 10
291.002670
 20
249.173149
 30
0.000000
 11
292.103388
 21
247.400000
 31
0.000000
  6
CONTINUOUS
  0
LINE
  8
WHITE
 10
292.103388
 20
247.400000
 30
0.000000
 11
292.625550
 21
246.231679
 31
0.000000
  6
CONTINUOUS
  0
LINE
  8
WHITE
 10
292.625550
 20
246.231679
 30
0.000000
 11
293.185291
 21
245.164787
 31
0.000000
  6
CONTINUOUS
  0
LINE
  8
WHITE
 10
293.185291
 20
245.164787
 30
0.000000
 11
293.833328
 21
243.322159
 31
0.000000
  6
CONTINUOUS
  0
LINE
  8
WHITE
 10
293.833328
 20
243.322159
 30
0.000000
 11
294.359242
 21
242.041098
 31
0.000000
  6
CONTINUOUS
  0
LINE
  8
WHITE
 10
294.359242
 20
242.041098
 30
0.000000
 11
295.095573
 21
240.237927
 31
0.000000
  6
CONTINUOUS
  0
LINE
  8
WHITE
 10
295.095573
 20
240.237927
 30
0.000000
 11
295.619611
 21
238.928719
 31
0.000000
  6
CONTINUOUS
  0
LINE
  8
WHITE
 10
295.619611
 20
238.928719
 30
0.000000
 11
295.769880
 21
237.914419
 31
0.000000
  6
CONTINUOUS
  0
LINE
  8
WHITE
 10
295.769880
 20
237.914419
 30
0.000000
 11
296.226315
 21
236.545114
 31
0.000000
  6
CONTINUOUS
  0
LINE
  8
WHITE
 10
296.226315
 20
236.545114
 30
0.000000
 11
296.641417
 21
235.309189
 31
0.000000
  6
CONTINUOUS
  0
LINE
  8
WHITE
 10
296.641417
 20
235.309189
 30
0.000000
 11
296.987040
 21
233.806504
 31
0.000000
  6
CONTINUOUS
  0
LINE
  8
WHITE
 10
296.987040
 20
233.806504
 30
0.000000
 11
297.595620
 21
232.183624
 31
0.000000
  6
CONTINUOUS
  0
LINE
  8
WHITE
 10
297.595620
 20
232.183624
 30
0.000000
 11
298.147856
 21
229.700465
 31
0.000000
  6
CONTINUOUS
  0
LINE
  8
WHITE
 10
298.147856
 20
229.700465
 30
0.000000
 11
298.497231
 21
227.870972
 31
0.000000
  6
CONTINUOUS
  0
LINE
  8
WHITE
 10
298.497231
 20
227.870972
 30
0.000000
 11
298.812780
 21
225.793534
 31
0.000000
  6
CONTINUOUS
  0
LINE
  8
WHITE
 10
298.812780
 20
225.793534
 30
0.000000
 11
299.117070
 21
222.446344
 31
0.000000
  6
CONTINUOUS
  0
LINE
  8
WHITE
 10
299.117070
 20
222.446344
 30
0.000000
 11
299.656170
 21
218.854961
 31
0.000000
  6
CONTINUOUS
  0
LINE
  8
WHITE
 10
299.656170
 20
218.854961
 30
0.000000
 11
300.048705
 21
214.981857
 31
0.000000
  6
CONTINUOUS
  0
LINE
  8
WHITE
 10
300.048705
 20
214.981857
 30
0.000000
 11
300.283515
 21
210.984754
 31
0.000000
  6
CONTINUOUS
  0
LINE
  8
WHITE
 10
300.283515
 20
210.984754
 30
0.000000
 11
300.478869
 21
209.483945
 31
0.000000
  6
CONTINUOUS
  0
LINE
  8
WHITE
 10
300.478869
 20
209.483945
 30
0.000000
 11
300.460054
 21
207.160488
 31
0.000000
  6
CONTINUOUS
  0
LINE
  8
WHITE
 10
300.460054
 20
207.160488
 30
0.000000
 11
300.379316
 21
204.763697
 31
0.000000
  6
CONTINUOUS
  0
ARC
  8
WHITE
 10
296.858677
 20
205.240808
 30
0.000000
 40
3.552821
 50
-176.336516
 51
-7.717605
  6
CONTINUOUS
  0
ARC
  8
WHITE
 10
229.389131
 20
209.095386
 30
0.000000
 40
64.054158
 50
-3.653415
 51
9.983287
  6
CONTINUOUS
  0
ARC
  8
WHITE
 10
214.009248
 20
204.333626
 30
0.000000
 40
55.306582
 50
18.229947
 51
84.895450
  6
CONTINUOUS
  0
ARC
  8
WHITE
 10
261.916933
 20
222.359211
 30
0.000000
 40
4.679327
 50
-121.290343
 51
-8.900120
  6
CONTINUOUS
  0
ARC
  8
WHITE
 10
205.547195
 20
195.335308
 30
0.000000
 40
58.648274
 50
23.116257
 51
78.823775
  6
CONTINUOUS
  0
ARC
  8
WHITE
 10
219.150717
 20
255.768180
 30
0.000000
 40
3.659340
 50
93.456977
 51
232.337565
  6
CONTINUOUS
  0
LINE
  8
WHITE
 10
217.465920
 20
126.341419
 30
0.000000
 11
216.126689
 21
126.700177
 31
0.000000
  6
CONTINUOUS
  0
LINE
  8
WHITE
 10
216.126689
 20
126.700177
 30
0.000000
 11
214.866320
 21
126.912419
 31
0.000000
  6
CONTINUOUS
  0
LINE
  8
WHITE
 10
214.866320
 20
126.912419
 30
0.000000
 11
212.999247
 21
127.380113
 31
0.000000
  6
CONTINUOUS
  0
LINE
  8
WHITE
 10
212.999247
 20
127.380113
 30
0.000000
 11
211.481550
 21
127.710724
 31
0.000000
  6
CONTINUOUS
  0
LINE
  8
WHITE
 10
211.481550
 20
127.710724
 30
0.000000
 11
210.112245
 21
128.217874
 31
0.000000
  6
CONTINUOUS
  0
LINE
  8
WHITE
 10
210.112245
 20
128.217874
 30
0.000000
 11
209.338385
 21
129.397454
 31
0.000000
  6
CONTINUOUS
  0
LINE
  8
WHITE
 10
209.338385
 20
129.397454
 30
0.000000
 11
208.641510
 21
130.550764
 31
0.000000
  6
CONTINUOUS
  0
LINE
  8
WHITE
 10
208.641510
 20
130.550764
 30
0.000000
 11
208.836864
 21
131.794245
 31
0.000000
  6
CONTINUOUS
  0
LINE
  8
WHITE
 10
208.836864
 20
131.794245
 30
0.000000
 11
209.351520
 21
132.832939
 31
0.000000
  6
CONTINUOUS
  0
LINE
  8
WHITE
 10
209.351520
 20
132.832939
 30
0.000000
 11
210.548039
 21
133.120341
 31
0.000000
  6
CONTINUOUS
  0
LINE
  8
WHITE
 10
210.548039
 20
133.120341
 30
0.000000
 11
212.647995
 21
133.086514
 31
0.000000
  6
CONTINUOUS
  0
LINE
  8
WHITE
 10
212.647995
 20
133.086514
 30
0.000000
 11
215.437320
 21
133.045181
 31
0.000000
  6
CONTINUOUS
  0
LINE
  8
WHITE
 10
215.437320
 20
133.045181
 30
0.000000
 11
218.277360
 21
133.043305
 31
0.000000
  6
CONTINUOUS
  0
LINE
  8
WHITE
 10
218.277360
 20
133.043305
 30
0.000000
 11
221.117400
 21
133.492234
 31
0.000000
  6
CONTINUOUS
  0
LINE
  8
WHITE
 10
221.117400
 20
133.492234
 30
0.000000
 11
222.473570
 21
134.305550
 31
0.000000
  6
CONTINUOUS
  0
LINE
  8
WHITE
 10
222.473570
 20
134.305550
 30
0.000000
 11
224.122720
 21
135.468242
 31
0.000000
  6
CONTINUOUS
  0
LINE
  8
WHITE
 10
224.122720
 20
135.468242
 30
0.000000
 11
225.174600
 21
136.585849
 31
0.000000
  6
CONTINUOUS
  0
LINE
  8
WHITE
 10
225.174600
 20
136.585849
 30
0.000000
 11
226.485684
 21
138.073472
 31
0.000000
  6
CONTINUOUS
  0
LINE
  8
WHITE
 10
226.485684
 20
138.073472
 30
0.000000
 11
227.116782
 21
139.106587
 31
0.000000
  6
CONTINUOUS
  0
LINE
  8
WHITE
 10
227.116782
 20
139.106587
 30
0.000000
 11
227.762941
 21
140.830897
 31
0.000000
  6
CONTINUOUS
  0
LINE
  8
WHITE
 10
227.762941
 20
140.830897
 30
0.000000
 11
228.181797
 21
142.111907
 31
0.000000
  6
CONTINUOUS
  0
LINE
  8
WHITE
 10
228.181797
 20
142.111907
 30
0.000000
 11
228.623220
 21
143.381659
 31
0.000000
  6
CONTINUOUS
  0
LINE
  8
WHITE
 10
228.623220
 20
143.381659
 30
0.000000
 11
228.790377
 21
144.533092
 31
0.000000
  6
CONTINUOUS
  0
LINE
  8
WHITE
 10
228.790377
 20
144.533092
 30
0.000000
 11
228.980101
 21
145.661957
 31
0.000000
  6
CONTINUOUS
  0
LINE
  8
WHITE
 10
228.980101
 20
145.661957
 30
0.000000
 11
229.181085
 21
146.779564
 31
0.000000
  6
CONTINUOUS
  0
LINE
  8
WHITE
 10
229.181085
 20
146.779564
 30
0.000000
 11
229.485375
 21
147.946009
 31
0.000000
  6
CONTINUOUS
  0
LINE
  8
WHITE
 10
229.485375
 20
147.946009
 30
0.000000
 11
229.688235
 21
149.110577
 31
0.000000
  6
CONTINUOUS
  0
LINE
  8
WHITE
 10
229.688235
 20
149.110577
 30
0.000000
 11
229.789665
 21
150.988909
 31
0.000000
  6
CONTINUOUS
  0
LINE
  8
WHITE
 10
229.789665
 20
150.988909
 30
0.000000
 11
229.941810
 21
152.495347
 31
0.000000
  6
CONTINUOUS
  0
LINE
  8
WHITE
 10
229.941810
 20
152.495347
 30
0.000000
 11
229.941810
 21
155.350399
 31
0.000000
  6
CONTINUOUS
  0
LINE
  8
WHITE
 10
229.941810
 20
155.350399
 30
0.000000
 11
229.767148
 21
157.375246
 31
0.000000
  6
CONTINUOUS
  0
LINE
  8
WHITE
 10
229.767148
 20
157.375246
 30
0.000000
 11
229.491004
 21
159.681815
 31
0.000000
  6
CONTINUOUS
  0
LINE
  8
WHITE
 10
229.491004
 20
159.681815
 30
0.000000
 11
228.993237
 21
161.994064
 31
0.000000
  6
CONTINUOUS
  0
LINE
  8
WHITE
 10
228.993237
 20
161.994064
 30
0.000000
 11
228.673935
 21
163.921234
 31
0.000000
  6
CONTINUOUS
  0
LINE
  8
WHITE
 10
228.673935
 20
163.921234
 30
0.000000
 11
228.444754
 21
165.170344
 31
0.000000
  6
CONTINUOUS
  0
LINE
  8
WHITE
 10
228.444754
 20
165.170344
 30
0.000000
 11
227.659635
 21
167.217709
 31
0.000000
  6
CONTINUOUS
  0
LINE
  8
WHITE
 10
227.659635
 20
167.217709
 30
0.000000
 11
226.746765
 21
170.117846
 31
0.000000
  6
CONTINUOUS
  0
LINE
  8
WHITE
 10
226.746765
 20
170.117846
 30
0.000000
 11
225.664862
 21
172.939122
 31
0.000000
  6
CONTINUOUS
  0
LINE
  8
WHITE
 10
225.664862
 20
172.939122
 30
0.000000
 11
224.464590
 21
175.534969
 31
0.000000
  6
CONTINUOUS
  0
LINE
  8
WHITE
 10
224.464590
 20
175.534969
 30
0.000000
 11
223.871022
 21
176.902397
 31
0.000000
  6
CONTINUOUS
  0
LINE
  8
WHITE
 10
223.871022
 20
176.902397
 30
0.000000
 11
223.097161
 21
178.220987
 31
0.000000
  6
CONTINUOUS
  0
LINE
  8
WHITE
 10
223.097161
 20
178.220987
 30
0.000000
 11
222.283845
 21
179.642884
 31
0.000000
  6
CONTINUOUS
  0
LINE
  8
WHITE
 10
222.283845
 20
179.642884
 30
0.000000
 11
221.570082
 21
181.029077
 31
0.000000
  6
CONTINUOUS
  0
LINE
  8
WHITE
 10
221.570082
 20
181.029077
 30
0.000000
 11
220.829998
 21
182.186140
 31
0.000000
  6
CONTINUOUS
  0
LINE
  8
WHITE
 10
220.829998
 20
182.186140
 30
0.000000
 11
220.033620
 21
183.303746
 31
0.000000
  6
CONTINUOUS
  0
LINE
  8
WHITE
 10
220.033620
 20
183.303746
 30
0.000000
 11
219.406225
 21
184.359379
 31
0.000000
  6
CONTINUOUS
  0
LINE
  8
WHITE
 10
219.406225
 20
184.359379
 30
0.000000
 11
218.397555
 21
185.728684
 31
0.000000
  6
CONTINUOUS
  0
LINE
  8
WHITE
 10
218.397555
 20
185.728684
 30
0.000000
 11
217.364490
 21
186.742984
 31
0.000000
  6
CONTINUOUS
  0
LINE
  8
WHITE
 10
217.364490
 20
186.742984
 30
0.000000
 11
216.451620
 21
187.807999
 31
0.000000
  6
CONTINUOUS
  0
LINE
  8
WHITE
 10
216.451620
 20
187.807999
 30
0.000000
 11
215.820523
 21
188.839187
 31
0.000000
  6
CONTINUOUS
  0
LINE
  8
WHITE
 10
215.820523
 20
188.839187
 30
0.000000
 11
214.915158
 21
190.011261
 31
0.000000
  6
CONTINUOUS
  0
LINE
  8
WHITE
 10
214.915158
 20
190.011261
 30
0.000000
 11
213.662295
 21
191.358049
 31
0.000000
  6
CONTINUOUS
  0
LINE
  8
WHITE
 10
213.662295
 20
191.358049
 30
0.000000
 11
212.039415
 21
192.625924
 31
0.000000
  6
CONTINUOUS
  0
LINE
  8
WHITE
 10
212.039415
 20
192.625924
 30
0.000000
 11
211.130298
 21
193.690939
 31
0.000000
  6
CONTINUOUS
  0
LINE
  8
WHITE
 10
211.130298
 20
193.690939
 30
0.000000
 11
209.605095
 21
194.705239
 31
0.000000
  6
CONTINUOUS
  0
LINE
  8
WHITE
 10
209.605095
 20
194.705239
 30
0.000000
 11
208.237666
 21
195.710157
 31
0.000000
  6
CONTINUOUS
  0
LINE
  8
WHITE
 10
208.237666
 20
195.710157
 30
0.000000
 11
207.050580
 21
196.709445
 31
0.000000
  6
CONTINUOUS
  0
LINE
  8
WHITE
 10
207.050580
 20
196.709445
 30
0.000000
 11
205.192890
 21
197.697424
 31
0.000000
  6
CONTINUOUS
  0
LINE
  8
WHITE
 10
205.192890
 20
197.697424
 30
0.000000
 11
204.041457
 21
198.356719
 31
0.000000
  6
CONTINUOUS
  0
LINE
  8
WHITE
 10
204.041457
 20
198.356719
 30
0.000000
 11
203.099903
 21
199.183639
 31
0.000000
  6
CONTINUOUS
  0
ARC
  8
WHITE
 10
202.781177
 20
198.820730
 30
0.000000
 40
0.483000
 50
48.708764
 51
72.515392
  6
CONTINUOUS
  0
LINE
  8
WHITE
 10
202.926294
 20
199.281414
 30
0.000000
 11
202.142863
 21
199.528198
 31
0.000000
  6
CONTINUOUS
  0
ARC
  8
WHITE
 10
202.287980
 20
199.988882
 30
0.000000
 40
0.483000
 50
-142.431408
 51
-107.484608
  6
CONTINUOUS
  0
LINE
  8
WHITE
 10
201.905143
 20
199.694392
 30
0.000000
 11
201.015326
 21
200.851154
 31
0.000000
  6
CONTINUOUS
  0
ARC
  8
WHITE
 10
200.632488
 20
200.556664
 30
0.000000
 40
0.483000
 50
37.568592
 51
49.887329
  6
CONTINUOUS
  0
LINE
  8
WHITE
 10
200.943682
 20
200.926052
 30
0.000000
 11
199.743868
 21
201.936843
 31
0.000000
  6
CONTINUOUS
  0
LINE
  8
WHITE
 10
199.743868
 20
201.936843
 30
0.000000
 11
198.665667
 21
203.324912
 31
0.000000
  6
CONTINUOUS
  0
LINE
  8
WHITE
 10
198.665667
 20
203.324912
 30
0.000000
 11
198.300586
 21
204.008904
 31
0.000000
  6
CONTINUOUS
  0
ARC
  8
WHITE
 10
198.726689
 20
204.236336
 30
0.000000
 40
0.483000
 50
110.772255
 51
208.091073
  6
CONTINUOUS
  0
LINE
  8
WHITE
 10
198.555391
 20
204.687940
 30
0.000000
 11
199.383221
 21
205.001944
 31
0.000000
  6
CONTINUOUS
  0
ARC
  8
WHITE
 10
199.554519
 20
204.550341
 30
0.000000
 40
0.483000
 50
78.750341
 51
110.772255
  6
CONTINUOUS
  0
LINE
  8
WHITE
 10
199.648745
 20
205.024061
 30
0.000000
 11
200.461230
 21
204.862452
 31
0.000000
  6
CONTINUOUS
  0
ARC
  8
WHITE
 10
200.367005
 20
204.388732
 30
0.000000
 40
0.483000
 50
59.369894
 51
78.750341
  6
CONTINUOUS
  0
LINE
  8
WHITE
 10
200.613090
 20
204.804341
 30
0.000000
 11
201.592125
 21
204.224647
 31
0.000000
  6
CONTINUOUS
  0
LINE
  8
WHITE
 10
201.592125
 20
204.224647
 30
0.000000
 11
203.519295
 21
203.276074
 31
0.000000
  6
CONTINUOUS
  0
LINE
  8
WHITE
 10
203.519295
 20
203.276074
 30
0.000000
 11
205.762014
 21
202.209182
 31
0.000000
  6
CONTINUOUS
  0
LINE
  8
WHITE
 10
205.762014
 20
202.209182
 30
0.000000
 11
206.866485
 21
201.501049
 31
0.000000
  6
CONTINUOUS
  0
LINE
  8
WHITE
 10
206.866485
 20
201.501049
 30
0.000000
 11
208.337220
 21
200.638894
 31
0.000000
  6
CONTINUOUS
  0
LINE
  8
WHITE
 10
208.337220
 20
200.638894
 30
0.000000
 11
209.529986
 21
199.643358
 31
0.000000
  6
CONTINUOUS
  0
LINE
  8
WHITE
 10
209.529986
 20
199.643358
 30
0.000000
 11
210.720825
 21
198.610294
 31
0.000000
  6
CONTINUOUS
  0
LINE
  8
WHITE
 10
210.720825
 20
198.610294
 30
0.000000
 11
211.860949
 21
197.840187
 31
0.000000
  6
CONTINUOUS
  0
LINE
  8
WHITE
 10
211.860949
 20
197.840187
 30
0.000000
 11
212.954161
 21
197.024994
 31
0.000000
  6
CONTINUOUS
  0
LINE
  8
WHITE
 10
212.954161
 20
197.024994
 30
0.000000
 11
214.120606
 21
196.174097
 31
0.000000
  6
CONTINUOUS
  0
LINE
  8
WHITE
 10
214.120606
 20
196.174097
 30
0.000000
 11
215.183745
 21
195.313819
 31
0.000000
  6
CONTINUOUS
  0
LINE
  8
WHITE
 10
215.183745
 20
195.313819
 30
0.000000
 11
216.451620
 21
194.147374
 31
0.000000
  6
CONTINUOUS
  0
LINE
  8
WHITE
 10
216.451620
 20
194.147374
 30
0.000000
 11
217.255554
 21
193.080482
 31
0.000000
  6
CONTINUOUS
  0
LINE
  8
WHITE
 10
217.255554
 20
193.080482
 30
0.000000
 11
218.277360
 21
192.017344
 31
0.000000
  6
CONTINUOUS
  0
LINE
  8
WHITE
 10
218.277360
 20
192.017344
 30
0.000000
 11
219.487014
 21
190.657421
 31
0.000000
  6
CONTINUOUS
  0
LINE
  8
WHITE
 10
219.487014
 20
190.657421
 30
0.000000
 11
220.559535
 21
189.380164
 31
0.000000
  6
CONTINUOUS
  0
LINE
  8
WHITE
 10
220.559535
 20
189.380164
 30
0.000000
 11
221.624550
 21
188.061574
 31
0.000000
  6
CONTINUOUS
  0
LINE
  8
WHITE
 10
221.624550
 20
188.061574
 30
0.000000
 11
223.065211
 21
186.555135
 31
0.000000
  6
CONTINUOUS
  0
LINE
  8
WHITE
 10
223.065211
 20
186.555135
 30
0.000000
 11
223.653150
 21
185.525824
 31
0.000000
  6
CONTINUOUS
  0
LINE
  8
WHITE
 10
223.653150
 20
185.525824
 30
0.000000
 11
224.682462
 21
184.361255
 31
0.000000
  6
CONTINUOUS
  0
LINE
  8
WHITE
 10
224.682462
 20
184.361255
 30
0.000000
 11
226.049890
 21
182.464159
 31
0.000000
  6
CONTINUOUS
  0
LINE
  8
WHITE
 10
226.049890
 20
182.464159
 30
0.000000
 11
226.767406
 21
181.318355
 31
0.000000
  6
CONTINUOUS
  0
LINE
  8
WHITE
 10
226.767406
 20
181.318355
 30
0.000000
 11
227.406060
 21
179.947174
 31
0.000000
  6
CONTINUOUS
  0
LINE
  8
WHITE
 10
227.406060
 20
179.947174
 30
0.000000
 11
228.377151
 21
178.480192
 31
0.000000
  6
CONTINUOUS
  0
LINE
  8
WHITE
 10
228.377151
 20
178.480192
 30
0.000000
 11
229.181085
 21
176.752129
 31
0.000000
  6
CONTINUOUS
  0
LINE
  8
WHITE
 10
229.181085
 20
176.752129
 30
0.000000
 11
229.789665
 21
175.519957
 31
0.000000
  6
CONTINUOUS
  0
LINE
  8
WHITE
 10
229.789665
 20
175.519957
 30
0.000000
 11
230.450836
 21
173.910212
 31
0.000000
  6
CONTINUOUS
  0
LINE
  8
WHITE
 10
230.450836
 20
173.910212
 30
0.000000
 11
231.209685
 21
171.934204
 31
0.000000
  6
CONTINUOUS
  0
LINE
  8
WHITE
 10
231.209685
 20
171.934204
 30
0.000000
 11
231.489581
 21
170.794080
 31
0.000000
  6
CONTINUOUS
  0
LINE
  8
WHITE
 10
231.489581
 20
170.794080
 30
0.000000
 11
231.859598
 21
169.574993
 31
0.000000
  6
CONTINUOUS
  0
LINE
  8
WHITE
 10
231.859598
 20
169.574993
 30
0.000000
 11
232.376130
 21
168.232009
 31
0.000000
  6
CONTINUOUS
  0
LINE
  8
WHITE
 10
232.376130
 20
168.232009
 30
0.000000
 11
232.800615
 21
166.532093
 31
0.000000
  6
CONTINUOUS
  0
LINE
  8
WHITE
 10
232.800615
 20
166.532093
 30
0.000000
 11
233.202582
 21
164.708280
 31
0.000000
  6
CONTINUOUS
  0
LINE
  8
WHITE
 10
233.202582
 20
164.708280
 30
0.000000
 11
233.491860
 21
162.805504
 31
0.000000
  6
CONTINUOUS
  0
LINE
  8
WHITE
 10
233.491860
 20
162.805504
 30
0.000000
 11
233.801779
 21
161.511308
 31
0.000000
  6
CONTINUOUS
  0
LINE
  8
WHITE
 10
233.801779
 20
161.511308
 30
0.000000
 11
233.976493
 21
159.011261
 31
0.000000
  6
CONTINUOUS
  0
LINE
  8
WHITE
 10
233.976493
 20
159.011261
 30
0.000000
 11
234.252585
 21
156.770419
 31
0.000000
  6
CONTINUOUS
  0
LINE
  8
WHITE
 10
234.252585
 20
156.770419
 30
0.000000
 11
234.354015
 21
153.813937
 31
0.000000
  6
CONTINUOUS
  0
LINE
  8
WHITE
 10
234.354015
 20
153.813937
 30
0.000000
 11
234.318312
 21
152.153477
 31
0.000000
  6
CONTINUOUS
  0
LINE
  8
WHITE
 10
234.318312
 20
152.153477
 30
0.000000
 11
234.303300
 21
151.139177
 31
0.000000
  6
CONTINUOUS
  0
LINE
  8
WHITE
 10
234.303300
 20
151.139177
 30
0.000000
 11
234.303300
 21
149.264599
 31
0.000000
  6
CONTINUOUS
  0
LINE
  8
WHITE
 10
234.303300
 20
149.264599
 30
0.000000
 11
234.201870
 21
148.250299
 31
0.000000
  6
CONTINUOUS
  0
LINE
  8
WHITE
 10
234.201870
 20
148.250299
 30
0.000000
 11
233.931407
 21
146.234834
 31
0.000000
  6
CONTINUOUS
  0
LINE
  8
WHITE
 10
233.931407
 20
146.234834
 30
0.000000
 11
233.322827
 21
144.061595
 31
0.000000
  6
CONTINUOUS
  0
LINE
  8
WHITE
 10
233.322827
 20
144.061595
 30
0.000000
 11
232.680420
 21
141.910924
 31
0.000000
  6
CONTINUOUS
  0
LINE
  8
WHITE
 10
232.680420
 20
141.910924
 30
0.000000
 11
232.094357
 21
140.701270
 31
0.000000
  6
CONTINUOUS
  0
LINE
  8
WHITE
 10
232.094357
 20
140.701270
 30
0.000000
 11
231.515851
 21
139.208017
 31
0.000000
  6
CONTINUOUS
  0
LINE
  8
WHITE
 10
231.515851
 20
139.208017
 30
0.000000
 11
231.059416
 21
138.054707
 31
0.000000
  6
CONTINUOUS
  0
LINE
  8
WHITE
 10
231.059416
 20
138.054707
 30
0.000000
 11
230.195385
 21
136.585849
 31
0.000000
  6
CONTINUOUS
  0
LINE
  8
WHITE
 10
230.195385
 20
136.585849
 30
0.000000
 11
229.451548
 21
135.338615
 31
0.000000
  6
CONTINUOUS
  0
LINE
  8
WHITE
 10
229.451548
 20
135.338615
 30
0.000000
 11
228.403472
 21
133.907336
 31
0.000000
  6
CONTINUOUS
  0
LINE
  8
WHITE
 10
228.403472
 20
133.907336
 30
0.000000
 11
227.575093
 21
132.797235
 31
0.000000
  6
CONTINUOUS
  0
LINE
  8
WHITE
 10
227.575093
 20
132.797235
 30
0.000000
 11
226.679162
 21
131.668370
 31
0.000000
  6
CONTINUOUS
  0
LINE
  8
WHITE
 10
226.679162
 20
131.668370
 30
0.000000
 11
225.073170
 21
130.094329
 31
0.000000
  6
CONTINUOUS
  0
LINE
  8
WHITE
 10
225.073170
 20
130.094329
 30
0.000000
 11
224.058870
 21
129.485749
 31
0.000000
  6
CONTINUOUS
  0
LINE
  8
WHITE
 10
224.058870
 20
129.485749
 30
0.000000
 11
222.993855
 21
128.725024
 31
0.000000
  6
CONTINUOUS
  0
LINE
  8
WHITE
 10
222.993855
 20
128.725024
 30
0.000000
 11
221.524996
 21
128.000002
 31
0.000000
  6
CONTINUOUS
  0
LINE
  8
WHITE
 10
221.524996
 20
128.000002
 30
0.000000
 11
220.407390
 21
127.203574
 31
0.000000
  6
CONTINUOUS
  0
LINE
  8
WHITE
 10
220.407390
 20
127.203574
 30
0.000000
 11
218.835225
 21
126.392134
 31
0.000000
  6
CONTINUOUS
  0
LINE
  8
WHITE
 10
218.835225
 20
126.392134
 30
0.000000
 11
217.465920
 21
126.341419
 31
0.000000
  6
CONTINUOUS
  0
LINE
  8
WHITE
 10
253.370264
 20
95.290704
 30
0.000000
 11
252.205695
 21
96.013849
 31
0.000000
  6
CONTINUOUS
  0
LINE
  8
WHITE
 10
252.205695
 20
96.013849
 30
0.000000
 11
252.104265
 21
97.078864
 31
0.000000
  6
CONTINUOUS
  0
LINE
  8
WHITE
 10
252.104265
 20
97.078864
 30
0.000000
 11
252.524997
 21
98.296024
 31
0.000000
  6
CONTINUOUS
  0
LINE
  8
WHITE
 10
252.524997
 20
98.296024
 30
0.000000
 11
252.819904
 21
99.509431
 31
0.000000
  6
CONTINUOUS
  0
LINE
  8
WHITE
 10
252.819904
 20
99.509431
 30
0.000000
 11
253.372140
 21
100.527484
 31
0.000000
  6
CONTINUOUS
  0
LINE
  8
WHITE
 10
253.372140
 20
100.527484
 30
0.000000
 11
253.930005
 21
101.744644
 31
0.000000
  6
CONTINUOUS
  0
LINE
  8
WHITE
 10
253.930005
 20
101.744644
 30
0.000000
 11
254.234295
 21
102.911089
 31
0.000000
  6
CONTINUOUS
  0
LINE
  8
WHITE
 10
254.234295
 20
102.911089
 30
0.000000
 11
254.893590
 21
104.026819
 31
0.000000
  6
CONTINUOUS
  0
LINE
  8
WHITE
 10
254.893590
 20
104.026819
 30
0.000000
 11
255.659944
 21
105.572663
 31
0.000000
  6
CONTINUOUS
  0
LINE
  8
WHITE
 10
255.659944
 20
105.572663
 30
0.000000
 11
256.105121
 21
106.724096
 31
0.000000
  6
CONTINUOUS
  0
LINE
  8
WHITE
 10
256.105121
 20
106.724096
 30
0.000000
 11
256.721206
 21
108.816546
 31
0.000000
  6
CONTINUOUS
  0
LINE
  8
WHITE
 10
256.721206
 20
108.816546
 30
0.000000
 11
257.378625
 21
110.619769
 31
0.000000
  6
CONTINUOUS
  0
LINE
  8
WHITE
 10
257.378625
 20
110.619769
 30
0.000000
 11
257.733630
 21
111.675402
 31
0.000000
  6
CONTINUOUS
  0
LINE
  8
WHITE
 10
257.733630
 20
111.675402
 30
0.000000
 11
258.184436
 21
113.166778
 31
0.000000
  6
CONTINUOUS
  0
LINE
  8
WHITE
 10
258.184436
 20
113.166778
 30
0.000000
 11
258.449269
 21
114.243051
 31
0.000000
  6
CONTINUOUS
  0
LINE
  8
WHITE
 10
258.449269
 20
114.243051
 30
0.000000
 11
259.116070
 21
118.003518
 31
0.000000
  6
CONTINUOUS
  0
LINE
  8
WHITE
 10
259.116070
 20
118.003518
 30
0.000000
 11
259.698380
 21
120.969382
 31
0.000000
  6
CONTINUOUS
  0
LINE
  8
WHITE
 10
259.698380
 20
120.969382
 30
0.000000
 11
260.167950
 21
123.856384
 31
0.000000
  6
CONTINUOUS
  0
LINE
  8
WHITE
 10
260.167950
 20
123.856384
 30
0.000000
 11
260.323848
 21
125.297045
 31
0.000000
  6
CONTINUOUS
  0
LINE
  8
WHITE
 10
260.323848
 20
125.297045
 30
0.000000
 11
260.333230
 21
126.557414
 31
0.000000
  6
CONTINUOUS
  0
LINE
  8
WHITE
 10
260.333230
 20
126.557414
 30
0.000000
 11
260.421525
 21
127.761439
 31
0.000000
  6
CONTINUOUS
  0
LINE
  8
WHITE
 10
260.421525
 20
127.761439
 30
0.000000
 11
260.350169
 21
130.451210
 31
0.000000
  6
CONTINUOUS
  0
LINE
  8
WHITE
 10
260.350169
 20
130.451210
 30
0.000000
 11
260.222418
 21
133.118464
 31
0.000000
  6
CONTINUOUS
  0
LINE
  8
WHITE
 10
260.222418
 20
133.118464
 30
0.000000
 11
260.021188
 21
135.507637
 31
0.000000
  6
CONTINUOUS
  0
ARC
  8
WHITE
 10
259.058596
 20
135.426561
 30
0.000000
 40
0.966000
 50
4.814418
 51
12.411701
  6
CONTINUOUS
  0
LINE
  8
WHITE
 10
260.002019
 20
135.634188
 30
0.000000
 11
259.673935
 21
137.124949
 31
0.000000
  6
CONTINUOUS
  0
LINE
  8
WHITE
 10
259.673935
 20
137.124949
 30
0.000000
 11
259.410978
 21
138.599437
 31
0.000000
  6
CONTINUOUS
  0
LINE
  8
WHITE
 10
259.410978
 20
138.599437
 30
0.000000
 11
259.233024
 21
140.047763
 31
0.000000
  6
CONTINUOUS
  0
ARC
  8
WHITE
 10
260.191813
 20
140.165569
 30
0.000000
 40
0.966000
 50
119.063191
 51
187.004768
  6
CONTINUOUS
  0
LINE
  8
WHITE
 10
259.722556
 20
141.009934
 30
0.000000
 11
260.849847
 21
141.636428
 31
0.000000
  6
CONTINUOUS
  0
ARC
  8
WHITE
 10
261.319105
 20
140.792063
 30
0.000000
 40
0.966000
 50
85.169271
 51
119.063191
  6
CONTINUOUS
  0
LINE
  8
WHITE
 10
261.400454
 20
141.754631
 30
0.000000
 11
262.413753
 21
141.668995
 31
0.000000
  6
CONTINUOUS
  0
ARC
  8
WHITE
 10
262.332404
 20
140.706426
 30
0.000000
 40
0.966000
 50
68.875032
 51
85.169271
  6
CONTINUOUS
  0
LINE
  8
WHITE
 10
262.680554
 20
141.607508
 30
0.000000
 11
264.865680
 21
140.763243
 31
0.000000
  6
CONTINUOUS
  0
LINE
  8
WHITE
 10
264.865680
 20
140.763243
 30
0.000000
 11
266.101605
 21
140.389474
 31
0.000000
  6
CONTINUOUS
  0
LINE
  8
WHITE
 10
266.101605
 20
140.389474
 30
0.000000
 11
267.006080
 21
139.946803
 31
0.000000
  6
CONTINUOUS
  0
ARC
  8
WHITE
 10
266.581429
 20
139.079146
 30
0.000000
 40
0.966000
 50
42.716831
 51
63.921793
  6
CONTINUOUS
  0
LINE
  8
WHITE
 10
267.291164
 20
139.734457
 30
0.000000
 11
268.231635
 21
138.715879
 31
0.000000
  6
CONTINUOUS
  0
LINE
  8
WHITE
 10
268.231635
 20
138.715879
 30
0.000000
 11
268.494592
 21
137.692197
 31
0.000000
  6
CONTINUOUS
  0
LINE
  8
WHITE
 10
268.494592
 20
137.692197
 30
0.000000
 11
268.637355
 21
135.571549
 31
0.000000
  6
CONTINUOUS
  0
LINE
  8
WHITE
 10
268.637355
 20
135.571549
 30
0.000000
 11
267.942357
 21
131.157467
 31
0.000000
  6
CONTINUOUS
  0
LINE
  8
WHITE
 10
267.942357
 20
131.157467
 30
0.000000
 11
267.269926
 21
126.732127
 31
0.000000
  6
CONTINUOUS
  0
LINE
  8
WHITE
 10
267.269926
 20
126.732127
 30
0.000000
 11
266.257503
 21
121.643688
 31
0.000000
  6
CONTINUOUS
  0
LINE
  8
WHITE
 10
266.257503
 20
121.643688
 30
0.000000
 11
265.894992
 21
120.338284
 31
0.000000
  6
CONTINUOUS
  0
LINE
  8
WHITE
 10
265.894992
 20
120.338284
 30
0.000000
 11
265.645170
 21
119.292034
 31
0.000000
  6
CONTINUOUS
  0
LINE
  8
WHITE
 10
265.645170
 20
119.292034
 30
0.000000
 11
265.145526
 21
117.973444
 31
0.000000
  6
CONTINUOUS
  0
LINE
  8
WHITE
 10
265.145526
 20
117.973444
 30
0.000000
 11
264.352901
 21
115.302437
 31
0.000000
  6
CONTINUOUS
  0
LINE
  8
WHITE
 10
264.352901
 20
115.302437
 30
0.000000
 11
263.718000
 21
113.206234
 31
0.000000
  6
CONTINUOUS
  0
LINE
  8
WHITE
 10
263.718000
 20
113.206234
 30
0.000000
 11
263.263441
 21
111.481924
 31
0.000000
  6
CONTINUOUS
  0
LINE
  8
WHITE
 10
263.263441
 20
111.481924
 30
0.000000
 11
262.709329
 21
109.947339
 31
0.000000
  6
CONTINUOUS
  0
LINE
  8
WHITE
 10
262.709329
 20
109.947339
 30
0.000000
 11
262.145835
 21
107.982589
 31
0.000000
  6
CONTINUOUS
  0
LINE
  8
WHITE
 10
262.145835
 20
107.982589
 30
0.000000
 11
261.633056
 21
106.801132
 31
0.000000
  6
CONTINUOUS
  0
LINE
  8
WHITE
 10
261.633056
 20
106.801132
 30
0.000000
 11
261.154052
 21
105.597107
 31
0.000000
  6
CONTINUOUS
  0
LINE
  8
WHITE
 10
261.154052
 20
105.597107
 30
0.000000
 11
260.370810
 21
103.555372
 31
0.000000
  6
CONTINUOUS
  0
LINE
  8
WHITE
 10
260.370810
 20
103.555372
 30
0.000000
 11
259.559370
 21
101.846074
 31
0.000000
  6
CONTINUOUS
  0
LINE
  8
WHITE
 10
259.559370
 20
101.846074
 30
0.000000
 11
258.871877
 21
99.982754
 31
0.000000
  6
CONTINUOUS
  0
LINE
  8
WHITE
 10
258.871877
 20
99.982754
 30
0.000000
 11
257.880146
 21
97.995487
 31
0.000000
  6
CONTINUOUS
  0
LINE
  8
WHITE
 10
257.880146
 20
97.995487
 30
0.000000
 11
255.810213
 21
95.718941
 31
0.000000
  6
CONTINUOUS
  0
LINE
  8
WHITE
 10
255.810213
 20
95.718941
 30
0.000000
 11
254.591176
 21
95.136682
 31
0.000000
  6
CONTINUOUS
  0
LINE
  8
WHITE
 10
254.591176
 20
95.136682
 30
0.000000
 11
253.370264
 21
95.290704
 31
0.000000
  6
CONTINUOUS
  0
LINE
  8
WHITE
 10
223.249306
 20
206.978269
 30
0.000000
 11
221.795460
 21
207.889262
 31
0.000000
  6
CONTINUOUS
  0
LINE
  8
WHITE
 10
221.795460
 20
207.889262
 30
0.000000
 11
220.679730
 21
209.611696
 31
0.000000
  6
CONTINUOUS
  0
LINE
  8
WHITE
 10
220.679730
 20
209.611696
 30
0.000000
 11
219.900240
 21
210.883324
 31
0.000000
  6
CONTINUOUS
  0
LINE
  8
WHITE
 10
219.900240
 20
210.883324
 30
0.000000
 11
219.160156
 21
212.449859
 31
0.000000
  6
CONTINUOUS
  0
LINE
  8
WHITE
 10
219.160156
 20
212.449859
 30
0.000000
 11
218.328075
 21
213.824794
 31
0.000000
  6
CONTINUOUS
  0
LINE
  8
WHITE
 10
218.328075
 20
213.824794
 30
0.000000
 11
217.719495
 21
214.889809
 31
0.000000
  6
CONTINUOUS
  0
LINE
  8
WHITE
 10
217.719495
 20
214.889809
 30
0.000000
 11
216.502335
 21
216.843300
 31
0.000000
  6
CONTINUOUS
  0
LINE
  8
WHITE
 10
216.502335
 20
216.843300
 30
0.000000
 11
215.677760
 21
218.190037
 31
0.000000
  6
CONTINUOUS
  0
LINE
  8
WHITE
 10
215.677760
 20
218.190037
 30
0.000000
 11
214.524450
 21
219.504874
 31
0.000000
  6
CONTINUOUS
  0
LINE
  8
WHITE
 10
214.524450
 20
219.504874
 30
0.000000
 11
213.523285
 21
220.763367
 31
0.000000
  6
CONTINUOUS
  0
LINE
  8
WHITE
 10
213.523285
 20
220.763367
 30
0.000000
 11
212.432000
 21
221.999291
 31
0.000000
  6
CONTINUOUS
  0
LINE
  8
WHITE
 10
212.432000
 20
221.999291
 30
0.000000
 11
210.974400
 21
223.308499
 31
0.000000
  6
CONTINUOUS
  0
LINE
  8
WHITE
 10
210.974400
 20
223.308499
 30
0.000000
 11
209.452950
 21
224.576374
 31
0.000000
  6
CONTINUOUS
  0
LINE
  8
WHITE
 10
209.452950
 20
224.576374
 30
0.000000
 11
207.781231
 21
226.086565
 31
0.000000
  6
CONTINUOUS
  0
LINE
  8
WHITE
 10
207.781231
 20
226.086565
 30
0.000000
 11
206.410050
 21
227.264269
 31
0.000000
  6
CONTINUOUS
  0
LINE
  8
WHITE
 10
206.410050
 20
227.264269
 30
0.000000
 11
204.772158
 21
228.256051
 31
0.000000
  6
CONTINUOUS
  0
LINE
  8
WHITE
 10
204.772158
 20
228.256051
 30
0.000000
 11
203.746549
 21
228.937864
 31
0.000000
  6
CONTINUOUS
  0
LINE
  8
WHITE
 10
203.746549
 20
228.937864
 30
0.000000
 11
202.657140
 21
229.343584
 31
0.000000
  6
CONTINUOUS
  0
LINE
  8
WHITE
 10
202.657140
 20
229.343584
 30
0.000000
 11
201.316033
 21
230.417981
 31
0.000000
  6
CONTINUOUS
  0
LINE
  8
WHITE
 10
201.316033
 20
230.417981
 30
0.000000
 11
200.222820
 21
230.915749
 31
0.000000
  6
CONTINUOUS
  0
LINE
  8
WHITE
 10
200.222820
 20
230.915749
 30
0.000000
 11
199.062004
 21
231.563785
 31
0.000000
  6
CONTINUOUS
  0
LINE
  8
WHITE
 10
199.062004
 20
231.563785
 30
0.000000
 11
197.179920
 21
232.589344
 31
0.000000
  6
CONTINUOUS
  0
LINE
  8
WHITE
 10
197.179920
 20
232.589344
 30
0.000000
 11
195.912045
 21
233.197924
 31
0.000000
  6
CONTINUOUS
  0
LINE
  8
WHITE
 10
195.912045
 20
233.197924
 30
0.000000
 11
194.687379
 21
233.479696
 31
0.000000
  6
CONTINUOUS
  0
LINE
  8
WHITE
 10
194.687379
 20
233.479696
 30
0.000000
 11
193.552834
 21
233.829021
 31
0.000000
  6
CONTINUOUS
  0
LINE
  8
WHITE
 10
193.552834
 20
233.829021
 30
0.000000
 11
192.514140
 21
234.313654
 31
0.000000
  6
CONTINUOUS
  0
LINE
  8
WHITE
 10
192.514140
 20
234.313654
 30
0.000000
 11
190.940099
 21
234.554094
 31
0.000000
  6
CONTINUOUS
  0
LINE
  8
WHITE
 10
190.940099
 20
234.554094
 30
0.000000
 11
189.724815
 21
234.617944
 31
0.000000
  6
CONTINUOUS
  0
LINE
  8
WHITE
 10
189.724815
 20
234.617944
 30
0.000000
 11
188.642912
 21
235.119464
 31
0.000000
  6
CONTINUOUS
  0
LINE
  8
WHITE
 10
188.642912
 20
235.119464
 30
0.000000
 11
187.442640
 21
235.429384
 31
0.000000
  6
CONTINUOUS
  0
LINE
  8
WHITE
 10
187.442640
 20
235.429384
 30
0.000000
 11
186.276195
 21
235.530814
 31
0.000000
  6
CONTINUOUS
  0
LINE
  8
WHITE
 10
186.276195
 20
235.530814
 30
0.000000
 11
184.439196
 21
235.463211
 31
0.000000
  6
CONTINUOUS
  0
LINE
  8
WHITE
 10
184.439196
 20
235.463211
 30
0.000000
 11
182.737404
 21
235.496987
 31
0.000000
  6
CONTINUOUS
  0
LINE
  8
WHITE
 10
182.737404
 20
235.496987
 30
0.000000
 11
181.103265
 21
235.530814
 31
0.000000
  6
CONTINUOUS
  0
LINE
  8
WHITE
 10
181.103265
 20
235.530814
 30
0.000000
 11
179.266266
 21
235.384298
 31
0.000000
  6
CONTINUOUS
  0
LINE
  8
WHITE
 10
179.266266
 20
235.384298
 30
0.000000
 11
177.564474
 21
235.204006
 31
0.000000
  6
CONTINUOUS
  0
LINE
  8
WHITE
 10
177.564474
 20
235.204006
 30
0.000000
 11
175.930335
 21
234.922234
 31
0.000000
  6
CONTINUOUS
  0
LINE
  8
WHITE
 10
175.930335
 20
234.922234
 30
0.000000
 11
174.018177
 21
234.971072
 31
0.000000
  6
CONTINUOUS
  0
LINE
  8
WHITE
 10
174.018177
 20
234.971072
 30
0.000000
 11
172.126710
 21
234.820804
 31
0.000000
  6
CONTINUOUS
  0
LINE
  8
WHITE
 10
172.126710
 20
234.820804
 30
0.000000
 11
171.091769
 21
235.669824
 31
0.000000
  6
CONTINUOUS
  0
LINE
  8
WHITE
 10
171.091769
 20
235.669824
 30
0.000000
 11
170.808120
 21
236.900119
 31
0.000000
  6
CONTINUOUS
  0
LINE
  8
WHITE
 10
170.808120
 20
236.900119
 30
0.000000
 11
171.707855
 21
237.970763
 31
0.000000
  6
CONTINUOUS
  0
LINE
  8
WHITE
 10
171.707855
 20
237.970763
 30
0.000000
 11
173.293155
 21
238.015849
 31
0.000000
  6
CONTINUOUS
  0
LINE
  8
WHITE
 10
173.293155
 20
238.015849
 30
0.000000
 11
175.881496
 21
238.269424
 31
0.000000
  6
CONTINUOUS
  0
LINE
  8
WHITE
 10
175.881496
 20
238.269424
 30
0.000000
 11
177.517512
 21
238.421569
 31
0.000000
  6
CONTINUOUS
  0
LINE
  8
WHITE
 10
177.517512
 20
238.421569
 30
0.000000
 11
179.176095
 21
238.573714
 31
0.000000
  6
CONTINUOUS
  0
LINE
  8
WHITE
 10
179.176095
 20
238.573714
 30
0.000000
 11
181.914705
 21
238.776574
 31
0.000000
  6
CONTINUOUS
  0
LINE
  8
WHITE
 10
181.914705
 20
238.776574
 30
0.000000
 11
184.146165
 21
238.776574
 31
0.000000
  6
CONTINUOUS
  0
LINE
  8
WHITE
 10
184.146165
 20
238.776574
 30
0.000000
 11
185.166094
 21
238.819783
 31
0.000000
  6
CONTINUOUS
  0
LINE
  8
WHITE
 10
185.166094
 20
238.819783
 30
0.000000
 11
186.388884
 21
238.716477
 31
0.000000
  6
CONTINUOUS
  0
LINE
  8
WHITE
 10
186.388884
 20
238.716477
 30
0.000000
 11
187.645500
 21
238.725859
 31
0.000000
  6
CONTINUOUS
  0
LINE
  8
WHITE
 10
187.645500
 20
238.725859
 30
0.000000
 11
189.065520
 21
238.320139
 31
0.000000
  6
CONTINUOUS
  0
LINE
  8
WHITE
 10
189.065520
 20
238.320139
 30
0.000000
 11
190.400998
 21
238.271300
 31
0.000000
  6
CONTINUOUS
  0
LINE
  8
WHITE
 10
190.400998
 20
238.271300
 30
0.000000
 11
191.584382
 21
238.030860
 31
0.000000
  6
CONTINUOUS
  0
LINE
  8
WHITE
 10
191.584382
 20
238.030860
 30
0.000000
 11
192.869145
 21
237.711559
 31
0.000000
  6
CONTINUOUS
  0
LINE
  8
WHITE
 10
192.869145
 20
237.711559
 30
0.000000
 11
194.392471
 21
237.557537
 31
0.000000
  6
CONTINUOUS
  0
LINE
  8
WHITE
 10
194.392471
 20
237.557537
 30
0.000000
 11
195.962760
 21
237.102979
 31
0.000000
  6
CONTINUOUS
  0
LINE
  8
WHITE
 10
195.962760
 20
237.102979
 30
0.000000
 11
198.055210
 21
236.516916
 31
0.000000
  6
CONTINUOUS
  0
LINE
  8
WHITE
 10
198.055210
 20
236.516916
 30
0.000000
 11
199.259235
 21
236.190109
 31
0.000000
  6
CONTINUOUS
  0
LINE
  8
WHITE
 10
199.259235
 20
236.190109
 30
0.000000
 11
202.001598
 21
235.033046
 31
0.000000
  6
CONTINUOUS
  0
LINE
  8
WHITE
 10
202.001598
 20
235.033046
 30
0.000000
 11
203.417865
 21
234.262939
 31
0.000000
  6
CONTINUOUS
  0
LINE
  8
WHITE
 10
203.417865
 20
234.262939
 30
0.000000
 11
204.672605
 21
233.661865
 31
0.000000
  6
CONTINUOUS
  0
LINE
  8
WHITE
 10
204.672605
 20
233.661865
 30
0.000000
 11
205.696287
 21
233.167850
 31
0.000000
  6
CONTINUOUS
  0
LINE
  8
WHITE
 10
205.696287
 20
233.167850
 30
0.000000
 11
207.322920
 21
232.386484
 31
0.000000
  6
CONTINUOUS
  0
LINE
  8
WHITE
 10
207.322920
 20
232.386484
 30
0.000000
 11
209.156166
 21
231.379690
 31
0.000000
  6
CONTINUOUS
  0
LINE
  8
WHITE
 10
209.156166
 20
231.379690
 30
0.000000
 11
211.383873
 21
229.903325
 31
0.000000
  6
CONTINUOUS
  0
LINE
  8
WHITE
 10
211.383873
 20
229.903325
 30
0.000000
 11
212.999247
 21
228.564094
 31
0.000000
  6
CONTINUOUS
  0
LINE
  8
WHITE
 10
212.999247
 20
228.564094
 30
0.000000
 11
214.828740
 21
227.213554
 31
0.000000
  6
CONTINUOUS
  0
LINE
  8
WHITE
 10
214.828740
 20
227.213554
 30
0.000000
 11
216.553050
 21
225.372802
 31
0.000000
  6
CONTINUOUS
  0
LINE
  8
WHITE
 10
216.553050
 20
225.372802
 30
0.000000
 11
217.920479
 21
223.588395
 31
0.000000
  6
CONTINUOUS
  0
LINE
  8
WHITE
 10
217.920479
 20
223.588395
 30
0.000000
 11
219.494520
 21
221.634904
 31
0.000000
  6
CONTINUOUS
  0
LINE
  8
WHITE
 10
219.494520
 20
221.634904
 30
0.000000
 11
221.205695
 21
218.746025
 31
0.000000
  6
CONTINUOUS
  0
LINE
  8
WHITE
 10
221.205695
 20
218.746025
 30
0.000000
 11
222.939387
 21
215.462685
 31
0.000000
  6
CONTINUOUS
  0
LINE
  8
WHITE
 10
222.939387
 20
215.462685
 30
0.000000
 11
224.616735
 21
212.100484
 31
0.000000
  6
CONTINUOUS
  0
LINE
  8
WHITE
 10
224.616735
 20
212.100484
 30
0.000000
 11
224.883445
 21
210.154549
 31
0.000000
  6
CONTINUOUS
  0
LINE
  8
WHITE
 10
224.883445
 20
210.154549
 30
0.000000
 11
225.084429
 21
208.388907
 31
0.000000
  6
CONTINUOUS
  0
LINE
  8
WHITE
 10
225.084429
 20
208.388907
 30
0.000000
 11
224.263606
 21
206.978269
 31
0.000000
  6
CONTINUOUS
  0
LINE
  8
WHITE
 10
224.263606
 20
206.978269
 30
0.000000
 11
223.249306
 21
206.978269
 31
0.000000
  6
CONTINUOUS
  0
LINE
  8
WHITE
 10
96.257070
 20
399.695269
 30
0.000000
 11
95.371619
 21
399.977003
 31
0.000000
  6
CONTINUOUS
  0
ARC
  8
WHITE
 10
95.810961
 20
401.357793
 30
0.000000
 40
1.449000
 50
-126.586705
 51
-107.650124
  6
CONTINUOUS
  0
LINE
  8
WHITE
 10
94.947302
 20
400.194310
 30
0.000000
 11
94.040622
 21
400.867343
 31
0.000000
  6
CONTINUOUS
  0
LINE
  8
WHITE
 10
94.040622
 20
400.867343
 30
0.000000
 11
92.861041
 21
401.505997
 31
0.000000
  6
CONTINUOUS
  0
LINE
  8
WHITE
 10
92.861041
 20
401.505997
 30
0.000000
 11
91.846741
 21
402.246030
 31
0.000000
  6
CONTINUOUS
  0
LINE
  8
WHITE
 10
91.846741
 20
402.246030
 30
0.000000
 11
90.684479
 21
403.179039
 31
0.000000
  6
CONTINUOUS
  0
ARC
  8
WHITE
 10
91.591557
 20
404.308999
 30
0.000000
 40
1.449000
 50
-149.706149
 51
-128.755817
  6
CONTINUOUS
  0
LINE
  8
WHITE
 10
90.340418
 20
403.578073
 30
0.000000
 11
89.446248
 21
405.108639
 31
0.000000
  6
CONTINUOUS
  0
LINE
  8
WHITE
 10
89.446248
 20
405.108639
 30
0.000000
 11
88.871088
 21
406.614406
 31
0.000000
  6
CONTINUOUS
  0
ARC
  8
WHITE
 10
87.517475
 20
406.097364
 30
0.000000
 40
1.449000
 50
20.905447
 51
36.134783
  6
CONTINUOUS
  0
LINE
  8
WHITE
 10
88.687734
 20
406.951820
 30
0.000000
 11
88.024352
 21
407.860384
 31
0.000000
  6
CONTINUOUS
  0
LINE
  8
WHITE
 10
88.024352
 20
407.860384
 30
0.000000
 11
87.483375
 21
409.060656
 31
0.000000
  6
CONTINUOUS
  0
LINE
  8
WHITE
 10
87.483375
 20
409.060656
 30
0.000000
 11
87.042036
 21
410.046299
 31
0.000000
  6
CONTINUOUS
  0
ARC
  8
WHITE
 10
88.364512
 20
410.638461
 30
0.000000
 40
1.449000
 50
-168.561943
 51
-155.878698
  6
CONTINUOUS
  0
LINE
  8
WHITE
 10
86.944290
 20
410.351112
 30
0.000000
 11
86.715144
 21
411.483666
 31
0.000000
  6
CONTINUOUS
  0
LINE
  8
WHITE
 10
86.715144
 20
411.483666
 30
0.000000
 11
86.078367
 21
413.638141
 31
0.000000
  6
CONTINUOUS
  0
LINE
  8
WHITE
 10
86.078367
 20
413.638141
 30
0.000000
 11
85.727115
 21
415.488275
 31
0.000000
  6
CONTINUOUS
  0
LINE
  8
WHITE
 10
85.727115
 20
415.488275
 30
0.000000
 11
85.454775
 21
416.989084
 31
0.000000
  6
CONTINUOUS
  0
LINE
  8
WHITE
 10
85.454775
 20
416.989084
 30
0.000000
 11
85.353345
 21
418.104814
 31
0.000000
  6
CONTINUOUS
  0
LINE
  8
WHITE
 10
85.353345
 20
418.104814
 30
0.000000
 11
85.456651
 21
419.560537
 31
0.000000
  6
CONTINUOUS
  0
LINE
  8
WHITE
 10
85.456651
 20
419.560537
 30
0.000000
 11
85.571217
 21
420.993692
 31
0.000000
  6
CONTINUOUS
  0
LINE
  8
WHITE
 10
85.571217
 20
420.993692
 30
0.000000
 11
85.697232
 21
422.300306
 31
0.000000
  6
CONTINUOUS
  0
ARC
  8
WHITE
 10
87.139539
 20
422.161204
 30
0.000000
 40
1.449000
 50
165.351374
 51
174.491204
  6
CONTINUOUS
  0
LINE
  8
WHITE
 10
85.737639
 20
422.527642
 30
0.000000
 11
86.031405
 21
423.651513
 31
0.000000
  6
CONTINUOUS
  0
LINE
  8
WHITE
 10
86.031405
 20
423.651513
 30
0.000000
 11
86.521666
 21
424.733467
 31
0.000000
  6
CONTINUOUS
  0
LINE
  8
WHITE
 10
86.521666
 20
424.733467
 30
0.000000
 11
87.351871
 21
426.422074
 31
0.000000
  6
CONTINUOUS
  0
LINE
  8
WHITE
 10
87.351871
 20
426.422074
 30
0.000000
 11
88.186525
 21
427.551978
 31
0.000000
  6
CONTINUOUS
  0
ARC
  8
WHITE
 10
89.352019
 20
426.691034
 30
0.000000
 40
1.449000
 50
81.869898
 51
143.546924
  6
CONTINUOUS
  0
LINE
  8
WHITE
 10
89.556938
 20
428.125471
 30
0.000000
 11
89.765550
 21
428.095669
 31
0.000000
  6
CONTINUOUS
  0
LINE
  8
WHITE
 10
89.765550
 20
428.095669
 30
0.000000
 11
90.357333
 21
427.832654
 31
0.000000
  6
CONTINUOUS
  0
ARC
  8
WHITE
 10
89.768839
 20
426.508541
 30
0.000000
 40
1.449000
 50
5.194429
 51
66.037511
  6
CONTINUOUS
  0
LINE
  8
WHITE
 10
91.211888
 20
426.639727
 30
0.000000
 11
91.236285
 21
426.371359
 31
0.000000
  6
CONTINUOUS
  0
LINE
  8
WHITE
 10
91.236285
 20
426.371359
 30
0.000000
 11
91.288876
 21
425.101607
 31
0.000000
  6
CONTINUOUS
  0
LINE
  8
WHITE
 10
91.288876
 20
425.101607
 30
0.000000
 11
91.164929
 21
423.478727
 31
0.000000
  6
CONTINUOUS
  0
LINE
  8
WHITE
 10
91.164929
 20
423.478727
 30
0.000000
 11
90.526275
 21
422.162014
 31
0.000000
  6
CONTINUOUS
  0
LINE
  8
WHITE
 10
90.526275
 20
422.162014
 30
0.000000
 11
90.389142
 21
420.993692
 31
0.000000
  6
CONTINUOUS
  0
LINE
  8
WHITE
 10
90.389142
 20
420.993692
 30
0.000000
 11
90.274576
 21
419.814112
 31
0.000000
  6
CONTINUOUS
  0
LINE
  8
WHITE
 10
90.274576
 20
419.814112
 30
0.000000
 11
90.171270
 21
418.611964
 31
0.000000
  6
CONTINUOUS
  0
LINE
  8
WHITE
 10
90.171270
 20
418.611964
 30
0.000000
 11
90.548792
 21
416.714868
 31
0.000000
  6
CONTINUOUS
  0
LINE
  8
WHITE
 10
90.548792
 20
416.714868
 30
0.000000
 11
91.230656
 21
414.490914
 31
0.000000
  6
CONTINUOUS
  0
LINE
  8
WHITE
 10
91.230656
 20
414.490914
 30
0.000000
 11
92.149155
 21
412.424734
 31
0.000000
  6
CONTINUOUS
  0
LINE
  8
WHITE
 10
92.149155
 20
412.424734
 30
0.000000
 11
93.619890
 21
411.004714
 31
0.000000
  6
CONTINUOUS
  0
LINE
  8
WHITE
 10
93.619890
 20
411.004714
 30
0.000000
 11
94.904653
 21
410.414898
 31
0.000000
  6
CONTINUOUS
  0
LINE
  8
WHITE
 10
94.904653
 20
410.414898
 30
0.000000
 11
96.459930
 21
409.836392
 31
0.000000
  6
CONTINUOUS
  0
LINE
  8
WHITE
 10
96.459930
 20
409.836392
 30
0.000000
 11
97.666889
 21
409.518217
 31
0.000000
  6
CONTINUOUS
  0
ARC
  8
WHITE
 10
98.036252
 20
410.919349
 30
0.000000
 40
1.449000
 50
-104.768196
 51
-64.236060
  6
CONTINUOUS
  0
LINE
  8
WHITE
 10
98.666080
 20
409.614391
 30
0.000000
 11
100.130175
 21
410.321025
 31
0.000000
  6
CONTINUOUS
  0
LINE
  8
WHITE
 10
100.130175
 20
410.321025
 30
0.000000
 11
102.391709
 21
410.893902
 31
0.000000
  6
CONTINUOUS
  0
LINE
  8
WHITE
 10
102.391709
 20
410.893902
 30
0.000000
 11
103.691559
 21
410.633678
 31
0.000000
  6
CONTINUOUS
  0
ARC
  8
WHITE
 10
103.407121
 20
409.212870
 30
0.000000
 40
1.449000
 50
27.533568
 51
78.679342
  6
CONTINUOUS
  0
LINE
  8
WHITE
 10
104.692008
 20
409.882697
 30
0.000000
 11
104.756518
 21
409.758950
 31
0.000000
  6
CONTINUOUS
  0
ARC
  8
WHITE
 10
103.471632
 20
409.089123
 30
0.000000
 40
1.449000
 50
-7.634008
 51
27.533568
  6
CONTINUOUS
  0
LINE
  8
WHITE
 10
104.907789
 20
408.896631
 30
0.000000
 11
104.592350
 21
406.543181
 31
0.000000
  6
CONTINUOUS
  0
ARC
  8
WHITE
 10
103.156193
 20
406.735673
 30
0.000000
 40
1.449000
 50
-26.021417
 51
-7.634008
  6
CONTINUOUS
  0
LINE
  8
WHITE
 10
104.458308
 20
406.099987
 30
0.000000
 11
103.590104
 21
404.321593
 31
0.000000
  6
CONTINUOUS
  0
LINE
  8
WHITE
 10
103.590104
 20
404.321593
 30
0.000000
 11
102.661339
 21
402.720588
 31
0.000000
  6
CONTINUOUS
  0
ARC
  8
WHITE
 10
101.407971
 20
403.447684
 30
0.000000
 40
1.449000
 50
-55.888132
 51
-30.118617
  6
CONTINUOUS
  0
LINE
  8
WHITE
 10
102.220585
 20
402.247993
 30
0.000000
 11
100.661544
 21
401.191972
 31
0.000000
  6
CONTINUOUS
  0
ARC
  8
WHITE
 10
99.848930
 20
402.391663
 30
0.000000
 40
1.449000
 50
-59.813107
 51
-55.888132
  6
CONTINUOUS
  0
LINE
  8
WHITE
 10
100.577519
 20
401.139162
 30
0.000000
 11
98.792820
 21
400.100989
 31
0.000000
  6
CONTINUOUS
  0
LINE
  8
WHITE
 10
98.792820
 20
400.100989
 30
0.000000
 11
97.790449
 21
399.730238
 31
0.000000
  6
CONTINUOUS
  0
ARC
  8
WHITE
 10
97.287784
 20
401.089256
 30
0.000000
 40
1.449000
 50
-93.178930
 51
-69.701912
  6
CONTINUOUS
  0
LINE
  8
WHITE
 10
97.207431
 20
399.642486
 30
0.000000
 11
96.257070
 21
399.695269
 31
0.000000
  6
CONTINUOUS
  0
LINE
  8
WHITE
 10
52.540740
 20
289.643719
 30
0.000000
 11
51.301063
 21
290.900335
 31
0.000000
  6
CONTINUOUS
  0
LINE
  8
WHITE
 10
51.301063
 20
290.900335
 30
0.000000
 11
50.805171
 21
292.156951
 31
0.000000
  6
CONTINUOUS
  0
LINE
  8
WHITE
 10
50.805171
 20
292.156951
 30
0.000000
 11
50.715000
 21
293.751634
 31
0.000000
  6
CONTINUOUS
  0
LINE
  8
WHITE
 10
50.715000
 20
293.751634
 30
0.000000
 11
51.830730
 21
295.156642
 31
0.000000
  6
CONTINUOUS
  0
LINE
  8
WHITE
 10
51.830730
 20
295.156642
 30
0.000000
 11
52.441186
 21
296.221657
 31
0.000000
  6
CONTINUOUS
  0
LINE
  8
WHITE
 10
52.441186
 20
296.221657
 30
0.000000
 11
53.921304
 21
296.743819
 31
0.000000
  6
CONTINUOUS
  0
LINE
  8
WHITE
 10
53.921304
 20
296.743819
 30
0.000000
 11
55.380780
 21
296.997394
 31
0.000000
  6
CONTINUOUS
  0
LINE
  8
WHITE
 10
55.380780
 20
296.997394
 30
0.000000
 11
56.547225
 21
297.758119
 31
0.000000
  6
CONTINUOUS
  0
LINE
  8
WHITE
 10
56.547225
 20
297.758119
 30
0.000000
 11
57.858309
 21
297.972238
 31
0.000000
  6
CONTINUOUS
  0
LINE
  8
WHITE
 10
57.858309
 20
297.972238
 30
0.000000
 11
59.285835
 21
298.687877
 31
0.000000
  6
CONTINUOUS
  0
LINE
  8
WHITE
 10
59.285835
 20
298.687877
 30
0.000000
 11
60.333962
 21
299.431714
 31
0.000000
  6
CONTINUOUS
  0
LINE
  8
WHITE
 10
60.333962
 20
299.431714
 30
0.000000
 11
61.365150
 21
300.091009
 31
0.000000
  6
CONTINUOUS
  0
LINE
  8
WHITE
 10
61.365150
 20
300.091009
 30
0.000000
 11
63.108225
 21
301.373895
 31
0.000000
  6
CONTINUOUS
  0
LINE
  8
WHITE
 10
63.108225
 20
301.373895
 30
0.000000
 11
64.156351
 21
302.459602
 31
0.000000
  6
CONTINUOUS
  0
LINE
  8
WHITE
 10
64.156351
 20
302.459602
 30
0.000000
 11
65.320920
 21
303.387484
 31
0.000000
  6
CONTINUOUS
  0
LINE
  8
WHITE
 10
65.320920
 20
303.387484
 30
0.000000
 11
66.284505
 21
304.488202
 31
0.000000
  6
CONTINUOUS
  0
LINE
  8
WHITE
 10
66.284505
 20
304.488202
 30
0.000000
 11
67.349520
 21
305.720374
 31
0.000000
  6
CONTINUOUS
  0
LINE
  8
WHITE
 10
67.349520
 20
305.720374
 30
0.000000
 11
68.668110
 21
307.089679
 31
0.000000
  6
CONTINUOUS
  0
LINE
  8
WHITE
 10
68.668110
 20
307.089679
 30
0.000000
 11
69.443847
 21
308.152817
 31
0.000000
  6
CONTINUOUS
  0
LINE
  8
WHITE
 10
69.443847
 20
308.152817
 30
0.000000
 11
70.890188
 21
309.606664
 31
0.000000
  6
CONTINUOUS
  0
LINE
  8
WHITE
 10
70.890188
 20
309.606664
 30
0.000000
 11
71.828860
 21
310.839122
 31
0.000000
  6
CONTINUOUS
  0
ARC
  8
WHITE
 10
71.060370
 20
311.424425
 30
0.000000
 40
0.966000
 50
-37.293853
 51
-28.393238
  6
CONTINUOUS
  0
LINE
  8
WHITE
 10
71.910165
 20
310.965072
 30
0.000000
 11
72.712906
 21
312.450130
 31
0.000000
  6
CONTINUOUS
  0
ARC
  8
WHITE
 10
73.562701
 20
311.990778
 30
0.000000
 40
0.966000
 50
135.958957
 51
151.606762
  6
CONTINUOUS
  0
LINE
  8
WHITE
 10
72.868300
 20
312.662315
 30
0.000000
 11
74.100244
 21
313.936204
 31
0.000000
  6
CONTINUOUS
  0
LINE
  8
WHITE
 10
74.100244
 20
313.936204
 30
0.000000
 11
75.264947
 21
315.433672
 31
0.000000
  6
CONTINUOUS
  0
ARC
  8
WHITE
 10
76.027460
 20
314.840603
 30
0.000000
 40
0.966000
 50
123.445006
 51
142.124892
  6
CONTINUOUS
  0
LINE
  8
WHITE
 10
75.495062
 20
315.646648
 30
0.000000
 11
76.263813
 21
316.154413
 31
0.000000
  6
CONTINUOUS
  0
ARC
  8
WHITE
 10
76.796211
 20
315.348368
 30
0.000000
 40
0.966000
 50
106.964661
 51
123.445006
  6
CONTINUOUS
  0
LINE
  8
WHITE
 10
76.514350
 20
316.272333
 30
0.000000
 11
77.144280
 21
316.464497
 31
0.000000
  6
CONTINUOUS
  0
ARC
  8
WHITE
 10
77.426142
 20
315.540533
 30
0.000000
 40
0.966000
 50
61.438786
 51
106.964661
  6
CONTINUOUS
  0
LINE
  8
WHITE
 10
77.887984
 20
316.388977
 30
0.000000
 11
78.355183
 21
316.134662
 31
0.000000
  6
CONTINUOUS
  0
ARC
  8
WHITE
 10
77.893341
 20
315.286218
 30
0.000000
 40
0.966000
 50
10.381018
 51
61.438786
  6
CONTINUOUS
  0
LINE
  8
WHITE
 10
78.843528
 20
315.460284
 30
0.000000
 11
78.965131
 21
314.796482
 31
0.000000
  6
CONTINUOUS
  0
LINE
  8
WHITE
 10
78.965131
 20
314.796482
 30
0.000000
 11
79.181127
 21
313.667617
 31
0.000000
  6
CONTINUOUS
  0
LINE
  8
WHITE
 10
79.181127
 20
313.667617
 30
0.000000
 11
79.419690
 21
312.516184
 31
0.000000
  6
CONTINUOUS
  0
LINE
  8
WHITE
 10
79.419690
 20
312.516184
 30
0.000000
 11
79.833771
 21
311.398166
 31
0.000000
  6
CONTINUOUS
  0
ARC
  8
WHITE
 10
78.927905
 20
311.062660
 30
0.000000
 40
0.966000
 50
-10.684912
 51
20.323137
  6
CONTINUOUS
  0
LINE
  8
WHITE
 10
79.877157
 20
310.883556
 30
0.000000
 11
79.476112
 21
308.758019
 31
0.000000
  6
CONTINUOUS
  0
ARC
  8
WHITE
 10
80.425363
 20
308.578915
 30
0.000000
 40
0.966000
 50
169.315088
 51
204.286211
  6
CONTINUOUS
  0
LINE
  8
WHITE
 10
79.544852
 20
308.181604
 30
0.000000
 11
80.207160
 21
306.713810
 31
0.000000
  6
CONTINUOUS
  0
ARC
  8
WHITE
 10
79.326649
 20
306.316500
 30
0.000000
 40
0.966000
 50
3.517490
 51
24.286211
  6
CONTINUOUS
  0
LINE
  8
WHITE
 10
80.290829
 20
306.375767
 30
0.000000
 11
80.433990
 21
304.046779
 31
0.000000
  6
CONTINUOUS
  0
LINE
  8
WHITE
 10
80.433990
 20
304.046779
 30
0.000000
 11
80.465940
 21
302.568538
 31
0.000000
  6
CONTINUOUS
  0
LINE
  8
WHITE
 10
80.465940
 20
302.568538
 30
0.000000
 11
80.567369
 21
301.462155
 31
0.000000
  6
CONTINUOUS
  0
ARC
  8
WHITE
 10
79.605403
 20
301.373966
 30
0.000000
 40
0.966000
 50
-18.788077
 51
5.237989
  6
CONTINUOUS
  0
LINE
  8
WHITE
 10
80.519931
 20
301.062848
 30
0.000000
 11
80.150341
 21
299.976444
 31
0.000000
  6
CONTINUOUS
  0
LINE
  8
WHITE
 10
80.150341
 20
299.976444
 30
0.000000
 11
79.854344
 21
298.599610
 31
0.000000
  6
CONTINUOUS
  0
ARC
  8
WHITE
 10
79.382133
 20
298.701128
 30
0.000000
 40
0.483000
 50
-102.497846
 51
-12.133003
  6
CONTINUOUS
  0
LINE
  8
WHITE
 10
79.277610
 20
298.229573
 30
0.000000
 11
78.829728
 21
298.328848
 31
0.000000
  6
CONTINUOUS
  0
ARC
  8
WHITE
 10
79.038773
 20
299.271958
 30
0.000000
 40
0.966000
 50
-123.023868
 51
-102.497846
  6
CONTINUOUS
  0
LINE
  8
WHITE
 10
78.512315
 20
298.462022
 30
0.000000
 11
78.125016
 21
298.713765
 31
0.000000
  6
CONTINUOUS
  0
ARC
  8
WHITE
 10
78.651475
 20
299.523702
 30
0.000000
 40
0.966000
 50
175.634064
 51
236.976132
  6
CONTINUOUS
  0
LINE
  8
WHITE
 10
77.688278
 20
299.597240
 30
0.000000
 11
77.776169
 21
300.748427
 31
0.000000
  6
CONTINUOUS
  0
LINE
  8
WHITE
 10
77.776169
 20
300.748427
 30
0.000000
 11
77.595826
 21
302.104597
 31
0.000000
  6
CONTINUOUS
  0
LINE
  8
WHITE
 10
77.595826
 20
302.104597
 30
0.000000
 11
77.132949
 21
303.547880
 31
0.000000
  6
CONTINUOUS
  0
ARC
  8
WHITE
 10
78.052800
 20
303.842887
 30
0.000000
 40
0.966000
 50
180.000000
 51
197.781665
  6
CONTINUOUS
  0
LINE
  8
WHITE
 10
77.086800
 20
303.842887
 30
0.000000
 11
77.086800
 21
304.567380
 31
0.000000
  6
CONTINUOUS
  0
ARC
  8
WHITE
 10
78.052800
 20
304.567380
 30
0.000000
 40
0.966000
 50
163.659176
 51
180.000000
  6
CONTINUOUS
  0
LINE
  8
WHITE
 10
77.125822
 20
304.839165
 30
0.000000
 11
77.434153
 21
305.890794
 31
0.000000
  6
CONTINUOUS
  0
ARC
  8
WHITE
 10
76.507174
 20
306.162578
 30
0.000000
 40
0.966000
 50
-16.340824
 51
26.026536
  6
CONTINUOUS
  0
LINE
  8
WHITE
 10
77.375213
 20
306.586447
 30
0.000000
 11
77.097951
 21
307.154251
 31
0.000000
  6
CONTINUOUS
  0
ARC
  8
WHITE
 10
76.229912
 20
306.730382
 30
0.000000
 40
0.966000
 50
26.026536
 51
90.000000
  6
CONTINUOUS
  0
LINE
  8
WHITE
 10
76.229912
 20
307.696382
 30
0.000000
 11
75.732507
 21
307.696382
 31
0.000000
  6
CONTINUOUS
  0
LINE
  8
WHITE
 10
75.732507
 20
307.696382
 30
0.000000
 11
74.363202
 21
307.341377
 31
0.000000
  6
CONTINUOUS
  0
LINE
  8
WHITE
 10
74.363202
 20
307.341377
 30
0.000000
 11
73.262534
 21
306.285745
 31
0.000000
  6
CONTINUOUS
  0
LINE
  8
WHITE
 10
73.262534
 20
306.285745
 30
0.000000
 11
72.422896
 21
305.198212
 31
0.000000
  6
CONTINUOUS
  0
LINE
  8
WHITE
 10
72.422896
 20
305.198212
 30
0.000000
 11
71.457435
 21
303.996064
 31
0.000000
  6
CONTINUOUS
  0
LINE
  8
WHITE
 10
71.457435
 20
303.996064
 30
0.000000
 11
70.950285
 21
302.931049
 31
0.000000
  6
CONTINUOUS
  0
LINE
  8
WHITE
 10
70.950285
 20
302.931049
 30
0.000000
 11
69.327405
 21
301.090297
 31
0.000000
  6
CONTINUOUS
  0
LINE
  8
WHITE
 10
69.327405
 20
301.090297
 30
0.000000
 11
68.160960
 21
299.178139
 31
0.000000
  6
CONTINUOUS
  0
LINE
  8
WHITE
 10
68.160960
 20
299.178139
 30
0.000000
 11
67.030218
 21
298.359193
 31
0.000000
  6
CONTINUOUS
  0
LINE
  8
WHITE
 10
67.030218
 20
298.359193
 30
0.000000
 11
65.828070
 21
296.997394
 31
0.000000
  6
CONTINUOUS
  0
LINE
  8
WHITE
 10
65.828070
 20
296.997394
 30
0.000000
 11
64.477530
 21
295.765222
 31
0.000000
  6
CONTINUOUS
  0
LINE
  8
WHITE
 10
64.477530
 20
295.765222
 30
0.000000
 11
63.104472
 21
294.476655
 31
0.000000
  6
CONTINUOUS
  0
LINE
  8
WHITE
 10
63.104472
 20
294.476655
 30
0.000000
 11
60.974442
 21
293.019106
 31
0.000000
  6
CONTINUOUS
  0
LINE
  8
WHITE
 10
60.974442
 20
293.019106
 30
0.000000
 11
59.710320
 21
292.286528
 31
0.000000
  6
CONTINUOUS
  0
LINE
  8
WHITE
 10
59.710320
 20
292.286528
 30
0.000000
 11
57.946604
 21
291.416867
 31
0.000000
  6
CONTINUOUS
  0
LINE
  8
WHITE
 10
57.946604
 20
291.416867
 30
0.000000
 11
56.293650
 21
290.759449
 31
0.000000
  6
CONTINUOUS
  0
LINE
  8
WHITE
 10
56.293650
 20
290.759449
 30
0.000000
 11
55.083996
 21
290.188449
 31
0.000000
  6
CONTINUOUS
  0
LINE
  8
WHITE
 10
55.083996
 20
290.188449
 30
0.000000
 11
53.716567
 21
289.808999
 31
0.000000
  6
CONTINUOUS
  0
LINE
  8
WHITE
 10
53.716567
 20
289.808999
 30
0.000000
 11
52.540740
 21
289.643719
 31
0.000000
  6
CONTINUOUS
  0
ARC
  8
WHITE
 10
46.665225
 20
300.919495
 30
0.000000
 40
16.803186
 50
86.690241
 51
172.598109
  6
CONTINUOUS
  0
ARC
  8
WHITE
 10
32.909396
 20
303.544233
 30
0.000000
 40
2.943502
 50
-171.008957
 51
-23.589567
  6
CONTINUOUS
  0
ARC
  8
WHITE
 10
49.297504
 20
297.405639
 30
0.000000
 40
14.561595
 50
91.237472
 51
160.082476
  6
CONTINUOUS
  0
ARC
  8
WHITE
 10
47.055694
 20
314.534469
 30
0.000000
 40
3.212905
 50
-53.139217
 51
79.606224
  6
CONTINUOUS
  0
LINE
  8
WHITE
 10
103.610745
 20
377.127094
 30
0.000000
 11
102.241440
 21
377.228524
 31
0.000000
  6
CONTINUOUS
  0
LINE
  8
WHITE
 10
102.241440
 20
377.228524
 30
0.000000
 11
100.919097
 21
377.482099
 31
0.000000
  6
CONTINUOUS
  0
LINE
  8
WHITE
 10
100.919097
 20
377.482099
 30
0.000000
 11
99.675616
 21
377.803277
 31
0.000000
  6
CONTINUOUS
  0
LINE
  8
WHITE
 10
99.675616
 20
377.803277
 30
0.000000
 11
98.604972
 21
378.329242
 31
0.000000
  6
CONTINUOUS
  0
LINE
  8
WHITE
 10
98.604972
 20
378.329242
 30
0.000000
 11
97.575660
 21
379.307839
 31
0.000000
  6
CONTINUOUS
  0
LINE
  8
WHITE
 10
97.575660
 20
379.307839
 30
0.000000
 11
97.097885
 21
379.665523
 31
0.000000
  6
CONTINUOUS
  0
ARC
  8
WHITE
 10
99.100796
 20
381.293348
 30
0.000000
 40
2.580982
 50
92.334134
 51
219.101782
  6
CONTINUOUS
  0
LINE
  8
WHITE
 10
98.995680
 20
383.872189
 30
0.000000
 11
101.377409
 21
384.108876
 31
0.000000
  6
CONTINUOUS
  0
LINE
  8
WHITE
 10
101.377409
 20
384.108876
 30
0.000000
 11
102.697875
 21
384.176479
 31
0.000000
  6
CONTINUOUS
  0
LINE
  8
WHITE
 10
102.697875
 20
384.176479
 30
0.000000
 11
104.168610
 21
384.531484
 31
0.000000
  6
CONTINUOUS
  0
LINE
  8
WHITE
 10
104.168610
 20
384.531484
 30
0.000000
 11
106.148371
 21
385.290332
 31
0.000000
  6
CONTINUOUS
  0
LINE
  8
WHITE
 10
106.148371
 20
385.290332
 30
0.000000
 11
107.868929
 21
386.218214
 31
0.000000
  6
CONTINUOUS
  0
LINE
  8
WHITE
 10
107.868929
 20
386.218214
 30
0.000000
 11
109.240110
 21
387.371524
 31
0.000000
  6
CONTINUOUS
  0
LINE
  8
WHITE
 10
109.240110
 20
387.371524
 30
0.000000
 11
110.609415
 21
388.487254
 31
0.000000
  6
CONTINUOUS
  0
LINE
  8
WHITE
 10
110.609415
 20
388.487254
 30
0.000000
 11
111.725145
 21
389.400124
 31
0.000000
  6
CONTINUOUS
  0
LINE
  8
WHITE
 10
111.725145
 20
389.400124
 30
0.000000
 11
112.961070
 21
390.035025
 31
0.000000
  6
CONTINUOUS
  0
LINE
  8
WHITE
 10
112.961070
 20
390.035025
 30
0.000000
 11
114.108750
 21
389.602984
 31
0.000000
  6
CONTINUOUS
  0
LINE
  8
WHITE
 10
114.108750
 20
389.602984
 30
0.000000
 11
114.364201
 21
388.385824
 31
0.000000
  6
CONTINUOUS
  0
LINE
  8
WHITE
 10
114.364201
 20
388.385824
 30
0.000000
 11
114.463755
 21
386.614552
 31
0.000000
  6
CONTINUOUS
  0
LINE
  8
WHITE
 10
114.463755
 20
386.614552
 30
0.000000
 11
114.311610
 21
385.372998
 31
0.000000
  6
CONTINUOUS
  0
LINE
  8
WHITE
 10
114.311610
 20
385.372998
 30
0.000000
 11
113.830781
 21
383.776388
 31
0.000000
  6
CONTINUOUS
  0
LINE
  8
WHITE
 10
113.830781
 20
383.776388
 30
0.000000
 11
113.056870
 21
382.416465
 31
0.000000
  6
CONTINUOUS
  0
LINE
  8
WHITE
 10
113.056870
 20
382.416465
 30
0.000000
 11
112.305527
 21
381.129826
 31
0.000000
  6
CONTINUOUS
  0
LINE
  8
WHITE
 10
112.305527
 20
381.129826
 30
0.000000
 11
111.197354
 21
380.092958
 31
0.000000
  6
CONTINUOUS
  0
LINE
  8
WHITE
 10
111.197354
 20
380.092958
 30
0.000000
 11
109.544400
 21
378.699259
 31
0.000000
  6
CONTINUOUS
  0
LINE
  8
WHITE
 10
109.544400
 20
378.699259
 30
0.000000
 11
108.413658
 21
378.261588
 31
0.000000
  6
CONTINUOUS
  0
LINE
  8
WHITE
 10
108.413658
 20
378.261588
 30
0.000000
 11
107.091315
 21
377.767624
 31
0.000000
  6
CONTINUOUS
  0
LINE
  8
WHITE
 10
107.091315
 20
377.767624
 30
0.000000
 11
105.271205
 21
377.247288
 31
0.000000
  6
CONTINUOUS
  0
LINE
  8
WHITE
 10
105.271205
 20
377.247288
 30
0.000000
 11
103.610745
 21
377.127094
 31
0.000000
  6
CONTINUOUS
  0
LINE
  8
WHITE
 10
132.619725
 20
14.616274
 30
0.000000
 11
132.163290
 21
16.036294
 31
0.000000
  6
CONTINUOUS
  0
LINE
  8
WHITE
 10
132.163290
 20
16.036294
 30
0.000000
 11
131.584784
 21
17.212121
 31
0.000000
  6
CONTINUOUS
  0
LINE
  8
WHITE
 10
131.584784
 20
17.212121
 30
0.000000
 11
130.337550
 21
19.231339
 31
0.000000
  6
CONTINUOUS
  0
LINE
  8
WHITE
 10
130.337550
 20
19.231339
 30
0.000000
 11
129.740229
 21
20.469140
 31
0.000000
  6
CONTINUOUS
  0
LINE
  8
WHITE
 10
129.740229
 20
20.469140
 30
0.000000
 11
129.041477
 21
21.560476
 31
0.000000
  6
CONTINUOUS
  0
LINE
  8
WHITE
 10
129.041477
 20
21.560476
 30
0.000000
 11
128.299568
 21
22.875313
 31
0.000000
  6
CONTINUOUS
  0
LINE
  8
WHITE
 10
128.299568
 20
22.875313
 30
0.000000
 11
128.258235
 21
24.759274
 31
0.000000
  6
CONTINUOUS
  0
LINE
  8
WHITE
 10
128.258235
 20
24.759274
 30
0.000000
 11
129.779685
 21
25.824289
 31
0.000000
  6
CONTINUOUS
  0
LINE
  8
WHITE
 10
129.779685
 20
25.824289
 30
0.000000
 11
132.364274
 21
26.507978
 31
0.000000
  6
CONTINUOUS
  0
LINE
  8
WHITE
 10
132.364274
 20
26.507978
 30
0.000000
 11
133.940191
 21
26.374648
 31
0.000000
  6
CONTINUOUS
  0
LINE
  8
WHITE
 10
133.940191
 20
26.374648
 30
0.000000
 11
135.865485
 21
25.266424
 31
0.000000
  6
CONTINUOUS
  0
LINE
  8
WHITE
 10
135.865485
 20
25.266424
 30
0.000000
 11
137.184075
 21
24.150694
 31
0.000000
  6
CONTINUOUS
  0
LINE
  8
WHITE
 10
137.184075
 20
24.150694
 30
0.000000
 11
138.461332
 21
23.196491
 31
0.000000
  6
CONTINUOUS
  0
LINE
  8
WHITE
 10
138.461332
 20
23.196491
 30
0.000000
 11
139.430547
 21
22.069502
 31
0.000000
  6
CONTINUOUS
  0
LINE
  8
WHITE
 10
139.430547
 20
22.069502
 30
0.000000
 11
140.674028
 21
20.638224
 31
0.000000
  6
CONTINUOUS
  0
LINE
  8
WHITE
 10
140.674028
 20
20.638224
 30
0.000000
 11
141.866743
 21
19.270795
 31
0.000000
  6
CONTINUOUS
  0
LINE
  8
WHITE
 10
141.866743
 20
19.270795
 30
0.000000
 11
142.509150
 21
17.659174
 31
0.000000
  6
CONTINUOUS
  0
LINE
  8
WHITE
 10
142.509150
 20
17.659174
 30
0.000000
 11
142.559865
 21
15.123424
 31
0.000000
  6
CONTINUOUS
  0
LINE
  8
WHITE
 10
142.559865
 20
15.123424
 30
0.000000
 11
141.089130
 21
14.666989
 31
0.000000
  6
CONTINUOUS
  0
LINE
  8
WHITE
 10
141.089130
 20
14.666989
 30
0.000000
 11
138.403111
 21
14.527979
 31
0.000000
  6
CONTINUOUS
  0
LINE
  8
WHITE
 10
138.403111
 20
14.527979
 30
0.000000
 11
135.728352
 21
14.163592
 31
0.000000
  6
CONTINUOUS
  0
LINE
  8
WHITE
 10
135.728352
 20
14.163592
 30
0.000000
 11
132.619725
 21
14.616274
 31
0.000000
  6
CONTINUOUS
  0
LINE
  8
WHITE
 10
95.245445
 20
288.924068
 30
0.000000
 11
95.141340
 21
289.085854
 31
0.000000
  6
CONTINUOUS
  0
LINE
  8
WHITE
 10
95.141340
 20
289.085854
 30
0.000000
 11
94.786335
 21
290.404444
 31
0.000000
  6
CONTINUOUS
  0
LINE
  8
WHITE
 10
94.786335
 20
290.404444
 30
0.000000
 11
94.282938
 21
291.734293
 31
0.000000
  6
CONTINUOUS
  0
LINE
  8
WHITE
 10
94.282938
 20
291.734293
 30
0.000000
 11
94.219881
 21
292.071368
 31
0.000000
  6
CONTINUOUS
  0
ARC
  8
WHITE
 10
93.270353
 20
291.893740
 30
0.000000
 40
0.966000
 50
10.595826
 51
88.485157
  6
CONTINUOUS
  0
LINE
  8
WHITE
 10
93.295890
 20
292.859403
 30
0.000000
 11
92.797191
 21
292.872591
 31
0.000000
  6
CONTINUOUS
  0
LINE
  8
WHITE
 10
92.797191
 20
292.872591
 30
0.000000
 11
91.953363
 21
292.975385
 31
0.000000
  6
CONTINUOUS
  0
ARC
  8
WHITE
 10
92.070177
 20
293.934296
 30
0.000000
 40
0.966000
 50
152.783888
 51
263.054497
  6
CONTINUOUS
  0
LINE
  8
WHITE
 10
91.211125
 20
294.376094
 30
0.000000
 11
91.489860
 21
294.918079
 31
0.000000
  6
CONTINUOUS
  0
LINE
  8
WHITE
 10
91.489860
 20
294.918079
 30
0.000000
 11
92.267473
 21
296.296766
 31
0.000000
  6
CONTINUOUS
  0
LINE
  8
WHITE
 10
92.267473
 20
296.296766
 30
0.000000
 11
92.707020
 21
297.555259
 31
0.000000
  6
CONTINUOUS
  0
LINE
  8
WHITE
 10
92.707020
 20
297.555259
 30
0.000000
 11
93.822750
 21
299.380999
 31
0.000000
  6
CONTINUOUS
  0
LINE
  8
WHITE
 10
93.822750
 20
299.380999
 30
0.000000
 11
94.775076
 21
300.797266
 31
0.000000
  6
CONTINUOUS
  0
LINE
  8
WHITE
 10
94.775076
 20
300.797266
 30
0.000000
 11
95.629744
 21
301.624703
 31
0.000000
  6
CONTINUOUS
  0
ARC
  8
WHITE
 10
96.301664
 20
300.930671
 30
0.000000
 40
0.966000
 50
62.369419
 51
134.072549
  6
CONTINUOUS
  0
LINE
  8
WHITE
 10
96.749664
 20
301.786505
 30
0.000000
 11
97.073257
 21
301.617115
 31
0.000000
  6
CONTINUOUS
  0
ARC
  8
WHITE
 10
96.625256
 20
300.761281
 30
0.000000
 40
0.966000
 50
23.789208
 51
62.369419
  6
CONTINUOUS
  0
LINE
  8
WHITE
 10
97.509181
 20
301.150939
 30
0.000000
 11
97.842973
 21
300.393745
 31
0.000000
  6
CONTINUOUS
  0
ARC
  8
WHITE
 10
96.959048
 20
300.004087
 30
0.000000
 40
0.966000
 50
-2.101599
 51
23.789208
  6
CONTINUOUS
  0
LINE
  8
WHITE
 10
97.924399
 20
299.968662
 30
0.000000
 11
97.880925
 21
298.783987
 31
0.000000
  6
CONTINUOUS
  0
ARC
  8
WHITE
 10
96.915575
 20
298.819412
 30
0.000000
 40
0.966000
 50
-5.255965
 51
-2.101599
  6
CONTINUOUS
  0
LINE
  8
WHITE
 10
97.877513
 20
298.730921
 30
0.000000
 11
97.778520
 21
297.654812
 31
0.000000
  6
CONTINUOUS
  0
LINE
  8
WHITE
 10
97.778520
 20
297.654812
 30
0.000000
 11
97.677090
 21
296.540959
 31
0.000000
  6
CONTINUOUS
  0
LINE
  8
WHITE
 10
97.677090
 20
296.540959
 30
0.000000
 11
97.607610
 21
295.229875
 31
0.000000
  6
CONTINUOUS
  0
LINE
  8
WHITE
 10
97.607610
 20
295.229875
 30
0.000000
 11
97.459218
 21
293.794843
 31
0.000000
  6
CONTINUOUS
  0
LINE
  8
WHITE
 10
97.459218
 20
293.794843
 30
0.000000
 11
97.205643
 21
291.781255
 31
0.000000
  6
CONTINUOUS
  0
LINE
  8
WHITE
 10
97.205643
 20
291.781255
 30
0.000000
 11
97.083522
 21
290.186572
 31
0.000000
  6
CONTINUOUS
  0
LINE
  8
WHITE
 10
97.083522
 20
290.186572
 30
0.000000
 11
96.918241
 21
288.982547
 31
0.000000
  6
CONTINUOUS
  0
LINE
  8
WHITE
 10
96.918241
 20
288.982547
 30
0.000000
 11
96.827028
 21
288.862470
 31
0.000000
  6
CONTINUOUS
  0
ARC
  8
WHITE
 10
96.057795
 20
289.446796
 30
0.000000
 40
0.966000
 50
-147.239681
 51
-37.221052
  6
CONTINUOUS
  0
LINE
  8
WHITE
 10
108.935820
 20
274.682794
 30
0.000000
 11
107.724289
 21
274.962690
 31
0.000000
  6
CONTINUOUS
  0
LINE
  8
WHITE
 10
107.724289
 20
274.962690
 30
0.000000
 11
106.444600
 21
275.338342
 31
0.000000
  6
CONTINUOUS
  0
ARC
  8
WHITE
 10
106.716688
 20
276.265231
 30
0.000000
 40
0.966000
 50
179.218646
 51
253.640445
  6
CONTINUOUS
  0
LINE
  8
WHITE
 10
105.750778
 20
276.278404
 30
0.000000
 11
105.755787
 21
276.645667
 31
0.000000
  6
CONTINUOUS
  0
LINE
  8
WHITE
 10
105.755787
 20
276.645667
 30
0.000000
 11
106.110792
 21
277.877839
 31
0.000000
  6
CONTINUOUS
  0
LINE
  8
WHITE
 10
106.110792
 20
277.877839
 30
0.000000
 11
106.447032
 21
279.200182
 31
0.000000
  6
CONTINUOUS
  0
LINE
  8
WHITE
 10
106.447032
 20
279.200182
 30
0.000000
 11
106.856505
 21
280.515019
 31
0.000000
  6
CONTINUOUS
  0
LINE
  8
WHITE
 10
106.856505
 20
280.515019
 30
0.000000
 11
107.559009
 21
281.767882
 31
0.000000
  6
CONTINUOUS
  0
LINE
  8
WHITE
 10
107.559009
 20
281.767882
 30
0.000000
 11
108.242894
 21
282.215105
 31
0.000000
  6
CONTINUOUS
  0
ARC
  8
WHITE
 10
108.771593
 20
281.406629
 30
0.000000
 40
0.966000
 50
50.284727
 51
123.182484
  6
CONTINUOUS
  0
LINE
  8
WHITE
 10
109.388841
 20
282.149705
 30
0.000000
 11
109.809876
 21
281.799966
 31
0.000000
  6
CONTINUOUS
  0
ARC
  8
WHITE
 10
109.192628
 20
281.056890
 30
0.000000
 40
0.966000
 50
19.299326
 51
50.284727
  6
CONTINUOUS
  0
LINE
  8
WHITE
 10
110.104343
 20
281.376156
 30
0.000000
 11
110.406555
 21
280.513142
 31
0.000000
  6
CONTINUOUS
  0
LINE
  8
WHITE
 10
110.406555
 20
280.513142
 30
0.000000
 11
110.566420
 21
279.595397
 31
0.000000
  6
CONTINUOUS
  0
ARC
  8
WHITE
 10
109.614751
 20
279.429622
 30
0.000000
 40
0.966000
 50
-19.198115
 51
9.881390
  6
CONTINUOUS
  0
LINE
  8
WHITE
 10
110.527029
 20
279.111967
 30
0.000000
 11
110.213077
 21
278.210326
 31
0.000000
  6
CONTINUOUS
  0
LINE
  8
WHITE
 10
110.213077
 20
278.210326
 30
0.000000
 11
110.008341
 21
276.226761
 31
0.000000
  6
CONTINUOUS
  0
LINE
  8
WHITE
 10
110.008341
 20
276.226761
 30
0.000000
 11
109.983971
 21
275.622949
 31
0.000000
  6
CONTINUOUS
  0
ARC
  8
WHITE
 10
109.018757
 20
275.661906
 30
0.000000
 40
0.966000
 50
-84.289407
 51
-2.311204
  6
CONTINUOUS
  0
LINE
  8
WHITE
 10
109.114877
 20
274.700700
 30
0.000000
 11
108.935820
 21
274.682794
 31
0.000000
  6
CONTINUOUS
  0
ENDSEC
  0
EOF
