  0
SECTION
  2
HEADER
  9
$ACADVER
  1
AC1009
  9
$INSBASE
 10
0.0
 20
0.0
 30
0.0
  9
$EXTMIN
 10
3621699.7525213831
 20
-22821.58372234739
 30
-6024833.0906264298
  9
$EXTMAX
 10
7018706.6685353965
 20
5448856.7569338167
 30
531.55210001
  9
$LIMMIN
 10
0.0
 20
0.0
  9
$LIMMAX
 10
12.0
 20
9.0
  9
$ORTHOMODE
 70
     0
  9
$REGENMODE
 70
     1
  9
$FILLMODE
 70
     1
  9
$QTEXTMODE
 70
     0
  9
$MIRRTEXT
 70
     1
  9
$DRAGMODE
 70
     2
  9
$LTSCALE
 40
1.0
  9
$OSMODE
 70
  2593
  9
$ATTMODE
 70
     1
  9
$TEXTSIZE
 40
0.2
  9
$TRACEWID
 40
0.05
  9
$TEXTSTYLE
  7
STANDARD
  9
$CLAYER
  8
TH
  9
$CELTYPE
  6
BYLAYER
  9
$CECOLOR
 62
     2
  9
$DIMSCALE
 40
1.0
  9
$DIMASZ
 40
0.18
  9
$DIMEXO
 40
0.0625
  9
$DIMDLI
 40
0.38
  9
$DIMRND
 40
0.0
  9
$DIMDLE
 40
0.0
  9
$DIMEXE
 40
0.18
  9
$DIMTP
 40
0.0
  9
$DIMTM
 40
0.0
  9
$DIMTXT
 40
0.18
  9
$DIMCEN
 40
0.09
  9
$DIMTSZ
 40
0.0
  9
$DIMTOL
 70
     0
  9
$DIMLIM
 70
     0
  9
$DIMTIH
 70
     1
  9
$DIMTOH
 70
     1
  9
$DIMSE1
 70
     0
  9
$DIMSE2
 70
     0
  9
$DIMTAD
 70
     0
  9
$DIMZIN
 70
     0
  9
$DIMBLK
  1

  9
$DIMASO
 70
     1
  9
$DIMSHO
 70
     1
  9
$DIMPOST
  1

  9
$DIMAPOST
  1

  9
$DIMALT
 70
     0
  9
$DIMALTD
 70
     2
  9
$DIMALTF
 40
25.399999999999999
  9
$DIMLFAC
 40
1.0
  9
$DIMTOFL
 70
     0
  9
$DIMTVP
 40
0.0
  9
$DIMTIX
 70
     0
  9
$DIMSOXD
 70
     0
  9
$DIMSAH
 70
     0
  9
$DIMBLK1
  1

  9
$DIMBLK2
  1

  9
$DIMSTYLE
  2
STANDARD
  9
$DIMCLRD
 70
     0
  9
$DIMCLRE
 70
     0
  9
$DIMCLRT
 70
     0
  9
$DIMTFAC
 40
1.0
  9
$DIMGAP
 40
0.09
  9
$LUNITS
 70
     2
  9
$LUPREC
 70
     4
  9
$SKETCHINC
 40
0.1
  9
$FILLETRAD
 40
0.5
  9
$AUNITS
 70
     0
  9
$AUPREC
 70
     0
  9
$MENU
  1
.
  9
$ELEVATION
 40
0.0
  9
$PELEVATION
 40
0.0
  9
$THICKNESS
 40
0.0
  9
$LIMCHECK
 70
     0
  9
$BLIPMODE
 70
     0
  9
$CHAMFERA
 40
0.5
  9
$CHAMFERB
 40
0.5
  9
$SKPOLY
 70
     0
  9
$TDCREATE
 40
2456616.4902451742
  9
$TDUPDATE
 40
2456707.5392270721
  9
$TDINDWG
 40
5.6972303818999999
  9
$TDUSRTIMER
 40
5.6972298380000002
  9
$USRTIMER
 70
     1
  9
$ANGBASE
 50
0.0
  9
$ANGDIR
 70
     0
  9
$PDMODE
 70
     0
  9
$PDSIZE
 40
0.0
  9
$PLINEWID
 40
0.0
  9
$COORDS
 70
     1
  9
$SPLFRAME
 70
     0
  9
$SPLINETYPE
 70
     6
  9
$SPLINESEGS
 70
     8
  9
$ATTDIA
 70
     1
  9
$ATTREQ
 70
     1
  9
$HANDLING
 70
     1
  9
$HANDSEED
  5
178
  9
$SURFTAB1
 70
     6
  9
$SURFTAB2
 70
     6
  9
$SURFTYPE
 70
     6
  9
$SURFU
 70
     6
  9
$SURFV
 70
     6
  9
$UCSNAME
  2

  9
$UCSORG
 10
0.0
 20
0.0
 30
0.0
  9
$UCSXDIR
 10
1.0
 20
0.0
 30
0.0
  9
$UCSYDIR
 10
0.0
 20
1.0
 30
0.0
  9
$PUCSNAME
  2

  9
$PUCSORG
 10
0.0
 20
0.0
 30
0.0
  9
$PUCSXDIR
 10
1.0
 20
0.0
 30
0.0
  9
$PUCSYDIR
 10
0.0
 20
1.0
 30
0.0
  9
$USERI1
 70
     0
  9
$USERI2
 70
     0
  9
$USERI3
 70
     0
  9
$USERI4
 70
     0
  9
$USERI5
 70
     0
  9
$USERR1
 40
0.0
  9
$USERR2
 40
0.0
  9
$USERR3
 40
0.0
  9
$USERR4
 40
0.0
  9
$USERR5
 40
0.0
  9
$WORLDVIEW
 70
     1
  9
$SHADEDGE
 70
     3
  9
$SHADEDIF
 70
    70
  9
$TILEMODE
 70
     1
  9
$MAXACTVP
 70
    64
  9
$PLIMCHECK
 70
     0
  9
$PEXTMIN
 10
1.0000000000000000E+020
 20
1.0000000000000000E+020
 30
1.0000000000000000E+020
  9
$PEXTMAX
 10
-1.0000000000000000E+020
 20
-1.0000000000000000E+020
 30
-1.0000000000000000E+020
  9
$PLIMMIN
 10
0.0
 20
0.0
  9
$PLIMMAX
 10
12.0
 20
9.0
  9
$UNITMODE
 70
     0
  9
$VISRETAIN
 70
     1
  9
$PLINEGEN
 70
     0
  9
$PSLTSCALE
 70
     1
  0
ENDSEC
  0
SECTION
  2
TABLES
  0
TABLE
  2
VPORT
 70
     1
  0
VPORT
  2
*ACTIVE
 70
     0
 10
0.0
 20
0.0
 11
1.0
 21
1.0
 12
0.0
 22
0.0
 13
0.0
 23
0.0
 14
0.5
 24
0.5
 15
0.5
 25
0.5
 16
26.615438820794228
 26
69.173960760235786
 36
59.80376872204215
 17
4449217.0979381939
 27
5442657.4771106495
 37
723.47056418271313
 40
41.660605881292973
 41
1.639303482587064
 42
50.0
 43
0.0
 44
0.0
 50
0.0
 51
0.0
 71
     0
 72
 20000
 73
     1
 74
     1
 75
     0
 76
     0
 77
     0
 78
     0
  0
ENDTAB
  0
TABLE
  2
LTYPE
 70
     1
  0
LTYPE
  2
CONTINUOUS
 70
     0
  3
Solid line
 72
    65
 73
     0
 40
0.0
  0
ENDTAB
  0
TABLE
  2
LAYER
 70
     6
  0
LAYER
  2
0
 70
     0
 62
    -7
  6
CONTINUOUS
  0
LAYER
  2
TH
 70
     0
 62
    -7
  6
CONTINUOUS
  0
LAYER
  2
PFÖRTNERHAUS
 70
     0
 62
     7
  6
CONTINUOUS
  0
LAYER
  2
PHT_WAND_KONS_LIN_
 70
     0
 62
     7
  6
CONTINUOUS
  0
LAYER
  2
PH_DACHTURM_TESTGESPIEGELT
 70
     0
 62
     7
  6
CONTINUOUS
  0
LAYER
  2
PH_TURMELEMENT
 70
     0
 62
     7
  6
CONTINUOUS
  0
ENDTAB
  0
TABLE
  2
STYLE
 70
     2
  0
STYLE
  2
STANDARD
 70
     0
 40
0.0
 41
1.0
 50
0.0
 71
     0
 42
0.2
  3
txt
  4

  0
STYLE
  2
ROMANS
 70
     0
 40
0.0
 41
0.75
 50
0.0
 71
     0
 42
0.1
  3
ROMANS.shx
  4

  0
ENDTAB
  0
TABLE
  2
VIEW
 70
     0
  0
ENDTAB
  0
TABLE
  2
UCS
 70
     0
  0
ENDTAB
  0
TABLE
  2
APPID
 70
     4
  0
APPID
  2
ACAD
 70
     0
  0
APPID
  2
ACAD_NAV_VCDISPLAY
 70
     0
  0
APPID
  2
ACAECLAYERSTANDARD
 70
     0
  0
APPID
  2
ACCMTRANSPARENCY
 70
     0
  0
ENDTAB
  0
TABLE
  2
DIMSTYLE
 70
     1
  0
DIMSTYLE
  2
STANDARD
 70
     0
  3

  4

  5

  6

  7

 40
1.0
 41
0.18
 42
0.0625
 43
0.38
 44
0.18
 45
0.0
 46
0.0
 47
0.0
 48
0.0
140
0.18
141
0.09
142
0.0
143
25.399999999999999
144
1.0
145
0.0
146
1.0
147
0.09
 71
     0
 72
     0
 73
     1
 74
     1
 75
     0
 76
     0
 77
     0
 78
     0
170
     0
171
     2
172
     0
173
     0
174
     0
175
     0
176
     0
177
     0
178
     0
  0
ENDTAB
  0
ENDSEC
  0
SECTION
  2
BLOCKS
  0
BLOCK
  8
0
  2
$MODEL_SPACE
 70
     0
 10
0.0
 20
0.0
 30
0.0
  3
$MODEL_SPACE
  1

  0
ENDBLK
  5
13
  8
0
  0
BLOCK
 67
     1
  8
0
  2
$PAPER_SPACE
 70
     0
 10
0.0
 20
0.0
 30
0.0
  3
$PAPER_SPACE
  1

  0
ENDBLK
  5
18
 67
     1
  8
0
  0
BLOCK
  8
0
  2
22000
 70
     0
 10
0.0
 20
0.0
 30
0.0
  3
22000
  1

  0
LINE
  5
59
  8
0
 62
   251
 10
1.727996826171875
 20
-1.0
 30
0.0
 11
-1.732002258300781
 21
-1.0
 31
0.0
  0
LINE
  5
5A
  8
0
 62
   251
 10
0.0
 20
2.0
 30
0.0
 11
-1.732002258300781
 21
-1.0
 31
0.0
  0
LINE
  5
5B
  8
0
 62
   251
 10
0.0
 20
2.0
 30
0.0
 11
1.727996826171875
 21
-1.0
 31
0.0
  0
ENDBLK
  5
5C
  8
0
  0
BLOCK
  8
0
  2
CONTROL
 70
     2
 10
0.0
 20
0.0
 30
0.0
  3
CONTROL
  1

  0
ATTDEF
  5
61
  8
0
 62
     0
 10
0.1
 20
-0.1
 30
0.0
 40
0.1
  1

 41
0.75
  7
ROMANS
  3
Nummer
  2
NUMMER
 70
     0
  0
LINE
  5
63
  8
0
 62
     0
 10
0.08
 20
-0.08
 30
0.08
 11
-0.08
 21
0.08
 31
-0.08
  0
LINE
  5
64
  8
0
 62
     0
 10
-0.08
 20
-0.08
 30
-0.08
 11
0.08
 21
0.08
 31
0.08
  0
LINE
  5
65
  8
0
 62
     0
 10
-0.08
 20
0.08
 30
0.08
 11
0.08
 21
-0.08
 31
-0.08
  0
LINE
  5
66
  8
0
 62
     0
 10
0.08
 20
-0.1
 30
0.1
 11
-0.08
 21
-0.1
 31
0.1
  0
LINE
  5
67
  8
0
 62
     0
 10
-0.1
 20
-0.1
 30
0.1
 11
-0.1
 21
-0.1
 31
-0.1
  0
LINE
  5
68
  8
0
 62
     0
 10
-0.08
 20
-0.1
 30
-0.1
 11
0.08
 21
-0.1
 31
-0.1
  0
LINE
  5
69
  8
0
 62
     0
 10
0.1
 20
-0.1
 30
-0.1
 11
0.1
 21
-0.1
 31
0.1
  0
LINE
  5
6A
  8
0
 62
     0
 10
0.08
 20
0.1
 30
0.1
 11
-0.08
 21
0.1
 31
0.1
  0
LINE
  5
6B
  8
0
 62
     0
 10
-0.1
 20
0.1
 30
0.1
 11
-0.1
 21
0.1
 31
-0.1
  0
LINE
  5
6C
  8
0
 62
     0
 10
-0.08
 20
0.1
 30
-0.1
 11
0.08
 21
0.1
 31
-0.1
  0
LINE
  5
6D
  8
0
 62
     0
 10
0.1
 20
0.1
 30
-0.1
 11
0.1
 21
0.1
 31
0.1
  0
LINE
  5
6E
  8
0
 62
     0
 10
-0.1
 20
-0.08
 30
-0.1
 11
-0.1
 21
0.08
 31
-0.1
  0
LINE
  5
6F
  8
0
 62
     0
 10
0.1
 20
-0.08
 30
-0.1
 11
0.1
 21
0.08
 31
-0.1
  0
LINE
  5
70
  8
0
 62
     0
 10
-0.1
 20
-0.08
 30
0.1
 11
-0.1
 21
0.08
 31
0.1
  0
LINE
  5
71
  8
0
 62
     0
 10
0.1
 20
-0.08
 30
0.1
 11
0.1
 21
0.08
 31
0.1
  0
LINE
  5
72
  8
0
 62
     0
 10
0.08
 20
0.08
 30
-0.08
 11
-0.08
 21
-0.08
 31
0.08
  0
ENDBLK
  5
73
  8
0
  0
BLOCK
  8
0
 62
     3
  2
STANDPUNKT
 70
     2
 10
0.0
 20
0.0
 30
0.0
  3
STANDPUNKT
  1

  0
ATTDEF
  5
C2
  8
0
 62
     0
 10
0.18
 20
0.0
 30
0.0
 40
0.1
  1

 41
0.75
  7
ROMANS
  3
Nummer
  2
NUMMER
 70
     0
  0
CIRCLE
  5
C3
  8
0
 62
     0
 10
0.0
 20
0.0
 30
0.0
 40
0.15
  0
CIRCLE
  5
C4
  8
0
 62
     0
 10
0.0
 20
0.0
 30
0.0
 40
0.075
  0
CIRCLE
  5
C5
  8
0
 62
     0
 10
0.0
 20
0.0
 30
0.0
 40
0.15
210
0.0
220
-1.0
230
0.0
  0
CIRCLE
  5
C6
  8
0
 62
     0
 10
0.0
 20
0.0
 30
0.0
 40
0.15
210
-1.0
220
0.0
230
0.0
  0
LINE
  5
C7
  8
0
 62
     0
 10
-0.15
 20
0.0
 30
0.0
 11
0.15
 21
0.0
 31
0.0
  0
LINE
  5
C8
  8
0
 62
     0
 10
0.0
 20
0.15
 30
0.0
 11
0.0
 21
-0.15
 31
0.0
  0
ENDBLK
  5
C9
  8
0
 62
     3
  0
BLOCK
  8
0
  2
SYM019
 70
     0
 10
0.0
 20
0.0
 30
0.0
  3
SYM019
  1

  0
CIRCLE
  5
E2
  8
0
 62
    18
 10
0.0
 20
0.0
 30
0.0
 40
0.09
  0
ENDBLK
  5
E3
  8
0
  0
ENDSEC
  0
SECTION
  2
ENTITIES
  0
INSERT
  5
54
  8
PFÖRTNERHAUS
  2
22000
 10
4449136.1909999996
 20
5442423.2220000001
 30
504.53999999999991
  0
INSERT
  5
5D
  8
PFÖRTNERHAUS
  2
22000
 10
4449134.2609999999
 20
5442404.2079999996
 30
504.0329999999999
  0
INSERT
  5
5E
  8
PFÖRTNERHAUS
 66
     1
  2
CONTROL
 10
4449136.1909999996
 20
5442423.2220000001
 30
504.56439999999998
  0
ATTRIB
  5
74
  8
0
 62
     0
 10
4449136.2909999993
 20
5442423.1220000004
 30
504.56439999999998
 40
0.1
  1
PP07
 41
0.75
  7
ROMANS
  2
NUMMER
 70
     0
  0
SEQEND
  5
75
  8
PFÖRTNERHAUS
  0
INSERT
  5
76
  8
PFÖRTNERHAUS
 66
     1
  2
CONTROL
 10
4449134.2609999999
 20
5442404.2079999996
 30
504.05160000000001
  0
ATTRIB
  5
77
  8
0
 62
     0
 10
4449134.3609999986
 20
5442404.108
 30
504.05160000000001
 40
0.1
  1
PP08
 41
0.75
  7
ROMANS
  2
NUMMER
 70
     0
  0
SEQEND
  5
78
  8
PFÖRTNERHAUS
  0
POINT
  5
79
  8
PFÖRTNERHAUS
 62
     3
 10
4449129.6957
 20
5442412.3096000003
 30
504.22949999999997
  0
POINT
  5
7A
  8
PFÖRTNERHAUS
 62
     2
 10
4449119.8903000001
 20
5442413.8213
 30
510.02369999999991
  0
POINT
  5
7B
  8
PH_TURMELEMENT
 62
     2
 10
4449119.8852000004
 20
5442413.8200000003
 30
508.72910000000002
  0
POINT
  5
7D
  8
PH_TURMELEMENT
 62
     2
 10
4449119.9457
 20
5442413.8951999992
 30
506.96910000000003
  0
POINT
  5
7E
  8
PH_TURMELEMENT
 62
     2
 10
4449119.9414999997
 20
5442413.9539000001
 30
506.1798
  0
POINT
  5
7F
  8
PH_TURMELEMENT
 62
     2
 10
4449119.9733999996
 20
5442413.9488000004
 30
504.98469999999992
  0
LINE
  5
80
  8
PH_TURMELEMENT
 62
     2
 10
4449119.8903000001
 20
5442413.8213
 30
510.02369999999991
 11
4449119.8852000004
 21
5442413.8200000003
 31
508.72910000000002
  0
LINE
  5
81
  8
PH_TURMELEMENT
 62
     2
 10
4449119.8852000004
 20
5442413.8200000003
 30
508.72910000000002
 11
4449119.9457
 21
5442413.8951999992
 31
506.96910000000003
  0
LINE
  5
82
  8
PH_TURMELEMENT
 62
     2
 10
4449119.9457
 20
5442413.8951999992
 30
506.96910000000003
 11
4449119.9414999997
 21
5442413.9539000001
 31
506.1798
  0
LINE
  5
83
  8
PH_TURMELEMENT
 62
     2
 10
4449119.9414999997
 20
5442413.9539000001
 30
506.1798
 11
4449120.058416889
 21
5442414.0012397431
 31
503.18620922517192
  0
POINT
  5
84
  8
PH_TURMELEMENT
 62
     2
 10
4449119.9347999999
 20
5442413.9099999992
 30
507.0003999999999
  0
POINT
  5
85
  8
PH_TURMELEMENT
 62
     2
 10
4449119.9418000001
 20
5442413.9584999997
 30
506.11219999999997
  0
CIRCLE
  5
86
  8
PH_TURMELEMENT
 62
     2
 10
2947140.462261308
 20
6362213.6471368177
 30
501127.25950050622
 40
2.0001983830673851
210
0.070678628010121
220
0.0343914982338068
230
-0.9969060920627583
  0
CIRCLE
  5
87
  8
PH_TURMELEMENT
 62
     2
 10
2947140.4626025008
 20
6362213.6179065108
 30
501128.84369507869
 40
2.0001983830673851
210
0.070678628010121
220
0.0343914982338068
230
-0.9969060920627585
  0
CIRCLE
  5
88
  8
PH_TURMELEMENT
 62
     2
 10
2947140.3743589502
 20
6362213.926155475
 30
501122.00928810082
 40
2.0001983830673851
210
0.070678628010121
220
0.0343914982338068
230
-0.9969060920627585
  0
LINE
  5
89
  8
PFÖRTNERHAUS
 62
     3
 10
4449129.6957
 20
5442412.3096000003
 30
504.22949999999997
 11
4449120.0584168937
 21
5442414.001239744
 31
503.18620912358159
  0
POINT
  5
8A
  8
PFÖRTNERHAUS
 62
     2
 10
4449129.6737999991
 20
5442412.1821999997
 30
507.06009999999992
  0
LINE
  5
8B
  8
PFÖRTNERHAUS
 62
     2
 10
4449129.6957
 20
5442412.3096000003
 30
504.22949999999997
 11
4449129.6737999991
 21
5442412.1821999997
 31
507.06009999999992
  0
LINE
  5
8C
  8
PFÖRTNERHAUS
 62
     2
 10
4449129.6737999991
 20
5442412.1821999997
 30
507.06009999999992
 11
4449129.8321259301
 21
5442412.0561012561
 31
510.56456384718069
  0
POINT
  5
8D
  8
PFÖRTNERHAUS
 62
     1
 10
4449117.8772999989
 20
5442414.1058
 30
514.12289999999996
  0
POINT
  5
8E
  8
PFÖRTNERHAUS
 62
     1
 10
4449119.3624999998
 20
5442413.0180999991
 30
512.0675
  0
POINT
  5
8F
  8
PFÖRTNERHAUS
 62
     1
 10
4449120.1780000003
 20
5442413.3288000003
 30
511.28649999999999
  0
LINE
  5
90
  8
PFÖRTNERHAUS
 62
     1
 10
4449120.1780000003
 20
5442413.3288000003
 30
511.28649999999999
 11
4449119.3624999998
 21
5442413.0180999991
 31
512.0675
  0
LINE
  5
91
  8
PFÖRTNERHAUS
 62
     1
 10
4449119.3624999998
 20
5442413.0180999991
 30
512.0675
 11
4449117.8772999989
 21
5442414.1058
 31
514.12289999999996
  0
POINT
  5
92
  8
PFÖRTNERHAUS
 62
     1
 10
4449119.9324000012
 20
5442414.0244000014
 30
510.1644
  0
POINT
  5
93
  8
PFÖRTNERHAUS
 62
     1
 10
4449120.0460999999
 20
5442413.3559999987
 30
511.23070000000001
  0
LINE
  5
94
  8
PFÖRTNERHAUS
 62
     1
 10
4449119.9324000012
 20
5442414.0244000014
 30
510.1644
 11
4449120.0460999999
 21
5442413.3559999987
 31
511.23070000000001
  0
LINE
  5
95
  8
PFÖRTNERHAUS
 62
     1
 10
4449120.0460999999
 20
5442413.3559999987
 30
511.23070000000001
 11
4449120.1780000003
 21
5442413.3288000003
 31
511.28649999999999
  0
LINE
  5
96
  8
PFÖRTNERHAUS
 62
     1
 10
4449119.3624999998
 20
5442413.0180999991
 30
512.0675
 11
4449118.9400000004
 21
5442411.9700999986
 31
514.06730000000005
  0
LINE
  5
97
  8
PFÖRTNERHAUS
 62
     1
 10
4449118.9400000004
 20
5442411.9700999986
 30
514.06730000000005
 11
4449119.1222000001
 21
5442411.8463000003
 31
514.09580000000005
  0
POINT
  5
98
  8
PFÖRTNERHAUS
 62
     1
 10
4449128.1485000001
 20
5442408.5900999997
 30
514.01739999999995
  0
LINE
  5
99
  8
PFÖRTNERHAUS
 62
     1
 10
4449119.1222000001
 20
5442411.8463000003
 30
514.09580000000005
 11
4449128.1485000001
 21
5442408.5900999997
 31
514.01739999999995
  0
LINE
  5
9A
  8
PFÖRTNERHAUS
 62
     1
 10
4449128.1485000001
 20
5442408.5900999997
 30
514.01739999999995
 11
4449128.4563999996
 21
5442408.4632000001
 31
514.04920000000004
  0
POINT
  5
9B
  8
PFÖRTNERHAUS
 62
     1
 10
4449129.9786999999
 20
5442412.4389000004
 30
510.19330000000002
  0
POINT
  5
9C
  8
PFÖRTNERHAUS
 62
     1
 10
4449129.661799999
 20
5442412.5209999997
 30
510.18499999999989
  0
LINE
  5
9D
  8
PFÖRTNERHAUS
 62
     1
 10
4449129.9786999999
 20
5442412.4389000004
 30
510.19330000000002
 11
4449129.661799999
 21
5442412.5209999997
 31
510.18499999999989
  0
POINT
  5
9E
  8
PFÖRTNERHAUS
 62
     1
 10
4449119.9573999988
 20
5442414.1003999989
 30
510.07690000000002
  0
LINE
  5
9F
  8
PFÖRTNERHAUS
 62
     1
 10
4449119.9324000012
 20
5442414.0244000014
 30
510.1644
 11
4449119.9573999988
 21
5442414.1003999989
 31
510.07690000000002
  0
LINE
  5
A0
  8
PFÖRTNERHAUS
 62
     1
 10
4449119.9573999988
 20
5442414.1003999989
 30
510.07690000000002
 11
4449129.661799999
 21
5442412.5209999997
 31
510.18499999999989
  0
POINT
  5
A1
  8
PFÖRTNERHAUS
 62
     1
 10
4449127.0618000003
 20
5442404.3184000002
 30
510.14559999999989
  0
POINT
  5
A2
  8
PFÖRTNERHAUS
 62
     2
 10
4449126.9626000002
 20
5442404.8519000011
 30
510.28769999999992
  0
POINT
  5
A3
  8
PFÖRTNERHAUS
 62
     3
 10
4449127.1040000003
 20
5442404.7328000003
 30
504.22349999999989
  0
LINE
  5
A4
  8
PFÖRTNERHAUS
 62
     2
 10
4449127.1040000003
 20
5442404.7328000003
 30
504.22349999999989
 11
4449127.2129626023
 21
5442404.767660547
 31
510.56871654831201
  0
POINT
  5
A5
  8
PFÖRTNERHAUS
 62
     3
 10
4449127.2129626023
 20
5442404.767660547
 30
510.56871654831201
  0
LINE
  5
A6
  8
PFÖRTNERHAUS
 62
     1
 10
4449127.0618000003
 20
5442404.3184000002
 30
510.14559999999989
 11
4449127.2129626023
 21
5442404.767660547
 31
510.56871654831201
  0
LINE
  5
A7
  8
PFÖRTNERHAUS
 62
     1
 10
4449127.2129626023
 20
5442404.767660547
 30
510.56871654831201
 11
4449128.4563999996
 21
5442408.4632000001
 31
514.04920000000004
  0
POINT
  5
A8
  8
PFÖRTNERHAUS
 62
     3
 10
4449129.8321259301
 20
5442412.0561012561
 30
510.56456384718069
  0
LINE
  5
A9
  8
PFÖRTNERHAUS
 62
     1
 10
4449128.4563999996
 20
5442408.4632000001
 30
514.04920000000004
 11
4449129.8321259301
 21
5442412.0561012561
 31
510.56456384718069
  0
LINE
  5
AA
  8
PFÖRTNERHAUS
 62
     1
 10
4449129.8321259301
 20
5442412.0561012561
 30
510.56456384718069
 11
4449129.9786999999
 21
5442412.4389000004
 31
510.19330000000002
  0
POINT
  5
AB
  8
PFÖRTNERHAUS
 62
     7
 10
4449127.8628413389
 20
5442406.95126242
 30
504.2252567805034
  0
LINE
  5
AC
  8
PFÖRTNERHAUS
 62
     3
 10
4449127.1040000003
 20
5442404.7328000003
 30
504.22349999999989
 11
4449127.8628413389
 21
5442406.95126242
 31
504.2252567805034
  0
POINT
  5
AD
  8
PFÖRTNERHAUS
 62
     7
 10
4449128.190049829
 20
5442407.9078520276
 30
504.22601429523951
  0
LINE
  5
AE
  8
PFÖRTNERHAUS
 62
     7
 10
4449128.1215000004
 20
5442407.9313000003
 30
504.22601429523951
 11
4449128.190049829
 21
5442407.9078520276
 31
504.22601429523951
  0
LINE
  5
AF
  8
PFÖRTNERHAUS
 62
     3
 10
4449127.8628413389
 20
5442406.95126242
 30
504.2252567805034
 11
4449128.190049829
 21
5442407.9078520276
 31
504.22601429523951
  0
LINE
  5
B0
  8
PFÖRTNERHAUS
 62
     3
 10
4449128.190049829
 20
5442407.9078520276
 30
504.22601429523951
 11
4449129.6957
 21
5442412.3096000003
 31
504.22949999999997
  0
INSERT
  5
B1
  8
PFÖRTNERHAUS
 62
     4
 66
     1
  2
CONTROL
 10
4449127.8487999989
 20
5442425.1903999997
 30
504.14030000000002
  0
ATTRIB
  5
B2
  8
0
 62
     0
 10
4449127.9488000004
 20
5442425.0904000001
 30
504.14030000000002
 40
0.1
  1
TP15
 41
0.75
  7
ROMANS
  2
NUMMER
 70
     0
  0
SEQEND
  5
B3
  8
PFÖRTNERHAUS
 62
     4
  0
POINT
  5
B4
  8
PH_TURMELEMENT
 62
    30
 10
4449117.9546999987
 20
5442416.5422
 30
503.21409999999997
  0
POINT
  5
B5
  8
PFÖRTNERHAUS
 62
     3
 10
4449118.4151999997
 20
5442410.0590000013
 30
504.93419999999998
  0
POINT
  5
B6
  8
PFÖRTNERHAUS
 62
     3
 10
4449128.9375
 20
5442410.5565999998
 30
508.57299999999998
  0
LINE
  5
B7
  8
PFÖRTNERHAUS
 62
     3
 10
4449127.1040000003
 20
5442404.7328000003
 30
504.22349999999989
 11
4449118.4151999997
 21
5442410.0590000013
 31
504.93419999999998
  0
POINT
  5
B8
  8
PFÖRTNERHAUS
 62
     2
 10
4449118.4073999999
 20
5442410.0927999988
 30
510.03809999999987
  0
LINE
  5
B9
  8
PFÖRTNERHAUS
 62
     2
 10
4449118.4151999997
 20
5442410.0590000013
 30
504.93419999999998
 11
4449118.2469564872
 21
5442409.9494016664
 31
510.34651984515222
  0
LINE
  5
BA
  8
PFÖRTNERHAUS
 62
     1
 10
4449118.1655000001
 20
5442409.7119000005
 30
509.90919999999988
 11
4449126.9749999987
 21
5442404.2193999998
 31
510.10599999999999
  0
POINT
  5
BB
  8
PFÖRTNERHAUS
 62
     1
 10
4449126.9749999987
 20
5442404.2193999998
 30
510.10599999999999
  0
POINT
  5
BC
  8
PFÖRTNERHAUS
 62
     1
 10
4449127.0618000003
 20
5442404.3184000002
 30
510.14559999999989
  0
POINT
  5
BD
  8
PFÖRTNERHAUS
 62
     1
 10
4449127.0618000003
 20
5442404.3184000002
 30
510.14559999999989
  0
INSERT
  5
BE
  8
PFÖRTNERHAUS
 62
     7
 66
     1
  2
STANDPUNKT
 10
4449127.8487999989
 20
5442425.1903999997
 30
504.14030000000002
  0
ATTRIB
  5
CA
  8
0
 62
     0
 10
4449128.0287999986
 20
5442425.1903999997
 30
504.14030000000002
 40
0.1
  1
TP15
 41
0.75
  7
ROMANS
  2
NUMMER
 70
     0
  0
SEQEND
  5
CB
  8
PFÖRTNERHAUS
 62
     7
  0
CIRCLE
  5
CC
  8
PH_TURMELEMENT
 62
     2
 10
2947140.3743589502
 20
6362214.0007219119
 30
501121.06356270012
 40
2.0001983830673851
210
0.070678628010121
220
0.0343914982338068
230
-0.9969060920627583
  0
LINE
  5
CD
  8
PFÖRTNERHAUS
 10
4449115.2039999999
 20
5442413.2828000002
 30
504.22349999999989
 11
4449116.0039999997
 21
5442415.1228
 31
504.22349999999989
  0
LINE
  5
CE
  8
PFÖRTNERHAUS
 10
4449116.0039999997
 20
5442415.1228
 30
504.22349999999989
 11
4449116.8739999998
 21
5442416.2328000013
 31
504.22349999999989
  0
LINE
  5
CF
  8
PFÖRTNERHAUS
 10
4449116.8739999998
 20
5442416.2328000013
 30
504.22349999999989
 11
4449117.1540000001
 21
5442416.3228000002
 31
504.22349999999989
  0
LINE
  5
D0
  8
PFÖRTNERHAUS
 10
4449117.1540000001
 20
5442416.3228000002
 30
504.22349999999989
 11
4449117.4539999999
 21
5442416.3728000009
 31
504.22349999999989
  0
LINE
  5
D1
  8
PFÖRTNERHAUS
 10
4449117.4539999999
 20
5442416.3728000009
 30
504.22349999999989
 11
4449117.9340000013
 21
5442416.4928000001
 31
504.22349999999989
  0
LINE
  5
D2
  8
PFÖRTNERHAUS
 10
4449117.9340000013
 20
5442416.4928000001
 30
504.22349999999989
 11
4449118.4340000004
 21
5442416.4828000003
 31
504.22349999999989
  0
LINE
  5
D3
  8
PFÖRTNERHAUS
 10
4449118.4340000004
 20
5442416.4828000003
 30
504.22349999999989
 11
4449118.9139999999
 21
5442416.3427999988
 31
504.22349999999989
  0
LINE
  5
D4
  8
PFÖRTNERHAUS
 10
4449118.9139999999
 20
5442416.3427999988
 30
504.22349999999989
 11
4449119.3439999996
 21
5442416.0828
 31
504.22349999999989
  0
LINE
  5
D5
  8
PFÖRTNERHAUS
 10
4449119.3439999996
 20
5442416.0828
 30
504.22349999999989
 11
4449119.6840000004
 21
5442415.7227999987
 31
504.22349999999989
  0
LINE
  5
D6
  8
PFÖRTNERHAUS
 10
4449119.6840000004
 20
5442415.7227999987
 30
504.22349999999989
 11
4449119.9239999996
 21
5442415.2827999992
 31
504.22349999999989
  0
LINE
  5
D7
  8
PFÖRTNERHAUS
 10
4449119.9239999996
 20
5442415.2827999992
 30
504.22349999999989
 11
4449120.0339999991
 21
5442414.7927999999
 31
504.22349999999989
  0
LINE
  5
D8
  8
PFÖRTNERHAUS
 10
4449120.0339999991
 20
5442414.7927999999
 30
504.22349999999989
 11
4449120.0939999996
 21
5442414.3328
 31
504.22349999999989
  0
LINE
  5
D9
  8
PFÖRTNERHAUS
 10
4449120.0939999996
 20
5442414.3328
 30
504.22349999999989
 11
4449120.0439999988
 21
5442413.8628000002
 31
504.22349999999989
  0
LINE
  5
DA
  8
PFÖRTNERHAUS
 10
4449120.0439999988
 20
5442413.8628000002
 30
504.22349999999989
 11
4449129.7240000004
 21
5442412.2627999987
 31
504.22349999999989
  0
LINE
  5
DB
  8
PFÖRTNERHAUS
 10
4449129.7240000004
 20
5442412.2627999987
 30
504.22349999999989
 11
4449129.6040000003
 21
5442412.0527999997
 31
504.22349999999989
  0
LINE
  5
DC
  8
PFÖRTNERHAUS
 10
4449129.6040000003
 20
5442412.0527999997
 30
504.22349999999989
 11
4449127.1040000003
 21
5442404.7328000003
 31
504.22349999999989
  0
LINE
  5
DD
  8
PFÖRTNERHAUS
 10
4449127.1040000003
 20
5442404.7328000003
 30
504.22349999999989
 11
4449118.4040000001
 21
5442410.0527999988
 31
504.22349999999989
  0
LINE
  5
DE
  8
PFÖRTNERHAUS
 10
4449115.2039999999
 20
5442413.2828000002
 30
504.22349999999989
 11
4449118.4040000001
 21
5442410.0527999988
 31
504.22349999999989
  0
INSERT
  5
DF
  8
PFÖRTNERHAUS
  2
SYM019
 10
4449117.4539999999
 20
5442416.3728000009
 30
504.22349999999989
  0
INSERT
  5
E4
  8
PFÖRTNERHAUS
  2
SYM019
 10
4449119.3439999996
 20
5442416.0828
 30
504.22349999999989
  0
INSERT
  5
E5
  8
PFÖRTNERHAUS
  2
SYM019
 10
4449120.0339999991
 20
5442414.7927999999
 30
504.22349999999989
  0
INSERT
  5
E6
  8
PFÖRTNERHAUS
  2
SYM019
 10
4449120.0439999988
 20
5442413.8628000002
 30
504.22349999999989
  0
INSERT
  5
E7
  8
PFÖRTNERHAUS
  2
SYM019
 10
4449117.1540000001
 20
5442416.3228000002
 30
504.22349999999989
  0
INSERT
  5
E8
  8
PFÖRTNERHAUS
  2
SYM019
 10
4449117.9340000013
 20
5442416.4928000001
 30
504.22349999999989
  0
INSERT
  5
E9
  8
PFÖRTNERHAUS
  2
SYM019
 10
4449118.4340000004
 20
5442416.4828000003
 30
504.22349999999989
  0
INSERT
  5
EA
  8
PFÖRTNERHAUS
  2
SYM019
 10
4449118.9139999999
 20
5442416.3427999988
 30
504.22349999999989
  0
INSERT
  5
EB
  8
PFÖRTNERHAUS
  2
SYM019
 10
4449119.6840000004
 20
5442415.7227999987
 30
504.22349999999989
  0
INSERT
  5
EC
  8
PFÖRTNERHAUS
  2
SYM019
 10
4449119.9239999996
 20
5442415.2827999992
 30
504.22349999999989
  0
INSERT
  5
ED
  8
PFÖRTNERHAUS
  2
SYM019
 10
4449120.0939999996
 20
5442414.3328
 30
504.22349999999989
  0
LINE
  5
EE
  8
PFÖRTNERHAUS
 62
     1
 10
4449118.9400000004
 20
5442411.9700999986
 30
514.06730000000005
 11
4449118.1655000001
 21
5442409.7119000005
 31
509.90919999999988
  0
LINE
  5
EF
  8
PHT_WAND_KONS_LIN_
 62
     5
 10
4449119.8748000003
 20
5442415.0144999987
 30
511.31920000000002
 11
4449119.8857000005
 21
5442415.0197000001
 31
510.23649999999992
  0
LINE
  5
F1
  8
PHT_WAND_KONS_LIN_
 62
     5
 10
4449119.8857000005
 20
5442415.0197000001
 30
510.23649999999992
 11
4449119.8865
 21
5442415.0208000001
 31
509.96249999999992
  0
LINE
  5
F2
  8
PHT_WAND_KONS_LIN_
 62
     5
 10
4449119.8865
 20
5442415.0208000001
 30
509.96249999999992
 11
4449119.875
 21
5442415.0148999989
 31
509.51659999999993
  0
LINE
  5
F3
  8
PHT_WAND_KONS_LIN_
 62
     5
 10
4449119.875
 20
5442415.0148999989
 30
509.51659999999993
 11
4449119.8740999987
 21
5442415.0143999988
 31
509.02679999999998
  0
LINE
  5
F4
  8
PHT_WAND_KONS_LIN_
 62
     5
 10
4449119.8740999987
 20
5442415.0143999988
 30
509.02679999999998
 11
4449119.8854999999
 21
5442415.0199999986
 31
508.2072
  0
LINE
  5
F5
  8
PHT_WAND_KONS_LIN_
 62
     5
 10
4449119.8854999999
 20
5442415.0199999986
 30
508.2072
 11
4449119.9168999987
 21
5442415.0357999988
 31
507.56569999999988
  0
LINE
  5
F6
  8
PHT_WAND_KONS_LIN_
 62
     5
 10
4449119.9168999987
 20
5442415.0357999988
 30
507.56569999999988
 11
4449119.9124999987
 21
5442415.0336999996
 31
507.05790000000002
  0
LINE
  5
F7
  8
PHT_WAND_KONS_LIN_
 62
     5
 10
4449119.9124999987
 20
5442415.0336999996
 30
507.05790000000002
 11
4449119.9188000001
 21
5442415.0367000001
 31
506.34930000000003
  0
LINE
  5
F8
  8
PHT_WAND_KONS_LIN_
 62
     5
 10
4449119.9188000001
 20
5442415.0367000001
 30
506.34930000000003
 11
4449119.9455000004
 21
5442415.0499999998
 31
505.1194999999999
  0
LINE
  5
F9
  8
PHT_WAND_KONS_LIN_
 62
     5
 10
4449119.9455000004
 20
5442415.0499999998
 30
505.1194999999999
 11
4449119.9464999987
 21
5442415.0504999999
 31
504.38639999999998
  0
LINE
  5
FA
  8
PHT_WAND_KONS_LIN_
 62
     5
 10
4449119.9464999987
 20
5442415.0504999999
 30
504.38639999999998
 11
4449119.9678999986
 21
5442415.0612000013
 31
503.71079999999989
  0
LINE
  5
FB
  8
PHT_WAND_KONS_LIN_
 62
     5
 10
4449119.6325000003
 20
5442415.7719000001
 30
511.2811999999999
 11
4449119.6096999999
 21
5442415.7615
 31
510.29219999999992
  0
LINE
  5
FC
  8
PHT_WAND_KONS_LIN_
 62
     5
 10
4449119.6096999999
 20
5442415.7615
 30
510.29219999999992
 11
4449119.6061000004
 21
5442415.7598000001
 31
509.43689999999992
  0
LINE
  5
FD
  8
PHT_WAND_KONS_LIN_
 62
     5
 10
4449119.6061000004
 20
5442415.7598000001
 30
509.43689999999992
 11
4449119.602
 21
5442415.7580000004
 31
508.67059999999992
  0
LINE
  5
FE
  8
PHT_WAND_KONS_LIN_
 62
     5
 10
4449119.602
 20
5442415.7580000004
 30
508.67059999999992
 11
4449119.5935000004
 21
5442415.7540999986
 31
508.24880000000002
  0
LINE
  5
FF
  8
PHT_WAND_KONS_LIN_
 62
     5
 10
4449119.5935000004
 20
5442415.7540999986
 30
508.24880000000002
 11
4449119.5214999998
 21
5442415.7216999996
 31
507.70710000000003
  0
LINE
  5
100
  8
PHT_WAND_KONS_LIN_
 62
     5
 10
4449119.5214999998
 20
5442415.7216999996
 30
507.70710000000003
 11
4449119.6259000003
 21
5442415.7686999999
 31
507.06209999999999
  0
LINE
  5
101
  8
PHT_WAND_KONS_LIN_
 62
     5
 10
4449119.6259000003
 20
5442415.7686999999
 30
507.06209999999999
 11
4449119.6184
 21
5442415.7653000001
 31
506.35019999999992
  0
LINE
  5
102
  8
PHT_WAND_KONS_LIN_
 62
     5
 10
4449119.6184
 20
5442415.7653000001
 30
506.35019999999992
 11
4449119.6122000003
 21
5442415.7625000011
 31
505.56359999999989
  0
LINE
  5
103
  8
PHT_WAND_KONS_LIN_
 62
     5
 10
4449119.6122000003
 20
5442415.7625000011
 30
505.56359999999989
 11
4449119.6223999988
 21
5442415.7669999991
 31
504.83659999999992
  0
LINE
  5
104
  8
PHT_WAND_KONS_LIN_
 62
     5
 10
4449119.6223999988
 20
5442415.7669999991
 30
504.83659999999992
 11
4449119.6155999992
 21
5442415.7633999987
 31
504.2081
  0
LINE
  5
105
  8
PHT_WAND_KONS_LIN_
 62
     5
 10
4449119.0215999996
 20
5442416.3841000004
 30
511.27260000000001
 11
4449118.9961999999
 21
5442416.3739
 31
508.66889999999989
  0
LINE
  5
106
  8
PHT_WAND_KONS_LIN_
 62
     5
 10
4449118.9961999999
 20
5442416.3739
 30
508.66889999999989
 11
4449118.7034999989
 21
5442416.2571999999
 31
506.31299999999999
  0
LINE
  5
107
  8
PHT_WAND_KONS_LIN_
 62
     5
 10
4449118.7034999989
 20
5442416.2571999999
 30
506.31299999999999
 11
4449118.9441
 21
5442416.3529999992
 31
504.59739999999999
  0
LINE
  5
108
  8
PHT_WAND_KONS_LIN_
 62
     5
 10
4449118.9441
 20
5442416.3529999992
 30
504.59739999999999
 11
4449118.9441999998
 21
5442416.353099999
 31
504.59739999999999
  0
LINE
  5
109
  8
PHT_WAND_KONS_LIN_
 62
     5
 10
4449118.9441999998
 20
5442416.353099999
 30
504.59739999999999
 11
4449118.9437999995
 21
5442416.3529999992
 31
504.56739999999991
  0
LINE
  5
10A
  8
PHT_WAND_KONS_LIN_
 62
     5
 10
4449119.5751999998
 20
5442415.8493999997
 30
511.2835
 11
4449119.5685000001
 21
5442415.8461999996
 31
510.93450000000001
  0
LINE
  5
10B
  8
PHT_WAND_KONS_LIN_
 62
     5
 10
4449119.5685000001
 20
5442415.8461999996
 30
510.93450000000001
 11
4449119.5705000004
 21
5442415.8471999997
 31
510.19940000000003
  0
LINE
  5
10C
  8
PHT_WAND_KONS_LIN_
 62
     5
 10
4449119.5705000004
 20
5442415.8471999997
 30
510.19940000000003
 11
4449119.5590000004
 21
5442415.8420000002
 31
509.57150000000001
  0
LINE
  5
10D
  8
PHT_WAND_KONS_LIN_
 62
     5
 10
4449119.5590000004
 20
5442415.8420000002
 30
509.57150000000001
 11
4449119.5574000003
 21
5442415.8410999989
 31
508.67759999999993
  0
LINE
  5
10E
  8
PHT_WAND_KONS_LIN_
 62
     5
 10
4449119.5574000003
 20
5442415.8410999989
 30
508.67759999999993
 11
4449119.5618000003
 21
5442415.8427999998
 31
507.94099999999997
  0
LINE
  5
10F
  8
PHT_WAND_KONS_LIN_
 62
     5
 10
4449119.5618000003
 20
5442415.8427999998
 30
507.94099999999997
 11
4449119.5673000002
 21
5442415.8454000009
 31
507.21719999999999
  0
LINE
  5
110
  8
PHT_WAND_KONS_LIN_
 62
     5
 10
4449119.5673000002
 20
5442415.8454000009
 30
507.21719999999999
 11
4449119.5723000001
 21
5442415.8474000003
 31
506.4951999999999
  0
LINE
  5
111
  8
PHT_WAND_KONS_LIN_
 62
     5
 10
4449119.5723000001
 20
5442415.8474000003
 30
506.4951999999999
 11
4449119.5447000014
 21
5442415.8353000013
 31
505.87229999999988
  0
LINE
  5
112
  8
PHT_WAND_KONS_LIN_
 62
     5
 10
4449119.5447000014
 20
5442415.8353000013
 30
505.87229999999988
 11
4449119.5795999998
 21
5442415.8503999999
 31
505.29099999999988
  0
LINE
  5
113
  8
PHT_WAND_KONS_LIN_
 62
     5
 10
4449119.5795999998
 20
5442415.8503999999
 30
505.29099999999988
 11
4449119.5670999987
 21
5442415.8450999986
 31
505.04860000000002
  0
LINE
  5
114
  8
PHT_WAND_KONS_LIN_
 62
     5
 10
4449119.5670999987
 20
5442415.8450999986
 30
505.04860000000002
 11
4449119.5650000013
 21
5442415.8443
 31
504.38049999999993
  0
LINE
  5
115
  8
PHT_WAND_KONS_LIN_
 62
     5
 10
4449118.8180999998
 20
5442416.4496999998
 30
511.28339999999992
 11
4449118.7916999999
 21
5442416.4392999997
 31
509.81659999999988
  0
LINE
  5
116
  8
PHT_WAND_KONS_LIN_
 62
     5
 10
4449118.7916999999
 20
5442416.4392999997
 30
509.81659999999988
 11
4449118.7921000011
 21
5442416.4391999999
 31
508.20069999999993
  0
LINE
  5
117
  8
PHT_WAND_KONS_LIN_
 62
     5
 10
4449118.7921000011
 20
5442416.4391999999
 30
508.20069999999993
 11
4449118.8048
 21
5442416.4441999998
 31
507.36579999999998
  0
LINE
  5
118
  8
PHT_WAND_KONS_LIN_
 62
     5
 10
4449118.8048
 20
5442416.4441999998
 30
507.36579999999998
 11
4449118.7358999988
 21
5442416.4175000014
 31
505.61619999999988
  0
LINE
  5
119
  8
PHT_WAND_KONS_LIN_
 62
     5
 10
4449118.7358999988
 20
5442416.4175000014
 30
505.61619999999988
 11
4449118.7538000001
 21
5442416.4248000002
 31
504.39170000000001
  0
LINE
  5
11A
  8
PHT_WAND_KONS_LIN_
 62
     5
 10
4449118.0374999987
 20
5442416.5241
 30
511.38850000000002
 11
4449117.7433000002
 21
5442416.4155000001
 31
510.24790000000002
  0
LINE
  5
11B
  8
PHT_WAND_KONS_LIN_
 62
     5
 10
4449117.7433000002
 20
5442416.4155000001
 30
510.24790000000002
 11
4449118.1035000002
 21
5442416.5487000002
 31
508.11779999999999
  0
LINE
  5
11C
  8
PHT_WAND_KONS_LIN_
 62
     5
 10
4449118.1035000002
 20
5442416.5487000002
 30
508.11779999999999
 11
4449117.9933000002
 21
5442416.5080000004
 31
506.71939999999989
  0
LINE
  5
11D
  8
PHT_WAND_KONS_LIN_
 62
     5
 10
4449117.9933000002
 20
5442416.5080000004
 30
506.71939999999989
 11
4449117.9139999999
 21
5442416.4787000008
 31
505.70420000000001
  0
LINE
  5
11E
  8
PHT_WAND_KONS_LIN_
 62
     5
 10
4449117.9139999999
 20
5442416.4787000008
 30
505.70420000000001
 11
4449117.9177000001
 21
5442416.4801000003
 31
504.73189999999988
  0
LINE
  5
11F
  8
PHT_WAND_KONS_LIN_
 62
     5
 10
4449117.9177000001
 20
5442416.4801000003
 30
504.73189999999988
 11
4449117.9473999999
 21
5442416.491799999
 31
503.85689999999988
  0
LINE
  5
120
  8
PH_DACHTURM_TESTGESPIEGELT
 62
     5
 10
4449117.8771510636
 20
5442414.1061787978
 30
514.12246543961339
 11
4449120.2781510651
 21
5442413.6061787978
 31
511.27516543961349
  0
LINE
  5
122
  8
PH_DACHTURM_TESTGESPIEGELT
 62
     5
 10
4449117.8771510636
 20
5442414.1061787978
 30
514.12246543961339
 11
4449120.3624510644
 21
5442414.1376787983
 31
511.26266543961361
  0
LINE
  5
123
  8
PH_DACHTURM_TESTGESPIEGELT
 62
     5
 10
4449117.8771510636
 20
5442414.1061787978
 30
514.12246543961339
 11
4449120.3087510644
 21
5442414.8449787991
 31
511.26516543961361
  0
LINE
  5
124
  8
PH_DACHTURM_TESTGESPIEGELT
 62
     5
 10
4449117.8771510636
 20
5442414.1061787978
 30
514.12246543961339
 11
4449119.9917510636
 21
5442415.6782787982
 31
511.27216543961362
  0
LINE
  5
125
  8
PH_DACHTURM_TESTGESPIEGELT
 62
     5
 10
4449117.8771510636
 20
5442414.1061787978
 30
514.12246543961339
 11
4449118.9655510643
 21
5442416.6392787984
 31
511.28246543961347
  0
LINE
  5
126
  8
PH_DACHTURM_TESTGESPIEGELT
 62
     5
 10
4449117.8771510636
 20
5442414.1061787978
 30
514.12246543961339
 11
4449118.0626510652
 21
5442416.8390787989
 31
511.29386543961363
  0
LINE
  5
127
  8
PH_DACHTURM_TESTGESPIEGELT
 62
     5
 10
4449116.9006510638
 20
5442416.5897787977
 30
511.27326543961351
 11
4449117.8771510636
 21
5442414.1061787978
 31
514.12246543961339
  0
LINE
  5
128
  8
PH_DACHTURM_TESTGESPIEGELT
 62
     5
 10
4449117.8769589523
 20
5442414.1061787978
 30
514.12246543961339
 11
4449116.1596510643
 21
5442416.0135787986
 31
511.26576543961352
  0
LINE
  5
129
  8
PH_DACHTURM_TESTGESPIEGELT
 62
     5
 10
4449120.2781510651
 20
5442413.6061787978
 30
511.27516543961349
 11
4449120.3624510644
 21
5442414.1376787983
 31
511.26266543961361
  0
LINE
  5
12A
  8
PH_DACHTURM_TESTGESPIEGELT
 62
     5
 10
4449120.3624510644
 20
5442414.1376787983
 30
511.26266543961361
 11
4449120.3087510644
 21
5442414.8449787991
 31
511.26516543961361
  0
LINE
  5
12B
  8
PH_DACHTURM_TESTGESPIEGELT
 62
     5
 10
4449120.3087510644
 20
5442414.8449787991
 30
511.26516543961361
 11
4449119.9917510636
 21
5442415.6782787982
 31
511.27216543961362
  0
LINE
  5
12C
  8
PH_DACHTURM_TESTGESPIEGELT
 62
     5
 10
4449119.9917510636
 20
5442415.6782787982
 30
511.27216543961362
 11
4449118.9655510643
 21
5442416.6392787984
 31
511.28246543961347
  0
LINE
  5
12D
  8
PH_DACHTURM_TESTGESPIEGELT
 62
     5
 10
4449118.9655510643
 20
5442416.6392787984
 30
511.28246543961347
 11
4449118.0626510652
 21
5442416.8390787989
 31
511.29386543961363
  0
LINE
  5
12E
  8
PH_DACHTURM_TESTGESPIEGELT
 62
     5
 10
4449118.0626510652
 20
5442416.8390787989
 30
511.29386543961363
 11
4449116.9006510638
 21
5442416.5897787977
 31
511.27326543961351
  0
LINE
  5
12F
  8
PH_DACHTURM_TESTGESPIEGELT
 62
     5
 10
4449116.9006510638
 20
5442416.5897787977
 30
511.27326543961351
 11
4449116.1596510643
 21
5442416.0135787986
 31
511.26576543961352
  0
LINE
  5
130
  8
PH_DACHTURM_TESTGESPIEGELT
 62
     5
 10
4449117.8769589523
 20
5442414.1061787978
 30
514.12246543961339
 11
4449120.1778510651
 21
5442413.3291787989
 31
511.28606543961348
  0
LINE
  5
131
  8
PH_DACHTURM_TESTGESPIEGELT
 62
     5
 10
4449120.1778510651
 20
5442413.3291787989
 30
511.28606543961348
 11
4449120.2781510651
 21
5442413.6061787978
 31
511.27516543961349
  0
LINE
  5
132
  8
PH_DACHTURM_TESTGESPIEGELT
 62
     5
 10
4449116.1596510643
 20
5442416.0135787986
 30
511.26576543961352
 11
4449117.8769589523
 21
5442414.1061787978
 31
514.12246543961339
  0
LINE
  5
133
  8
PH_DACHTURM_TESTGESPIEGELT
 62
     5
 10
4449117.8769388571
 20
5442414.1059877407
 30
514.12246543961339
 11
4449118.1230534613
 21
5442411.6658589318
 31
511.27516543961349
  0
LINE
  5
134
  8
PH_DACHTURM_TESTGESPIEGELT
 62
     5
 10
4449117.8769388571
 20
5442414.1059877407
 30
514.12246543961339
 11
4449117.5856513157
 21
5442411.6376158278
 31
511.26266543961361
  0
LINE
  5
135
  8
PH_DACHTURM_TESTGESPIEGELT
 62
     5
 10
4449117.8769388571
 20
5442414.1059877407
 30
514.12246543961339
 11
4449116.8878482133
 21
5442411.765004253
 31
511.26516543961361
  0
LINE
  5
136
  8
PH_DACHTURM_TESTGESPIEGELT
 62
     5
 10
4449117.8769388571
 20
5442414.1059877407
 30
514.12246543961339
 11
4449116.092277253
 21
5442412.1674278304
 31
511.27216543961362
  0
LINE
  5
137
  8
PH_DACHTURM_TESTGESPIEGELT
 62
     5
 10
4449117.8769388571
 20
5442414.1059877407
 30
514.12246543961339
 11
4449115.2438885327
 21
5442413.2885183804
 31
511.28246543961347
  0
LINE
  5
138
  8
PH_DACHTURM_TESTGESPIEGELT
 62
     5
 10
4449117.8769388571
 20
5442414.1059877407
 30
514.12246543961339
 11
4449115.1396271409
 21
5442414.2073644018
 31
511.29386543961363
  0
LINE
  5
139
  8
PH_DACHTURM_TESTGESPIEGELT
 62
     5
 10
4449115.5091038402
 20
5442415.3369136304
 30
511.27326543961351
 11
4449117.8769388571
 21
5442414.1059877407
 31
514.12246543961339
  0
LINE
  5
13A
  8
PH_DACHTURM_TESTGESPIEGELT
 62
     5
 10
4449117.8769589523
 20
5442414.1061787996
 30
514.12246543961339
 11
4449116.1596510643
 21
5442416.0135787996
 31
511.26576543961352
  0
LINE
  5
13B
  8
PH_DACHTURM_TESTGESPIEGELT
 62
     5
 10
4449118.1230534613
 20
5442411.6658589318
 30
511.27516543961349
 11
4449117.5856513157
 21
5442411.6376158278
 31
511.26266543961361
  0
LINE
  5
13C
  8
PH_DACHTURM_TESTGESPIEGELT
 62
     5
 10
4449117.5856513157
 20
5442411.6376158278
 30
511.26266543961361
 11
4449116.8878482133
 21
5442411.765004253
 31
511.26516543961361
  0
LINE
  5
13D
  8
PH_DACHTURM_TESTGESPIEGELT
 62
     5
 10
4449116.8878482133
 20
5442411.765004253
 30
511.26516543961361
 11
4449116.092277253
 21
5442412.1674278304
 31
511.27216543961362
  0
LINE
  5
13E
  8
PH_DACHTURM_TESTGESPIEGELT
 62
     5
 10
4449116.092277253
 20
5442412.1674278304
 30
511.27216543961362
 11
4449115.2438885327
 21
5442413.2885183804
 31
511.28246543961347
  0
LINE
  5
13F
  8
PH_DACHTURM_TESTGESPIEGELT
 62
     5
 10
4449115.2438885327
 20
5442413.2885183804
 30
511.28246543961347
 11
4449115.1396271409
 21
5442414.2073644018
 31
511.29386543961363
  0
LINE
  5
140
  8
PH_DACHTURM_TESTGESPIEGELT
 62
     5
 10
4449115.1396271409
 20
5442414.2073644018
 30
511.29386543961363
 11
4449115.5091038402
 21
5442415.3369136304
 31
511.27326543961351
  0
LINE
  5
141
  8
PH_DACHTURM_TESTGESPIEGELT
 62
     5
 10
4449115.5091038402
 20
5442415.3369136304
 30
511.27326543961351
 11
4449116.1596510643
 21
5442416.0135787996
 31
511.26576543961352
  0
LINE
  5
142
  8
PH_DACHTURM_TESTGESPIEGELT
 62
     5
 10
4449117.8769589523
 20
5442414.1061787996
 30
514.12246543961339
 11
4449118.409025264
 21
5442411.7366347611
 31
511.28606543961348
  0
LINE
  5
143
  8
PH_DACHTURM_TESTGESPIEGELT
 62
     5
 10
4449118.409025264
 20
5442411.7366347611
 30
511.28606543961348
 11
4449118.1230534613
 21
5442411.6658589318
 31
511.27516543961349
  0
LINE
  5
144
  8
PH_DACHTURM_TESTGESPIEGELT
 62
     5
 10
4449116.1596510643
 20
5442416.0135787996
 30
511.26576543961352
 11
4449117.8769589523
 21
5442414.1061787996
 31
514.12246543961339
  0
LINE
  5
145
  8
PHT_WAND_KONS_LIN_
 62
     5
 10
4449118.0374999987
 20
5442416.5241
 30
511.38850000000002
 11
4449118.1035000002
 21
5442416.5487000002
 31
508.11779999999999
  0
LINE
  5
146
  8
PHT_WAND_KONS_LIN_
 62
     5
 10
4449118.9961999999
 20
5442416.3739
 30
508.66889999999989
 11
4449118.9441
 21
5442416.3529999992
 31
504.59739999999999
  0
LINE
  5
147
  8
PHT_WAND_KONS_LIN_
 62
     5
 10
4449119.5935000004
 20
5442415.7540999986
 30
508.24880000000002
 11
4449119.6259000003
 21
5442415.7686999999
 31
507.06209999999999
  0
CIRCLE
  5
148
  8
PH_TURMELEMENT
 62
     2
 10
2947140.3752234611
 20
6362213.8391783088
 30
501123.0590591965
 40
2.0001983830673851
210
0.070678628010121
220
0.0343914982338068
230
-0.9969060920627583
  0
CIRCLE
  5
149
  8
PH_TURMELEMENT
 62
     2
 10
2947140.3959957049
 20
6362213.7936064629
 30
501124.18018606771
 40
2.0001983830673851
210
0.070678628010121
220
0.0343914982338068
230
-0.9969060920627583
  0
CIRCLE
  5
14A
  8
PH_TURMELEMENT
 62
     2
 10
2947140.4544240632
 20
6362213.7400932219
 30
501125.60740942712
 40
2.0001983830673851
210
0.070678628010121
220
0.0343914982338068
230
-0.9969060920627583
  0
CIRCLE
  5
14B
  8
PH_TURMELEMENT
 62
     2
 10
2947140.464502736
 20
6362213.6422115574
 30
501128.18118239631
 40
2.0001983830673851
210
0.070678628010121
220
0.0343914982338068
230
-0.9969060920627583
  0
LINE
  5
14C
  8
PHT_WAND_KONS_LIN_
 62
     4
 10
4449117.3336496307
 20
5442412.519209954
 30
508.74448987969998
 11
4449117.3336496307
 21
5442412.519209954
 31
507.64041325908312
  0
LINE
  5
14D
  8
PHT_WAND_KONS_LIN_
 62
     4
 10
4449117.3336496307
 20
5442412.519209954
 30
507.64041325908312
 11
4449117.3490022346
 21
5442412.6495780395
 31
506.19381675592138
  0
LINE
  5
14E
  8
PHT_WAND_KONS_LIN_
 62
     4
 10
4449117.3490022346
 20
5442412.6495780395
 30
506.19381675592138
 11
4449117.3529077219
 21
5442412.6827418553
 31
504.53801938002113
  0
LINE
  5
14F
  8
PHT_WAND_KONS_LIN_
 62
     4
 10
4449117.3529077219
 20
5442412.6827418553
 30
504.53801938002113
 11
4449117.3591563152
 21
5442412.7358023692
 31
503.61575054767388
  0
LINE
  5
150
  8
PHT_WAND_KONS_LIN_
 62
     4
 10
4449117.3591563152
 20
5442412.7358023692
 30
503.61575054767388
 11
4449117.3591563152
 21
5442412.7358023692
 31
502.95999174173102
  0
LINE
  5
151
  8
PHT_WAND_KONS_LIN_
 62
     4
 10
4449117.3336496307
 20
5442412.519209954
 30
508.7444898792881
 11
4449117.3315859549
 21
5442412.5224192189
 31
509.79748335358289
  0
LINE
  5
152
  8
PHT_WAND_KONS_LIN_
 62
     4
 10
4449117.3315859549
 20
5442412.5224192189
 30
509.79748335358289
 11
4449117.3315859493
 21
5442412.5224192282
 31
510.74614382255209
  0
LINE
  5
153
  8
PHT_WAND_KONS_LIN_
 62
     4
 10
4449118.4070943575
 20
5442410.0941244457
 30
510.23809538100733
 11
4449118.4070943575
 21
5442410.0941244457
 31
510.23809538100733
  0
ENDSEC
  0
EOF
