ISO-10303-21;
HEADER;
FILE_DESCRIPTION (( 'STEP AP214' ),
    '1' );
FILE_NAME ('Ecke Silo 1.STEP',
    '2013-03-28T11:42:52',
    ( '' ),
    ( '' ),
    'SwSTEP 2.0',
    'SolidWorks 2013',
    '' );
FILE_SCHEMA (( 'AUTOMOTIVE_DESIGN' ));
ENDSEC;

DATA;
#1 = CARTESIAN_POINT ( 'NONE',  ( 203.0000000000000000, 0.0000000000000000000, 0.0000000000000000000 ) ) ;
#2 = ORIENTED_EDGE ( 'NONE', *, *, #121, .T. ) ;
#3 = EDGE_CURVE ( 'NONE', #111, #49, #32, .T. ) ;
#4 = AXIS2_PLACEMENT_3D ( 'NONE', #35, #21, #186 ) ;
#5 = PLANE ( 'NONE',  #107 ) ;
#6 = DIRECTION ( 'NONE',  ( 0.0000000000000000000, 1.000000000000000000, 1.224646799147353200E-016 ) ) ;
#7 = DIRECTION ( 'NONE',  ( 0.0000000000000000000, -1.000000000000000000, 0.0000000000000000000 ) ) ;
#8 = CARTESIAN_POINT ( 'NONE',  ( 0.0000000000000000000, 0.0000000000000000000, 203.0000000000000000 ) ) ;
#9 = LINE ( 'NONE', #90, #151 ) ;
#10 =( NAMED_UNIT ( * ) PLANE_ANGLE_UNIT ( ) SI_UNIT ( $, .RADIAN. ) );
#11 = PRODUCT_DEFINITION_SHAPE ( 'NONE', 'NONE',  #16 ) ;
#12 = LINE ( 'NONE', #143, #118 ) ;
#13 = VERTEX_POINT ( 'NONE', #169 ) ;
#14 = FILL_AREA_STYLE ('',( #133 ) ) ;
#15 = EDGE_CURVE ( 'NONE', #49, #126, #148, .T. ) ;
#16 = PRODUCT_DEFINITION ( 'UNKNOWN', '', #28, #38 ) ;
#17 = FACE_OUTER_BOUND ( 'NONE', #146, .T. ) ;
#18 = DIRECTION ( 'NONE',  ( 1.000000000000000000, 1.224646799147353200E-016, 0.0000000000000000000 ) ) ;
#19 = APPLICATION_PROTOCOL_DEFINITION ( 'draft international standard', 'automotive_design', 1998, #56 ) ;
#20 = DIRECTION ( 'NONE',  ( 0.0000000000000000000, -1.000000000000000000, 0.0000000000000000000 ) ) ;
#21 = DIRECTION ( 'NONE',  ( 0.0000000000000000000, 0.0000000000000000000, 1.000000000000000000 ) ) ;
#22 = CIRCLE ( 'NONE', #112, 203.0000000000000000 ) ;
#23 = AXIS2_PLACEMENT_3D ( 'NONE', #197, #205, #202 ) ;
#24 = FILL_AREA_STYLE ('',( #52 ) ) ;
#25 = VERTEX_POINT ( 'NONE', #180 ) ;
#26 = APPLICATION_CONTEXT ( 'automotive_design' ) ;
#27 = EDGE_CURVE ( 'NONE', #136, #208, #79, .T. ) ;
#28 = PRODUCT_DEFINITION_FORMATION_WITH_SPECIFIED_SOURCE ( 'ANY', '', #150, .NOT_KNOWN. ) ;
#29 = DIRECTION ( 'NONE',  ( -1.000000000000000000, -1.224646799147353200E-016, -0.0000000000000000000 ) ) ;
#30 = ADVANCED_FACE ( 'NONE', ( #113 ), #129, .T. ) ;
#31 = DIRECTION ( 'NONE',  ( 0.0000000000000000000, 0.0000000000000000000, -1.000000000000000000 ) ) ;
#32 = CIRCLE ( 'NONE', #172, 203.0000000000000000 ) ;
#33 = LINE ( 'NONE', #116, #93 ) ;
#34 = DIRECTION ( 'NONE',  ( 0.0000000000000000000, 1.000000000000000000, 1.224646799147353200E-016 ) ) ;
#35 = CARTESIAN_POINT ( 'NONE',  ( 0.0000000000000000000, 0.0000000000000000000, 0.0000000000000000000 ) ) ;
#36 = AXIS2_PLACEMENT_3D ( 'NONE', #71, #65, #134 ) ;
#37 = PRODUCT_RELATED_PRODUCT_CATEGORY ( 'part', '', ( #150 ) ) ;
#38 = PRODUCT_DEFINITION_CONTEXT ( 'detailed design', #56, 'design' ) ;
#39 = DIRECTION ( 'NONE',  ( -1.000000000000000000, 0.0000000000000000000, 0.0000000000000000000 ) ) ;
#40 = ORIENTED_EDGE ( 'NONE', *, *, #3, .T. ) ;
#41 = AXIS2_PLACEMENT_3D ( 'NONE', #164, #57, #110 ) ;
#42 = ORIENTED_EDGE ( 'NONE', *, *, #162, .F. ) ;
#43 = DIRECTION ( 'NONE',  ( -1.000000000000000000, 0.0000000000000000000, 0.0000000000000000000 ) ) ;
#44 = FACE_OUTER_BOUND ( 'NONE', #176, .T. ) ;
#45 = ORIENTED_EDGE ( 'NONE', *, *, #132, .F. ) ;
#46 = CIRCLE ( 'NONE', #137, 203.0000000000000000 ) ;
#47 = VERTEX_POINT ( 'NONE', #179 ) ;
#48 = ORIENTED_EDGE ( 'NONE', *, *, #102, .T. ) ;
#49 = VERTEX_POINT ( 'NONE', #201 ) ;
#50 = APPLICATION_PROTOCOL_DEFINITION ( 'draft international standard', 'automotive_design', 1998, #26 ) ;
#51 =( GEOMETRIC_REPRESENTATION_CONTEXT ( 3 ) GLOBAL_UNCERTAINTY_ASSIGNED_CONTEXT ( ( #114 ) ) GLOBAL_UNIT_ASSIGNED_CONTEXT ( ( #82, #10, #154 ) ) REPRESENTATION_CONTEXT ( 'NONE', 'WORKASPACE' ) );
#52 = FILL_AREA_STYLE_COLOUR ( '', #193 ) ;
#53 = PLANE ( 'NONE',  #135 ) ;
#54 = EDGE_LOOP ( 'NONE', ( #40, #97, #42, #157 ) ) ;
#55 = COLOUR_RGB ( '',0.8980392156862745400, 0.8980392156862745400, 0.8980392156862745400 ) ;
#56 = APPLICATION_CONTEXT ( 'automotive_design' ) ;
#57 = DIRECTION ( 'NONE',  ( -0.0000000000000000000, 1.000000000000000000, -0.0000000000000000000 ) ) ;
#58 = ORIENTED_EDGE ( 'NONE', *, *, #132, .T. ) ;
#59 =( NAMED_UNIT ( * ) PLANE_ANGLE_UNIT ( ) SI_UNIT ( $, .RADIAN. ) );
#60 = ORIENTED_EDGE ( 'NONE', *, *, #62, .T. ) ;
#61 = STYLED_ITEM ( 'NONE', ( #190 ), #70 ) ;
#62 = EDGE_CURVE ( 'NONE', #136, #126, #153, .T. ) ;
#63 = ADVANCED_FACE ( 'Fläche1', ( #44 ), #53, .F. ) ;
#64 = ORIENTED_EDGE ( 'NONE', *, *, #27, .T. ) ;
#65 = DIRECTION ( 'NONE',  ( -0.0000000000000000000, 1.000000000000000000, -0.0000000000000000000 ) ) ;
#66 = AXIS2_PLACEMENT_3D ( 'NONE', #94, #29, #103 ) ;
#67 = MECHANICAL_DESIGN_GEOMETRIC_PRESENTATION_REPRESENTATION (  '', ( #95 ), #51 ) ;
#68 = DIRECTION ( 'NONE',  ( 0.0000000000000000000, 0.0000000000000000000, 1.000000000000000000 ) ) ;
#69 = CIRCLE ( 'NONE', #36, 199.9999999999999700 ) ;
#70 = ADVANCED_BREP_SHAPE_REPRESENTATION ( 'Ecke Silo 1', ( #175, #4 ), #170 ) ;
#71 = CARTESIAN_POINT ( 'NONE',  ( 0.0000000000000000000, 0.0000000000000000000, 0.0000000000000000000 ) ) ;
#72 = EDGE_CURVE ( 'NONE', #47, #13, #33, .T. ) ;
#73 = DIRECTION ( 'NONE',  ( 0.0000000000000000000, 1.224646799147353200E-016, -1.000000000000000000 ) ) ;
#74 = SURFACE_STYLE_USAGE ( .BOTH. , #166 ) ;
#75 = CIRCLE ( 'NONE', #66, 199.9999999999999700 ) ;
#76 = CARTESIAN_POINT ( 'NONE',  ( 0.0000000000000000000, -180.6922454193731400, -2.486033002269126700E-014 ) ) ;
#77 =( LENGTH_UNIT ( ) NAMED_UNIT ( * ) SI_UNIT ( .MILLI., .METRE. ) );
#78 = ADVANCED_FACE ( 'NONE', ( #152 ), #5, .T. ) ;
#79 = CIRCLE ( 'NONE', #123, 85.73396319606965200 ) ;
#80 =( LENGTH_UNIT ( ) NAMED_UNIT ( * ) SI_UNIT ( .MILLI., .METRE. ) );
#81 = PRESENTATION_LAYER_ASSIGNMENT (  '', '', ( #95 ) ) ;
#82 =( LENGTH_UNIT ( ) NAMED_UNIT ( * ) SI_UNIT ( .MILLI., .METRE. ) );
#83 = DIRECTION ( 'NONE',  ( 0.0000000000000000000, -0.0000000000000000000, -1.000000000000000000 ) ) ;
#84 =( NAMED_UNIT ( * ) SI_UNIT ( $, .STERADIAN. ) SOLID_ANGLE_UNIT ( ) );
#85 = CARTESIAN_POINT ( 'NONE',  ( 0.0000000000000000000, -180.6922454193731100, 85.73396319606958100 ) ) ;
#86 = PRESENTATION_LAYER_ASSIGNMENT (  '', '', ( #61 ) ) ;
#87 = SURFACE_STYLE_USAGE ( .BOTH. , #89 ) ;
#88 = EDGE_CURVE ( 'Kante4', #25, #13, #69, .T. ) ;
#89 = SURFACE_SIDE_STYLE ('',( #92 ) ) ;
#90 = CARTESIAN_POINT ( 'NONE',  ( 0.0000000000000000000, 0.0000000000000000000, -203.0000000000000000 ) ) ;
#91 = MECHANICAL_DESIGN_GEOMETRIC_PRESENTATION_REPRESENTATION (  '', ( #61 ), #177 ) ;
#92 = SURFACE_STYLE_FILL_AREA ( #14 ) ;
#93 = VECTOR ( 'NONE', #138, 1000.000000000000000 ) ;
#94 = CARTESIAN_POINT ( 'NONE',  ( 0.0000000000000000000, 0.0000000000000000000, 0.0000000000000000000 ) ) ;
#95 = STYLED_ITEM ( 'NONE', ( #100 ), #175 ) ;
#96 = ORIENTED_EDGE ( 'NONE', *, *, #115, .T. ) ;
#97 = ORIENTED_EDGE ( 'NONE', *, *, #15, .T. ) ;
#98 = UNCERTAINTY_MEASURE_WITH_UNIT (LENGTH_MEASURE( 1.000000000000000100E-005 ), #80, 'distance_accuracy_value', 'NONE');
#99 = AXIS2_PLACEMENT_3D ( 'NONE', #155, #122, #34 ) ;
#100 = PRESENTATION_STYLE_ASSIGNMENT (( #87 ) ) ;
#101 = FACE_OUTER_BOUND ( 'NONE', #182, .T. ) ;
#102 = EDGE_CURVE ( 'NONE', #136, #13, #199, .T. ) ;
#103 = DIRECTION ( 'NONE',  ( -1.224646799147353200E-016, 1.000000000000000000, 0.0000000000000000000 ) ) ;
#104 = CARTESIAN_POINT ( 'NONE',  ( 85.73396319606963800, -203.0000000000000000, -2.486033002269127000E-014 ) ) ;
#105 = ADVANCED_FACE ( 'NONE', ( #17 ), #171, .F. ) ;
#106 = ORIENTED_EDGE ( 'NONE', *, *, #121, .F. ) ;
#107 = AXIS2_PLACEMENT_3D ( 'NONE', #1, #73, #6 ) ;
#108 = DIRECTION ( 'NONE',  ( 0.0000000000000000000, 1.224646799147353200E-016, -1.000000000000000000 ) ) ;
#109 = ORIENTED_EDGE ( 'NONE', *, *, #115, .F. ) ;
#110 = DIRECTION ( 'NONE',  ( 0.0000000000000000000, 0.0000000000000000000, 1.000000000000000000 ) ) ;
#111 = VERTEX_POINT ( 'NONE', #8 ) ;
#112 = AXIS2_PLACEMENT_3D ( 'NONE', #139, #108, #140 ) ;
#113 = FACE_OUTER_BOUND ( 'NONE', #54, .T. ) ;
#114 = UNCERTAINTY_MEASURE_WITH_UNIT (LENGTH_MEASURE( 1.000000000000000100E-005 ), #82, 'distance_accuracy_value', 'NONE');
#115 = EDGE_CURVE ( 'NONE', #208, #25, #75, .T. ) ;
#116 = CARTESIAN_POINT ( 'NONE',  ( 203.0000000000000000, 0.0000000000000000000, 0.0000000000000000000 ) ) ;
#117 = CARTESIAN_POINT ( 'NONE',  ( 85.73396319606961000, -180.6922454193731100, 0.0000000000000000000 ) ) ;
#118 = VECTOR ( 'NONE', #20, 1000.000000000000000 ) ;
#119 = AXIS2_PLACEMENT_3D ( 'NONE', #142, #120, #83 ) ;
#120 = DIRECTION ( 'NONE',  ( 0.0000000000000000000, -1.000000000000000000, 0.0000000000000000000 ) ) ;
#121 = EDGE_CURVE ( 'NONE', #25, #111, #9, .T. ) ;
#122 = DIRECTION ( 'NONE',  ( -0.0000000000000000000, -1.224646799147353200E-016, 1.000000000000000000 ) ) ;
#123 = AXIS2_PLACEMENT_3D ( 'NONE', #76, #207, #209 ) ;
#124 = CARTESIAN_POINT ( 'NONE',  ( 0.0000000000000000000, 0.0000000000000000000, 0.0000000000000000000 ) ) ;
#125 = ADVANCED_FACE ( 'Fläche2', ( #101 ), #145, .F. ) ;
#126 = VERTEX_POINT ( 'NONE', #156 ) ;
#127 = DIRECTION ( 'NONE',  ( -1.224646799147353200E-016, 1.000000000000000000, 0.0000000000000000000 ) ) ;
#128 = ORIENTED_EDGE ( 'NONE', *, *, #15, .F. ) ;
#129 = SPHERICAL_SURFACE ( 'NONE', #168, 203.0000000000000000 ) ;
#130 = EDGE_LOOP ( 'NONE', ( #206, #48, #161, #147 ) ) ;
#131 = UNCERTAINTY_MEASURE_WITH_UNIT (LENGTH_MEASURE( 1.000000000000000100E-005 ), #77, 'distance_accuracy_value', 'NONE');
#132 = EDGE_CURVE ( 'NONE', #208, #49, #12, .T. ) ;
#133 = FILL_AREA_STYLE_COLOUR ( '', #55 ) ;
#134 = DIRECTION ( 'NONE',  ( 0.0000000000000000000, 0.0000000000000000000, -1.000000000000000000 ) ) ;
#135 = AXIS2_PLACEMENT_3D ( 'NONE', #210, #141, #127 ) ;
#136 = VERTEX_POINT ( 'NONE', #117 ) ;
#137 = AXIS2_PLACEMENT_3D ( 'NONE', #124, #7, #31 ) ;
#138 = DIRECTION ( 'NONE',  ( -1.000000000000000000, 0.0000000000000000000, 0.0000000000000000000 ) ) ;
#139 = CARTESIAN_POINT ( 'NONE',  ( 0.0000000000000000000, 0.0000000000000000000, 0.0000000000000000000 ) ) ;
#140 = DIRECTION ( 'NONE',  ( 0.0000000000000000000, 1.000000000000000000, 1.224646799147353200E-016 ) ) ;
#141 = DIRECTION ( 'NONE',  ( 1.000000000000000000, 1.224646799147353200E-016, 0.0000000000000000000 ) ) ;
#142 = CARTESIAN_POINT ( 'NONE',  ( 0.0000000000000000000, 0.0000000000000000000, -203.0000000000000000 ) ) ;
#143 = CARTESIAN_POINT ( 'NONE',  ( 2.486033002269127000E-014, -203.0000000000000000, 85.73396319606961000 ) ) ;
#144 = EDGE_CURVE ( 'Kante3', #47, #111, #46, .T. ) ;
#145 = PLANE ( 'NONE',  #119 ) ;
#146 = EDGE_LOOP ( 'NONE', ( #203, #64, #96, #173 ) ) ;
#147 = ORIENTED_EDGE ( 'NONE', *, *, #162, .T. ) ;
#148 = CIRCLE ( 'NONE', #23, 85.73396319606965200 ) ;
#149 = FACE_OUTER_BOUND ( 'NONE', #158, .T. ) ;
#150 = PRODUCT ( 'Ecke Silo 1', 'Ecke Silo 1', '', ( #163 ) ) ;
#151 = VECTOR ( 'NONE', #195, 1000.000000000000000 ) ;
#152 = FACE_OUTER_BOUND ( 'NONE', #130, .T. ) ;
#153 = LINE ( 'NONE', #104, #160 ) ;
#154 =( NAMED_UNIT ( * ) SI_UNIT ( $, .STERADIAN. ) SOLID_ANGLE_UNIT ( ) );
#155 = CARTESIAN_POINT ( 'NONE',  ( 0.0000000000000000000, 0.0000000000000000000, 0.0000000000000000000 ) ) ;
#156 = CARTESIAN_POINT ( 'NONE',  ( 85.73396319606961000, -184.0073029928295200, 0.0000000000000000000 ) ) ;
#157 = ORIENTED_EDGE ( 'NONE', *, *, #144, .T. ) ;
#158 = EDGE_LOOP ( 'NONE', ( #60, #128, #45, #188 ) ) ;
#159 = ORIENTED_EDGE ( 'NONE', *, *, #72, .T. ) ;
#160 = VECTOR ( 'NONE', #192, 1000.000000000000000 ) ;
#161 = ORIENTED_EDGE ( 'NONE', *, *, #72, .F. ) ;
#162 = EDGE_CURVE ( 'NONE', #47, #126, #22, .T. ) ;
#163 = PRODUCT_CONTEXT ( 'NONE', #26, 'mechanical' ) ;
#164 = CARTESIAN_POINT ( 'NONE',  ( 0.0000000000000000000, -203.0000000000000000, -2.486033002269126700E-014 ) ) ;
#165 = CLOSED_SHELL ( 'NONE', ( #105, #125, #63, #30, #78, #187 ) ) ;
#166 = SURFACE_SIDE_STYLE ('',( #191 ) ) ;
#167 = AXIS2_PLACEMENT_3D ( 'NONE', #200, #68, #39 ) ;
#168 = AXIS2_PLACEMENT_3D ( 'NONE', #194, #204, #43 ) ;
#169 = CARTESIAN_POINT ( 'NONE',  ( 199.9999999999999700, 0.0000000000000000000, 0.0000000000000000000 ) ) ;
#170 =( GEOMETRIC_REPRESENTATION_CONTEXT ( 3 ) GLOBAL_UNCERTAINTY_ASSIGNED_CONTEXT ( ( #98 ) ) GLOBAL_UNIT_ASSIGNED_CONTEXT ( ( #80, #196, #84 ) ) REPRESENTATION_CONTEXT ( 'NONE', 'WORKASPACE' ) );
#171 = SPHERICAL_SURFACE ( 'NONE', #167, 199.9999999999999700 ) ;
#172 = AXIS2_PLACEMENT_3D ( 'NONE', #183, #18, #189 ) ;
#173 = ORIENTED_EDGE ( 'NONE', *, *, #88, .T. ) ;
#174 = ORIENTED_EDGE ( 'NONE', *, *, #88, .F. ) ;
#175 = MANIFOLD_SOLID_BREP ( 'Schnitt-Linear austragen3', #165 ) ;
#176 = EDGE_LOOP ( 'NONE', ( #109, #58, #185, #106 ) ) ;
#177 =( GEOMETRIC_REPRESENTATION_CONTEXT ( 3 ) GLOBAL_UNCERTAINTY_ASSIGNED_CONTEXT ( ( #131 ) ) GLOBAL_UNIT_ASSIGNED_CONTEXT ( ( #77, #59, #181 ) ) REPRESENTATION_CONTEXT ( 'NONE', 'WORKASPACE' ) );
#178 = SHAPE_DEFINITION_REPRESENTATION ( #11, #70 ) ;
#179 = CARTESIAN_POINT ( 'NONE',  ( 203.0000000000000000, 0.0000000000000000000, 0.0000000000000000000 ) ) ;
#180 = CARTESIAN_POINT ( 'NONE',  ( 0.0000000000000000000, 0.0000000000000000000, 199.9999999999999400 ) ) ;
#181 =( NAMED_UNIT ( * ) SI_UNIT ( $, .STERADIAN. ) SOLID_ANGLE_UNIT ( ) );
#182 = EDGE_LOOP ( 'NONE', ( #159, #174, #2, #184 ) ) ;
#183 = CARTESIAN_POINT ( 'NONE',  ( 0.0000000000000000000, 0.0000000000000000000, 0.0000000000000000000 ) ) ;
#184 = ORIENTED_EDGE ( 'NONE', *, *, #144, .F. ) ;
#185 = ORIENTED_EDGE ( 'NONE', *, *, #3, .F. ) ;
#186 = DIRECTION ( 'NONE',  ( 1.000000000000000000, 0.0000000000000000000, 0.0000000000000000000 ) ) ;
#187 = ADVANCED_FACE ( 'NONE', ( #149 ), #198, .F. ) ;
#188 = ORIENTED_EDGE ( 'NONE', *, *, #27, .F. ) ;
#189 = DIRECTION ( 'NONE',  ( -1.224646799147353200E-016, 1.000000000000000000, 0.0000000000000000000 ) ) ;
#190 = PRESENTATION_STYLE_ASSIGNMENT (( #74 ) ) ;
#191 = SURFACE_STYLE_FILL_AREA ( #24 ) ;
#192 = DIRECTION ( 'NONE',  ( 0.0000000000000000000, -1.000000000000000000, 0.0000000000000000000 ) ) ;
#193 = COLOUR_RGB ( '',0.8980392156862745400, 0.8980392156862745400, 0.8980392156862745400 ) ;
#194 = CARTESIAN_POINT ( 'NONE',  ( 0.0000000000000000000, 0.0000000000000000000, 0.0000000000000000000 ) ) ;
#195 = DIRECTION ( 'NONE',  ( -0.0000000000000000000, -0.0000000000000000000, 1.000000000000000000 ) ) ;
#196 =( NAMED_UNIT ( * ) PLANE_ANGLE_UNIT ( ) SI_UNIT ( $, .RADIAN. ) );
#197 = CARTESIAN_POINT ( 'NONE',  ( 0.0000000000000000000, -184.0073029928295800, -2.486033002269126700E-014 ) ) ;
#198 = CYLINDRICAL_SURFACE ( 'NONE', #41, 85.73396319606965200 ) ;
#199 = CIRCLE ( 'NONE', #99, 199.9999999999999700 ) ;
#200 = CARTESIAN_POINT ( 'NONE',  ( 0.0000000000000000000, 0.0000000000000000000, 0.0000000000000000000 ) ) ;
#201 = CARTESIAN_POINT ( 'NONE',  ( 2.253439546299059100E-014, -184.0073029928295800, 85.73396319606959500 ) ) ;
#202 = DIRECTION ( 'NONE',  ( 0.0000000000000000000, 0.0000000000000000000, 1.000000000000000000 ) ) ;
#203 = ORIENTED_EDGE ( 'NONE', *, *, #102, .F. ) ;
#204 = DIRECTION ( 'NONE',  ( 0.0000000000000000000, 0.0000000000000000000, 1.000000000000000000 ) ) ;
#205 = DIRECTION ( 'NONE',  ( -0.0000000000000000000, 1.000000000000000000, -0.0000000000000000000 ) ) ;
#206 = ORIENTED_EDGE ( 'NONE', *, *, #62, .F. ) ;
#207 = DIRECTION ( 'NONE',  ( 0.0000000000000000000, -1.000000000000000000, 0.0000000000000000000 ) ) ;
#208 = VERTEX_POINT ( 'NONE', #85 ) ;
#209 = DIRECTION ( 'NONE',  ( -8.881784197001251300E-016, 0.0000000000000000000, 1.000000000000000000 ) ) ;
#210 = CARTESIAN_POINT ( 'NONE',  ( 0.0000000000000000000, 0.0000000000000000000, -203.0000000000000000 ) ) ;
ENDSEC;
END-ISO-10303-21;
