ISO-10303-21;
HEADER;
/* Generated by software containing ST-Developer
 * from STEP Tools, Inc. (www.steptools.com) 
 */

FILE_DESCRIPTION(
/* description */ (''),
/* implementation_level */ '2;1');

FILE_NAME(
/* name */ 
'F:\\Daten 2015\\CAD_Forum_2015\\Arbeitsbereich\\Winkelblech\\HE-Winke
lblech.stp',
/* time_stamp */ '2015-01-30T14:19:06+01:00',
/* author */ ('Admin'),
/* organization */ (''),
/* preprocessor_version */ 'ST-DEVELOPER v15.6',
/* originating_system */ 'Autodesk Inventor 2015',
/* authorisation */ '');

FILE_SCHEMA (('AUTOMOTIVE_DESIGN { 1 0 10303 214 3 1 1 }'));
ENDSEC;

DATA;
#10=MECHANICAL_DESIGN_GEOMETRIC_PRESENTATION_REPRESENTATION('',(#16),#510);
#11=DIMENSIONAL_EXPONENTS(0.,0.,0.,0.,0.,0.,0.);
#12=(
CONVERSION_BASED_UNIT('degree',#13)
NAMED_UNIT(#11)
PLANE_ANGLE_UNIT()
);
#13=PLANE_ANGLE_MEASURE_WITH_UNIT(PLANE_ANGLE_MEASURE(0.01745329252),#513);
#14=SHAPE_REPRESENTATION_RELATIONSHIP('SRR','None',#516,#15);
#15=ADVANCED_BREP_SHAPE_REPRESENTATION($,(#17),#509);
#16=STYLED_ITEM('',(#526),#17);
#17=MANIFOLD_SOLID_BREP('Volumenk\X\F6rper1',#314);
#18=CYLINDRICAL_SURFACE('',#326,2.);
#19=CYLINDRICAL_SURFACE('',#337,3.);
#20=CYLINDRICAL_SURFACE('',#338,1.75);
#21=CYLINDRICAL_SURFACE('',#339,1.75);
#22=FACE_BOUND('',#55,.T.);
#23=FACE_BOUND('',#60,.T.);
#24=FACE_BOUND('',#66,.T.);
#25=FACE_BOUND('',#68,.T.);
#26=FACE_BOUND('',#71,.T.);
#27=FACE_BOUND('',#73,.T.);
#28=CIRCLE('',#319,1.75);
#29=CIRCLE('',#324,1.75);
#30=CIRCLE('',#327,2.);
#31=CIRCLE('',#328,2.);
#32=CIRCLE('',#330,3.);
#33=CIRCLE('',#332,3.);
#34=CIRCLE('',#334,1.75);
#35=CIRCLE('',#336,1.75);
#36=FACE_OUTER_BOUND('',#52,.T.);
#37=FACE_OUTER_BOUND('',#53,.T.);
#38=FACE_OUTER_BOUND('',#54,.T.);
#39=FACE_OUTER_BOUND('',#56,.T.);
#40=FACE_OUTER_BOUND('',#57,.T.);
#41=FACE_OUTER_BOUND('',#58,.T.);
#42=FACE_OUTER_BOUND('',#59,.T.);
#43=FACE_OUTER_BOUND('',#61,.T.);
#44=FACE_OUTER_BOUND('',#62,.T.);
#45=FACE_OUTER_BOUND('',#63,.T.);
#46=FACE_OUTER_BOUND('',#64,.T.);
#47=FACE_OUTER_BOUND('',#65,.T.);
#48=FACE_OUTER_BOUND('',#67,.T.);
#49=FACE_OUTER_BOUND('',#69,.T.);
#50=FACE_OUTER_BOUND('',#70,.T.);
#51=FACE_OUTER_BOUND('',#72,.T.);
#52=EDGE_LOOP('',(#206,#207,#208,#209));
#53=EDGE_LOOP('',(#210,#211,#212,#213));
#54=EDGE_LOOP('',(#214,#215,#216,#217,#218,#219));
#55=EDGE_LOOP('',(#220));
#56=EDGE_LOOP('',(#221,#222,#223,#224));
#57=EDGE_LOOP('',(#225,#226,#227,#228));
#58=EDGE_LOOP('',(#229,#230,#231,#232));
#59=EDGE_LOOP('',(#233,#234,#235,#236,#237,#238));
#60=EDGE_LOOP('',(#239));
#61=EDGE_LOOP('',(#240,#241,#242,#243));
#62=EDGE_LOOP('',(#244,#245,#246,#247));
#63=EDGE_LOOP('',(#248,#249,#250,#251,#252,#253,#254,#255));
#64=EDGE_LOOP('',(#256,#257,#258,#259,#260,#261,#262,#263));
#65=EDGE_LOOP('',(#264,#265,#266,#267,#268,#269));
#66=EDGE_LOOP('',(#270));
#67=EDGE_LOOP('',(#271,#272,#273,#274,#275,#276));
#68=EDGE_LOOP('',(#277));
#69=EDGE_LOOP('',(#278,#279,#280,#281));
#70=EDGE_LOOP('',(#282));
#71=EDGE_LOOP('',(#283));
#72=EDGE_LOOP('',(#284));
#73=EDGE_LOOP('',(#285));
#74=LINE('',#426,#106);
#75=LINE('',#428,#107);
#76=LINE('',#430,#108);
#77=LINE('',#431,#109);
#78=LINE('',#434,#110);
#79=LINE('',#436,#111);
#80=LINE('',#437,#112);
#81=LINE('',#440,#113);
#82=LINE('',#442,#114);
#83=LINE('',#444,#115);
#84=LINE('',#445,#116);
#85=LINE('',#450,#117);
#86=LINE('',#451,#118);
#87=LINE('',#455,#119);
#88=LINE('',#457,#120);
#89=LINE('',#459,#121);
#90=LINE('',#460,#122);
#91=LINE('',#463,#123);
#92=LINE('',#465,#124);
#93=LINE('',#466,#125);
#94=LINE('',#469,#126);
#95=LINE('',#471,#127);
#96=LINE('',#473,#128);
#97=LINE('',#474,#129);
#98=LINE('',#479,#130);
#99=LINE('',#480,#131);
#100=LINE('',#486,#132);
#101=LINE('',#489,#133);
#102=LINE('',#492,#134);
#103=LINE('',#495,#135);
#104=LINE('',#497,#136);
#105=LINE('',#501,#137);
#106=VECTOR('',#344,2.82842712474626);
#107=VECTOR('',#345,0.999999999999979);
#108=VECTOR('',#346,2.82842712474619);
#109=VECTOR('',#347,1.00000000000001);
#110=VECTOR('',#350,16.);
#111=VECTOR('',#351,1.00000000000001);
#112=VECTOR('',#352,16.);
#113=VECTOR('',#355,27.1715728752538);
#114=VECTOR('',#356,20.);
#115=VECTOR('',#357,27.1715728752538);
#116=VECTOR('',#358,2.82842712474619);
#117=VECTOR('',#363,2.82842712474626);
#118=VECTOR('',#364,0.999999999999979);
#119=VECTOR('',#367,2.82842712474619);
#120=VECTOR('',#368,1.);
#121=VECTOR('',#369,2.82842712474619);
#122=VECTOR('',#370,1.);
#123=VECTOR('',#373,16.);
#124=VECTOR('',#374,1.);
#125=VECTOR('',#375,16.);
#126=VECTOR('',#378,27.1715728752538);
#127=VECTOR('',#379,20.);
#128=VECTOR('',#380,27.1715728752538);
#129=VECTOR('',#381,2.82842712474619);
#130=VECTOR('',#386,1.);
#131=VECTOR('',#387,2.82842712474619);
#132=VECTOR('',#396,27.1715728752538);
#133=VECTOR('',#399,27.1715728752538);
#134=VECTOR('',#402,27.1715728752538);
#135=VECTOR('',#405,27.1715728752538);
#136=VECTOR('',#408,20.);
#137=VECTOR('',#413,20.);
#138=VERTEX_POINT('',#424);
#139=VERTEX_POINT('',#425);
#140=VERTEX_POINT('',#427);
#141=VERTEX_POINT('',#429);
#142=VERTEX_POINT('',#433);
#143=VERTEX_POINT('',#435);
#144=VERTEX_POINT('',#439);
#145=VERTEX_POINT('',#441);
#146=VERTEX_POINT('',#443);
#147=VERTEX_POINT('',#446);
#148=VERTEX_POINT('',#449);
#149=VERTEX_POINT('',#453);
#150=VERTEX_POINT('',#454);
#151=VERTEX_POINT('',#456);
#152=VERTEX_POINT('',#458);
#153=VERTEX_POINT('',#462);
#154=VERTEX_POINT('',#464);
#155=VERTEX_POINT('',#468);
#156=VERTEX_POINT('',#470);
#157=VERTEX_POINT('',#472);
#158=VERTEX_POINT('',#475);
#159=VERTEX_POINT('',#478);
#160=VERTEX_POINT('',#485);
#161=VERTEX_POINT('',#487);
#162=VERTEX_POINT('',#491);
#163=VERTEX_POINT('',#493);
#164=VERTEX_POINT('',#498);
#165=VERTEX_POINT('',#502);
#166=EDGE_CURVE('',#138,#139,#74,.T.);
#167=EDGE_CURVE('',#139,#140,#75,.T.);
#168=EDGE_CURVE('',#140,#141,#76,.T.);
#169=EDGE_CURVE('',#141,#138,#77,.T.);
#170=EDGE_CURVE('',#142,#141,#78,.T.);
#171=EDGE_CURVE('',#143,#142,#79,.T.);
#172=EDGE_CURVE('',#138,#143,#80,.T.);
#173=EDGE_CURVE('',#144,#140,#81,.T.);
#174=EDGE_CURVE('',#144,#145,#82,.T.);
#175=EDGE_CURVE('',#145,#146,#83,.T.);
#176=EDGE_CURVE('',#142,#146,#84,.T.);
#177=EDGE_CURVE('',#147,#147,#28,.T.);
#178=EDGE_CURVE('',#148,#143,#85,.T.);
#179=EDGE_CURVE('',#146,#148,#86,.T.);
#180=EDGE_CURVE('',#149,#150,#87,.T.);
#181=EDGE_CURVE('',#150,#151,#88,.T.);
#182=EDGE_CURVE('',#151,#152,#89,.T.);
#183=EDGE_CURVE('',#152,#149,#90,.T.);
#184=EDGE_CURVE('',#150,#153,#91,.T.);
#185=EDGE_CURVE('',#154,#153,#92,.T.);
#186=EDGE_CURVE('',#151,#154,#93,.T.);
#187=EDGE_CURVE('',#149,#155,#94,.T.);
#188=EDGE_CURVE('',#156,#155,#95,.T.);
#189=EDGE_CURVE('',#157,#156,#96,.T.);
#190=EDGE_CURVE('',#153,#157,#97,.T.);
#191=EDGE_CURVE('',#158,#158,#29,.T.);
#192=EDGE_CURVE('',#157,#159,#98,.T.);
#193=EDGE_CURVE('',#159,#154,#99,.T.);
#194=EDGE_CURVE('',#155,#145,#30,.T.);
#195=EDGE_CURVE('',#156,#144,#31,.T.);
#196=EDGE_CURVE('',#160,#139,#100,.T.);
#197=EDGE_CURVE('',#161,#160,#32,.T.);
#198=EDGE_CURVE('',#159,#161,#101,.T.);
#199=EDGE_CURVE('',#152,#162,#102,.T.);
#200=EDGE_CURVE('',#162,#163,#33,.T.);
#201=EDGE_CURVE('',#163,#148,#103,.T.);
#202=EDGE_CURVE('',#162,#161,#104,.T.);
#203=EDGE_CURVE('',#164,#164,#34,.T.);
#204=EDGE_CURVE('',#163,#160,#105,.T.);
#205=EDGE_CURVE('',#165,#165,#35,.T.);
#206=ORIENTED_EDGE('',*,*,#166,.T.);
#207=ORIENTED_EDGE('',*,*,#167,.T.);
#208=ORIENTED_EDGE('',*,*,#168,.T.);
#209=ORIENTED_EDGE('',*,*,#169,.T.);
#210=ORIENTED_EDGE('',*,*,#169,.F.);
#211=ORIENTED_EDGE('',*,*,#170,.F.);
#212=ORIENTED_EDGE('',*,*,#171,.F.);
#213=ORIENTED_EDGE('',*,*,#172,.F.);
#214=ORIENTED_EDGE('',*,*,#168,.F.);
#215=ORIENTED_EDGE('',*,*,#173,.F.);
#216=ORIENTED_EDGE('',*,*,#174,.T.);
#217=ORIENTED_EDGE('',*,*,#175,.T.);
#218=ORIENTED_EDGE('',*,*,#176,.F.);
#219=ORIENTED_EDGE('',*,*,#170,.T.);
#220=ORIENTED_EDGE('',*,*,#177,.F.);
#221=ORIENTED_EDGE('',*,*,#178,.T.);
#222=ORIENTED_EDGE('',*,*,#171,.T.);
#223=ORIENTED_EDGE('',*,*,#176,.T.);
#224=ORIENTED_EDGE('',*,*,#179,.T.);
#225=ORIENTED_EDGE('',*,*,#180,.T.);
#226=ORIENTED_EDGE('',*,*,#181,.T.);
#227=ORIENTED_EDGE('',*,*,#182,.T.);
#228=ORIENTED_EDGE('',*,*,#183,.T.);
#229=ORIENTED_EDGE('',*,*,#181,.F.);
#230=ORIENTED_EDGE('',*,*,#184,.T.);
#231=ORIENTED_EDGE('',*,*,#185,.F.);
#232=ORIENTED_EDGE('',*,*,#186,.F.);
#233=ORIENTED_EDGE('',*,*,#180,.F.);
#234=ORIENTED_EDGE('',*,*,#187,.T.);
#235=ORIENTED_EDGE('',*,*,#188,.F.);
#236=ORIENTED_EDGE('',*,*,#189,.F.);
#237=ORIENTED_EDGE('',*,*,#190,.F.);
#238=ORIENTED_EDGE('',*,*,#184,.F.);
#239=ORIENTED_EDGE('',*,*,#191,.F.);
#240=ORIENTED_EDGE('',*,*,#190,.T.);
#241=ORIENTED_EDGE('',*,*,#192,.T.);
#242=ORIENTED_EDGE('',*,*,#193,.T.);
#243=ORIENTED_EDGE('',*,*,#185,.T.);
#244=ORIENTED_EDGE('',*,*,#188,.T.);
#245=ORIENTED_EDGE('',*,*,#194,.T.);
#246=ORIENTED_EDGE('',*,*,#174,.F.);
#247=ORIENTED_EDGE('',*,*,#195,.F.);
#248=ORIENTED_EDGE('',*,*,#167,.F.);
#249=ORIENTED_EDGE('',*,*,#196,.F.);
#250=ORIENTED_EDGE('',*,*,#197,.F.);
#251=ORIENTED_EDGE('',*,*,#198,.F.);
#252=ORIENTED_EDGE('',*,*,#192,.F.);
#253=ORIENTED_EDGE('',*,*,#189,.T.);
#254=ORIENTED_EDGE('',*,*,#195,.T.);
#255=ORIENTED_EDGE('',*,*,#173,.T.);
#256=ORIENTED_EDGE('',*,*,#179,.F.);
#257=ORIENTED_EDGE('',*,*,#175,.F.);
#258=ORIENTED_EDGE('',*,*,#194,.F.);
#259=ORIENTED_EDGE('',*,*,#187,.F.);
#260=ORIENTED_EDGE('',*,*,#183,.F.);
#261=ORIENTED_EDGE('',*,*,#199,.T.);
#262=ORIENTED_EDGE('',*,*,#200,.T.);
#263=ORIENTED_EDGE('',*,*,#201,.T.);
#264=ORIENTED_EDGE('',*,*,#182,.F.);
#265=ORIENTED_EDGE('',*,*,#186,.T.);
#266=ORIENTED_EDGE('',*,*,#193,.F.);
#267=ORIENTED_EDGE('',*,*,#198,.T.);
#268=ORIENTED_EDGE('',*,*,#202,.F.);
#269=ORIENTED_EDGE('',*,*,#199,.F.);
#270=ORIENTED_EDGE('',*,*,#203,.T.);
#271=ORIENTED_EDGE('',*,*,#166,.F.);
#272=ORIENTED_EDGE('',*,*,#172,.T.);
#273=ORIENTED_EDGE('',*,*,#178,.F.);
#274=ORIENTED_EDGE('',*,*,#201,.F.);
#275=ORIENTED_EDGE('',*,*,#204,.T.);
#276=ORIENTED_EDGE('',*,*,#196,.T.);
#277=ORIENTED_EDGE('',*,*,#205,.T.);
#278=ORIENTED_EDGE('',*,*,#202,.T.);
#279=ORIENTED_EDGE('',*,*,#197,.T.);
#280=ORIENTED_EDGE('',*,*,#204,.F.);
#281=ORIENTED_EDGE('',*,*,#200,.F.);
#282=ORIENTED_EDGE('',*,*,#205,.F.);
#283=ORIENTED_EDGE('',*,*,#177,.T.);
#284=ORIENTED_EDGE('',*,*,#203,.F.);
#285=ORIENTED_EDGE('',*,*,#191,.T.);
#286=PLANE('',#316);
#287=PLANE('',#317);
#288=PLANE('',#318);
#289=PLANE('',#320);
#290=PLANE('',#321);
#291=PLANE('',#322);
#292=PLANE('',#323);
#293=PLANE('',#325);
#294=PLANE('',#329);
#295=PLANE('',#331);
#296=PLANE('',#333);
#297=PLANE('',#335);
#298=ADVANCED_FACE('',(#36),#286,.T.);
#299=ADVANCED_FACE('',(#37),#287,.T.);
#300=ADVANCED_FACE('',(#38,#22),#288,.T.);
#301=ADVANCED_FACE('',(#39),#289,.T.);
#302=ADVANCED_FACE('',(#40),#290,.T.);
#303=ADVANCED_FACE('',(#41),#291,.T.);
#304=ADVANCED_FACE('',(#42,#23),#292,.T.);
#305=ADVANCED_FACE('',(#43),#293,.T.);
#306=ADVANCED_FACE('',(#44),#18,.F.);
#307=ADVANCED_FACE('',(#45),#294,.T.);
#308=ADVANCED_FACE('',(#46),#295,.F.);
#309=ADVANCED_FACE('',(#47,#24),#296,.F.);
#310=ADVANCED_FACE('',(#48,#25),#297,.F.);
#311=ADVANCED_FACE('',(#49),#19,.T.);
#312=ADVANCED_FACE('',(#50,#26),#20,.F.);
#313=ADVANCED_FACE('',(#51,#27),#21,.F.);
#314=CLOSED_SHELL('',(#298,#299,#300,#301,#302,#303,#304,#305,#306,#307,
#308,#309,#310,#311,#312,#313));
#315=AXIS2_PLACEMENT_3D('placement',#422,#340,#341);
#316=AXIS2_PLACEMENT_3D('',#423,#342,#343);
#317=AXIS2_PLACEMENT_3D('',#432,#348,#349);
#318=AXIS2_PLACEMENT_3D('',#438,#353,#354);
#319=AXIS2_PLACEMENT_3D('',#447,#359,#360);
#320=AXIS2_PLACEMENT_3D('',#448,#361,#362);
#321=AXIS2_PLACEMENT_3D('',#452,#365,#366);
#322=AXIS2_PLACEMENT_3D('',#461,#371,#372);
#323=AXIS2_PLACEMENT_3D('',#467,#376,#377);
#324=AXIS2_PLACEMENT_3D('',#476,#382,#383);
#325=AXIS2_PLACEMENT_3D('',#477,#384,#385);
#326=AXIS2_PLACEMENT_3D('',#481,#388,#389);
#327=AXIS2_PLACEMENT_3D('',#482,#390,#391);
#328=AXIS2_PLACEMENT_3D('',#483,#392,#393);
#329=AXIS2_PLACEMENT_3D('',#484,#394,#395);
#330=AXIS2_PLACEMENT_3D('',#488,#397,#398);
#331=AXIS2_PLACEMENT_3D('',#490,#400,#401);
#332=AXIS2_PLACEMENT_3D('',#494,#403,#404);
#333=AXIS2_PLACEMENT_3D('',#496,#406,#407);
#334=AXIS2_PLACEMENT_3D('',#499,#409,#410);
#335=AXIS2_PLACEMENT_3D('',#500,#411,#412);
#336=AXIS2_PLACEMENT_3D('',#503,#414,#415);
#337=AXIS2_PLACEMENT_3D('',#504,#416,#417);
#338=AXIS2_PLACEMENT_3D('',#505,#418,#419);
#339=AXIS2_PLACEMENT_3D('',#506,#420,#421);
#340=DIRECTION('axis',(0.,0.,1.));
#341=DIRECTION('refdir',(1.,0.,0.));
#342=DIRECTION('center_axis',(0.500000000000001,0.499999999999996,0.707106781186549));
#343=DIRECTION('ref_axis',(0.816496580927726,0.,-0.577350269189626));
#344=DIRECTION('',(-0.500000000000001,-0.500000000000001,0.707106781186546));
#345=DIRECTION('',(0.707106781186544,-0.707106781186551,0.));
#346=DIRECTION('',(0.500000000000001,0.500000000000001,-0.707106781186546));
#347=DIRECTION('',(-0.707106781186544,0.707106781186551,0.));
#348=DIRECTION('center_axis',(0.707106781186551,0.707106781186544,0.));
#349=DIRECTION('ref_axis',(0.707106781186544,-0.707106781186551,0.));
#350=DIRECTION('',(0.,0.,1.));
#351=DIRECTION('',(0.707106781186544,-0.707106781186551,0.));
#352=DIRECTION('',(0.,0.,-1.));
#353=DIRECTION('center_axis',(0.707106781186547,-0.707106781186548,0.));
#354=DIRECTION('ref_axis',(-0.707106781186544,-0.707106781186551,0.));
#355=DIRECTION('',(0.707106781186548,0.707106781186547,0.));
#356=DIRECTION('',(0.,0.,-1.));
#357=DIRECTION('',(0.707106781186548,0.707106781186547,0.));
#358=DIRECTION('',(-0.500000000000002,-0.500000000000001,-0.707106781186546));
#359=DIRECTION('center_axis',(0.707106781186547,-0.707106781186548,0.));
#360=DIRECTION('ref_axis',(0.707106781186548,0.707106781186547,0.));
#361=DIRECTION('center_axis',(0.500000000000001,0.499999999999997,-0.707106781186549));
#362=DIRECTION('ref_axis',(-0.816496580927726,0.,-0.577350269189626));
#363=DIRECTION('',(0.500000000000002,0.500000000000001,0.707106781186546));
#364=DIRECTION('',(-0.707106781186544,0.707106781186551,0.));
#365=DIRECTION('center_axis',(0.,-0.707106781186547,-0.707106781186548));
#366=DIRECTION('ref_axis',(-1.,0.,0.));
#367=DIRECTION('',(0.,-0.707106781186548,0.707106781186547));
#368=DIRECTION('',(-1.,0.,0.));
#369=DIRECTION('',(2.27393518242006E-18,0.707106781186548,-0.707106781186547));
#370=DIRECTION('',(1.,0.,0.));
#371=DIRECTION('center_axis',(0.,-1.,0.));
#372=DIRECTION('ref_axis',(-1.,0.,0.));
#373=DIRECTION('',(0.,0.,1.));
#374=DIRECTION('',(1.,0.,0.));
#375=DIRECTION('',(0.,0.,1.));
#376=DIRECTION('center_axis',(1.,0.,0.));
#377=DIRECTION('ref_axis',(0.,-1.,0.));
#378=DIRECTION('',(0.,1.,0.));
#379=DIRECTION('',(0.,0.,-1.));
#380=DIRECTION('',(0.,1.,0.));
#381=DIRECTION('',(0.,0.707106781186548,0.707106781186547));
#382=DIRECTION('center_axis',(1.,0.,0.));
#383=DIRECTION('ref_axis',(0.,1.,0.));
#384=DIRECTION('center_axis',(0.,-0.707106781186547,0.707106781186548));
#385=DIRECTION('ref_axis',(1.,0.,0.));
#386=DIRECTION('',(-1.,0.,0.));
#387=DIRECTION('',(-2.27393518242006E-18,-0.707106781186548,-0.707106781186547));
#388=DIRECTION('center_axis',(0.,0.,-1.));
#389=DIRECTION('ref_axis',(-1.,0.,0.));
#390=DIRECTION('center_axis',(0.,0.,-1.));
#391=DIRECTION('ref_axis',(-1.,0.,0.));
#392=DIRECTION('center_axis',(0.,0.,-1.));
#393=DIRECTION('ref_axis',(-1.,0.,0.));
#394=DIRECTION('center_axis',(0.,0.,1.));
#395=DIRECTION('ref_axis',(1.,0.,0.));
#396=DIRECTION('',(0.707106781186548,0.707106781186547,0.));
#397=DIRECTION('center_axis',(0.,0.,-1.));
#398=DIRECTION('ref_axis',(-1.,0.,0.));
#399=DIRECTION('',(3.21582997493579E-18,1.,0.));
#400=DIRECTION('center_axis',(0.,0.,1.));
#401=DIRECTION('ref_axis',(1.,0.,0.));
#402=DIRECTION('',(3.21582997493579E-18,1.,0.));
#403=DIRECTION('center_axis',(0.,0.,-1.));
#404=DIRECTION('ref_axis',(-1.,0.,0.));
#405=DIRECTION('',(0.707106781186548,0.707106781186547,0.));
#406=DIRECTION('center_axis',(1.,-3.21582997493579E-18,0.));
#407=DIRECTION('ref_axis',(0.,-1.,0.));
#408=DIRECTION('',(0.,0.,1.));
#409=DIRECTION('center_axis',(1.,0.,0.));
#410=DIRECTION('ref_axis',(0.,1.,0.));
#411=DIRECTION('center_axis',(0.707106781186547,-0.707106781186548,0.));
#412=DIRECTION('ref_axis',(-0.707106781186544,-0.707106781186551,0.));
#413=DIRECTION('',(0.,0.,1.));
#414=DIRECTION('center_axis',(0.707106781186547,-0.707106781186548,0.));
#415=DIRECTION('ref_axis',(0.707106781186548,0.707106781186547,0.));
#416=DIRECTION('center_axis',(0.,0.,-1.));
#417=DIRECTION('ref_axis',(-1.,0.,0.));
#418=DIRECTION('center_axis',(0.707106781186547,-0.707106781186548,0.));
#419=DIRECTION('ref_axis',(0.707106781186548,0.707106781186547,0.));
#420=DIRECTION('center_axis',(1.,0.,0.));
#421=DIRECTION('ref_axis',(0.,1.,0.));
#422=CARTESIAN_POINT('',(0.,0.,0.));
#423=CARTESIAN_POINT('Origin',(53.9184590910216,76.6720870889909,19.));
#424=CARTESIAN_POINT('',(43.9558586544099,88.0489010879759,18.));
#425=CARTESIAN_POINT('',(42.5416450920368,86.6346875256027,20.));
#426=CARTESIAN_POINT('',(47.6302538768335,91.7232963103995,12.8036204429296));
#427=CARTESIAN_POINT('',(43.2487518732233,85.9275807444162,20.));
#428=CARTESIAN_POINT('',(53.2113523098351,75.9649803078043,20.));
#429=CARTESIAN_POINT('',(44.6629654355964,87.3417943067893,18.));
#430=CARTESIAN_POINT('',(47.4913925603426,90.1702214315355,14.));
#431=CARTESIAN_POINT('',(54.6255658722082,77.3791938701774,18.));
#432=CARTESIAN_POINT('Origin',(43.2487518732233,88.7560078691624,0.));
#433=CARTESIAN_POINT('',(44.6629654355964,87.3417943067893,2.));
#434=CARTESIAN_POINT('',(44.6629654355964,87.3417943067893,0.));
#435=CARTESIAN_POINT('',(43.9558586544099,88.0489010879759,2.));
#436=CARTESIAN_POINT('',(54.6255658722082,77.3791938701774,2.));
#437=CARTESIAN_POINT('',(43.9558586544099,88.0489010879759,0.));
#438=CARTESIAN_POINT('Origin',(44.6629654355964,87.3417943067893,0.));
#439=CARTESIAN_POINT('',(24.0355484376269,66.7143773088198,20.));
#440=CARTESIAN_POINT('',(23.449762,66.1285908711929,20.));
#441=CARTESIAN_POINT('',(24.0355484376269,66.7143773088198,0.));
#442=CARTESIAN_POINT('',(24.0355484376269,66.7143773088198,0.));
#443=CARTESIAN_POINT('',(43.2487518732233,85.9275807444162,0.));
#444=CARTESIAN_POINT('',(23.449762,66.1285908711929,0.));
#445=CARTESIAN_POINT('',(43.9558586544098,86.6346875256027,0.999999999999988));
#446=CARTESIAN_POINT('',(43.0719751779267,85.7508040491196,9.99999999999999));
#447=CARTESIAN_POINT('Origin',(41.8345383108502,84.5133671820431,9.99999999999999));
#448=CARTESIAN_POINT('Origin',(53.9184590910216,76.6720870889909,1.));
#449=CARTESIAN_POINT('',(42.5416450920368,86.6346875256027,0.));
#450=CARTESIAN_POINT('',(43.3876123411861,87.4806547747521,1.19637835707041));
#451=CARTESIAN_POINT('',(53.2113523098351,75.9649803078043,0.));
#452=CARTESIAN_POINT('Origin',(11.724881,37.1285908711929,1.));
#453=CARTESIAN_POINT('',(23.449762,38.1285908711929,0.));
#454=CARTESIAN_POINT('',(23.449762,36.1285908711929,2.));
#455=CARTESIAN_POINT('',(23.449762,44.6285908711929,-6.5));
#456=CARTESIAN_POINT('',(22.449762,36.1285908711929,2.));
#457=CARTESIAN_POINT('',(11.724881,36.1285908711929,2.));
#458=CARTESIAN_POINT('',(22.449762,38.1285908711929,0.));
#459=CARTESIAN_POINT('',(22.449762,45.2321448617862,-7.10355399059328));
#460=CARTESIAN_POINT('',(11.724881,38.1285908711929,0.));
#461=CARTESIAN_POINT('Origin',(23.449762,36.1285908711929,0.));
#462=CARTESIAN_POINT('',(23.449762,36.1285908711929,18.));
#463=CARTESIAN_POINT('',(23.449762,36.1285908711929,0.));
#464=CARTESIAN_POINT('',(22.449762,36.1285908711929,18.));
#465=CARTESIAN_POINT('',(11.724881,36.1285908711929,18.));
#466=CARTESIAN_POINT('',(22.449762,36.1285908711929,0.));
#467=CARTESIAN_POINT('Origin',(23.449762,66.1285908711929,0.));
#468=CARTESIAN_POINT('',(23.449762,65.3001637464467,0.));
#469=CARTESIAN_POINT('',(23.449762,36.1285908711929,0.));
#470=CARTESIAN_POINT('',(23.449762,65.3001637464467,20.));
#471=CARTESIAN_POINT('',(23.449762,65.3001637464467,0.));
#472=CARTESIAN_POINT('',(23.449762,38.1285908711929,20.));
#473=CARTESIAN_POINT('',(23.449762,36.1285908711929,20.));
#474=CARTESIAN_POINT('',(23.449762,39.6285908711929,21.5));
#475=CARTESIAN_POINT('',(23.449762,41.8785908711929,10.));
#476=CARTESIAN_POINT('Origin',(23.449762,40.1285908711929,10.));
#477=CARTESIAN_POINT('Origin',(11.724881,37.1285908711929,19.));
#478=CARTESIAN_POINT('',(22.449762,38.1285908711929,20.));
#479=CARTESIAN_POINT('',(11.724881,38.1285908711929,20.));
#480=CARTESIAN_POINT('',(22.449762,39.2321436617862,21.1035527905933));
#481=CARTESIAN_POINT('Origin',(25.449762,65.3001637464467,0.));
#482=CARTESIAN_POINT('Origin',(25.449762,65.3001637464467,0.));
#483=CARTESIAN_POINT('Origin',(25.449762,65.3001637464467,20.));
#484=CARTESIAN_POINT('Origin',(0.,0.,20.));
#485=CARTESIAN_POINT('',(23.3284416564404,67.4214840900063,20.));
#486=CARTESIAN_POINT('',(0.,44.093042433566,20.));
#487=CARTESIAN_POINT('',(22.449762,65.3001637464467,20.));
#488=CARTESIAN_POINT('Origin',(25.449762,65.3001637464467,20.));
#489=CARTESIAN_POINT('',(22.449762,0.,20.));
#490=CARTESIAN_POINT('Origin',(0.,0.,0.));
#491=CARTESIAN_POINT('',(22.449762,65.3001637464467,0.));
#492=CARTESIAN_POINT('',(22.449762,0.,0.));
#493=CARTESIAN_POINT('',(23.3284416564404,67.4214840900063,0.));
#494=CARTESIAN_POINT('Origin',(25.449762,65.3001637464467,0.));
#495=CARTESIAN_POINT('',(0.,44.093042433566,0.));
#496=CARTESIAN_POINT('Origin',(22.449762,66.542804433566,-2.0000024));
#497=CARTESIAN_POINT('',(22.449762,65.3001637464467,0.));
#498=CARTESIAN_POINT('',(22.449762,41.8785908711929,10.));
#499=CARTESIAN_POINT('Origin',(22.449762,40.1285908711929,10.));
#500=CARTESIAN_POINT('Origin',(45.9255157856903,90.0185582192563,-2.0000024));
#501=CARTESIAN_POINT('',(23.3284416564404,67.4214840900063,0.));
#502=CARTESIAN_POINT('',(42.3648683967402,86.4579108303061,9.99999999999999));
#503=CARTESIAN_POINT('Origin',(41.1274315296637,85.2204739632296,9.99999999999999));
#504=CARTESIAN_POINT('Origin',(25.449762,65.3001637464467,0.));
#505=CARTESIAN_POINT('Origin',(26.6677051198398,99.6802003730536,9.99999999999999));
#506=CARTESIAN_POINT('Origin',(20.2284392564404,40.1285908711929,10.));
#507=UNCERTAINTY_MEASURE_WITH_UNIT(LENGTH_MEASURE(0.01),#511,
'DISTANCE_ACCURACY_VALUE',
'Maximum model space distance between geometric entities at asserted c
onnectivities');
#508=UNCERTAINTY_MEASURE_WITH_UNIT(LENGTH_MEASURE(1.E-6),#511,
'DISTANCE_ACCURACY_VALUE',
'Maximum model space distance between geometric entities at asserted c
onnectivities');
#509=(
GEOMETRIC_REPRESENTATION_CONTEXT(3)
GLOBAL_UNCERTAINTY_ASSIGNED_CONTEXT((#507))
GLOBAL_UNIT_ASSIGNED_CONTEXT((#511,#513,#512))
REPRESENTATION_CONTEXT('','3D')
);
#510=(
GEOMETRIC_REPRESENTATION_CONTEXT(3)
GLOBAL_UNCERTAINTY_ASSIGNED_CONTEXT((#508))
GLOBAL_UNIT_ASSIGNED_CONTEXT((#511,#12,#512))
REPRESENTATION_CONTEXT('','3D')
);
#511=(
LENGTH_UNIT()
NAMED_UNIT(*)
SI_UNIT(.MILLI.,.METRE.)
);
#512=(
NAMED_UNIT(*)
SI_UNIT($,.STERADIAN.)
SOLID_ANGLE_UNIT()
);
#513=(
NAMED_UNIT(*)
PLANE_ANGLE_UNIT()
SI_UNIT($,.RADIAN.)
);
#514=SHAPE_DEFINITION_REPRESENTATION(#515,#516);
#515=PRODUCT_DEFINITION_SHAPE('',$,#518);
#516=SHAPE_REPRESENTATION('',(#315),#509);
#517=PRODUCT_DEFINITION_CONTEXT('part definition',#522,'design');
#518=PRODUCT_DEFINITION('Winkelblech','Winkelblech',#519,#517);
#519=PRODUCT_DEFINITION_FORMATION('',$,#524);
#520=PRODUCT_RELATED_PRODUCT_CATEGORY('Winkelblech','Winkelblech',(#524));
#521=APPLICATION_PROTOCOL_DEFINITION('international standard',
'automotive_design',2009,#522);
#522=APPLICATION_CONTEXT(
'Core Data for Automotive Mechanical Design Process');
#523=PRODUCT_CONTEXT('part definition',#522,'mechanical');
#524=PRODUCT('Winkelblech','Winkelblech',$,(#523));
#525=PRESENTATION_STYLE_ASSIGNMENT((#527));
#526=PRESENTATION_STYLE_ASSIGNMENT((#528));
#527=SURFACE_STYLE_USAGE(.BOTH.,#529);
#528=SURFACE_STYLE_USAGE(.BOTH.,#530);
#529=SURFACE_SIDE_STYLE($,(#531));
#530=SURFACE_SIDE_STYLE($,(#532));
#531=SURFACE_STYLE_FILL_AREA(#533);
#532=SURFACE_STYLE_FILL_AREA(#534);
#533=FILL_AREA_STYLE($,(#535));
#534=FILL_AREA_STYLE($,(#536));
#535=FILL_AREA_STYLE_COLOUR($,#537);
#536=FILL_AREA_STYLE_COLOUR($,#538);
#537=COLOUR_RGB('',0.745098039215686,0.737254901960784,0.729411764705882);
#538=COLOUR_RGB('',0.6,0.6,0.6);
ENDSEC;
END-ISO-10303-21;
