ISO-10303-21;
HEADER;
/* Generated by software containing ST-Developer
 * from STEP Tools, Inc. (www.steptools.com) 
 */

FILE_DESCRIPTION(
/* description */ (''),
/* implementation_level */ '2;1');

FILE_NAME(
/* name */ 
'F:\\3D_KONSTRUKTION\\PRODUKTE-ENTWICKLUNG\\CAD.de\\Gewinde Test.stp',
/* time_stamp */ '2017-10-03T14:03:11+02:00',
/* author */ ('jmoser'),
/* organization */ (''),
/* preprocessor_version */ 'ST-DEVELOPER v16.13',
/* originating_system */ 'Autodesk Inventor 2018',
/* authorisation */ '');

FILE_SCHEMA (('AUTOMOTIVE_DESIGN { 1 0 10303 214 3 1 1 }'));
ENDSEC;

DATA;
#10=MECHANICAL_DESIGN_GEOMETRIC_PRESENTATION_REPRESENTATION('',(#24,#25,
#23,#26,#27,#28,#29,#30),#133);
#11=GEOMETRICALLY_BOUNDED_WIREFRAME_SHAPE_REPRESENTATION('',(#12),#132);
#12=GEOMETRIC_CURVE_SET('Skizze2',(#19,#20,#21,#16,#17,#18,#22));
#13=SHAPE_REPRESENTATION_RELATIONSHIP('SRR','None',#140,#15);
#14=SHAPE_REPRESENTATION_RELATIONSHIP('SRR','None',#140,#11);
#15=ADVANCED_BREP_SHAPE_REPRESENTATION('',(#31),#132);
#16=TRIMMED_CURVE('',#44,(#120,PARAMETER_VALUE(2.05076187109333)),(#121,
PARAMETER_VALUE(4.23242343608625)),.T.,.PARAMETER.);
#17=TRIMMED_CURVE('',#45,(#123,PARAMETER_VALUE(5.19235452468313)),(#124,
PARAMETER_VALUE(6.28318530717959)),.T.,.PARAMETER.);
#18=TRIMMED_CURVE('',#46,(#126,PARAMETER_VALUE(0.)),(#127,
PARAMETER_VALUE(1.09083078249646)),.T.,.PARAMETER.);
#19=POLYLINE('',(#113,#114));
#20=POLYLINE('',(#115,#116));
#21=POLYLINE('',(#117,#118));
#22=POLYLINE('',(#128,#129));
#23=STYLED_ITEM('',(#149),#31);
#24=STYLED_ITEM('',(#150),#19);
#25=STYLED_ITEM('',(#150),#20);
#26=STYLED_ITEM('',(#150),#21);
#27=STYLED_ITEM('',(#150),#16);
#28=STYLED_ITEM('',(#150),#17);
#29=STYLED_ITEM('',(#150),#18);
#30=STYLED_ITEM('',(#151),#22);
#31=MANIFOLD_SOLID_BREP('Volumenk\X\F6rper1',#59);
#32=PLANE('',#82);
#33=PLANE('',#83);
#34=FACE_BOUND('',#39,.T.);
#35=FACE_OUTER_BOUND('',#38,.T.);
#36=FACE_OUTER_BOUND('',#40,.T.);
#37=FACE_OUTER_BOUND('',#41,.T.);
#38=EDGE_LOOP('',(#51));
#39=EDGE_LOOP('',(#52));
#40=EDGE_LOOP('',(#53));
#41=EDGE_LOOP('',(#54));
#42=CIRCLE('',#80,13.2205);
#43=CIRCLE('',#81,13.2205);
#44=CIRCLE('',#84,0.249114805999999);
#45=CIRCLE('',#85,0.249114805999993);
#46=CIRCLE('',#86,0.249114806000006);
#47=VERTEX_POINT('',#107);
#48=VERTEX_POINT('',#109);
#49=EDGE_CURVE('',#47,#47,#42,.T.);
#50=EDGE_CURVE('',#48,#48,#43,.T.);
#51=ORIENTED_EDGE('',*,*,#49,.F.);
#52=ORIENTED_EDGE('',*,*,#50,.T.);
#53=ORIENTED_EDGE('',*,*,#49,.T.);
#54=ORIENTED_EDGE('',*,*,#50,.F.);
#55=CYLINDRICAL_SURFACE('',#79,13.2205);
#56=ADVANCED_FACE('',(#35,#34),#55,.T.);
#57=ADVANCED_FACE('',(#36),#32,.F.);
#58=ADVANCED_FACE('',(#37),#33,.T.);
#59=CLOSED_SHELL('',(#56,#57,#58));
#60=DERIVED_UNIT_ELEMENT(#62,0.);
#61=DERIVED_UNIT_ELEMENT(#135,0.);
#62=(
MASS_UNIT()
NAMED_UNIT(*)
SI_UNIT($,.GRAM.)
);
#63=DERIVED_UNIT((#60,#61));
#64=MEASURE_REPRESENTATION_ITEM('density measure',
POSITIVE_RATIO_MEASURE(1.),#63);
#65=PROPERTY_DEFINITION_REPRESENTATION(#70,#67);
#66=PROPERTY_DEFINITION_REPRESENTATION(#71,#68);
#67=REPRESENTATION('material name',(#69),#132);
#68=REPRESENTATION('density',(#64),#132);
#69=DESCRIPTIVE_REPRESENTATION_ITEM('Generisch','Generisch');
#70=PROPERTY_DEFINITION('material property','material name',#142);
#71=PROPERTY_DEFINITION('material property','density of part',#142);
#72=DATE_TIME_ROLE('creation_date');
#73=APPLIED_DATE_AND_TIME_ASSIGNMENT(#74,#72,(#142));
#74=DATE_AND_TIME(#75,#76);
#75=CALENDAR_DATE(2017,3,10);
#76=LOCAL_TIME(11,37,41.,#77);
#77=COORDINATED_UNIVERSAL_TIME_OFFSET(0,0,.BEHIND.);
#78=AXIS2_PLACEMENT_3D('placement',#105,#87,#88);
#79=AXIS2_PLACEMENT_3D('',#106,#89,#90);
#80=AXIS2_PLACEMENT_3D('',#108,#91,#92);
#81=AXIS2_PLACEMENT_3D('',#110,#93,#94);
#82=AXIS2_PLACEMENT_3D('',#111,#95,#96);
#83=AXIS2_PLACEMENT_3D('',#112,#97,#98);
#84=AXIS2_PLACEMENT_3D('',#119,#99,#100);
#85=AXIS2_PLACEMENT_3D('',#122,#101,#102);
#86=AXIS2_PLACEMENT_3D('',#125,#103,#104);
#87=DIRECTION('axis',(0.,0.,1.));
#88=DIRECTION('refdir',(1.,0.,0.));
#89=DIRECTION('center_axis',(0.,0.,-1.));
#90=DIRECTION('ref_axis',(-1.,0.,0.));
#91=DIRECTION('center_axis',(0.,0.,-1.));
#92=DIRECTION('ref_axis',(-1.,0.,0.));
#93=DIRECTION('center_axis',(0.,0.,-1.));
#94=DIRECTION('ref_axis',(-1.,0.,0.));
#95=DIRECTION('center_axis',(0.,0.,1.));
#96=DIRECTION('ref_axis',(1.,0.,0.));
#97=DIRECTION('center_axis',(0.,0.,1.));
#98=DIRECTION('ref_axis',(1.,0.,0.));
#99=DIRECTION('center_axis',(0.,1.,0.));
#100=DIRECTION('ref_axis',(-1.,0.,0.));
#101=DIRECTION('center_axis',(0.,1.,0.));
#102=DIRECTION('ref_axis',(-1.,0.,0.));
#103=DIRECTION('center_axis',(0.,1.,0.));
#104=DIRECTION('ref_axis',(-1.,0.,0.));
#105=CARTESIAN_POINT('',(0.,0.,0.));
#106=CARTESIAN_POINT('Origin',(0.,0.,0.));
#107=CARTESIAN_POINT('',(13.2205,1.61904430081276E-15,-11.949));
#108=CARTESIAN_POINT('Origin',(0.,0.,-11.949));
#109=CARTESIAN_POINT('',(13.2205,1.61904430081276E-15,0.));
#110=CARTESIAN_POINT('Origin',(0.,0.,0.));
#111=CARTESIAN_POINT('Origin',(-6.94769594877322E-16,0.,-11.949));
#112=CARTESIAN_POINT('Origin',(-6.94769594877322E-16,0.,0.));
#113=CARTESIAN_POINT('polyline point',(-13.2205,0.,-11.949));
#114=CARTESIAN_POINT('polyline point',(-13.2205,0.,-13.7634641261755));
#115=CARTESIAN_POINT('polyline point',(-12.1925863897932,0.,-12.6352645314607));
#116=CARTESIAN_POINT('polyline point',(-13.0864136102068,0.,-12.1699675316271));
#117=CARTESIAN_POINT('polyline point',(-12.1925863897932,0.,-13.0771995947149));
#118=CARTESIAN_POINT('polyline point',(-13.0864136102068,0.,-13.5424965945485));
#119=CARTESIAN_POINT('Origin',(-12.307614806,0.,-12.8562320630878));
#120=CARTESIAN_POINT('',(-12.1925863897932,0.,-12.6352645314607));
#121=CARTESIAN_POINT('',(-12.1925863897932,0.,-13.0771995947149));
#122=CARTESIAN_POINT('Origin',(-12.971385194,0.,-11.949));
#123=CARTESIAN_POINT('',(-13.0864136102068,0.,-12.1699675316271));
#124=CARTESIAN_POINT('',(-13.2205,0.,-11.949));
#125=CARTESIAN_POINT('Origin',(-12.971385194,0.,-13.7634641261755));
#126=CARTESIAN_POINT('',(-13.2205,0.,-13.7634641261755));
#127=CARTESIAN_POINT('',(-13.0864136102068,0.,-13.5424965945484));
#128=CARTESIAN_POINT('polyline point',(13.2205,0.,-11.949));
#129=CARTESIAN_POINT('polyline point',(-13.2205,0.,-11.949));
#130=UNCERTAINTY_MEASURE_WITH_UNIT(LENGTH_MEASURE(0.01),#134,
'DISTANCE_ACCURACY_VALUE',
'Maximum model space distance between geometric entities at asserted c
onnectivities');
#131=UNCERTAINTY_MEASURE_WITH_UNIT(LENGTH_MEASURE(0.01),#134,
'DISTANCE_ACCURACY_VALUE',
'Maximum model space distance between geometric entities at asserted c
onnectivities');
#132=(
GEOMETRIC_REPRESENTATION_CONTEXT(3)
GLOBAL_UNCERTAINTY_ASSIGNED_CONTEXT((#130))
GLOBAL_UNIT_ASSIGNED_CONTEXT((#134,#137,#136))
REPRESENTATION_CONTEXT('','3D')
);
#133=(
GEOMETRIC_REPRESENTATION_CONTEXT(3)
GLOBAL_UNCERTAINTY_ASSIGNED_CONTEXT((#131))
GLOBAL_UNIT_ASSIGNED_CONTEXT((#134,#137,#136))
REPRESENTATION_CONTEXT('','3D')
);
#134=(
LENGTH_UNIT()
NAMED_UNIT(*)
SI_UNIT(.MILLI.,.METRE.)
);
#135=(
LENGTH_UNIT()
NAMED_UNIT(*)
SI_UNIT(.CENTI.,.METRE.)
);
#136=(
NAMED_UNIT(*)
SI_UNIT($,.STERADIAN.)
SOLID_ANGLE_UNIT()
);
#137=(
NAMED_UNIT(*)
PLANE_ANGLE_UNIT()
SI_UNIT($,.RADIAN.)
);
#138=SHAPE_DEFINITION_REPRESENTATION(#139,#140);
#139=PRODUCT_DEFINITION_SHAPE('',$,#142);
#140=SHAPE_REPRESENTATION('',(#78),#132);
#141=PRODUCT_DEFINITION_CONTEXT('part definition',#146,'design');
#142=PRODUCT_DEFINITION('Gewinde Test','Gewinde Test',#143,#141);
#143=PRODUCT_DEFINITION_FORMATION('',$,#148);
#144=PRODUCT_RELATED_PRODUCT_CATEGORY('Gewinde Test','Gewinde Test',(#148));
#145=APPLICATION_PROTOCOL_DEFINITION('international standard',
'automotive_design',2009,#146);
#146=APPLICATION_CONTEXT(
'Core Data for Automotive Mechanical Design Process');
#147=PRODUCT_CONTEXT('part definition',#146,'mechanical');
#148=PRODUCT('Gewinde Test','Gewinde Test',$,(#147));
#149=PRESENTATION_STYLE_ASSIGNMENT((#152));
#150=PRESENTATION_STYLE_ASSIGNMENT((#153));
#151=PRESENTATION_STYLE_ASSIGNMENT((#154));
#152=SURFACE_STYLE_USAGE(.BOTH.,#155);
#153=SURFACE_STYLE_USAGE(.BOTH.,#156);
#154=SURFACE_STYLE_USAGE(.BOTH.,#157);
#155=SURFACE_SIDE_STYLE('',(#158));
#156=SURFACE_SIDE_STYLE('',(#159));
#157=SURFACE_SIDE_STYLE('',(#160));
#158=SURFACE_STYLE_FILL_AREA(#161);
#159=SURFACE_STYLE_FILL_AREA(#162);
#160=SURFACE_STYLE_FILL_AREA(#163);
#161=FILL_AREA_STYLE('',(#164));
#162=FILL_AREA_STYLE('',(#165));
#163=FILL_AREA_STYLE('',(#166));
#164=FILL_AREA_STYLE_COLOUR('',#167);
#165=FILL_AREA_STYLE_COLOUR('',#168);
#166=FILL_AREA_STYLE_COLOUR('',#169);
#167=COLOUR_RGB('',0.749019607843137,0.749019607843137,0.749019607843137);
#168=COLOUR_RGB('',0.2,0.,0.498039215686275);
#169=COLOUR_RGB('',1.,1.,0.);
ENDSEC;
END-ISO-10303-21;
