ISO-10303-21;
HEADER;
/* Generated by software containing ST-Developer
 * from STEP Tools, Inc. (www.steptools.com) 
 */

FILE_DESCRIPTION(
/* description */ (''),
/* implementation_level */ '2;1');

FILE_NAME(
/* name */ 
'C:/Users/Tufan.Say/OneDrive - Sartorius Corporate Administration GmbH
/Home/Privat/Kram/Forum/O-Ring.step',
/* time_stamp */ '2021-12-15T15:48:47+01:00',
/* author */ (''),
/* organization */ (''),
/* preprocessor_version */ 'ST-DEVELOPER v18.1',
/* originating_system */ 'Autodesk Translation Framework v10.10.0.1391',

/* authorisation */ '');

FILE_SCHEMA (('AUTOMOTIVE_DESIGN { 1 0 10303 214 3 1 1 }'));
ENDSEC;

DATA;
#10=MECHANICAL_DESIGN_GEOMETRIC_PRESENTATION_REPRESENTATION('',(#24,#25),
#498);
#11=ITEM_DEFINED_TRANSFORMATION($,$,#278,#320);
#12=ITEM_DEFINED_TRANSFORMATION($,$,#296,#321);
#13=(
REPRESENTATION_RELATIONSHIP($,$,#512,#511)
REPRESENTATION_RELATIONSHIP_WITH_TRANSFORMATION(#11)
SHAPE_REPRESENTATION_RELATIONSHIP()
);
#14=(
REPRESENTATION_RELATIONSHIP($,$,#513,#511)
REPRESENTATION_RELATIONSHIP_WITH_TRANSFORMATION(#12)
SHAPE_REPRESENTATION_RELATIONSHIP()
);
#15=CONTEXT_DEPENDENT_SHAPE_REPRESENTATION(#13,#509);
#16=CONTEXT_DEPENDENT_SHAPE_REPRESENTATION(#14,#510);
#17=NEXT_ASSEMBLY_USAGE_OCCURRENCE('Komponente1:1','Komponente1:1',
'Komponente1:1',#515,#516,'Komponente1:1');
#18=NEXT_ASSEMBLY_USAGE_OCCURRENCE('Komponente2:1','Komponente2:1',
'Komponente2:1',#515,#517,'Komponente2:1');
#19=CONICAL_SURFACE('',#317,2.63522400998244,0.226798848053886);
#20=SHAPE_REPRESENTATION_RELATIONSHIP('SRR','None',#512,#22);
#21=SHAPE_REPRESENTATION_RELATIONSHIP('SRR','None',#513,#23);
#22=ADVANCED_BREP_SHAPE_REPRESENTATION('',(#26),#496);
#23=ADVANCED_BREP_SHAPE_REPRESENTATION('',(#27),#497);
#24=STYLED_ITEM('',(#531),#26);
#25=STYLED_ITEM('',(#532),#27);
#26=MANIFOLD_SOLID_BREP('K\X\F6rper1',#252);
#27=MANIFOLD_SOLID_BREP('K\X\F6rper1',#253);
#28=FACE_BOUND('',#84,.T.);
#29=FACE_BOUND('',#89,.T.);
#30=FACE_BOUND('',#92,.T.);
#31=FACE_BOUND('',#95,.T.);
#32=FACE_BOUND('',#98,.T.);
#33=LINE('',#432,#40);
#34=LINE('',#444,#41);
#35=LINE('',#461,#42);
#36=LINE('',#467,#43);
#37=LINE('',#473,#44);
#38=LINE('',#480,#45);
#39=LINE('',#486,#46);
#40=VECTOR('',#340,25.);
#41=VECTOR('',#355,27.5);
#42=VECTOR('',#378,24.5);
#43=VECTOR('',#385,19.5);
#44=VECTOR('',#394,24.5);
#45=VECTOR('',#403,27.5);
#46=VECTOR('',#410,23.);
#47=CYLINDRICAL_SURFACE('',#285,23.9);
#48=CYLINDRICAL_SURFACE('',#292,27.5);
#49=CYLINDRICAL_SURFACE('',#303,23.);
#50=CYLINDRICAL_SURFACE('',#305,19.5);
#51=CYLINDRICAL_SURFACE('',#309,23.);
#52=CYLINDRICAL_SURFACE('',#313,27.5);
#53=PLANE('',#284);
#54=PLANE('',#294);
#55=PLANE('',#295);
#56=PLANE('',#308);
#57=PLANE('',#311);
#58=PLANE('',#315);
#59=PLANE('',#319);
#60=FACE_OUTER_BOUND('',#77,.T.);
#61=FACE_OUTER_BOUND('',#78,.T.);
#62=FACE_OUTER_BOUND('',#79,.T.);
#63=FACE_OUTER_BOUND('',#80,.T.);
#64=FACE_OUTER_BOUND('',#81,.T.);
#65=FACE_OUTER_BOUND('',#82,.T.);
#66=FACE_OUTER_BOUND('',#83,.T.);
#67=FACE_OUTER_BOUND('',#85,.T.);
#68=FACE_OUTER_BOUND('',#86,.T.);
#69=FACE_OUTER_BOUND('',#87,.T.);
#70=FACE_OUTER_BOUND('',#88,.T.);
#71=FACE_OUTER_BOUND('',#90,.T.);
#72=FACE_OUTER_BOUND('',#91,.T.);
#73=FACE_OUTER_BOUND('',#93,.T.);
#74=FACE_OUTER_BOUND('',#94,.T.);
#75=FACE_OUTER_BOUND('',#96,.T.);
#76=FACE_OUTER_BOUND('',#97,.T.);
#77=EDGE_LOOP('',(#172,#173,#174,#175,#176));
#78=EDGE_LOOP('',(#177));
#79=EDGE_LOOP('',(#178,#179,#180,#181,#182));
#80=EDGE_LOOP('',(#183,#184,#185,#186,#187));
#81=EDGE_LOOP('',(#188,#189,#190,#191,#192));
#82=EDGE_LOOP('',(#193));
#83=EDGE_LOOP('',(#194));
#84=EDGE_LOOP('',(#195));
#85=EDGE_LOOP('',(#196,#197,#198,#199,#200,#201));
#86=EDGE_LOOP('',(#202,#203,#204,#205,#206));
#87=EDGE_LOOP('',(#207,#208,#209,#210));
#88=EDGE_LOOP('',(#211));
#89=EDGE_LOOP('',(#212));
#90=EDGE_LOOP('',(#213,#214,#215,#216,#217));
#91=EDGE_LOOP('',(#218));
#92=EDGE_LOOP('',(#219));
#93=EDGE_LOOP('',(#220,#221,#222,#223));
#94=EDGE_LOOP('',(#224));
#95=EDGE_LOOP('',(#225));
#96=EDGE_LOOP('',(#226,#227,#228,#229));
#97=EDGE_LOOP('',(#230));
#98=EDGE_LOOP('',(#231));
#99=CIRCLE('',#280,20.9);
#100=CIRCLE('',#281,3.);
#101=CIRCLE('',#282,23.9);
#102=CIRCLE('',#283,23.9);
#103=CIRCLE('',#286,23.9);
#104=CIRCLE('',#288,24.5);
#105=CIRCLE('',#289,3.);
#106=CIRCLE('',#290,27.5);
#107=CIRCLE('',#291,27.5);
#108=CIRCLE('',#293,27.5);
#109=CIRCLE('',#298,23.);
#110=CIRCLE('',#299,23.);
#111=CIRCLE('',#300,0.999999999999996);
#112=CIRCLE('',#301,23.);
#113=CIRCLE('',#302,23.);
#114=CIRCLE('',#304,23.);
#115=CIRCLE('',#306,19.5);
#116=CIRCLE('',#307,19.5);
#117=CIRCLE('',#310,23.);
#118=CIRCLE('',#312,27.5);
#119=CIRCLE('',#314,27.5);
#120=CIRCLE('',#316,0.973786235366122);
#121=CIRCLE('',#318,0.0507093122891983);
#122=VERTEX_POINT('',#422);
#123=VERTEX_POINT('',#424);
#124=VERTEX_POINT('',#426);
#125=VERTEX_POINT('',#431);
#126=VERTEX_POINT('',#435);
#127=VERTEX_POINT('',#437);
#128=VERTEX_POINT('',#439);
#129=VERTEX_POINT('',#443);
#130=VERTEX_POINT('',#450);
#131=VERTEX_POINT('',#451);
#132=VERTEX_POINT('',#454);
#133=VERTEX_POINT('',#456);
#134=VERTEX_POINT('',#460);
#135=VERTEX_POINT('',#464);
#136=VERTEX_POINT('',#466);
#137=VERTEX_POINT('',#471);
#138=VERTEX_POINT('',#475);
#139=VERTEX_POINT('',#478);
#140=VERTEX_POINT('',#482);
#141=VERTEX_POINT('',#485);
#142=EDGE_CURVE('',#122,#122,#99,.T.);
#143=EDGE_CURVE('',#122,#123,#100,.T.);
#144=EDGE_CURVE('',#123,#124,#101,.T.);
#145=EDGE_CURVE('',#124,#123,#102,.T.);
#146=EDGE_CURVE('',#124,#125,#33,.T.);
#147=EDGE_CURVE('',#125,#125,#103,.F.);
#148=EDGE_CURVE('',#126,#126,#104,.T.);
#149=EDGE_CURVE('',#126,#127,#105,.T.);
#150=EDGE_CURVE('',#127,#128,#106,.T.);
#151=EDGE_CURVE('',#128,#127,#107,.T.);
#152=EDGE_CURVE('',#128,#129,#34,.T.);
#153=EDGE_CURVE('',#129,#129,#108,.T.);
#154=EDGE_CURVE('',#130,#131,#109,.T.);
#155=EDGE_CURVE('',#131,#130,#110,.T.);
#156=EDGE_CURVE('',#131,#132,#111,.T.);
#157=EDGE_CURVE('',#133,#132,#112,.T.);
#158=EDGE_CURVE('',#132,#133,#113,.T.);
#159=EDGE_CURVE('',#133,#134,#35,.T.);
#160=EDGE_CURVE('',#134,#134,#114,.F.);
#161=EDGE_CURVE('',#135,#135,#115,.T.);
#162=EDGE_CURVE('',#135,#136,#36,.T.);
#163=EDGE_CURVE('',#136,#136,#116,.T.);
#164=EDGE_CURVE('',#137,#137,#117,.F.);
#165=EDGE_CURVE('',#137,#130,#37,.T.);
#166=EDGE_CURVE('',#138,#138,#118,.F.);
#167=EDGE_CURVE('',#139,#139,#119,.T.);
#168=EDGE_CURVE('',#139,#138,#38,.T.);
#169=EDGE_CURVE('',#140,#140,#120,.F.);
#170=EDGE_CURVE('',#140,#141,#39,.T.);
#171=EDGE_CURVE('',#141,#141,#121,.T.);
#172=ORIENTED_EDGE('',*,*,#142,.T.);
#173=ORIENTED_EDGE('',*,*,#143,.T.);
#174=ORIENTED_EDGE('',*,*,#144,.T.);
#175=ORIENTED_EDGE('',*,*,#145,.T.);
#176=ORIENTED_EDGE('',*,*,#143,.F.);
#177=ORIENTED_EDGE('',*,*,#142,.F.);
#178=ORIENTED_EDGE('',*,*,#145,.F.);
#179=ORIENTED_EDGE('',*,*,#146,.T.);
#180=ORIENTED_EDGE('',*,*,#147,.F.);
#181=ORIENTED_EDGE('',*,*,#146,.F.);
#182=ORIENTED_EDGE('',*,*,#144,.F.);
#183=ORIENTED_EDGE('',*,*,#148,.T.);
#184=ORIENTED_EDGE('',*,*,#149,.T.);
#185=ORIENTED_EDGE('',*,*,#150,.T.);
#186=ORIENTED_EDGE('',*,*,#151,.T.);
#187=ORIENTED_EDGE('',*,*,#149,.F.);
#188=ORIENTED_EDGE('',*,*,#150,.F.);
#189=ORIENTED_EDGE('',*,*,#151,.F.);
#190=ORIENTED_EDGE('',*,*,#152,.T.);
#191=ORIENTED_EDGE('',*,*,#153,.T.);
#192=ORIENTED_EDGE('',*,*,#152,.F.);
#193=ORIENTED_EDGE('',*,*,#148,.F.);
#194=ORIENTED_EDGE('',*,*,#153,.F.);
#195=ORIENTED_EDGE('',*,*,#147,.T.);
#196=ORIENTED_EDGE('',*,*,#154,.F.);
#197=ORIENTED_EDGE('',*,*,#155,.F.);
#198=ORIENTED_EDGE('',*,*,#156,.T.);
#199=ORIENTED_EDGE('',*,*,#157,.F.);
#200=ORIENTED_EDGE('',*,*,#158,.F.);
#201=ORIENTED_EDGE('',*,*,#156,.F.);
#202=ORIENTED_EDGE('',*,*,#157,.T.);
#203=ORIENTED_EDGE('',*,*,#158,.T.);
#204=ORIENTED_EDGE('',*,*,#159,.T.);
#205=ORIENTED_EDGE('',*,*,#160,.T.);
#206=ORIENTED_EDGE('',*,*,#159,.F.);
#207=ORIENTED_EDGE('',*,*,#161,.T.);
#208=ORIENTED_EDGE('',*,*,#162,.T.);
#209=ORIENTED_EDGE('',*,*,#163,.F.);
#210=ORIENTED_EDGE('',*,*,#162,.F.);
#211=ORIENTED_EDGE('',*,*,#160,.F.);
#212=ORIENTED_EDGE('',*,*,#163,.T.);
#213=ORIENTED_EDGE('',*,*,#164,.F.);
#214=ORIENTED_EDGE('',*,*,#165,.T.);
#215=ORIENTED_EDGE('',*,*,#154,.T.);
#216=ORIENTED_EDGE('',*,*,#155,.T.);
#217=ORIENTED_EDGE('',*,*,#165,.F.);
#218=ORIENTED_EDGE('',*,*,#166,.F.);
#219=ORIENTED_EDGE('',*,*,#164,.T.);
#220=ORIENTED_EDGE('',*,*,#167,.F.);
#221=ORIENTED_EDGE('',*,*,#168,.T.);
#222=ORIENTED_EDGE('',*,*,#166,.T.);
#223=ORIENTED_EDGE('',*,*,#168,.F.);
#224=ORIENTED_EDGE('',*,*,#167,.T.);
#225=ORIENTED_EDGE('',*,*,#169,.F.);
#226=ORIENTED_EDGE('',*,*,#169,.T.);
#227=ORIENTED_EDGE('',*,*,#170,.T.);
#228=ORIENTED_EDGE('',*,*,#171,.F.);
#229=ORIENTED_EDGE('',*,*,#170,.F.);
#230=ORIENTED_EDGE('',*,*,#161,.F.);
#231=ORIENTED_EDGE('',*,*,#171,.T.);
#232=TOROIDAL_SURFACE('',#279,20.9,3.);
#233=TOROIDAL_SURFACE('',#287,24.5,3.);
#234=TOROIDAL_SURFACE('',#297,23.,0.999999999999996);
#235=ADVANCED_FACE('',(#60),#232,.F.);
#236=ADVANCED_FACE('',(#61),#53,.T.);
#237=ADVANCED_FACE('',(#62),#47,.F.);
#238=ADVANCED_FACE('',(#63),#233,.T.);
#239=ADVANCED_FACE('',(#64),#48,.T.);
#240=ADVANCED_FACE('',(#65),#54,.T.);
#241=ADVANCED_FACE('',(#66,#28),#55,.T.);
#242=ADVANCED_FACE('',(#67),#234,.F.);
#243=ADVANCED_FACE('',(#68),#49,.T.);
#244=ADVANCED_FACE('',(#69),#50,.F.);
#245=ADVANCED_FACE('',(#70,#29),#56,.T.);
#246=ADVANCED_FACE('',(#71),#51,.T.);
#247=ADVANCED_FACE('',(#72,#30),#57,.T.);
#248=ADVANCED_FACE('',(#73),#52,.T.);
#249=ADVANCED_FACE('',(#74,#31),#58,.T.);
#250=ADVANCED_FACE('',(#75),#19,.F.);
#251=ADVANCED_FACE('',(#76,#32),#59,.F.);
#252=CLOSED_SHELL('',(#235,#236,#237,#238,#239,#240,#241));
#253=CLOSED_SHELL('',(#242,#243,#244,#245,#246,#247,#248,#249,#250,#251));
#254=DERIVED_UNIT_ELEMENT(#258,1.);
#255=DERIVED_UNIT_ELEMENT(#500,-3.);
#256=DERIVED_UNIT_ELEMENT(#258,1.);
#257=DERIVED_UNIT_ELEMENT(#500,-3.);
#258=(
MASS_UNIT()
NAMED_UNIT(*)
SI_UNIT(.KILO.,.GRAM.)
);
#259=DERIVED_UNIT((#254,#255));
#260=DERIVED_UNIT((#256,#257));
#261=MEASURE_REPRESENTATION_ITEM('density measure',
POSITIVE_RATIO_MEASURE(7850.),#259);
#262=MEASURE_REPRESENTATION_ITEM('density measure',
POSITIVE_RATIO_MEASURE(7850.),#260);
#263=PROPERTY_DEFINITION_REPRESENTATION(#273,#267);
#264=PROPERTY_DEFINITION_REPRESENTATION(#274,#268);
#265=PROPERTY_DEFINITION_REPRESENTATION(#275,#269);
#266=PROPERTY_DEFINITION_REPRESENTATION(#276,#270);
#267=REPRESENTATION('material name',(#271),#496);
#268=REPRESENTATION('density',(#261),#496);
#269=REPRESENTATION('material name',(#272),#497);
#270=REPRESENTATION('density',(#262),#497);
#271=DESCRIPTIVE_REPRESENTATION_ITEM('Stahl','Stahl');
#272=DESCRIPTIVE_REPRESENTATION_ITEM('Stahl','Stahl');
#273=PROPERTY_DEFINITION('material property','material name',#516);
#274=PROPERTY_DEFINITION('material property','density of part',#516);
#275=PROPERTY_DEFINITION('material property','material name',#517);
#276=PROPERTY_DEFINITION('material property','density of part',#517);
#277=AXIS2_PLACEMENT_3D('placement',#419,#322,#323);
#278=AXIS2_PLACEMENT_3D('placement',#420,#324,#325);
#279=AXIS2_PLACEMENT_3D('',#421,#326,#327);
#280=AXIS2_PLACEMENT_3D('',#423,#328,#329);
#281=AXIS2_PLACEMENT_3D('',#425,#330,#331);
#282=AXIS2_PLACEMENT_3D('',#427,#332,#333);
#283=AXIS2_PLACEMENT_3D('',#428,#334,#335);
#284=AXIS2_PLACEMENT_3D('',#429,#336,#337);
#285=AXIS2_PLACEMENT_3D('',#430,#338,#339);
#286=AXIS2_PLACEMENT_3D('',#433,#341,#342);
#287=AXIS2_PLACEMENT_3D('',#434,#343,#344);
#288=AXIS2_PLACEMENT_3D('',#436,#345,#346);
#289=AXIS2_PLACEMENT_3D('',#438,#347,#348);
#290=AXIS2_PLACEMENT_3D('',#440,#349,#350);
#291=AXIS2_PLACEMENT_3D('',#441,#351,#352);
#292=AXIS2_PLACEMENT_3D('',#442,#353,#354);
#293=AXIS2_PLACEMENT_3D('',#445,#356,#357);
#294=AXIS2_PLACEMENT_3D('',#446,#358,#359);
#295=AXIS2_PLACEMENT_3D('',#447,#360,#361);
#296=AXIS2_PLACEMENT_3D('placement',#448,#362,#363);
#297=AXIS2_PLACEMENT_3D('',#449,#364,#365);
#298=AXIS2_PLACEMENT_3D('',#452,#366,#367);
#299=AXIS2_PLACEMENT_3D('',#453,#368,#369);
#300=AXIS2_PLACEMENT_3D('',#455,#370,#371);
#301=AXIS2_PLACEMENT_3D('',#457,#372,#373);
#302=AXIS2_PLACEMENT_3D('',#458,#374,#375);
#303=AXIS2_PLACEMENT_3D('',#459,#376,#377);
#304=AXIS2_PLACEMENT_3D('',#462,#379,#380);
#305=AXIS2_PLACEMENT_3D('',#463,#381,#382);
#306=AXIS2_PLACEMENT_3D('',#465,#383,#384);
#307=AXIS2_PLACEMENT_3D('',#468,#386,#387);
#308=AXIS2_PLACEMENT_3D('',#469,#388,#389);
#309=AXIS2_PLACEMENT_3D('',#470,#390,#391);
#310=AXIS2_PLACEMENT_3D('',#472,#392,#393);
#311=AXIS2_PLACEMENT_3D('',#474,#395,#396);
#312=AXIS2_PLACEMENT_3D('',#476,#397,#398);
#313=AXIS2_PLACEMENT_3D('',#477,#399,#400);
#314=AXIS2_PLACEMENT_3D('',#479,#401,#402);
#315=AXIS2_PLACEMENT_3D('',#481,#404,#405);
#316=AXIS2_PLACEMENT_3D('',#483,#406,#407);
#317=AXIS2_PLACEMENT_3D('',#484,#408,#409);
#318=AXIS2_PLACEMENT_3D('',#487,#411,#412);
#319=AXIS2_PLACEMENT_3D('',#488,#413,#414);
#320=AXIS2_PLACEMENT_3D('',#489,#415,#416);
#321=AXIS2_PLACEMENT_3D('',#490,#417,#418);
#322=DIRECTION('axis',(0.,0.,1.));
#323=DIRECTION('refdir',(1.,0.,0.));
#324=DIRECTION('axis',(0.,0.,1.));
#325=DIRECTION('refdir',(1.,0.,0.));
#326=DIRECTION('center_axis',(0.,0.,-1.));
#327=DIRECTION('ref_axis',(-1.,0.,0.));
#328=DIRECTION('center_axis',(0.,0.,-1.));
#329=DIRECTION('ref_axis',(0.,-1.,0.));
#330=DIRECTION('center_axis',(-1.22464679914735E-16,-1.,0.));
#331=DIRECTION('ref_axis',(1.,-1.22464679914735E-16,0.));
#332=DIRECTION('center_axis',(0.,0.,1.));
#333=DIRECTION('ref_axis',(0.,-1.,0.));
#334=DIRECTION('center_axis',(0.,0.,1.));
#335=DIRECTION('ref_axis',(0.,-1.,0.));
#336=DIRECTION('center_axis',(0.,0.,1.));
#337=DIRECTION('ref_axis',(1.,0.,0.));
#338=DIRECTION('center_axis',(0.,0.,-1.));
#339=DIRECTION('ref_axis',(0.,-1.,0.));
#340=DIRECTION('',(0.,0.,1.));
#341=DIRECTION('center_axis',(0.,0.,1.));
#342=DIRECTION('ref_axis',(0.,-1.,0.));
#343=DIRECTION('center_axis',(0.,0.,-1.));
#344=DIRECTION('ref_axis',(-1.,0.,0.));
#345=DIRECTION('center_axis',(0.,0.,1.));
#346=DIRECTION('ref_axis',(-1.83697019872103E-16,1.,0.));
#347=DIRECTION('center_axis',(-1.22464679914735E-16,-1.,0.));
#348=DIRECTION('ref_axis',(1.,-1.22464679914735E-16,0.));
#349=DIRECTION('center_axis',(0.,0.,-1.));
#350=DIRECTION('ref_axis',(-1.83697019872103E-16,1.,0.));
#351=DIRECTION('center_axis',(0.,0.,-1.));
#352=DIRECTION('ref_axis',(-1.83697019872103E-16,1.,0.));
#353=DIRECTION('center_axis',(0.,0.,-1.));
#354=DIRECTION('ref_axis',(0.,-1.,0.));
#355=DIRECTION('',(0.,0.,1.));
#356=DIRECTION('center_axis',(0.,0.,-1.));
#357=DIRECTION('ref_axis',(1.,0.,0.));
#358=DIRECTION('center_axis',(0.,0.,-1.));
#359=DIRECTION('ref_axis',(-1.,0.,0.));
#360=DIRECTION('center_axis',(0.,0.,1.));
#361=DIRECTION('ref_axis',(1.,0.,0.));
#362=DIRECTION('axis',(0.,0.,1.));
#363=DIRECTION('refdir',(1.,0.,0.));
#364=DIRECTION('center_axis',(0.,0.,1.));
#365=DIRECTION('ref_axis',(1.,0.,0.));
#366=DIRECTION('center_axis',(0.,0.,1.));
#367=DIRECTION('ref_axis',(-1.,0.,0.));
#368=DIRECTION('center_axis',(0.,0.,1.));
#369=DIRECTION('ref_axis',(-1.,0.,0.));
#370=DIRECTION('center_axis',(-1.22464679914735E-16,1.,0.));
#371=DIRECTION('ref_axis',(-1.,-1.22464679914735E-16,0.));
#372=DIRECTION('center_axis',(0.,0.,-1.));
#373=DIRECTION('ref_axis',(-1.,0.,0.));
#374=DIRECTION('center_axis',(0.,0.,-1.));
#375=DIRECTION('ref_axis',(-1.,0.,0.));
#376=DIRECTION('center_axis',(0.,0.,1.));
#377=DIRECTION('ref_axis',(-1.,0.,0.));
#378=DIRECTION('',(0.,0.,-1.));
#379=DIRECTION('center_axis',(0.,0.,-1.));
#380=DIRECTION('ref_axis',(-1.,0.,0.));
#381=DIRECTION('center_axis',(0.,0.,1.));
#382=DIRECTION('ref_axis',(-1.,0.,0.));
#383=DIRECTION('center_axis',(0.,0.,1.));
#384=DIRECTION('ref_axis',(1.,0.,0.));
#385=DIRECTION('',(0.,0.,-1.));
#386=DIRECTION('center_axis',(0.,0.,1.));
#387=DIRECTION('ref_axis',(-1.,0.,0.));
#388=DIRECTION('center_axis',(0.,0.,-1.));
#389=DIRECTION('ref_axis',(-1.,0.,0.));
#390=DIRECTION('center_axis',(0.,0.,1.));
#391=DIRECTION('ref_axis',(-1.,0.,0.));
#392=DIRECTION('center_axis',(0.,0.,-1.));
#393=DIRECTION('ref_axis',(-1.,0.,0.));
#394=DIRECTION('',(0.,0.,-1.));
#395=DIRECTION('center_axis',(0.,0.,-1.));
#396=DIRECTION('ref_axis',(-1.,0.,0.));
#397=DIRECTION('center_axis',(0.,0.,-1.));
#398=DIRECTION('ref_axis',(-1.,0.,0.));
#399=DIRECTION('center_axis',(0.,0.,1.));
#400=DIRECTION('ref_axis',(-1.,0.,0.));
#401=DIRECTION('center_axis',(0.,0.,1.));
#402=DIRECTION('ref_axis',(-1.,0.,0.));
#403=DIRECTION('',(0.,0.,-1.));
#404=DIRECTION('center_axis',(0.,0.,1.));
#405=DIRECTION('ref_axis',(1.,0.,0.));
#406=DIRECTION('center_axis',(0.,0.,-1.));
#407=DIRECTION('ref_axis',(-1.,0.,0.));
#408=DIRECTION('center_axis',(0.,0.,1.));
#409=DIRECTION('ref_axis',(-1.,0.,0.));
#410=DIRECTION('',(-0.224859506698759,-2.75373475136488E-17,-0.97439119569462));
#411=DIRECTION('center_axis',(0.,0.,1.));
#412=DIRECTION('ref_axis',(-1.,0.,0.));
#413=DIRECTION('center_axis',(0.,0.,1.));
#414=DIRECTION('ref_axis',(1.,0.,0.));
#415=DIRECTION('',(0.,0.,1.));
#416=DIRECTION('',(1.,0.,0.));
#417=DIRECTION('',(0.,0.,1.));
#418=DIRECTION('',(1.,0.,0.));
#419=CARTESIAN_POINT('',(0.,0.,0.));
#420=CARTESIAN_POINT('',(0.,0.,0.));
#421=CARTESIAN_POINT('Origin',(0.,0.,5.5));
#422=CARTESIAN_POINT('',(20.9,-2.55951181021797E-15,2.5));
#423=CARTESIAN_POINT('Origin',(0.,0.,2.5));
#424=CARTESIAN_POINT('',(23.9,-2.92690584996217E-15,5.5));
#425=CARTESIAN_POINT('Origin',(20.9,-2.55951181021797E-15,5.5));
#426=CARTESIAN_POINT('',(-2.92690584996217E-15,23.9,5.5));
#427=CARTESIAN_POINT('Origin',(0.,0.,5.5));
#428=CARTESIAN_POINT('Origin',(0.,0.,5.5));
#429=CARTESIAN_POINT('Origin',(0.,-25.,2.5));
#430=CARTESIAN_POINT('Origin',(0.,0.,13.75));
#431=CARTESIAN_POINT('',(-2.92690584996217E-15,23.9,25.));
#432=CARTESIAN_POINT('',(2.92690584996217E-15,23.9,13.75));
#433=CARTESIAN_POINT('Origin',(0.,0.,25.));
#434=CARTESIAN_POINT('Origin',(0.,0.,3.));
#435=CARTESIAN_POINT('',(24.5,-3.00038465791102E-15,0.));
#436=CARTESIAN_POINT('Origin',(0.,0.,0.));
#437=CARTESIAN_POINT('',(27.5,-3.36777869765522E-15,3.));
#438=CARTESIAN_POINT('Origin',(24.5,-3.00038465791102E-15,3.));
#439=CARTESIAN_POINT('',(3.36777869765522E-15,27.5,3.));
#440=CARTESIAN_POINT('Origin',(0.,0.,3.));
#441=CARTESIAN_POINT('Origin',(0.,0.,3.));
#442=CARTESIAN_POINT('Origin',(0.,0.,12.5));
#443=CARTESIAN_POINT('',(3.36777869765522E-15,27.5,25.));
#444=CARTESIAN_POINT('',(3.36777869765522E-15,27.5,12.5));
#445=CARTESIAN_POINT('Origin',(0.,0.,25.));
#446=CARTESIAN_POINT('Origin',(0.,0.,0.));
#447=CARTESIAN_POINT('Origin',(0.,-27.5,25.));
#448=CARTESIAN_POINT('',(0.,0.,0.));
#449=CARTESIAN_POINT('Origin',(0.,0.,0.750004933652595));
#450=CARTESIAN_POINT('',(23.,2.81668763803891E-15,1.75000493365259));
#451=CARTESIAN_POINT('',(-23.,-2.81668763803891E-15,1.75000493365259));
#452=CARTESIAN_POINT('Origin',(0.,0.,1.75000493365259));
#453=CARTESIAN_POINT('Origin',(0.,0.,1.75000493365259));
#454=CARTESIAN_POINT('',(-23.,-2.81668763803891E-15,-0.249995066347402));
#455=CARTESIAN_POINT('Origin',(-23.,-2.81668763803891E-15,0.750004933652595));
#456=CARTESIAN_POINT('',(23.,-2.81668763803891E-15,-0.249995066347402));
#457=CARTESIAN_POINT('Origin',(0.,0.,-0.249995066347402));
#458=CARTESIAN_POINT('Origin',(0.,0.,-0.249995066347402));
#459=CARTESIAN_POINT('Origin',(0.,0.,1.));
#460=CARTESIAN_POINT('',(23.,-2.81668763803891E-15,-1.5));
#461=CARTESIAN_POINT('',(23.,2.81668763803891E-15,1.));
#462=CARTESIAN_POINT('Origin',(0.,0.,-1.5));
#463=CARTESIAN_POINT('Origin',(0.,0.,0.500000000000002));
#464=CARTESIAN_POINT('',(19.5,2.38806125833734E-15,1.5));
#465=CARTESIAN_POINT('Origin',(0.,0.,1.5));
#466=CARTESIAN_POINT('',(19.5,2.38806125833734E-15,-1.5));
#467=CARTESIAN_POINT('',(19.5,2.38806125833734E-15,0.500000000000002));
#468=CARTESIAN_POINT('Origin',(0.,0.,-1.5));
#469=CARTESIAN_POINT('Origin',(-24.5,0.,-1.5));
#470=CARTESIAN_POINT('Origin',(0.,0.,1.));
#471=CARTESIAN_POINT('',(23.,-2.81668763803891E-15,3.));
#472=CARTESIAN_POINT('Origin',(0.,0.,3.));
#473=CARTESIAN_POINT('',(23.,2.81668763803891E-15,1.));
#474=CARTESIAN_POINT('Origin',(-27.5,0.,3.));
#475=CARTESIAN_POINT('',(27.5,-3.36777869765522E-15,3.));
#476=CARTESIAN_POINT('Origin',(0.,0.,3.));
#477=CARTESIAN_POINT('Origin',(0.,0.,8.5));
#478=CARTESIAN_POINT('',(27.5,3.36777869765522E-15,5.5));
#479=CARTESIAN_POINT('Origin',(0.,0.,5.5));
#480=CARTESIAN_POINT('',(27.5,3.36777869765522E-15,8.5));
#481=CARTESIAN_POINT('Origin',(-24.5,0.,5.5));
#482=CARTESIAN_POINT('',(0.973786235366122,-1.19254419619487E-16,5.5));
#483=CARTESIAN_POINT('Origin',(0.,0.,5.5));
#484=CARTESIAN_POINT('Origin',(0.,0.,12.6995636900041));
#485=CARTESIAN_POINT('',(0.0507093122891983,6.21009969819302E-18,1.5));
#486=CARTESIAN_POINT('',(2.63522400998244,3.22721864886125E-16,12.6995636900041));
#487=CARTESIAN_POINT('Origin',(0.,0.,1.5));
#488=CARTESIAN_POINT('Origin',(-19.5,0.,1.5));
#489=CARTESIAN_POINT('',(0.,0.,0.));
#490=CARTESIAN_POINT('',(0.,0.,22.));
#491=UNCERTAINTY_MEASURE_WITH_UNIT(LENGTH_MEASURE(0.01),#499,
'DISTANCE_ACCURACY_VALUE',
'Maximum model space distance between geometric entities at asserted c
onnectivities');
#492=UNCERTAINTY_MEASURE_WITH_UNIT(LENGTH_MEASURE(0.01),#499,
'DISTANCE_ACCURACY_VALUE',
'Maximum model space distance between geometric entities at asserted c
onnectivities');
#493=UNCERTAINTY_MEASURE_WITH_UNIT(LENGTH_MEASURE(0.01),#499,
'DISTANCE_ACCURACY_VALUE',
'Maximum model space distance between geometric entities at asserted c
onnectivities');
#494=UNCERTAINTY_MEASURE_WITH_UNIT(LENGTH_MEASURE(0.01),#499,
'DISTANCE_ACCURACY_VALUE',
'Maximum model space distance between geometric entities at asserted c
onnectivities');
#495=(
GEOMETRIC_REPRESENTATION_CONTEXT(3)
GLOBAL_UNCERTAINTY_ASSIGNED_CONTEXT((#491))
GLOBAL_UNIT_ASSIGNED_CONTEXT((#499,#501,#502))
REPRESENTATION_CONTEXT('','3D')
);
#496=(
GEOMETRIC_REPRESENTATION_CONTEXT(3)
GLOBAL_UNCERTAINTY_ASSIGNED_CONTEXT((#492))
GLOBAL_UNIT_ASSIGNED_CONTEXT((#499,#501,#502))
REPRESENTATION_CONTEXT('','3D')
);
#497=(
GEOMETRIC_REPRESENTATION_CONTEXT(3)
GLOBAL_UNCERTAINTY_ASSIGNED_CONTEXT((#493))
GLOBAL_UNIT_ASSIGNED_CONTEXT((#499,#501,#502))
REPRESENTATION_CONTEXT('','3D')
);
#498=(
GEOMETRIC_REPRESENTATION_CONTEXT(3)
GLOBAL_UNCERTAINTY_ASSIGNED_CONTEXT((#494))
GLOBAL_UNIT_ASSIGNED_CONTEXT((#499,#501,#502))
REPRESENTATION_CONTEXT('','3D')
);
#499=(
LENGTH_UNIT()
NAMED_UNIT(*)
SI_UNIT(.MILLI.,.METRE.)
);
#500=(
LENGTH_UNIT()
NAMED_UNIT(*)
SI_UNIT($,.METRE.)
);
#501=(
NAMED_UNIT(*)
PLANE_ANGLE_UNIT()
SI_UNIT($,.RADIAN.)
);
#502=(
NAMED_UNIT(*)
SI_UNIT($,.STERADIAN.)
SOLID_ANGLE_UNIT()
);
#503=SHAPE_DEFINITION_REPRESENTATION(#506,#511);
#504=SHAPE_DEFINITION_REPRESENTATION(#507,#512);
#505=SHAPE_DEFINITION_REPRESENTATION(#508,#513);
#506=PRODUCT_DEFINITION_SHAPE('',$,#515);
#507=PRODUCT_DEFINITION_SHAPE('',$,#516);
#508=PRODUCT_DEFINITION_SHAPE('',$,#517);
#509=PRODUCT_DEFINITION_SHAPE($,$,#17);
#510=PRODUCT_DEFINITION_SHAPE($,$,#18);
#511=SHAPE_REPRESENTATION('',(#277,#320,#321),#495);
#512=SHAPE_REPRESENTATION('',(#278),#496);
#513=SHAPE_REPRESENTATION('',(#296),#497);
#514=PRODUCT_DEFINITION_CONTEXT('part definition',#525,'design');
#515=PRODUCT_DEFINITION('O-Ring','O-Ring v1',#518,#514);
#516=PRODUCT_DEFINITION('Komponente1','Komponente1',#519,#514);
#517=PRODUCT_DEFINITION('Komponente2','Komponente2',#520,#514);
#518=PRODUCT_DEFINITION_FORMATION('',$,#527);
#519=PRODUCT_DEFINITION_FORMATION('',$,#528);
#520=PRODUCT_DEFINITION_FORMATION('',$,#529);
#521=PRODUCT_RELATED_PRODUCT_CATEGORY('O-Ring v1','O-Ring v1',(#527));
#522=PRODUCT_RELATED_PRODUCT_CATEGORY('Komponente1','Komponente1',(#528));
#523=PRODUCT_RELATED_PRODUCT_CATEGORY('Komponente2','Komponente2',(#529));
#524=APPLICATION_PROTOCOL_DEFINITION('international standard',
'automotive_design',2009,#525);
#525=APPLICATION_CONTEXT(
'Core Data for Automotive Mechanical Design Process');
#526=PRODUCT_CONTEXT('part definition',#525,'mechanical');
#527=PRODUCT('O-Ring','O-Ring v1',$,(#526));
#528=PRODUCT('Komponente1','Komponente1',$,(#526));
#529=PRODUCT('Komponente2','Komponente2',$,(#526));
#530=PRESENTATION_STYLE_ASSIGNMENT((#533));
#531=PRESENTATION_STYLE_ASSIGNMENT((#534));
#532=PRESENTATION_STYLE_ASSIGNMENT((#535));
#533=SURFACE_STYLE_USAGE(.BOTH.,#536);
#534=SURFACE_STYLE_USAGE(.BOTH.,#537);
#535=SURFACE_STYLE_USAGE(.BOTH.,#538);
#536=SURFACE_SIDE_STYLE('',(#539));
#537=SURFACE_SIDE_STYLE('',(#540));
#538=SURFACE_SIDE_STYLE('',(#541));
#539=SURFACE_STYLE_FILL_AREA(#542);
#540=SURFACE_STYLE_FILL_AREA(#543);
#541=SURFACE_STYLE_FILL_AREA(#544);
#542=FILL_AREA_STYLE('Stahl - satiniert',(#545));
#543=FILL_AREA_STYLE('Glas (Grau)',(#546));
#544=FILL_AREA_STYLE('Edelstahl - geb\X\FCrstet, linear, lang',(#547));
#545=FILL_AREA_STYLE_COLOUR('Stahl - satiniert',#548);
#546=FILL_AREA_STYLE_COLOUR('Glas (Grau)',#549);
#547=FILL_AREA_STYLE_COLOUR('Edelstahl - geb\X\FCrstet, linear, lang',#550);
#548=COLOUR_RGB('Stahl - satiniert',0.627450980392157,0.627450980392157,
0.627450980392157);
#549=COLOUR_RGB('Glas (Grau)',0.701960784313725,0.701960784313725,0.701960784313725);
#550=COLOUR_RGB('Edelstahl - geb\X\FCrstet, linear, lang',0.796078431372549,
0.796078431372549,0.796078431372549);
ENDSEC;
END-ISO-10303-21;
