ISO-10303-21;
HEADER;
FILE_DESCRIPTION(('CATIA V5 STEP Exchange'),'2;1');

FILE_NAME('C:\\Users\\Merzai\\Desktop\\Mattheck_a.stp','2016-11-09T15:04:00+00:00',('none'),('none'),'Version 5-6 Release 2013','CATIA V5 STEP AP203','none');

FILE_SCHEMA(('CONFIG_CONTROL_DESIGN'));

ENDSEC;
DATA;
#5=PRODUCT('Mattheck_a','','',(#2)) ;
#1=APPLICATION_CONTEXT('configuration controlled 3D design of mechanical parts and assemblies') ;
#14=PRODUCT_DEFINITION('',' ',#6,#3) ;
#16=SECURITY_CLASSIFICATION(' ',' ',#15) ;
#15=SECURITY_CLASSIFICATION_LEVEL('unclassified') ;
#46=CARTESIAN_POINT(' ',(0.,0.,0.)) ;
#50=CARTESIAN_POINT('Punkt1',(0.,0.,0.)) ;
#54=CARTESIAN_POINT('Punkt2',(0.,60.,0.)) ;
#55=CARTESIAN_POINT('Line Origine',(0.,0.,0.)) ;
#59=CARTESIAN_POINT('Limit',(0.,0.,0.)) ;
#60=CARTESIAN_POINT('Limit',(0.,60.,0.)) ;
#65=CARTESIAN_POINT('Axis2P3D Location',(0.,0.,0.)) ;
#70=CARTESIAN_POINT('Line Origine',(0.,25.,0.)) ;
#74=CARTESIAN_POINT('Vertex',(0.,0.,0.)) ;
#76=CARTESIAN_POINT('Vertex',(0.,50.,0.)) ;
#80=CARTESIAN_POINT('Control Point',(0.,50.,-3.5527136788E-015)) ;
#81=CARTESIAN_POINT('Control Point',(0.,43.6614312618,3.97718840547)) ;
#82=CARTESIAN_POINT('Control Point',(0.,38.0032428599,8.47577642346)) ;
#83=CARTESIAN_POINT('Control Point',(0.,33.0254347944,13.495764054)) ;
#84=CARTESIAN_POINT('Control Point',(0.,24.7210997613,24.155493268)) ;
#85=CARTESIAN_POINT('Control Point',(0.,18.6652033646,36.3799245675)) ;
#86=CARTESIAN_POINT('Control Point',(0.,16.2330755463,42.5338428214)) ;
#87=CARTESIAN_POINT('Control Point',(0.,12.2239636925,54.9914370995)) ;
#88=CARTESIAN_POINT('Control Point',(0.,9.45047087605,67.7055772904)) ;
#89=CARTESIAN_POINT('Control Point',(0.,8.29218759924,73.997916851)) ;
#90=CARTESIAN_POINT('Control Point',(0.,5.13847736591,92.8246513911)) ;
#91=CARTESIAN_POINT('Control Point',(0.,2.58441112238,111.732285984)) ;
#92=CARTESIAN_POINT('Control Point',(0.,0.861470374127,124.39705542)) ;
#93=CARTESIAN_POINT('Control Point',(0.,-7.1054273576E-015,137.171578851)) ;
#94=CARTESIAN_POINT('Control Point',(0.,-1.04360964315E-014,150.055856278)) ;
#95=CARTESIAN_POINT('Vertex',(0.,-1.13242748512E-014,150.055856278)) ;
#98=CARTESIAN_POINT('Line Origine',(0.,1.98627431294E-014,100.027928139)) ;
#102=CARTESIAN_POINT('Vertex',(0.,2.36610557053E-014,50.)) ;
#105=CARTESIAN_POINT('Line Origine',(0.,-1.3266052772E-015,25.)) ;
#117=CARTESIAN_POINT('Axis2P3D Location',(0.,0.,0.)) ;
#122=CARTESIAN_POINT('Line Origine',(-20.,25.,0.)) ;
#126=CARTESIAN_POINT('Vertex',(-20.,0.,0.)) ;
#128=CARTESIAN_POINT('Vertex',(-20.,50.,0.)) ;
#131=CARTESIAN_POINT('Line Origine',(-10.,50.,0.)) ;
#136=CARTESIAN_POINT('Line Origine',(-10.,0.,0.)) ;
#149=CARTESIAN_POINT('Control Point',(0.,50.,-3.5527136788E-015)) ;
#150=CARTESIAN_POINT('Control Point',(0.,43.6614312618,3.97718840547)) ;
#151=CARTESIAN_POINT('Control Point',(0.,38.0032428599,8.47577642346)) ;
#152=CARTESIAN_POINT('Control Point',(0.,33.0254347944,13.495764054)) ;
#153=CARTESIAN_POINT('Control Point',(0.,24.7210997613,24.155493268)) ;
#154=CARTESIAN_POINT('Control Point',(0.,18.6652033646,36.3799245675)) ;
#155=CARTESIAN_POINT('Control Point',(0.,16.2330755463,42.5338428214)) ;
#156=CARTESIAN_POINT('Control Point',(0.,12.2239636925,54.9914370995)) ;
#157=CARTESIAN_POINT('Control Point',(0.,9.45047087605,67.7055772904)) ;
#158=CARTESIAN_POINT('Control Point',(0.,8.29218759924,73.997916851)) ;
#159=CARTESIAN_POINT('Control Point',(0.,5.13847736591,92.8246513911)) ;
#160=CARTESIAN_POINT('Control Point',(0.,2.58441112238,111.732285984)) ;
#161=CARTESIAN_POINT('Control Point',(0.,0.861470374127,124.39705542)) ;
#162=CARTESIAN_POINT('Control Point',(0.,-7.1054273576E-015,137.171578851)) ;
#163=CARTESIAN_POINT('Control Point',(0.,-1.04360964315E-014,150.055856278)) ;
#168=CARTESIAN_POINT('Control Point',(-20.,50.,-3.5527136788E-015)) ;
#169=CARTESIAN_POINT('Control Point',(-20.,43.2444038919,4.23885574531)) ;
#170=CARTESIAN_POINT('Control Point',(-20.,37.1095743541,9.16540360936)) ;
#171=CARTESIAN_POINT('Control Point',(-20.,31.747517285,14.7812023158)) ;
#172=CARTESIAN_POINT('Control Point',(-20.,24.6471270853,24.5356479868)) ;
#173=CARTESIAN_POINT('Control Point',(-20.,19.3120062798,35.3792131496)) ;
#174=CARTESIAN_POINT('Control Point',(-20.,17.6167451786,39.3613485796)) ;
#175=CARTESIAN_POINT('Control Point',(-20.,14.601773969,47.4833584737)) ;
#176=CARTESIAN_POINT('Control Point',(-20.,12.2414380382,55.8210057519)) ;
#177=CARTESIAN_POINT('Control Point',(-20.,11.2011844784,60.0177858342)) ;
#178=CARTESIAN_POINT('Control Point',(-20.,9.47792372042,67.8215255309)) ;
#179=CARTESIAN_POINT('Control Point',(-20.,8.03901875816,75.6631183819)) ;
#180=CARTESIAN_POINT('Control Point',(-20.,7.41023394987,79.3322723411)) ;
#181=CARTESIAN_POINT('Control Point',(-20.,6.20528368496,86.7342258395)) ;
#182=CARTESIAN_POINT('Control Point',(-20.,5.09202668074,94.150306982)) ;
#183=CARTESIAN_POINT('Control Point',(-20.,4.55576656763,97.8336354688)) ;
#184=CARTESIAN_POINT('Control Point',(-20.,2.78796754509,110.37724518)) ;
#185=CARTESIAN_POINT('Control Point',(-20.,1.283346062,122.973807276)) ;
#186=CARTESIAN_POINT('Control Point',(-20.,0.426026080544,131.961473676)) ;
#187=CARTESIAN_POINT('Control Point',(-20.,-9.97972581449E-015,140.995234798)) ;
#188=CARTESIAN_POINT('Control Point',(-20.,-1.13242748512E-014,150.055856278)) ;
#189=CARTESIAN_POINT('Vertex',(-20.,1.60644305535E-014,150.055856278)) ;
#192=CARTESIAN_POINT('Line Origine',(-10.61,-1.13242748512E-014,150.055856278)) ;
#204=CARTESIAN_POINT('Axis2P3D Location',(0.,1.60644305535E-014,150.055856278)) ;
#209=CARTESIAN_POINT('Line Origine',(-20.,1.98627431294E-014,100.027928139)) ;
#213=CARTESIAN_POINT('Vertex',(-20.,2.36610557053E-014,50.)) ;
#216=CARTESIAN_POINT('Line Origine',(-10.,2.36610557053E-014,50.)) ;
#228=CARTESIAN_POINT('Line Origine',(-20.,2.55591517875E-014,25.)) ;
#240=CARTESIAN_POINT('Axis2P3D Location',(-20.,0.,0.)) ;
#56=DIRECTION('Vector Direction',(0.,1.,0.)) ;
#66=DIRECTION('Axis2P3D Direction',(1.,0.,0.)) ;
#67=DIRECTION('Axis2P3D XDirection',(0.,1.,0.)) ;
#71=DIRECTION('Vector Direction',(0.,1.,0.)) ;
#99=DIRECTION('Vector Direction',(0.,7.59238432855E-017,-1.)) ;
#106=DIRECTION('Vector Direction',(0.,5.55111512313E-017,-1.)) ;
#118=DIRECTION('Axis2P3D Direction',(0.,-0.,1.)) ;
#119=DIRECTION('Axis2P3D XDirection',(0.,1.,0.)) ;
#123=DIRECTION('Vector Direction',(0.,1.,0.)) ;
#132=DIRECTION('Vector Direction',(-1.,0.,0.)) ;
#137=DIRECTION('Vector Direction',(-1.,0.,0.)) ;
#164=DIRECTION('Vector Direction',(-1.,0.,0.)) ;
#193=DIRECTION('Vector Direction',(-1.,0.,0.)) ;
#205=DIRECTION('Axis2P3D Direction',(0.,1.,7.59238432855E-017)) ;
#206=DIRECTION('Axis2P3D XDirection',(0.,7.59238432855E-017,-1.)) ;
#210=DIRECTION('Vector Direction',(0.,7.59238432855E-017,-1.)) ;
#217=DIRECTION('Vector Direction',(-1.,0.,0.)) ;
#229=DIRECTION('Vector Direction',(0.,7.59238432855E-017,-1.)) ;
#241=DIRECTION('Axis2P3D Direction',(1.,0.,0.)) ;
#242=DIRECTION('Axis2P3D XDirection',(0.,1.,0.)) ;
#47=AXIS2_PLACEMENT_3D(' ',#46,$,$) ;
#68=AXIS2_PLACEMENT_3D('Plane Axis2P3D',#65,#66,#67) ;
#120=AXIS2_PLACEMENT_3D('Plane Axis2P3D',#117,#118,#119) ;
#207=AXIS2_PLACEMENT_3D('Plane Axis2P3D',#204,#205,#206) ;
#243=AXIS2_PLACEMENT_3D('Plane Axis2P3D',#240,#241,#242) ;
#40=PRODUCT_DEFINITION_SHAPE(' ',' ',#14) ;
#63=COMPOSITE_CURVE('Linie.1',(#62),.U.) ;
#62=COMPOSITE_CURVE_SEGMENT(.DISCONTINUOUS.,.T.,#61) ;
#31=APPROVAL_PERSON_ORGANIZATION(#25,#21,#19) ;
#25=PERSON_AND_ORGANIZATION(#22,#23) ;
#22=PERSON(' ',' ',' ',$,$,$) ;
#23=ORGANIZATION(' ',' ',' ') ;
#21=APPROVAL(#20,' ') ;
#20=APPROVAL_STATUS('not_yet_approved') ;
#19=APPROVAL_ROLE('APPROVER') ;
#13=DATE_AND_TIME(#11,#12) ;
#12=LOCAL_TIME(16,3,59.,#10) ;
#10=COORDINATED_UNIVERSAL_TIME_OFFSET(0,0,.AHEAD.) ;
#111=ORIENTED_EDGE('',*,*,#78,.T.) ;
#112=ORIENTED_EDGE('',*,*,#97,.T.) ;
#113=ORIENTED_EDGE('',*,*,#104,.T.) ;
#114=ORIENTED_EDGE('',*,*,#109,.T.) ;
#142=ORIENTED_EDGE('',*,*,#130,.T.) ;
#143=ORIENTED_EDGE('',*,*,#135,.F.) ;
#144=ORIENTED_EDGE('',*,*,#78,.F.) ;
#145=ORIENTED_EDGE('',*,*,#140,.T.) ;
#198=ORIENTED_EDGE('',*,*,#191,.T.) ;
#199=ORIENTED_EDGE('',*,*,#196,.F.) ;
#200=ORIENTED_EDGE('',*,*,#97,.F.) ;
#201=ORIENTED_EDGE('',*,*,#135,.T.) ;
#222=ORIENTED_EDGE('',*,*,#215,.T.) ;
#223=ORIENTED_EDGE('',*,*,#220,.F.) ;
#224=ORIENTED_EDGE('',*,*,#104,.F.) ;
#225=ORIENTED_EDGE('',*,*,#196,.T.) ;
#234=ORIENTED_EDGE('',*,*,#232,.T.) ;
#235=ORIENTED_EDGE('',*,*,#140,.F.) ;
#236=ORIENTED_EDGE('',*,*,#109,.F.) ;
#237=ORIENTED_EDGE('',*,*,#220,.T.) ;
#246=ORIENTED_EDGE('',*,*,#215,.F.) ;
#247=ORIENTED_EDGE('',*,*,#191,.F.) ;
#248=ORIENTED_EDGE('',*,*,#130,.F.) ;
#249=ORIENTED_EDGE('',*,*,#232,.F.) ;
#64=CLOSED_SHELL('Closed Shell',(#116,#147,#203,#227,#239,#251)) ;
#57=VECTOR('Line Direction',#56,1.) ;
#72=VECTOR('Line Direction',#71,1.) ;
#100=VECTOR('Line Direction',#99,1.) ;
#107=VECTOR('Line Direction',#106,1.) ;
#124=VECTOR('Line Direction',#123,1.) ;
#133=VECTOR('Line Direction',#132,1.) ;
#138=VECTOR('Line Direction',#137,1.) ;
#165=VECTOR('Extrusion Surface Vector',#164,1.) ;
#194=VECTOR('Line Direction',#193,1.) ;
#211=VECTOR('Line Direction',#210,1.) ;
#218=VECTOR('Line Direction',#217,1.) ;
#230=VECTOR('Line Direction',#229,1.) ;
#253=ADVANCED_BREP_SHAPE_REPRESENTATION('NONE',(#252),#45) ;
#48=SHAPE_REPRESENTATION(' ',(#47),#45) ;
#116=ADVANCED_FACE('Hauptk\X2\00F6\X0\rper',(#115),#69,.T.) ;
#147=ADVANCED_FACE('Hauptk\X2\00F6\X0\rper',(#146),#121,.F.) ;
#203=ADVANCED_FACE('Hauptk\X2\00F6\X0\rper',(#202),#166,.F.) ;
#227=ADVANCED_FACE('Hauptk\X2\00F6\X0\rper',(#226),#208,.F.) ;
#239=ADVANCED_FACE('Hauptk\X2\00F6\X0\rper',(#238),#208,.F.) ;
#251=ADVANCED_FACE('Hauptk\X2\00F6\X0\rper',(#250),#244,.F.) ;
#4=APPLICATION_PROTOCOL_DEFINITION('international standard','config_control_design',1994,#1) ;
#32=APPROVAL_DATE_TIME(#13,#21) ;
#79=B_SPLINE_CURVE_WITH_KNOTS('',5,(#80,#81,#82,#83,#84,#85,#86,#87,#88,#89,#90,#91,#92,#93,#94),.UNSPECIFIED.,.F.,.U.,(6,3,3,3,6),(0.,35.3553390593,68.0194131812,100.055856278,163.820214012),.UNSPECIFIED.) ;
#148=B_SPLINE_CURVE_WITH_KNOTS('',5,(#149,#150,#151,#152,#153,#154,#155,#156,#157,#158,#159,#160,#161,#162,#163),.UNSPECIFIED.,.F.,.U.,(6,3,3,3,6),(0.,35.3553390593,68.0194131812,100.055856278,163.820214012),.UNSPECIFIED.) ;
#167=B_SPLINE_CURVE_WITH_KNOTS('',5,(#168,#169,#170,#171,#172,#173,#174,#175,#176,#177,#178,#179,#180,#181,#182,#183,#184,#185,#186,#187,#188),.UNSPECIFIED.,.F.,.U.,(6,3,3,3,3,3,6),(0.,54.8638338214,85.3082790786,115.752724336,141.710746686,167.668769037,231.411161252),.UNSPECIFIED.) ;
#252=MANIFOLD_SOLID_BREP('Hauptk\X2\00F6\X0\rper',#64) ;
#11=CALENDAR_DATE(2016,9,11) ;
#30=CC_DESIGN_APPROVAL(#21,(#16,#6,#14)) ;
#18=CC_DESIGN_DATE_AND_TIME_ASSIGNMENT(#13,#17,(#16)) ;
#29=CC_DESIGN_DATE_AND_TIME_ASSIGNMENT(#13,#28,(#14)) ;
#17=DATE_TIME_ROLE('classification_date') ;
#28=DATE_TIME_ROLE('creation_date') ;
#27=CC_DESIGN_PERSON_AND_ORGANIZATION_ASSIGNMENT(#25,#26,(#16)) ;
#33=CC_DESIGN_PERSON_AND_ORGANIZATION_ASSIGNMENT(#25,#34,(#6)) ;
#35=CC_DESIGN_PERSON_AND_ORGANIZATION_ASSIGNMENT(#25,#36,(#6,#14)) ;
#37=CC_DESIGN_PERSON_AND_ORGANIZATION_ASSIGNMENT(#25,#38,(#5)) ;
#26=PERSON_AND_ORGANIZATION_ROLE('classification_officer') ;
#34=PERSON_AND_ORGANIZATION_ROLE('design_supplier') ;
#36=PERSON_AND_ORGANIZATION_ROLE('creator') ;
#38=PERSON_AND_ORGANIZATION_ROLE('design_owner') ;
#39=CC_DESIGN_SECURITY_CLASSIFICATION(#16,(#6)) ;
#53=SHAPE_REPRESENTATION_RELATIONSHIP(' ',' ',#48,#51) ;
#254=SHAPE_REPRESENTATION_RELATIONSHIP(' ',' ',#48,#253) ;
#3=DESIGN_CONTEXT(' ',#1,'design') ;
#78=EDGE_CURVE('',#75,#77,#73,.T.) ;
#97=EDGE_CURVE('',#77,#96,#79,.T.) ;
#104=EDGE_CURVE('',#96,#103,#101,.T.) ;
#109=EDGE_CURVE('',#103,#75,#108,.T.) ;
#130=EDGE_CURVE('',#127,#129,#125,.T.) ;
#135=EDGE_CURVE('',#77,#129,#134,.T.) ;
#140=EDGE_CURVE('',#75,#127,#139,.T.) ;
#191=EDGE_CURVE('',#129,#190,#167,.T.) ;
#196=EDGE_CURVE('',#96,#190,#195,.T.) ;
#215=EDGE_CURVE('',#190,#214,#212,.T.) ;
#220=EDGE_CURVE('',#103,#214,#219,.T.) ;
#232=EDGE_CURVE('',#214,#127,#231,.T.) ;
#110=EDGE_LOOP('',(#111,#112,#113,#114)) ;
#141=EDGE_LOOP('',(#142,#143,#144,#145)) ;
#197=EDGE_LOOP('',(#198,#199,#200,#201)) ;
#221=EDGE_LOOP('',(#222,#223,#224,#225)) ;
#233=EDGE_LOOP('',(#234,#235,#236,#237)) ;
#245=EDGE_LOOP('',(#246,#247,#248,#249)) ;
#115=FACE_OUTER_BOUND('',#110,.T.) ;
#146=FACE_OUTER_BOUND('',#141,.T.) ;
#202=FACE_OUTER_BOUND('',#197,.T.) ;
#226=FACE_OUTER_BOUND('',#221,.T.) ;
#238=FACE_OUTER_BOUND('',#233,.T.) ;
#250=FACE_OUTER_BOUND('',#245,.T.) ;
#52=GEOMETRIC_SET('NONE',(#50,#54,#63)) ;
#51=GEOMETRICALLY_BOUNDED_SURFACE_SHAPE_REPRESENTATION('NONE',(#52),#45) ;
#44=UNCERTAINTY_MEASURE_WITH_UNIT(LENGTH_MEASURE(0.005),#41,'distance_accuracy_value','CONFUSED CURVE UNCERTAINTY') ;
#58=LINE('Line',#55,#57) ;
#73=LINE('Line',#70,#72) ;
#101=LINE('Line',#98,#100) ;
#108=LINE('Line',#105,#107) ;
#125=LINE('Line',#122,#124) ;
#134=LINE('Line',#131,#133) ;
#139=LINE('Line',#136,#138) ;
#195=LINE('Line',#192,#194) ;
#212=LINE('Line',#209,#211) ;
#219=LINE('Line',#216,#218) ;
#231=LINE('Line',#228,#230) ;
#2=MECHANICAL_CONTEXT(' ',#1,'mechanical') ;
#24=PERSONAL_ADDRESS(' ',' ',' ',' ',' ',' ',' ',' ',' ',' ',' ',' ',(#22),' ') ;
#69=PLANE('',#68) ;
#121=PLANE('',#120) ;
#208=PLANE('',#207) ;
#244=PLANE('',#243) ;
#7=PRODUCT_CATEGORY('part',$) ;
#9=PRODUCT_CATEGORY_RELATIONSHIP(' ',' ',#7,#8) ;
#6=PRODUCT_DEFINITION_FORMATION_WITH_SPECIFIED_SOURCE('',' ',#5,.NOT_KNOWN.) ;
#8=PRODUCT_RELATED_PRODUCT_CATEGORY('detail',$,(#5)) ;
#49=SHAPE_DEFINITION_REPRESENTATION(#40,#48) ;
#166=SURFACE_OF_LINEAR_EXTRUSION('generated tabulated cylinder',#148,#165) ;
#61=TRIMMED_CURVE('',#58,(#59),(#60),.T.,.CARTESIAN.) ;
#75=VERTEX_POINT('',#74) ;
#77=VERTEX_POINT('',#76) ;
#96=VERTEX_POINT('',#95) ;
#103=VERTEX_POINT('',#102) ;
#127=VERTEX_POINT('',#126) ;
#129=VERTEX_POINT('',#128) ;
#190=VERTEX_POINT('',#189) ;
#214=VERTEX_POINT('',#213) ;
#41=(LENGTH_UNIT()NAMED_UNIT(*)SI_UNIT(.MILLI.,.METRE.)) ;
#42=(NAMED_UNIT(*)PLANE_ANGLE_UNIT()SI_UNIT($,.RADIAN.)) ;
#43=(NAMED_UNIT(*)SI_UNIT($,.STERADIAN.)SOLID_ANGLE_UNIT()) ;
#45=(GEOMETRIC_REPRESENTATION_CONTEXT(3)GLOBAL_UNCERTAINTY_ASSIGNED_CONTEXT((#44))GLOBAL_UNIT_ASSIGNED_CONTEXT((#41,#42,#43))REPRESENTATION_CONTEXT(' ',' ')) ;
ENDSEC;
END-ISO-10303-21;
