ISO-10303-21;
HEADER;
/* Generated by software containing ST-Developer
 * from STEP Tools, Inc. (www.steptools.com) 
 */
/* OPTION: using custom renumber hook */

FILE_DESCRIPTION(
/* description */ ('STEP AP242',
'CAx-IF Rec.Pracs.---Representation and Presentation of Product Manufa
cturing Information (PMI)---4.0---2014-10-13',
'CAx-IF Rec.Pracs.---3D Tessellated Geometry---0.4---2014-09-14','2;1'),

/* implementation_level */ '2;1');

FILE_NAME(
/* name */ '6635e56bcc000347d92ce8ed',
/* time_stamp */ '2024-05-04T07:36:12Z',
/* author */ ('S. Lettau'),
/* organization */ (''),
/* preprocessor_version */ 'ST-DEVELOPER v20',
/* originating_system */ '  ',
/* authorisation */ '  ');

FILE_SCHEMA (('AP242_MANAGED_MODEL_BASED_3D_ENGINEERING_MIM_LF { 1 0 10303 442 1 1 4 }'));
ENDSEC;

DATA;
#10=SHAPE_REPRESENTATION_RELATIONSHIP('','',#367,#11);
#11=ADVANCED_BREP_SHAPE_REPRESENTATION('',(#365),#573);
#12=ORIENTED_EDGE('',*,*,#108,.F.);
#13=ORIENTED_EDGE('',*,*,#109,.F.);
#14=ORIENTED_EDGE('',*,*,#110,.F.);
#15=ORIENTED_EDGE('',*,*,#111,.F.);
#16=ORIENTED_EDGE('',*,*,#112,.F.);
#17=ORIENTED_EDGE('',*,*,#113,.F.);
#18=ORIENTED_EDGE('',*,*,#114,.T.);
#19=ORIENTED_EDGE('',*,*,#109,.T.);
#20=ORIENTED_EDGE('',*,*,#115,.F.);
#21=ORIENTED_EDGE('',*,*,#116,.T.);
#22=ORIENTED_EDGE('',*,*,#117,.T.);
#23=ORIENTED_EDGE('',*,*,#118,.F.);
#24=ORIENTED_EDGE('',*,*,#117,.F.);
#25=ORIENTED_EDGE('',*,*,#119,.T.);
#26=ORIENTED_EDGE('',*,*,#120,.T.);
#27=ORIENTED_EDGE('',*,*,#121,.F.);
#28=ORIENTED_EDGE('',*,*,#122,.F.);
#29=ORIENTED_EDGE('',*,*,#123,.T.);
#30=ORIENTED_EDGE('',*,*,#115,.T.);
#31=ORIENTED_EDGE('',*,*,#124,.F.);
#32=ORIENTED_EDGE('',*,*,#125,.F.);
#33=ORIENTED_EDGE('',*,*,#126,.F.);
#34=ORIENTED_EDGE('',*,*,#110,.T.);
#35=ORIENTED_EDGE('',*,*,#114,.F.);
#36=ORIENTED_EDGE('',*,*,#127,.F.);
#37=ORIENTED_EDGE('',*,*,#125,.T.);
#38=ORIENTED_EDGE('',*,*,#128,.T.);
#39=ORIENTED_EDGE('',*,*,#129,.F.);
#40=ORIENTED_EDGE('',*,*,#111,.T.);
#41=ORIENTED_EDGE('',*,*,#126,.T.);
#42=ORIENTED_EDGE('',*,*,#127,.T.);
#43=ORIENTED_EDGE('',*,*,#130,.F.);
#44=ORIENTED_EDGE('',*,*,#131,.F.);
#45=ORIENTED_EDGE('',*,*,#132,.T.);
#46=ORIENTED_EDGE('',*,*,#133,.T.);
#47=ORIENTED_EDGE('',*,*,#134,.F.);
#48=ORIENTED_EDGE('',*,*,#135,.F.);
#49=ORIENTED_EDGE('',*,*,#136,.F.);
#50=ORIENTED_EDGE('',*,*,#137,.T.);
#51=ORIENTED_EDGE('',*,*,#138,.T.);
#52=ORIENTED_EDGE('',*,*,#139,.F.);
#53=ORIENTED_EDGE('',*,*,#140,.F.);
#54=ORIENTED_EDGE('',*,*,#141,.T.);
#55=ORIENTED_EDGE('',*,*,#136,.T.);
#56=ORIENTED_EDGE('',*,*,#142,.F.);
#57=ORIENTED_EDGE('',*,*,#143,.F.);
#58=ORIENTED_EDGE('',*,*,#144,.T.);
#59=ORIENTED_EDGE('',*,*,#140,.T.);
#60=ORIENTED_EDGE('',*,*,#145,.F.);
#61=ORIENTED_EDGE('',*,*,#128,.F.);
#62=ORIENTED_EDGE('',*,*,#124,.T.);
#63=ORIENTED_EDGE('',*,*,#118,.T.);
#64=ORIENTED_EDGE('',*,*,#121,.T.);
#65=ORIENTED_EDGE('',*,*,#146,.T.);
#66=ORIENTED_EDGE('',*,*,#147,.T.);
#67=ORIENTED_EDGE('',*,*,#148,.F.);
#68=ORIENTED_EDGE('',*,*,#149,.F.);
#69=ORIENTED_EDGE('',*,*,#133,.F.);
#70=ORIENTED_EDGE('',*,*,#150,.F.);
#71=ORIENTED_EDGE('',*,*,#112,.T.);
#72=ORIENTED_EDGE('',*,*,#108,.T.);
#73=ORIENTED_EDGE('',*,*,#131,.T.);
#74=ORIENTED_EDGE('',*,*,#151,.F.);
#75=ORIENTED_EDGE('',*,*,#135,.T.);
#76=ORIENTED_EDGE('',*,*,#152,.F.);
#77=ORIENTED_EDGE('',*,*,#138,.F.);
#78=ORIENTED_EDGE('',*,*,#153,.F.);
#79=ORIENTED_EDGE('',*,*,#143,.T.);
#80=ORIENTED_EDGE('',*,*,#154,.F.);
#81=ORIENTED_EDGE('',*,*,#147,.F.);
#82=ORIENTED_EDGE('',*,*,#129,.T.);
#83=ORIENTED_EDGE('',*,*,#148,.T.);
#84=ORIENTED_EDGE('',*,*,#154,.T.);
#85=ORIENTED_EDGE('',*,*,#145,.T.);
#86=ORIENTED_EDGE('',*,*,#142,.T.);
#87=ORIENTED_EDGE('',*,*,#139,.T.);
#88=ORIENTED_EDGE('',*,*,#152,.T.);
#89=ORIENTED_EDGE('',*,*,#134,.T.);
#90=ORIENTED_EDGE('',*,*,#149,.T.);
#91=ORIENTED_EDGE('',*,*,#130,.T.);
#92=ORIENTED_EDGE('',*,*,#151,.T.);
#93=ORIENTED_EDGE('',*,*,#137,.F.);
#94=ORIENTED_EDGE('',*,*,#141,.F.);
#95=ORIENTED_EDGE('',*,*,#144,.F.);
#96=ORIENTED_EDGE('',*,*,#153,.T.);
#97=ORIENTED_EDGE('',*,*,#146,.F.);
#98=ORIENTED_EDGE('',*,*,#120,.F.);
#99=ORIENTED_EDGE('',*,*,#155,.F.);
#100=ORIENTED_EDGE('',*,*,#122,.T.);
#101=ORIENTED_EDGE('',*,*,#113,.T.);
#102=ORIENTED_EDGE('',*,*,#150,.T.);
#103=ORIENTED_EDGE('',*,*,#132,.F.);
#104=ORIENTED_EDGE('',*,*,#116,.F.);
#105=ORIENTED_EDGE('',*,*,#123,.F.);
#106=ORIENTED_EDGE('',*,*,#155,.T.);
#107=ORIENTED_EDGE('',*,*,#119,.F.);
#108=EDGE_CURVE('',#156,#157,#188,.T.);
#109=EDGE_CURVE('',#158,#156,#189,.T.);
#110=EDGE_CURVE('',#159,#158,#190,.T.);
#111=EDGE_CURVE('',#157,#159,#191,.T.);
#112=EDGE_CURVE('',#160,#156,#192,.T.);
#113=EDGE_CURVE('',#161,#160,#193,.T.);
#114=EDGE_CURVE('',#161,#158,#194,.T.);
#115=EDGE_CURVE('',#162,#163,#195,.T.);
#116=EDGE_CURVE('',#162,#164,#196,.T.);
#117=EDGE_CURVE('',#164,#165,#197,.T.);
#118=EDGE_CURVE('',#163,#165,#198,.T.);
#119=EDGE_CURVE('',#164,#166,#199,.T.);
#120=EDGE_CURVE('',#166,#167,#200,.T.);
#121=EDGE_CURVE('',#165,#167,#201,.T.);
#122=EDGE_CURVE('',#168,#161,#202,.T.);
#123=EDGE_CURVE('',#168,#162,#203,.T.);
#124=EDGE_CURVE('',#169,#163,#204,.T.);
#125=EDGE_CURVE('',#170,#169,#205,.T.);
#126=EDGE_CURVE('',#159,#170,#206,.T.);
#127=EDGE_CURVE('',#170,#171,#207,.T.);
#128=EDGE_CURVE('',#169,#172,#208,.T.);
#129=EDGE_CURVE('',#171,#172,#209,.T.);
#130=EDGE_CURVE('',#173,#171,#210,.T.);
#131=EDGE_CURVE('',#157,#173,#211,.T.);
#132=EDGE_CURVE('',#174,#175,#212,.T.);
#133=EDGE_CURVE('',#175,#176,#213,.T.);
#134=EDGE_CURVE('',#177,#176,#214,.T.);
#135=EDGE_CURVE('',#174,#177,#215,.T.);
#136=EDGE_CURVE('',#178,#179,#216,.T.);
#137=EDGE_CURVE('',#178,#180,#217,.T.);
#138=EDGE_CURVE('',#180,#181,#218,.T.);
#139=EDGE_CURVE('',#179,#181,#219,.T.);
#140=EDGE_CURVE('',#182,#183,#220,.T.);
#141=EDGE_CURVE('',#182,#178,#221,.T.);
#142=EDGE_CURVE('',#183,#179,#222,.T.);
#143=EDGE_CURVE('',#184,#185,#223,.T.);
#144=EDGE_CURVE('',#184,#182,#224,.T.);
#145=EDGE_CURVE('',#185,#183,#225,.T.);
#146=EDGE_CURVE('',#167,#186,#226,.T.);
#147=EDGE_CURVE('',#186,#187,#227,.T.);
#148=EDGE_CURVE('',#172,#187,#228,.T.);
#149=EDGE_CURVE('',#176,#173,#229,.T.);
#150=EDGE_CURVE('',#160,#175,#230,.T.);
#151=EDGE_CURVE('',#174,#180,#231,.T.);
#152=EDGE_CURVE('',#181,#177,#232,.T.);
#153=EDGE_CURVE('',#184,#186,#233,.T.);
#154=EDGE_CURVE('',#187,#185,#234,.T.);
#155=EDGE_CURVE('',#168,#166,#235,.T.);
#156=VERTEX_POINT('',#476);
#157=VERTEX_POINT('',#477);
#158=VERTEX_POINT('',#479);
#159=VERTEX_POINT('',#481);
#160=VERTEX_POINT('',#485);
#161=VERTEX_POINT('',#487);
#162=VERTEX_POINT('',#491);
#163=VERTEX_POINT('',#492);
#164=VERTEX_POINT('',#494);
#165=VERTEX_POINT('',#496);
#166=VERTEX_POINT('',#500);
#167=VERTEX_POINT('',#502);
#168=VERTEX_POINT('',#506);
#169=VERTEX_POINT('',#509);
#170=VERTEX_POINT('',#511);
#171=VERTEX_POINT('',#515);
#172=VERTEX_POINT('',#517);
#173=VERTEX_POINT('',#521);
#174=VERTEX_POINT('',#525);
#175=VERTEX_POINT('',#526);
#176=VERTEX_POINT('',#528);
#177=VERTEX_POINT('',#530);
#178=VERTEX_POINT('',#534);
#179=VERTEX_POINT('',#535);
#180=VERTEX_POINT('',#537);
#181=VERTEX_POINT('',#539);
#182=VERTEX_POINT('',#543);
#183=VERTEX_POINT('',#544);
#184=VERTEX_POINT('',#549);
#185=VERTEX_POINT('',#550);
#186=VERTEX_POINT('',#555);
#187=VERTEX_POINT('',#557);
#188=LINE('',#475,#236);
#189=LINE('',#478,#237);
#190=LINE('',#480,#238);
#191=LINE('',#482,#239);
#192=LINE('',#484,#240);
#193=LINE('',#486,#241);
#194=LINE('',#488,#242);
#195=LINE('',#490,#243);
#196=LINE('',#493,#244);
#197=LINE('',#495,#245);
#198=LINE('',#497,#246);
#199=LINE('',#499,#247);
#200=LINE('',#501,#248);
#201=LINE('',#503,#249);
#202=LINE('',#505,#250);
#203=LINE('',#507,#251);
#204=LINE('',#508,#252);
#205=LINE('',#510,#253);
#206=LINE('',#512,#254);
#207=LINE('',#514,#255);
#208=LINE('',#516,#256);
#209=LINE('',#518,#257);
#210=LINE('',#520,#258);
#211=LINE('',#522,#259);
#212=LINE('',#524,#260);
#213=LINE('',#527,#261);
#214=LINE('',#529,#262);
#215=LINE('',#531,#263);
#216=LINE('',#533,#264);
#217=LINE('',#536,#265);
#218=LINE('',#538,#266);
#219=LINE('',#540,#267);
#220=LINE('',#542,#268);
#221=LINE('',#545,#269);
#222=LINE('',#546,#270);
#223=LINE('',#548,#271);
#224=LINE('',#551,#272);
#225=LINE('',#552,#273);
#226=LINE('',#554,#274);
#227=LINE('',#556,#275);
#228=LINE('',#558,#276);
#229=LINE('',#560,#277);
#230=LINE('',#561,#278);
#231=LINE('',#563,#279);
#232=LINE('',#564,#280);
#233=LINE('',#566,#281);
#234=LINE('',#567,#282);
#235=LINE('',#570,#283);
#236=VECTOR('',#391,1.);
#237=VECTOR('',#392,1.);
#238=VECTOR('',#393,1.);
#239=VECTOR('',#394,1.);
#240=VECTOR('',#397,1.);
#241=VECTOR('',#398,1.);
#242=VECTOR('',#399,1.);
#243=VECTOR('',#402,1.);
#244=VECTOR('',#403,1.);
#245=VECTOR('',#404,1.);
#246=VECTOR('',#405,1.);
#247=VECTOR('',#408,1.);
#248=VECTOR('',#409,1.);
#249=VECTOR('',#410,1.);
#250=VECTOR('',#413,1.);
#251=VECTOR('',#414,1.);
#252=VECTOR('',#415,1.);
#253=VECTOR('',#416,1.);
#254=VECTOR('',#417,1.);
#255=VECTOR('',#420,1.);
#256=VECTOR('',#421,1.);
#257=VECTOR('',#422,1.);
#258=VECTOR('',#425,1.);
#259=VECTOR('',#426,1.);
#260=VECTOR('',#429,1.);
#261=VECTOR('',#430,1.);
#262=VECTOR('',#431,1.);
#263=VECTOR('',#432,1.);
#264=VECTOR('',#435,1.);
#265=VECTOR('',#436,1.);
#266=VECTOR('',#437,1.);
#267=VECTOR('',#438,1.);
#268=VECTOR('',#441,1.);
#269=VECTOR('',#442,1.);
#270=VECTOR('',#443,1.);
#271=VECTOR('',#446,1.);
#272=VECTOR('',#447,1.);
#273=VECTOR('',#448,1.);
#274=VECTOR('',#451,1.);
#275=VECTOR('',#452,1.);
#276=VECTOR('',#453,1.);
#277=VECTOR('',#456,1.);
#278=VECTOR('',#457,1.);
#279=VECTOR('',#460,1.);
#280=VECTOR('',#461,1.);
#281=VECTOR('',#464,1.);
#282=VECTOR('',#465,1.);
#283=VECTOR('',#470,1.);
#284=EDGE_LOOP('',(#12,#13,#14,#15));
#285=EDGE_LOOP('',(#16,#17,#18,#19));
#286=EDGE_LOOP('',(#20,#21,#22,#23));
#287=EDGE_LOOP('',(#24,#25,#26,#27));
#288=EDGE_LOOP('',(#28,#29,#30,#31,#32,#33,#34,#35));
#289=EDGE_LOOP('',(#36,#37,#38,#39));
#290=EDGE_LOOP('',(#40,#41,#42,#43,#44));
#291=EDGE_LOOP('',(#45,#46,#47,#48));
#292=EDGE_LOOP('',(#49,#50,#51,#52));
#293=EDGE_LOOP('',(#53,#54,#55,#56));
#294=EDGE_LOOP('',(#57,#58,#59,#60));
#295=EDGE_LOOP('',(#61,#62,#63,#64,#65,#66,#67));
#296=EDGE_LOOP('',(#68,#69,#70,#71,#72,#73));
#297=EDGE_LOOP('',(#74,#75,#76,#77));
#298=EDGE_LOOP('',(#78,#79,#80,#81));
#299=EDGE_LOOP('',(#82,#83,#84,#85,#86,#87,#88,#89,#90,#91));
#300=EDGE_LOOP('',(#92,#93,#94,#95,#96,#97,#98,#99,#100,#101,#102,#103));
#301=EDGE_LOOP('',(#104,#105,#106,#107));
#302=FACE_BOUND('',#284,.T.);
#303=FACE_BOUND('',#285,.T.);
#304=FACE_BOUND('',#286,.T.);
#305=FACE_BOUND('',#287,.T.);
#306=FACE_BOUND('',#288,.T.);
#307=FACE_BOUND('',#289,.T.);
#308=FACE_BOUND('',#290,.T.);
#309=FACE_BOUND('',#291,.T.);
#310=FACE_BOUND('',#292,.T.);
#311=FACE_BOUND('',#293,.T.);
#312=FACE_BOUND('',#294,.T.);
#313=FACE_BOUND('',#295,.T.);
#314=FACE_BOUND('',#296,.T.);
#315=FACE_BOUND('',#297,.T.);
#316=FACE_BOUND('',#298,.T.);
#317=FACE_BOUND('',#299,.T.);
#318=FACE_BOUND('',#300,.T.);
#319=FACE_BOUND('',#301,.T.);
#320=PLANE('',#369);
#321=PLANE('',#370);
#322=PLANE('',#371);
#323=PLANE('',#372);
#324=PLANE('',#373);
#325=PLANE('',#374);
#326=PLANE('',#375);
#327=PLANE('',#376);
#328=PLANE('',#377);
#329=PLANE('',#378);
#330=PLANE('',#379);
#331=PLANE('',#380);
#332=PLANE('',#381);
#333=PLANE('',#382);
#334=PLANE('',#383);
#335=PLANE('',#384);
#336=PLANE('',#385);
#337=PLANE('',#386);
#338=ADVANCED_FACE('',(#302),#320,.T.);
#339=ADVANCED_FACE('',(#303),#321,.F.);
#340=ADVANCED_FACE('',(#304),#322,.T.);
#341=ADVANCED_FACE('',(#305),#323,.T.);
#342=ADVANCED_FACE('',(#306),#324,.T.);
#343=ADVANCED_FACE('',(#307),#325,.T.);
#344=ADVANCED_FACE('',(#308),#326,.T.);
#345=ADVANCED_FACE('',(#309),#327,.T.);
#346=ADVANCED_FACE('',(#310),#328,.T.);
#347=ADVANCED_FACE('',(#311),#329,.T.);
#348=ADVANCED_FACE('',(#312),#330,.T.);
#349=ADVANCED_FACE('',(#313),#331,.T.);
#350=ADVANCED_FACE('',(#314),#332,.T.);
#351=ADVANCED_FACE('',(#315),#333,.T.);
#352=ADVANCED_FACE('',(#316),#334,.T.);
#353=ADVANCED_FACE('',(#317),#335,.F.);
#354=ADVANCED_FACE('',(#318),#336,.T.);
#355=ADVANCED_FACE('',(#319),#337,.T.);
#356=CLOSED_SHELL('',(#338,#339,#340,#341,#342,#343,#344,#345,#346,#347,
#348,#349,#350,#351,#352,#353,#354,#355));
#357=STYLED_ITEM('',(#358),#365);
#358=PRESENTATION_STYLE_ASSIGNMENT((#359));
#359=SURFACE_STYLE_USAGE(.BOTH.,#360);
#360=SURFACE_SIDE_STYLE('',(#361));
#361=SURFACE_STYLE_FILL_AREA(#362);
#362=FILL_AREA_STYLE('',(#363));
#363=FILL_AREA_STYLE_COLOUR('',#364);
#364=COLOUR_RGB('',0.811764705882353,0.858823529411765,0.898039215686275);
#365=MANIFOLD_SOLID_BREP('Part 2',#356);
#366=SHAPE_DEFINITION_REPRESENTATION(#578,#367);
#367=SHAPE_REPRESENTATION('Part 2',(#368),#573);
#368=AXIS2_PLACEMENT_3D('',#473,#387,#388);
#369=AXIS2_PLACEMENT_3D('',#474,#389,#390);
#370=AXIS2_PLACEMENT_3D('',#483,#395,#396);
#371=AXIS2_PLACEMENT_3D('',#489,#400,#401);
#372=AXIS2_PLACEMENT_3D('',#498,#406,#407);
#373=AXIS2_PLACEMENT_3D('',#504,#411,#412);
#374=AXIS2_PLACEMENT_3D('',#513,#418,#419);
#375=AXIS2_PLACEMENT_3D('',#519,#423,#424);
#376=AXIS2_PLACEMENT_3D('',#523,#427,#428);
#377=AXIS2_PLACEMENT_3D('',#532,#433,#434);
#378=AXIS2_PLACEMENT_3D('',#541,#439,#440);
#379=AXIS2_PLACEMENT_3D('',#547,#444,#445);
#380=AXIS2_PLACEMENT_3D('',#553,#449,#450);
#381=AXIS2_PLACEMENT_3D('',#559,#454,#455);
#382=AXIS2_PLACEMENT_3D('',#562,#458,#459);
#383=AXIS2_PLACEMENT_3D('',#565,#462,#463);
#384=AXIS2_PLACEMENT_3D('',#568,#466,#467);
#385=AXIS2_PLACEMENT_3D('',#569,#468,#469);
#386=AXIS2_PLACEMENT_3D('',#571,#471,#472);
#387=DIRECTION('',(0.,0.,1.));
#388=DIRECTION('',(1.,0.,0.));
#389=DIRECTION('',(0.,1.,0.));
#390=DIRECTION('',(1.,0.,0.));
#391=DIRECTION('',(0.,0.,1.));
#392=DIRECTION('',(1.,0.,0.));
#393=DIRECTION('',(0.,0.,-1.));
#394=DIRECTION('',(-1.,0.,1.19636101791504E-16));
#395=DIRECTION('',(0.,0.,1.));
#396=DIRECTION('',(0.,-1.,0.));
#397=DIRECTION('',(0.,1.,0.));
#398=DIRECTION('',(1.,0.,0.));
#399=DIRECTION('',(0.923076923076923,0.384615384615385,0.));
#400=DIRECTION('',(0.,1.,0.));
#401=DIRECTION('',(1.,0.,0.));
#402=DIRECTION('',(0.,0.,-1.));
#403=DIRECTION('',(1.,0.,0.));
#404=DIRECTION('',(0.,0.,-1.));
#405=DIRECTION('',(1.,0.,0.));
#406=DIRECTION('',(1.,0.,0.));
#407=DIRECTION('',(0.,-1.,0.));
#408=DIRECTION('',(0.,-1.,0.));
#409=DIRECTION('',(0.,0.,-1.));
#410=DIRECTION('',(0.,-1.,0.));
#411=DIRECTION('',(-0.384615384615385,0.923076923076923,0.));
#412=DIRECTION('',(0.923076923076923,0.384615384615385,0.));
#413=DIRECTION('',(0.,0.,1.));
#414=DIRECTION('',(0.923076923076923,0.384615384615385,0.));
#415=DIRECTION('',(0.923076923076923,0.384615384615385,0.));
#416=DIRECTION('',(0.,0.,-1.));
#417=DIRECTION('',(-0.923076923076923,-0.384615384615385,1.10433324730619E-16));
#418=DIRECTION('',(-1.,0.,0.));
#419=DIRECTION('',(0.,1.,0.));
#420=DIRECTION('',(0.,-1.,0.));
#421=DIRECTION('',(0.,-1.,0.));
#422=DIRECTION('',(0.,0.,-1.));
#423=DIRECTION('',(1.19636101791504E-16,0.,1.));
#424=DIRECTION('',(1.,0.,-1.19636101791504E-16));
#425=DIRECTION('',(-1.,0.,1.19636101791504E-16));
#426=DIRECTION('',(0.,-1.,0.));
#427=DIRECTION('',(1.30922526488816E-16,0.,1.));
#428=DIRECTION('',(1.,0.,-1.30922526488816E-16));
#429=DIRECTION('',(-1.,0.,1.30922526488816E-16));
#430=DIRECTION('',(0.,-1.,0.));
#431=DIRECTION('',(-1.,0.,1.30922526488816E-16));
#432=DIRECTION('',(0.,-1.,0.));
#433=DIRECTION('',(0.,0.,-1.));
#434=DIRECTION('',(0.,1.,0.));
#435=DIRECTION('',(0.,-1.,0.));
#436=DIRECTION('',(1.,0.,0.));
#437=DIRECTION('',(0.,-1.,0.));
#438=DIRECTION('',(1.,0.,0.));
#439=DIRECTION('',(1.,0.,0.));
#440=DIRECTION('',(0.,-1.,0.));
#441=DIRECTION('',(0.,-1.,0.));
#442=DIRECTION('',(0.,0.,1.));
#443=DIRECTION('',(0.,0.,1.));
#444=DIRECTION('',(0.,0.,1.));
#445=DIRECTION('',(0.,-1.,0.));
#446=DIRECTION('',(0.,-1.,0.));
#447=DIRECTION('',(-1.,0.,0.));
#448=DIRECTION('',(-1.,0.,0.));
#449=DIRECTION('',(0.,0.,-1.));
#450=DIRECTION('',(0.,1.,0.));
#451=DIRECTION('',(1.,0.,0.));
#452=DIRECTION('',(0.,-1.,0.));
#453=DIRECTION('',(1.,0.,0.));
#454=DIRECTION('',(1.,0.,0.));
#455=DIRECTION('',(0.,-1.,0.));
#456=DIRECTION('',(0.,0.,1.));
#457=DIRECTION('',(0.,0.,1.));
#458=DIRECTION('',(1.,0.,0.));
#459=DIRECTION('',(0.,-1.,0.));
#460=DIRECTION('',(0.,0.,-1.));
#461=DIRECTION('',(0.,0.,1.));
#462=DIRECTION('',(1.,0.,0.));
#463=DIRECTION('',(0.,-1.,0.));
#464=DIRECTION('',(0.,0.,-1.));
#465=DIRECTION('',(0.,0.,1.));
#466=DIRECTION('',(0.,1.,0.));
#467=DIRECTION('',(1.,0.,0.));
#468=DIRECTION('',(0.,1.,0.));
#469=DIRECTION('',(1.,0.,0.));
#470=DIRECTION('',(1.,0.,0.));
#471=DIRECTION('',(0.,0.,1.));
#472=DIRECTION('',(0.,-1.,0.));
#473=CARTESIAN_POINT('',(0.,0.,0.));
#474=CARTESIAN_POINT('',(0.,0.04,0.));
#475=CARTESIAN_POINT('',(0.017,0.04,0.028));
#476=CARTESIAN_POINT('',(0.017,0.04,0.018));
#477=CARTESIAN_POINT('',(0.017,0.04,0.03));
#478=CARTESIAN_POINT('',(-0.0948402156766168,0.04,0.018));
#479=CARTESIAN_POINT('',(0.00199999999999986,0.04,0.018));
#480=CARTESIAN_POINT('',(0.002,0.04,0.164840215676617));
#481=CARTESIAN_POINT('',(0.002,0.04,0.03));
#482=CARTESIAN_POINT('',(-0.0265,0.04,0.03));
#483=CARTESIAN_POINT('',(-0.0948402156766168,0.035,0.018));
#484=CARTESIAN_POINT('',(0.017,0.035,0.018));
#485=CARTESIAN_POINT('',(0.017,0.03,0.018));
#486=CARTESIAN_POINT('',(-0.0948402156766168,0.03,0.018));
#487=CARTESIAN_POINT('',(-0.022,0.03,0.018));
#488=CARTESIAN_POINT('',(-0.034,0.025,0.018));
#489=CARTESIAN_POINT('',(0.,0.04,0.));
#490=CARTESIAN_POINT('',(0.002,0.04,0.164840215676617));
#491=CARTESIAN_POINT('',(0.00199999999999986,0.04,-0.017));
#492=CARTESIAN_POINT('',(0.002,0.04,-0.03));
#493=CARTESIAN_POINT('',(-0.0948402156766168,0.04,-0.017));
#494=CARTESIAN_POINT('',(0.033,0.04,-0.017));
#495=CARTESIAN_POINT('',(0.033,0.04,0.164840215676617));
#496=CARTESIAN_POINT('',(0.033,0.04,-0.03));
#497=CARTESIAN_POINT('',(0.,0.04,-0.03));
#498=CARTESIAN_POINT('',(0.033,0.035,0.164840215676617));
#499=CARTESIAN_POINT('',(0.033,0.035,-0.017));
#500=CARTESIAN_POINT('',(0.033,0.03,-0.017));
#501=CARTESIAN_POINT('',(0.033,0.03,0.164840215676617));
#502=CARTESIAN_POINT('',(0.033,0.03,-0.03));
#503=CARTESIAN_POINT('',(0.033,0.04,-0.03));
#504=CARTESIAN_POINT('',(-0.034,0.025,0.164840215676617));
#505=CARTESIAN_POINT('',(-0.022,0.03,0.164840215676617));
#506=CARTESIAN_POINT('',(-0.022,0.03,-0.017));
#507=CARTESIAN_POINT('',(-0.034,0.025,-0.017));
#508=CARTESIAN_POINT('',(0.000295857988165679,0.0392899408284023,-0.03));
#509=CARTESIAN_POINT('',(-0.07,0.01,-0.03));
#510=CARTESIAN_POINT('',(-0.07,0.01,0.164840215676617));
#511=CARTESIAN_POINT('',(-0.07,0.01,0.03));
#512=CARTESIAN_POINT('',(-0.0222840236686391,0.0298816568047338,0.03));
#513=CARTESIAN_POINT('',(-0.07,0.04,3.46944695195361E-18));
#514=CARTESIAN_POINT('',(-0.07,0.04,0.03));
#515=CARTESIAN_POINT('',(-0.07,0.,0.03));
#516=CARTESIAN_POINT('',(-0.07,0.04,-0.03));
#517=CARTESIAN_POINT('',(-0.07,0.,-0.03));
#518=CARTESIAN_POINT('',(-0.07,0.,3.46944695195361E-18));
#519=CARTESIAN_POINT('',(-0.0265,0.04,0.03));
#520=CARTESIAN_POINT('',(-0.0265,0.,0.03));
#521=CARTESIAN_POINT('',(0.017,0.,0.03));
#522=CARTESIAN_POINT('',(0.017,0.04,0.03));
#523=CARTESIAN_POINT('',(0.0435,0.04,0.026));
#524=CARTESIAN_POINT('',(0.0435,0.03,0.026));
#525=CARTESIAN_POINT('',(0.07,0.03,0.026));
#526=CARTESIAN_POINT('',(0.017,0.03,0.026));
#527=CARTESIAN_POINT('',(0.017,0.04,0.026));
#528=CARTESIAN_POINT('',(0.017,0.,0.026));
#529=CARTESIAN_POINT('',(0.0435,0.,0.026));
#530=CARTESIAN_POINT('',(0.07,0.,0.026));
#531=CARTESIAN_POINT('',(0.07,0.04,0.026));
#532=CARTESIAN_POINT('',(0.066,0.04,-0.007));
#533=CARTESIAN_POINT('',(0.062,0.04,-0.007));
#534=CARTESIAN_POINT('',(0.062,0.03,-0.007));
#535=CARTESIAN_POINT('',(0.062,0.,-0.007));
#536=CARTESIAN_POINT('',(0.066,0.03,-0.007));
#537=CARTESIAN_POINT('',(0.07,0.03,-0.00699999999999992));
#538=CARTESIAN_POINT('',(0.07,0.04,-0.007));
#539=CARTESIAN_POINT('',(0.07,0.,-0.007));
#540=CARTESIAN_POINT('',(0.066,0.,-0.007));
#541=CARTESIAN_POINT('',(0.062,0.04,-0.012));
#542=CARTESIAN_POINT('',(0.062,0.04,-0.017));
#543=CARTESIAN_POINT('',(0.062,0.03,-0.017));
#544=CARTESIAN_POINT('',(0.062,0.,-0.017));
#545=CARTESIAN_POINT('',(0.062,0.03,-0.012));
#546=CARTESIAN_POINT('',(0.062,0.,-0.012));
#547=CARTESIAN_POINT('',(0.066,0.04,-0.017));
#548=CARTESIAN_POINT('',(0.07,0.04,-0.017));
#549=CARTESIAN_POINT('',(0.07,0.03,-0.017));
#550=CARTESIAN_POINT('',(0.07,0.,-0.017));
#551=CARTESIAN_POINT('',(0.066,0.03,-0.017));
#552=CARTESIAN_POINT('',(0.066,0.,-0.017));
#553=CARTESIAN_POINT('',(0.,0.04,-0.03));
#554=CARTESIAN_POINT('',(0.,0.03,-0.03));
#555=CARTESIAN_POINT('',(0.07,0.03,-0.03));
#556=CARTESIAN_POINT('',(0.07,0.04,-0.03));
#557=CARTESIAN_POINT('',(0.07,0.,-0.03));
#558=CARTESIAN_POINT('',(0.,0.,-0.03));
#559=CARTESIAN_POINT('',(0.017,0.04,0.028));
#560=CARTESIAN_POINT('',(0.017,0.,0.028));
#561=CARTESIAN_POINT('',(0.017,0.03,0.164840215676617));
#562=CARTESIAN_POINT('',(0.07,0.04,0.0095));
#563=CARTESIAN_POINT('',(0.07,0.03,0.164840215676617));
#564=CARTESIAN_POINT('',(0.07,0.,0.0095));
#565=CARTESIAN_POINT('',(0.07,0.04,-0.0235));
#566=CARTESIAN_POINT('',(0.07,0.03,0.164840215676617));
#567=CARTESIAN_POINT('',(0.07,0.,-0.0235));
#568=CARTESIAN_POINT('',(0.,0.,0.));
#569=CARTESIAN_POINT('',(0.0515,0.03,0.164840215676617));
#570=CARTESIAN_POINT('',(-0.0948402156766168,0.03,-0.017));
#571=CARTESIAN_POINT('',(-0.0948402156766168,0.035,-0.017));
#572=MECHANICAL_DESIGN_GEOMETRIC_PRESENTATION_REPRESENTATION('',(#357),
#573);
#573=(
GEOMETRIC_REPRESENTATION_CONTEXT(3)
GLOBAL_UNCERTAINTY_ASSIGNED_CONTEXT((#574))
GLOBAL_UNIT_ASSIGNED_CONTEXT((#577,#576,#575))
REPRESENTATION_CONTEXT('Part 2','TOP_LEVEL_ASSEMBLY_PART')
);
#574=UNCERTAINTY_MEASURE_WITH_UNIT(LENGTH_MEASURE(5.E-6),#577,
'DISTANCE_ACCURACY_VALUE','Maximum Tolerance applied to model');
#575=(
NAMED_UNIT(*)
SI_UNIT($,.STERADIAN.)
SOLID_ANGLE_UNIT()
);
#576=(
NAMED_UNIT(*)
PLANE_ANGLE_UNIT()
SI_UNIT($,.RADIAN.)
);
#577=(
LENGTH_UNIT()
NAMED_UNIT(*)
SI_UNIT($,.METRE.)
);
#578=PRODUCT_DEFINITION_SHAPE('','',#579);
#579=PRODUCT_DEFINITION('','',#581,#580);
#580=PRODUCT_DEFINITION_CONTEXT('',#587,'design');
#581=PRODUCT_DEFINITION_FORMATION_WITH_SPECIFIED_SOURCE('','',#583,
 .NOT_KNOWN.);
#582=PRODUCT_RELATED_PRODUCT_CATEGORY('','',(#583));
#583=PRODUCT('Part 2','Part 2','Part 2',(#585));
#584=PRODUCT_CATEGORY('','');
#585=PRODUCT_CONTEXT('',#587,'mechanical');
#586=APPLICATION_PROTOCOL_DEFINITION('international standard',
'ap242_managed_model_based_3d_engineering',2011,#587);
#587=APPLICATION_CONTEXT('managed model based 3d engineering');
ENDSEC;
END-ISO-10303-21;
