ISO-10303-21;
HEADER;
/* Generated by software containing ST-Developer
 * from STEP Tools, Inc. (www.steptools.com) 
 */
/* OPTION: using custom renumber hook */

FILE_DESCRIPTION(
/* description */ ('STEP AP242',
'CAx-IF Rec.Pracs.---Representation and Presentation of Product Manufa
cturing Information (PMI)---4.0---2014-10-13',
'CAx-IF Rec.Pracs.---3D Tessellated Geometry---0.4---2014-09-14','2;1'),

/* implementation_level */ '2;1');

FILE_NAME(
/* name */ '6635e1c1cc000347d92ce115',
/* time_stamp */ '2024-05-04T07:20:33Z',
/* author */ ('S. Lettau'),
/* organization */ (''),
/* preprocessor_version */ 'ST-DEVELOPER v20',
/* originating_system */ '  ',
/* authorisation */ '  ');

FILE_SCHEMA (('AP242_MANAGED_MODEL_BASED_3D_ENGINEERING_MIM_LF { 1 0 10303 442 1 1 4 }'));
ENDSEC;

DATA;
#10=SHAPE_REPRESENTATION_RELATIONSHIP('','',#283,#11);
#11=ADVANCED_BREP_SHAPE_REPRESENTATION('',(#281),#441);
#12=ORIENTED_EDGE('',*,*,#84,.T.);
#13=ORIENTED_EDGE('',*,*,#85,.F.);
#14=ORIENTED_EDGE('',*,*,#86,.F.);
#15=ORIENTED_EDGE('',*,*,#87,.F.);
#16=ORIENTED_EDGE('',*,*,#88,.T.);
#17=ORIENTED_EDGE('',*,*,#89,.T.);
#18=ORIENTED_EDGE('',*,*,#84,.F.);
#19=ORIENTED_EDGE('',*,*,#90,.F.);
#20=ORIENTED_EDGE('',*,*,#91,.T.);
#21=ORIENTED_EDGE('',*,*,#92,.T.);
#22=ORIENTED_EDGE('',*,*,#88,.F.);
#23=ORIENTED_EDGE('',*,*,#93,.F.);
#24=ORIENTED_EDGE('',*,*,#94,.T.);
#25=ORIENTED_EDGE('',*,*,#95,.T.);
#26=ORIENTED_EDGE('',*,*,#96,.F.);
#27=ORIENTED_EDGE('',*,*,#97,.F.);
#28=ORIENTED_EDGE('',*,*,#91,.F.);
#29=ORIENTED_EDGE('',*,*,#98,.F.);
#30=ORIENTED_EDGE('',*,*,#99,.T.);
#31=ORIENTED_EDGE('',*,*,#94,.F.);
#32=ORIENTED_EDGE('',*,*,#100,.F.);
#33=ORIENTED_EDGE('',*,*,#101,.T.);
#34=ORIENTED_EDGE('',*,*,#102,.T.);
#35=ORIENTED_EDGE('',*,*,#101,.F.);
#36=ORIENTED_EDGE('',*,*,#103,.F.);
#37=ORIENTED_EDGE('',*,*,#104,.T.);
#38=ORIENTED_EDGE('',*,*,#105,.T.);
#39=ORIENTED_EDGE('',*,*,#104,.F.);
#40=ORIENTED_EDGE('',*,*,#106,.F.);
#41=ORIENTED_EDGE('',*,*,#107,.T.);
#42=ORIENTED_EDGE('',*,*,#86,.T.);
#43=ORIENTED_EDGE('',*,*,#108,.F.);
#44=ORIENTED_EDGE('',*,*,#109,.T.);
#45=ORIENTED_EDGE('',*,*,#110,.T.);
#46=ORIENTED_EDGE('',*,*,#107,.F.);
#47=ORIENTED_EDGE('',*,*,#111,.F.);
#48=ORIENTED_EDGE('',*,*,#87,.T.);
#49=ORIENTED_EDGE('',*,*,#111,.T.);
#50=ORIENTED_EDGE('',*,*,#106,.T.);
#51=ORIENTED_EDGE('',*,*,#103,.T.);
#52=ORIENTED_EDGE('',*,*,#100,.T.);
#53=ORIENTED_EDGE('',*,*,#98,.T.);
#54=ORIENTED_EDGE('',*,*,#93,.T.);
#55=ORIENTED_EDGE('',*,*,#90,.T.);
#56=ORIENTED_EDGE('',*,*,#112,.T.);
#57=ORIENTED_EDGE('',*,*,#113,.F.);
#58=ORIENTED_EDGE('',*,*,#114,.F.);
#59=ORIENTED_EDGE('',*,*,#96,.T.);
#60=ORIENTED_EDGE('',*,*,#115,.T.);
#61=ORIENTED_EDGE('',*,*,#116,.F.);
#62=ORIENTED_EDGE('',*,*,#117,.F.);
#63=ORIENTED_EDGE('',*,*,#113,.T.);
#64=ORIENTED_EDGE('',*,*,#118,.T.);
#65=ORIENTED_EDGE('',*,*,#109,.F.);
#66=ORIENTED_EDGE('',*,*,#119,.F.);
#67=ORIENTED_EDGE('',*,*,#116,.T.);
#68=ORIENTED_EDGE('',*,*,#92,.F.);
#69=ORIENTED_EDGE('',*,*,#97,.T.);
#70=ORIENTED_EDGE('',*,*,#114,.T.);
#71=ORIENTED_EDGE('',*,*,#117,.T.);
#72=ORIENTED_EDGE('',*,*,#119,.T.);
#73=ORIENTED_EDGE('',*,*,#108,.T.);
#74=ORIENTED_EDGE('',*,*,#85,.T.);
#75=ORIENTED_EDGE('',*,*,#89,.F.);
#76=ORIENTED_EDGE('',*,*,#99,.F.);
#77=ORIENTED_EDGE('',*,*,#102,.F.);
#78=ORIENTED_EDGE('',*,*,#105,.F.);
#79=ORIENTED_EDGE('',*,*,#110,.F.);
#80=ORIENTED_EDGE('',*,*,#118,.F.);
#81=ORIENTED_EDGE('',*,*,#115,.F.);
#82=ORIENTED_EDGE('',*,*,#112,.F.);
#83=ORIENTED_EDGE('',*,*,#95,.F.);
#84=EDGE_CURVE('',#120,#121,#144,.T.);
#85=EDGE_CURVE('',#122,#121,#145,.T.);
#86=EDGE_CURVE('',#123,#122,#146,.T.);
#87=EDGE_CURVE('',#120,#123,#147,.T.);
#88=EDGE_CURVE('',#124,#125,#148,.T.);
#89=EDGE_CURVE('',#125,#121,#149,.T.);
#90=EDGE_CURVE('',#124,#120,#150,.T.);
#91=EDGE_CURVE('',#126,#127,#151,.T.);
#92=EDGE_CURVE('',#127,#125,#152,.T.);
#93=EDGE_CURVE('',#126,#124,#153,.T.);
#94=EDGE_CURVE('',#128,#129,#154,.T.);
#95=EDGE_CURVE('',#129,#130,#155,.T.);
#96=EDGE_CURVE('',#131,#130,#156,.T.);
#97=EDGE_CURVE('',#127,#131,#157,.T.);
#98=EDGE_CURVE('',#128,#126,#158,.T.);
#99=EDGE_CURVE('',#132,#129,#159,.T.);
#100=EDGE_CURVE('',#133,#128,#160,.T.);
#101=EDGE_CURVE('',#133,#132,#161,.T.);
#102=EDGE_CURVE('',#134,#132,#162,.T.);
#103=EDGE_CURVE('',#135,#133,#163,.T.);
#104=EDGE_CURVE('',#135,#134,#164,.T.);
#105=EDGE_CURVE('',#136,#134,#165,.T.);
#106=EDGE_CURVE('',#137,#135,#166,.T.);
#107=EDGE_CURVE('',#137,#136,#167,.T.);
#108=EDGE_CURVE('',#138,#122,#168,.T.);
#109=EDGE_CURVE('',#138,#139,#169,.T.);
#110=EDGE_CURVE('',#139,#136,#170,.T.);
#111=EDGE_CURVE('',#123,#137,#171,.T.);
#112=EDGE_CURVE('',#130,#140,#172,.T.);
#113=EDGE_CURVE('',#141,#140,#173,.T.);
#114=EDGE_CURVE('',#131,#141,#174,.T.);
#115=EDGE_CURVE('',#140,#142,#175,.T.);
#116=EDGE_CURVE('',#143,#142,#176,.T.);
#117=EDGE_CURVE('',#141,#143,#177,.T.);
#118=EDGE_CURVE('',#142,#139,#178,.T.);
#119=EDGE_CURVE('',#143,#138,#179,.T.);
#120=VERTEX_POINT('',#368);
#121=VERTEX_POINT('',#369);
#122=VERTEX_POINT('',#371);
#123=VERTEX_POINT('',#373);
#124=VERTEX_POINT('',#377);
#125=VERTEX_POINT('',#378);
#126=VERTEX_POINT('',#383);
#127=VERTEX_POINT('',#384);
#128=VERTEX_POINT('',#389);
#129=VERTEX_POINT('',#390);
#130=VERTEX_POINT('',#392);
#131=VERTEX_POINT('',#394);
#132=VERTEX_POINT('',#399);
#133=VERTEX_POINT('',#401);
#134=VERTEX_POINT('',#405);
#135=VERTEX_POINT('',#407);
#136=VERTEX_POINT('',#411);
#137=VERTEX_POINT('',#413);
#138=VERTEX_POINT('',#417);
#139=VERTEX_POINT('',#419);
#140=VERTEX_POINT('',#425);
#141=VERTEX_POINT('',#427);
#142=VERTEX_POINT('',#431);
#143=VERTEX_POINT('',#433);
#144=LINE('',#367,#180);
#145=LINE('',#370,#181);
#146=LINE('',#372,#182);
#147=LINE('',#374,#183);
#148=LINE('',#376,#184);
#149=LINE('',#379,#185);
#150=LINE('',#380,#186);
#151=LINE('',#382,#187);
#152=LINE('',#385,#188);
#153=LINE('',#386,#189);
#154=LINE('',#388,#190);
#155=LINE('',#391,#191);
#156=LINE('',#393,#192);
#157=LINE('',#395,#193);
#158=LINE('',#396,#194);
#159=LINE('',#398,#195);
#160=LINE('',#400,#196);
#161=LINE('',#402,#197);
#162=LINE('',#404,#198);
#163=LINE('',#406,#199);
#164=LINE('',#408,#200);
#165=LINE('',#410,#201);
#166=LINE('',#412,#202);
#167=LINE('',#414,#203);
#168=LINE('',#416,#204);
#169=LINE('',#418,#205);
#170=LINE('',#420,#206);
#171=LINE('',#421,#207);
#172=LINE('',#424,#208);
#173=LINE('',#426,#209);
#174=LINE('',#428,#210);
#175=LINE('',#430,#211);
#176=LINE('',#432,#212);
#177=LINE('',#434,#213);
#178=LINE('',#436,#214);
#179=LINE('',#437,#215);
#180=VECTOR('',#303,1.);
#181=VECTOR('',#304,1.);
#182=VECTOR('',#305,1.);
#183=VECTOR('',#306,1.);
#184=VECTOR('',#309,1.);
#185=VECTOR('',#310,1.);
#186=VECTOR('',#311,1.);
#187=VECTOR('',#314,1.);
#188=VECTOR('',#315,1.);
#189=VECTOR('',#316,1.);
#190=VECTOR('',#319,1.);
#191=VECTOR('',#320,1.);
#192=VECTOR('',#321,1.);
#193=VECTOR('',#322,1.);
#194=VECTOR('',#323,1.);
#195=VECTOR('',#326,1.);
#196=VECTOR('',#327,1.);
#197=VECTOR('',#328,1.);
#198=VECTOR('',#331,1.);
#199=VECTOR('',#332,1.);
#200=VECTOR('',#333,1.);
#201=VECTOR('',#336,1.);
#202=VECTOR('',#337,1.);
#203=VECTOR('',#338,1.);
#204=VECTOR('',#341,1.);
#205=VECTOR('',#342,1.);
#206=VECTOR('',#343,1.);
#207=VECTOR('',#344,1.);
#208=VECTOR('',#349,1.);
#209=VECTOR('',#350,1.);
#210=VECTOR('',#351,1.);
#211=VECTOR('',#354,1.);
#212=VECTOR('',#355,1.);
#213=VECTOR('',#356,1.);
#214=VECTOR('',#359,1.);
#215=VECTOR('',#360,1.);
#216=EDGE_LOOP('',(#12,#13,#14,#15));
#217=EDGE_LOOP('',(#16,#17,#18,#19));
#218=EDGE_LOOP('',(#20,#21,#22,#23));
#219=EDGE_LOOP('',(#24,#25,#26,#27,#28,#29));
#220=EDGE_LOOP('',(#30,#31,#32,#33));
#221=EDGE_LOOP('',(#34,#35,#36,#37));
#222=EDGE_LOOP('',(#38,#39,#40,#41));
#223=EDGE_LOOP('',(#42,#43,#44,#45,#46,#47));
#224=EDGE_LOOP('',(#48,#49,#50,#51,#52,#53,#54,#55));
#225=EDGE_LOOP('',(#56,#57,#58,#59));
#226=EDGE_LOOP('',(#60,#61,#62,#63));
#227=EDGE_LOOP('',(#64,#65,#66,#67));
#228=EDGE_LOOP('',(#68,#69,#70,#71,#72,#73,#74,#75));
#229=EDGE_LOOP('',(#76,#77,#78,#79,#80,#81,#82,#83));
#230=FACE_BOUND('',#216,.T.);
#231=FACE_BOUND('',#217,.T.);
#232=FACE_BOUND('',#218,.T.);
#233=FACE_BOUND('',#219,.T.);
#234=FACE_BOUND('',#220,.T.);
#235=FACE_BOUND('',#221,.T.);
#236=FACE_BOUND('',#222,.T.);
#237=FACE_BOUND('',#223,.T.);
#238=FACE_BOUND('',#224,.T.);
#239=FACE_BOUND('',#225,.T.);
#240=FACE_BOUND('',#226,.T.);
#241=FACE_BOUND('',#227,.T.);
#242=FACE_BOUND('',#228,.T.);
#243=FACE_BOUND('',#229,.T.);
#244=PLANE('',#285);
#245=PLANE('',#286);
#246=PLANE('',#287);
#247=PLANE('',#288);
#248=PLANE('',#289);
#249=PLANE('',#290);
#250=PLANE('',#291);
#251=PLANE('',#292);
#252=PLANE('',#293);
#253=PLANE('',#294);
#254=PLANE('',#295);
#255=PLANE('',#296);
#256=PLANE('',#297);
#257=PLANE('',#298);
#258=ADVANCED_FACE('',(#230),#244,.F.);
#259=ADVANCED_FACE('',(#231),#245,.F.);
#260=ADVANCED_FACE('',(#232),#246,.F.);
#261=ADVANCED_FACE('',(#233),#247,.F.);
#262=ADVANCED_FACE('',(#234),#248,.F.);
#263=ADVANCED_FACE('',(#235),#249,.F.);
#264=ADVANCED_FACE('',(#236),#250,.F.);
#265=ADVANCED_FACE('',(#237),#251,.F.);
#266=ADVANCED_FACE('',(#238),#252,.F.);
#267=ADVANCED_FACE('',(#239),#253,.F.);
#268=ADVANCED_FACE('',(#240),#254,.F.);
#269=ADVANCED_FACE('',(#241),#255,.F.);
#270=ADVANCED_FACE('',(#242),#256,.T.);
#271=ADVANCED_FACE('',(#243),#257,.F.);
#272=CLOSED_SHELL('',(#258,#259,#260,#261,#262,#263,#264,#265,#266,#267,
#268,#269,#270,#271));
#273=STYLED_ITEM('',(#274),#281);
#274=PRESENTATION_STYLE_ASSIGNMENT((#275));
#275=SURFACE_STYLE_USAGE(.BOTH.,#276);
#276=SURFACE_SIDE_STYLE('',(#277));
#277=SURFACE_STYLE_FILL_AREA(#278);
#278=FILL_AREA_STYLE('',(#279));
#279=FILL_AREA_STYLE_COLOUR('',#280);
#280=COLOUR_RGB('',0.811764705882353,0.858823529411765,0.898039215686275);
#281=MANIFOLD_SOLID_BREP('Part 1',#272);
#282=SHAPE_DEFINITION_REPRESENTATION(#446,#283);
#283=SHAPE_REPRESENTATION('Part 1',(#284),#441);
#284=AXIS2_PLACEMENT_3D('',#365,#299,#300);
#285=AXIS2_PLACEMENT_3D('',#366,#301,#302);
#286=AXIS2_PLACEMENT_3D('',#375,#307,#308);
#287=AXIS2_PLACEMENT_3D('',#381,#312,#313);
#288=AXIS2_PLACEMENT_3D('',#387,#317,#318);
#289=AXIS2_PLACEMENT_3D('',#397,#324,#325);
#290=AXIS2_PLACEMENT_3D('',#403,#329,#330);
#291=AXIS2_PLACEMENT_3D('',#409,#334,#335);
#292=AXIS2_PLACEMENT_3D('',#415,#339,#340);
#293=AXIS2_PLACEMENT_3D('',#422,#345,#346);
#294=AXIS2_PLACEMENT_3D('',#423,#347,#348);
#295=AXIS2_PLACEMENT_3D('',#429,#352,#353);
#296=AXIS2_PLACEMENT_3D('',#435,#357,#358);
#297=AXIS2_PLACEMENT_3D('',#438,#361,#362);
#298=AXIS2_PLACEMENT_3D('',#439,#363,#364);
#299=DIRECTION('',(0.,0.,1.));
#300=DIRECTION('',(1.,0.,0.));
#301=DIRECTION('',(0.,1.,1.22464679914735E-16));
#302=DIRECTION('',(0.,-1.22464679914735E-16,1.));
#303=DIRECTION('',(1.,0.,0.));
#304=DIRECTION('',(0.,0.,-1.));
#305=DIRECTION('',(1.,0.,0.));
#306=DIRECTION('',(0.,-1.22464679914735E-16,1.));
#307=DIRECTION('',(0.,0.,1.));
#308=DIRECTION('',(0.,-1.,0.));
#309=DIRECTION('',(1.,0.,0.));
#310=DIRECTION('',(0.,-1.,0.));
#311=DIRECTION('',(0.,-1.,0.));
#312=DIRECTION('',(0.,-1.,-4.00320802148494E-16));
#313=DIRECTION('',(0.,4.00320802148494E-16,-1.));
#314=DIRECTION('',(1.,0.,0.));
#315=DIRECTION('',(0.,5.33761069531325E-16,-1.));
#316=DIRECTION('',(0.,4.00320802148494E-16,-1.));
#317=DIRECTION('',(0.,0.,1.));
#318=DIRECTION('',(0.,-1.,0.));
#319=DIRECTION('',(1.,0.,0.));
#320=DIRECTION('',(0.,1.,0.));
#321=DIRECTION('',(-1.,0.,0.));
#322=DIRECTION('',(0.,1.,0.));
#323=DIRECTION('',(0.,-1.,0.));
#324=DIRECTION('',(0.,-1.,0.));
#325=DIRECTION('',(-1.,0.,0.));
#326=DIRECTION('',(0.,0.,-1.));
#327=DIRECTION('',(0.,0.,-1.));
#328=DIRECTION('',(1.,0.,0.));
#329=DIRECTION('',(0.,2.66880534765662E-16,-1.));
#330=DIRECTION('',(0.,1.,2.66880534765662E-16));
#331=DIRECTION('',(0.,1.,2.66880534765662E-16));
#332=DIRECTION('',(0.,1.,2.66880534765662E-16));
#333=DIRECTION('',(1.,0.,0.));
#334=DIRECTION('',(0.,-1.,0.));
#335=DIRECTION('',(-1.,0.,0.));
#336=DIRECTION('',(0.,0.,-1.));
#337=DIRECTION('',(0.,0.,-1.));
#338=DIRECTION('',(1.,0.,0.));
#339=DIRECTION('',(0.,0.,-1.));
#340=DIRECTION('',(0.,1.,0.));
#341=DIRECTION('',(0.,-1.,-1.92747052886312E-16));
#342=DIRECTION('',(-1.,0.,0.));
#343=DIRECTION('',(0.,-1.,-1.92747052886312E-16));
#344=DIRECTION('',(0.,1.,0.));
#345=DIRECTION('',(1.,0.,0.));
#346=DIRECTION('',(0.,0.,-1.));
#347=DIRECTION('',(0.,-1.,0.));
#348=DIRECTION('',(-1.,0.,0.));
#349=DIRECTION('',(0.,0.,1.));
#350=DIRECTION('',(-1.,0.,0.));
#351=DIRECTION('',(0.,0.,1.));
#352=DIRECTION('',(0.,1.22464679914735E-16,-1.));
#353=DIRECTION('',(0.,1.,1.22464679914735E-16));
#354=DIRECTION('',(0.,-1.,-1.22464679914735E-16));
#355=DIRECTION('',(-1.,0.,0.));
#356=DIRECTION('',(0.,-1.,-1.22464679914735E-16));
#357=DIRECTION('',(0.,-1.,-2.31296463463574E-16));
#358=DIRECTION('',(0.,2.31296463463574E-16,-1.));
#359=DIRECTION('',(0.,-2.31296463463574E-16,1.));
#360=DIRECTION('',(0.,-2.31296463463574E-16,1.));
#361=DIRECTION('',(1.,0.,0.));
#362=DIRECTION('',(0.,0.,-1.));
#363=DIRECTION('',(1.,0.,0.));
#364=DIRECTION('',(0.,0.,-1.));
#365=CARTESIAN_POINT('',(0.,0.,0.));
#366=CARTESIAN_POINT('',(-0.07,6.72157430213778E-20,0.));
#367=CARTESIAN_POINT('',(-0.07,3.46944695195361E-18,-0.03));
#368=CARTESIAN_POINT('',(-0.07,3.46944695195361E-18,-0.03));
#369=CARTESIAN_POINT('',(0.05,3.46944695195361E-18,-0.03));
#370=CARTESIAN_POINT('',(0.05,0.,3.46944695195361E-18));
#371=CARTESIAN_POINT('',(0.05,0.,0.03));
#372=CARTESIAN_POINT('',(-0.07,-3.46944695195361E-18,0.03));
#373=CARTESIAN_POINT('',(-0.07,-3.46944695195361E-18,0.03));
#374=CARTESIAN_POINT('',(-0.07,6.72157430213778E-20,0.));
#375=CARTESIAN_POINT('',(-0.07,0.004,-0.03));
#376=CARTESIAN_POINT('',(-0.07,0.008,-0.03));
#377=CARTESIAN_POINT('',(-0.07,0.008,-0.03));
#378=CARTESIAN_POINT('',(0.05,0.008,-0.03));
#379=CARTESIAN_POINT('',(0.05,0.004,-0.03));
#380=CARTESIAN_POINT('',(-0.07,0.004,-0.03));
#381=CARTESIAN_POINT('',(-0.07,0.008,-0.0235));
#382=CARTESIAN_POINT('',(-0.07,0.008,-0.017));
#383=CARTESIAN_POINT('',(-0.07,0.008,-0.017));
#384=CARTESIAN_POINT('',(0.05,0.008,-0.017));
#385=CARTESIAN_POINT('',(0.05,0.008,-0.0235));
#386=CARTESIAN_POINT('',(-0.07,0.008,-0.0235));
#387=CARTESIAN_POINT('',(-0.07,0.0165,-0.017));
#388=CARTESIAN_POINT('',(-0.07,0.025,-0.017));
#389=CARTESIAN_POINT('',(-0.07,0.025,-0.017));
#390=CARTESIAN_POINT('',(0.,0.025,-0.017));
#391=CARTESIAN_POINT('',(0.,0.0355,-0.017));
#392=CARTESIAN_POINT('',(0.,0.063,-0.017));
#393=CARTESIAN_POINT('',(0.05,0.063,-0.017));
#394=CARTESIAN_POINT('',(0.05,0.063,-0.017));
#395=CARTESIAN_POINT('',(0.05,0.0355,-0.017));
#396=CARTESIAN_POINT('',(-0.07,0.0165,-0.017));
#397=CARTESIAN_POINT('',(-0.07,0.025,-0.001));
#398=CARTESIAN_POINT('',(0.,0.025,-0.001));
#399=CARTESIAN_POINT('',(0.,0.025,0.015));
#400=CARTESIAN_POINT('',(-0.07,0.025,-0.001));
#401=CARTESIAN_POINT('',(-0.07,0.025,0.015));
#402=CARTESIAN_POINT('',(-0.07,0.025,0.015));
#403=CARTESIAN_POINT('',(-0.07,0.0185,0.015));
#404=CARTESIAN_POINT('',(0.,0.0185,0.015));
#405=CARTESIAN_POINT('',(0.,0.012,0.015));
#406=CARTESIAN_POINT('',(-0.07,0.0185,0.015));
#407=CARTESIAN_POINT('',(-0.07,0.012,0.015));
#408=CARTESIAN_POINT('',(-0.07,0.012,0.015));
#409=CARTESIAN_POINT('',(-0.07,0.012,0.0225));
#410=CARTESIAN_POINT('',(0.,0.012,0.0225));
#411=CARTESIAN_POINT('',(0.,0.012,0.03));
#412=CARTESIAN_POINT('',(-0.07,0.012,0.0225));
#413=CARTESIAN_POINT('',(-0.07,0.012,0.03));
#414=CARTESIAN_POINT('',(-0.07,0.012,0.03));
#415=CARTESIAN_POINT('',(-0.07,0.006,0.03));
#416=CARTESIAN_POINT('',(0.05,0.018,0.03));
#417=CARTESIAN_POINT('',(0.05,0.036,0.03));
#418=CARTESIAN_POINT('',(0.05,0.036,0.03));
#419=CARTESIAN_POINT('',(0.,0.036,0.03));
#420=CARTESIAN_POINT('',(0.,0.018,0.03));
#421=CARTESIAN_POINT('',(-0.07,0.006,0.03));
#422=CARTESIAN_POINT('',(-0.07,0.0125,0.));
#423=CARTESIAN_POINT('',(0.05,0.063,-0.0085));
#424=CARTESIAN_POINT('',(0.,0.063,-0.0085));
#425=CARTESIAN_POINT('',(0.,0.063,9.65277630773042E-18));
#426=CARTESIAN_POINT('',(0.05,0.063,9.65277630773042E-18));
#427=CARTESIAN_POINT('',(0.05,0.063,9.65277630773042E-18));
#428=CARTESIAN_POINT('',(0.05,0.063,-0.0085));
#429=CARTESIAN_POINT('',(0.05,0.0495,7.99950312888149E-18));
#430=CARTESIAN_POINT('',(0.,0.0495,7.99950312888149E-18));
#431=CARTESIAN_POINT('',(0.,0.036,1.04083408558608E-17));
#432=CARTESIAN_POINT('',(0.05,0.036,1.04083408558608E-17));
#433=CARTESIAN_POINT('',(0.05,0.036,1.04083408558608E-17));
#434=CARTESIAN_POINT('',(0.05,0.0495,7.99950312888149E-18));
#435=CARTESIAN_POINT('',(0.05,0.036,0.015));
#436=CARTESIAN_POINT('',(0.,0.036,0.015));
#437=CARTESIAN_POINT('',(0.05,0.036,0.015));
#438=CARTESIAN_POINT('',(0.05,0.0315,6.93889390390723E-18));
#439=CARTESIAN_POINT('',(0.,0.0315,6.93889390390723E-18));
#440=MECHANICAL_DESIGN_GEOMETRIC_PRESENTATION_REPRESENTATION('',(#273),
#441);
#441=(
GEOMETRIC_REPRESENTATION_CONTEXT(3)
GLOBAL_UNCERTAINTY_ASSIGNED_CONTEXT((#442))
GLOBAL_UNIT_ASSIGNED_CONTEXT((#445,#444,#443))
REPRESENTATION_CONTEXT('Part 1','TOP_LEVEL_ASSEMBLY_PART')
);
#442=UNCERTAINTY_MEASURE_WITH_UNIT(LENGTH_MEASURE(5.E-6),#445,
'DISTANCE_ACCURACY_VALUE','Maximum Tolerance applied to model');
#443=(
NAMED_UNIT(*)
SI_UNIT($,.STERADIAN.)
SOLID_ANGLE_UNIT()
);
#444=(
NAMED_UNIT(*)
PLANE_ANGLE_UNIT()
SI_UNIT($,.RADIAN.)
);
#445=(
LENGTH_UNIT()
NAMED_UNIT(*)
SI_UNIT($,.METRE.)
);
#446=PRODUCT_DEFINITION_SHAPE('','',#447);
#447=PRODUCT_DEFINITION('','',#449,#448);
#448=PRODUCT_DEFINITION_CONTEXT('',#455,'design');
#449=PRODUCT_DEFINITION_FORMATION_WITH_SPECIFIED_SOURCE('','',#451,
 .NOT_KNOWN.);
#450=PRODUCT_RELATED_PRODUCT_CATEGORY('','',(#451));
#451=PRODUCT('Part 1','Part 1','Part 1',(#453));
#452=PRODUCT_CATEGORY('','');
#453=PRODUCT_CONTEXT('',#455,'mechanical');
#454=APPLICATION_PROTOCOL_DEFINITION('international standard',
'ap242_managed_model_based_3d_engineering',2011,#455);
#455=APPLICATION_CONTEXT('managed model based 3d engineering');
ENDSEC;
END-ISO-10303-21;
