ISO-10303-21;
HEADER;
FILE_DESCRIPTION (( 'STEP AP214' ),
    '1' );
FILE_NAME ('Hülle neu.STEP',
    '2017-05-02T12:35:58',
    ( '' ),
    ( '' ),
    'SwSTEP 2.0',
    'SolidWorks 2016',
    '' );
FILE_SCHEMA (( 'AUTOMOTIVE_DESIGN' ));
ENDSEC;

DATA;
#1 = DIRECTION ( 'NONE',  ( 0.0000000000000000000, 0.0000000000000000000, 1.000000000000000000 ) ) ;
#2 =( NAMED_UNIT ( * ) SI_UNIT ( $, .STERADIAN. ) SOLID_ANGLE_UNIT ( ) );
#3 = ADVANCED_FACE ( 'NONE', ( #53 ), #25, .F. ) ;
#4 = CARTESIAN_POINT ( 'NONE',  ( 25.00000000000000000, 3.061616997868383000E-015, 0.0000000000000000000 ) ) ;
#5 =( NAMED_UNIT ( * ) PLANE_ANGLE_UNIT ( ) SI_UNIT ( $, .RADIAN. ) );
#6 = PRODUCT_RELATED_PRODUCT_CATEGORY ( 'part', '', ( #144 ) ) ;
#7 = EDGE_LOOP ( 'NONE', ( #187, #50, #13, #106 ) ) ;
#8 = VERTEX_POINT ( 'NONE', #31 ) ;
#9 = COLOUR_RGB ( '',0.7921568627450980000, 0.8196078431372548800, 0.9333333333333333500 ) ;
#10 = CLOSED_SHELL ( 'NONE', ( #114, #175, #149, #54 ) ) ;
#11 = CYLINDRICAL_SURFACE ( 'NONE', #207, 25.00000000000000000 ) ;
#12 = AXIS2_PLACEMENT_3D ( 'NONE', #191, #84, #44 ) ;
#13 = ORIENTED_EDGE ( 'NONE', *, *, #82, .T. ) ;
#14 = FACE_OUTER_BOUND ( 'NONE', #52, .T. ) ;
#15 = DIRECTION ( 'NONE',  ( 0.0000000000000000000, 0.0000000000000000000, 1.000000000000000000 ) ) ;
#16 = DIRECTION ( 'NONE',  ( 0.0000000000000000000, 0.0000000000000000000, 1.000000000000000000 ) ) ;
#17 = EDGE_LOOP ( 'NONE', ( #89, #153, #49, #185 ) ) ;
#18 = SURFACE_STYLE_FILL_AREA ( #216 ) ;
#19 = SURFACE_STYLE_FILL_AREA ( #116 ) ;
#20 = APPLICATION_PROTOCOL_DEFINITION ( 'draft international standard', 'automotive_design', 1998, #94 ) ;
#21 = ADVANCED_FACE ( 'NONE', ( #112 ), #60, .F. ) ;
#22 =( NAMED_UNIT ( * ) SI_UNIT ( $, .STERADIAN. ) SOLID_ANGLE_UNIT ( ) );
#23 = UNCERTAINTY_MEASURE_WITH_UNIT (LENGTH_MEASURE( 1.000000000000000100E-005 ), #43, 'distance_accuracy_value', 'NONE');
#24 = PRESENTATION_STYLE_ASSIGNMENT (( #47 ) ) ;
#25 = CYLINDRICAL_SURFACE ( 'NONE', #127, 24.00000000000000000 ) ;
#26 = SHAPE_DEFINITION_REPRESENTATION ( #121, #152 ) ;
#27 = CARTESIAN_POINT ( 'NONE',  ( 0.0000000000000000000, 0.0000000000000000000, 0.0000000000000000000 ) ) ;
#28 = MECHANICAL_DESIGN_GEOMETRIC_PRESENTATION_REPRESENTATION (  '', ( #178 ), #38 ) ;
#29 = DIRECTION ( 'NONE',  ( 1.000000000000000000, 0.0000000000000000000, 0.0000000000000000000 ) ) ;
#30 = CARTESIAN_POINT ( 'NONE',  ( 0.0000000000000000000, 0.0000000000000000000, 120.0000000000000000 ) ) ;
#31 = CARTESIAN_POINT ( 'NONE',  ( 24.00000000000000000, 2.939152317953647900E-015, 119.0000000000000000 ) ) ;
#32 = CARTESIAN_POINT ( 'NONE',  ( 24.00000000000000000, 2.939152317953647900E-015, 120.0000000000000000 ) ) ;
#33 = EDGE_CURVE ( 'NONE', #202, #8, #208, .T. ) ;
#34 = FACE_OUTER_BOUND ( 'NONE', #173, .T. ) ;
#35 = CARTESIAN_POINT ( 'NONE',  ( 25.00000000000000000, 3.061616997868383000E-015, 120.0000000000000000 ) ) ;
#36 = ORIENTED_EDGE ( 'NONE', *, *, #39, .F. ) ;
#37 = LINE ( 'NONE', #171, #168 ) ;
#38 =( GEOMETRIC_REPRESENTATION_CONTEXT ( 3 ) GLOBAL_UNCERTAINTY_ASSIGNED_CONTEXT ( ( #80 ) ) GLOBAL_UNIT_ASSIGNED_CONTEXT ( ( #176, #5, #22 ) ) REPRESENTATION_CONTEXT ( 'NONE', 'WORKASPACE' ) );
#39 = EDGE_CURVE ( 'NONE', #8, #104, #118, .T. ) ;
#40 = CARTESIAN_POINT ( 'NONE',  ( 0.0000000000000000000, 0.0000000000000000000, 0.0000000000000000000 ) ) ;
#41 = ORIENTED_EDGE ( 'NONE', *, *, #120, .T. ) ;
#42 = FACE_OUTER_BOUND ( 'NONE', #156, .T. ) ;
#43 =( LENGTH_UNIT ( ) NAMED_UNIT ( * ) SI_UNIT ( .MILLI., .METRE. ) );
#44 = DIRECTION ( 'NONE',  ( 1.000000000000000000, 0.0000000000000000000, 0.0000000000000000000 ) ) ;
#45 = DIRECTION ( 'NONE',  ( 0.0000000000000000000, 0.0000000000000000000, 1.000000000000000000 ) ) ;
#46 = DIRECTION ( 'NONE',  ( 1.000000000000000000, 0.0000000000000000000, 0.0000000000000000000 ) ) ;
#47 = SURFACE_STYLE_USAGE ( .BOTH. , #162 ) ;
#48 = DIRECTION ( 'NONE',  ( 1.000000000000000000, 0.0000000000000000000, -0.0000000000000000000 ) ) ;
#49 = ORIENTED_EDGE ( 'NONE', *, *, #194, .F. ) ;
#50 = ORIENTED_EDGE ( 'NONE', *, *, #137, .F. ) ;
#51 = PLANE ( 'NONE',  #143 ) ;
#52 = EDGE_LOOP ( 'NONE', ( #228, #198 ) ) ;
#53 = FACE_OUTER_BOUND ( 'NONE', #56, .T. ) ;
#54 = ADVANCED_FACE ( 'NONE', ( #14 ), #70, .F. ) ;
#55 =( LENGTH_UNIT ( ) NAMED_UNIT ( * ) SI_UNIT ( .MILLI., .METRE. ) );
#56 = EDGE_LOOP ( 'NONE', ( #36, #155, #196, #224 ) ) ;
#57 = CYLINDRICAL_SURFACE ( 'NONE', #220, 25.00000000000000000 ) ;
#58 = DIRECTION ( 'NONE',  ( -0.0000000000000000000, -0.0000000000000000000, -1.000000000000000000 ) ) ;
#59 = AXIS2_PLACEMENT_3D ( 'NONE', #27, #45, #193 ) ;
#60 = CYLINDRICAL_SURFACE ( 'NONE', #164, 24.00000000000000000 ) ;
#61 = BREP_WITH_VOIDS ( 'NONE', #10, ( #100 ) );
#62 = EDGE_CURVE ( 'NONE', #202, #181, #130, .T. ) ;
#63 = ORIENTED_EDGE ( 'NONE', *, *, #33, .F. ) ;
#64 = CIRCLE ( 'NONE', #167, 24.00000000000000000 ) ;
#65 = COLOUR_RGB ( '',0.7921568627450980000, 0.8196078431372548800, 0.9333333333333333500 ) ;
#66 = AXIS2_PLACEMENT_3D ( 'NONE', #201, #1, #174 ) ;
#67 = CARTESIAN_POINT ( 'NONE',  ( -25.00000000000000000, 0.0000000000000000000, 0.0000000000000000000 ) ) ;
#68 = DIRECTION ( 'NONE',  ( 1.000000000000000000, 0.0000000000000000000, -0.0000000000000000000 ) ) ;
#69 = CARTESIAN_POINT ( 'NONE',  ( -24.00000000000000000, 0.0000000000000000000, 120.0000000000000000 ) ) ;
#70 = PLANE ( 'NONE',  #59 ) ;
#71 = DIRECTION ( 'NONE',  ( 0.0000000000000000000, 0.0000000000000000000, 1.000000000000000000 ) ) ;
#72 = DIRECTION ( 'NONE',  ( -0.0000000000000000000, -0.0000000000000000000, -1.000000000000000000 ) ) ;
#73 = VECTOR ( 'NONE', #141, 1000.000000000000000 ) ;
#74 = CARTESIAN_POINT ( 'NONE',  ( 0.0000000000000000000, 0.0000000000000000000, 119.0000000000000000 ) ) ;
#75 = MECHANICAL_DESIGN_GEOMETRIC_PRESENTATION_REPRESENTATION (  '', ( #205 ), #135 ) ;
#76 = APPLICATION_CONTEXT ( 'automotive_design' ) ;
#77 = ADVANCED_FACE ( 'NONE', ( #34 ), #51, .T. ) ;
#78 = SURFACE_STYLE_USAGE ( .BOTH. , #200 ) ;
#79 = CARTESIAN_POINT ( 'NONE',  ( 0.0000000000000000000, 0.0000000000000000000, 120.0000000000000000 ) ) ;
#80 = UNCERTAINTY_MEASURE_WITH_UNIT (LENGTH_MEASURE( 1.000000000000000100E-005 ), #176, 'distance_accuracy_value', 'NONE');
#81 = AXIS2_PLACEMENT_3D ( 'NONE', #74, #195, #68 ) ;
#82 = EDGE_CURVE ( 'NONE', #103, #96, #37, .T. ) ;
#83 = DIRECTION ( 'NONE',  ( 1.000000000000000000, 0.0000000000000000000, 0.0000000000000000000 ) ) ;
#84 = DIRECTION ( 'NONE',  ( 0.0000000000000000000, 0.0000000000000000000, 1.000000000000000000 ) ) ;
#85 = CARTESIAN_POINT ( 'NONE',  ( 0.0000000000000000000, 0.0000000000000000000, 1.000000000000000000 ) ) ;
#86 = CARTESIAN_POINT ( 'NONE',  ( 0.0000000000000000000, 0.0000000000000000000, 120.0000000000000000 ) ) ;
#87 = EDGE_CURVE ( 'NONE', #8, #202, #64, .T. ) ;
#88 = DIRECTION ( 'NONE',  ( -0.0000000000000000000, -0.0000000000000000000, -1.000000000000000000 ) ) ;
#89 = ORIENTED_EDGE ( 'NONE', *, *, #33, .T. ) ;
#90 = CARTESIAN_POINT ( 'NONE',  ( 0.0000000000000000000, 0.0000000000000000000, 119.0000000000000000 ) ) ;
#91 = ADVANCED_FACE ( 'NONE', ( #219 ), #172, .F. ) ;
#92 = CARTESIAN_POINT ( 'NONE',  ( -24.00000000000000000, 0.0000000000000000000, 1.000000000000000900 ) ) ;
#93 = CIRCLE ( 'NONE', #115, 24.00000000000000000 ) ;
#94 = APPLICATION_CONTEXT ( 'automotive_design' ) ;
#95 = EDGE_CURVE ( 'NONE', #104, #181, #107, .T. ) ;
#96 = VERTEX_POINT ( 'NONE', #67 ) ;
#97 = AXIS2_PLACEMENT_3D ( 'NONE', #40, #189, #83 ) ;
#98 = DIRECTION ( 'NONE',  ( 1.000000000000000000, 0.0000000000000000000, 0.0000000000000000000 ) ) ;
#99 = ORIENTED_EDGE ( 'NONE', *, *, #226, .T. ) ;
#100 = ORIENTED_CLOSED_SHELL ( 'NONE', *, #105, .F. );
#101 = CIRCLE ( 'NONE', #97, 25.00000000000000000 ) ;
#102 = EDGE_CURVE ( 'NONE', #197, #96, #101, .T. ) ;
#103 = VERTEX_POINT ( 'NONE', #108 ) ;
#104 = VERTEX_POINT ( 'NONE', #123 ) ;
#105 = CLOSED_SHELL ( 'NONE', ( #21, #3, #91, #77 ) ) ;
#106 = ORIENTED_EDGE ( 'NONE', *, *, #122, .T. ) ;
#107 = CIRCLE ( 'NONE', #12, 24.00000000000000000 ) ;
#108 = CARTESIAN_POINT ( 'NONE',  ( -25.00000000000000000, 0.0000000000000000000, 120.0000000000000000 ) ) ;
#109 = PRODUCT_DEFINITION ( 'UNKNOWN', '', #119, #221 ) ;
#110 = DIRECTION ( 'NONE',  ( -1.000000000000000000, 0.0000000000000000000, 0.0000000000000000000 ) ) ;
#111 = DIRECTION ( 'NONE',  ( 1.000000000000000000, 0.0000000000000000000, 0.0000000000000000000 ) ) ;
#112 = FACE_OUTER_BOUND ( 'NONE', #17, .T. ) ;
#113 = AXIS2_PLACEMENT_3D ( 'NONE', #212, #161, #46 ) ;
#114 = ADVANCED_FACE ( 'NONE', ( #42 ), #11, .T. ) ;
#115 = AXIS2_PLACEMENT_3D ( 'NONE', #165, #129, #180 ) ;
#116 = FILL_AREA_STYLE ('',( #131 ) ) ;
#117 = PRESENTATION_LAYER_ASSIGNMENT (  '', '', ( #205 ) ) ;
#118 = LINE ( 'NONE', #32, #73 ) ;
#119 = PRODUCT_DEFINITION_FORMATION_WITH_SPECIFIED_SOURCE ( 'ANY', '', #144, .NOT_KNOWN. ) ;
#120 = EDGE_CURVE ( 'NONE', #154, #103, #225, .T. ) ;
#121 = PRODUCT_DEFINITION_SHAPE ( 'NONE', 'NONE',  #109 ) ;
#122 = EDGE_CURVE ( 'NONE', #96, #197, #182, .T. ) ;
#123 = CARTESIAN_POINT ( 'NONE',  ( 24.00000000000000000, 2.939152317953647900E-015, 1.000000000000000900 ) ) ;
#124 = CARTESIAN_POINT ( 'NONE',  ( 0.0000000000000000000, 0.0000000000000000000, 119.0000000000000000 ) ) ;
#125 = DIRECTION ( 'NONE',  ( -0.0000000000000000000, -0.0000000000000000000, -1.000000000000000000 ) ) ;
#126 = DIRECTION ( 'NONE',  ( 1.000000000000000000, 0.0000000000000000000, -0.0000000000000000000 ) ) ;
#127 = AXIS2_PLACEMENT_3D ( 'NONE', #128, #125, #227 ) ;
#128 = CARTESIAN_POINT ( 'NONE',  ( 0.0000000000000000000, 0.0000000000000000000, 120.0000000000000000 ) ) ;
#129 = DIRECTION ( 'NONE',  ( 0.0000000000000000000, 0.0000000000000000000, 1.000000000000000000 ) ) ;
#130 = LINE ( 'NONE', #69, #222 ) ;
#131 = FILL_AREA_STYLE_COLOUR ( '', #65 ) ;
#132 = DIRECTION ( 'NONE',  ( -1.000000000000000000, 0.0000000000000000000, 0.0000000000000000000 ) ) ;
#133 =( NAMED_UNIT ( * ) PLANE_ANGLE_UNIT ( ) SI_UNIT ( $, .RADIAN. ) );
#134 =( GEOMETRIC_REPRESENTATION_CONTEXT ( 3 ) GLOBAL_UNCERTAINTY_ASSIGNED_CONTEXT ( ( #183 ) ) GLOBAL_UNIT_ASSIGNED_CONTEXT ( ( #55, #133, #2 ) ) REPRESENTATION_CONTEXT ( 'NONE', 'WORKASPACE' ) );
#135 =( GEOMETRIC_REPRESENTATION_CONTEXT ( 3 ) GLOBAL_UNCERTAINTY_ASSIGNED_CONTEXT ( ( #23 ) ) GLOBAL_UNIT_ASSIGNED_CONTEXT ( ( #43, #169, #210 ) ) REPRESENTATION_CONTEXT ( 'NONE', 'WORKASPACE' ) );
#136 = VECTOR ( 'NONE', #58, 1000.000000000000000 ) ;
#137 = EDGE_CURVE ( 'NONE', #103, #154, #148, .T. ) ;
#138 = ORIENTED_EDGE ( 'NONE', *, *, #137, .T. ) ;
#139 = ORIENTED_EDGE ( 'NONE', *, *, #194, .T. ) ;
#140 = FACE_OUTER_BOUND ( 'NONE', #177, .T. ) ;
#141 = DIRECTION ( 'NONE',  ( -0.0000000000000000000, -0.0000000000000000000, -1.000000000000000000 ) ) ;
#142 = DIRECTION ( 'NONE',  ( 0.0000000000000000000, 0.0000000000000000000, 1.000000000000000000 ) ) ;
#143 = AXIS2_PLACEMENT_3D ( 'NONE', #85, #15, #48 ) ;
#144 = PRODUCT ( 'Hülle neu', 'Hülle neu', '', ( #147 ) ) ;
#145 = FILL_AREA_STYLE_COLOUR ( '', #9 ) ;
#146 = ORIENTED_EDGE ( 'NONE', *, *, #95, .T. ) ;
#147 = PRODUCT_CONTEXT ( 'NONE', #94, 'mechanical' ) ;
#148 = CIRCLE ( 'NONE', #160, 25.00000000000000000 ) ;
#149 = ADVANCED_FACE ( 'NONE', ( #140 ), #223, .T. ) ;
#150 = AXIS2_PLACEMENT_3D ( 'NONE', #30, #71, #215 ) ;
#151 = CARTESIAN_POINT ( 'NONE',  ( -24.00000000000000000, 0.0000000000000000000, 119.0000000000000000 ) ) ;
#152 = ADVANCED_BREP_SHAPE_REPRESENTATION ( 'H³lle neu', ( #61, #66 ), #134 ) ;
#153 = ORIENTED_EDGE ( 'NONE', *, *, #39, .T. ) ;
#154 = VERTEX_POINT ( 'NONE', #192 ) ;
#155 = ORIENTED_EDGE ( 'NONE', *, *, #87, .T. ) ;
#156 = EDGE_LOOP ( 'NONE', ( #184, #99, #206, #158 ) ) ;
#157 = AXIS2_PLACEMENT_3D ( 'NONE', #86, #16, #126 ) ;
#158 = ORIENTED_EDGE ( 'NONE', *, *, #82, .F. ) ;
#159 = PRESENTATION_STYLE_ASSIGNMENT (( #78 ) ) ;
#160 = AXIS2_PLACEMENT_3D ( 'NONE', #79, #204, #98 ) ;
#161 = DIRECTION ( 'NONE',  ( 0.0000000000000000000, 0.0000000000000000000, 1.000000000000000000 ) ) ;
#162 = SURFACE_SIDE_STYLE ('',( #18 ) ) ;
#163 = CARTESIAN_POINT ( 'NONE',  ( 0.0000000000000000000, 0.0000000000000000000, 120.0000000000000000 ) ) ;
#164 = AXIS2_PLACEMENT_3D ( 'NONE', #163, #170, #213 ) ;
#165 = CARTESIAN_POINT ( 'NONE',  ( 0.0000000000000000000, 0.0000000000000000000, 1.000000000000000900 ) ) ;
#166 = CARTESIAN_POINT ( 'NONE',  ( 0.0000000000000000000, 0.0000000000000000000, 120.0000000000000000 ) ) ;
#167 = AXIS2_PLACEMENT_3D ( 'NONE', #90, #217, #29 ) ;
#168 = VECTOR ( 'NONE', #72, 1000.000000000000000 ) ;
#169 =( NAMED_UNIT ( * ) PLANE_ANGLE_UNIT ( ) SI_UNIT ( $, .RADIAN. ) );
#170 = DIRECTION ( 'NONE',  ( -0.0000000000000000000, -0.0000000000000000000, -1.000000000000000000 ) ) ;
#171 = CARTESIAN_POINT ( 'NONE',  ( -25.00000000000000000, 0.0000000000000000000, 120.0000000000000000 ) ) ;
#172 = PLANE ( 'NONE',  #81 ) ;
#173 = EDGE_LOOP ( 'NONE', ( #139, #146 ) ) ;
#174 = DIRECTION ( 'NONE',  ( 1.000000000000000000, 0.0000000000000000000, 0.0000000000000000000 ) ) ;
#175 = ADVANCED_FACE ( 'NONE', ( #188 ), #57, .T. ) ;
#176 =( LENGTH_UNIT ( ) NAMED_UNIT ( * ) SI_UNIT ( .MILLI., .METRE. ) );
#177 = EDGE_LOOP ( 'NONE', ( #138, #41 ) ) ;
#178 = STYLED_ITEM ( 'NONE', ( #159 ), #152 ) ;
#179 = LINE ( 'NONE', #35, #136 ) ;
#180 = DIRECTION ( 'NONE',  ( 1.000000000000000000, 0.0000000000000000000, 0.0000000000000000000 ) ) ;
#181 = VERTEX_POINT ( 'NONE', #92 ) ;
#182 = CIRCLE ( 'NONE', #113, 25.00000000000000000 ) ;
#183 = UNCERTAINTY_MEASURE_WITH_UNIT (LENGTH_MEASURE( 1.000000000000000100E-005 ), #55, 'distance_accuracy_value', 'NONE');
#184 = ORIENTED_EDGE ( 'NONE', *, *, #120, .F. ) ;
#185 = ORIENTED_EDGE ( 'NONE', *, *, #62, .F. ) ;
#186 = ORIENTED_EDGE ( 'NONE', *, *, #87, .F. ) ;
#187 = ORIENTED_EDGE ( 'NONE', *, *, #226, .F. ) ;
#188 = FACE_OUTER_BOUND ( 'NONE', #7, .T. ) ;
#189 = DIRECTION ( 'NONE',  ( 0.0000000000000000000, 0.0000000000000000000, 1.000000000000000000 ) ) ;
#190 = PRESENTATION_LAYER_ASSIGNMENT (  '', '', ( #178 ) ) ;
#191 = CARTESIAN_POINT ( 'NONE',  ( 0.0000000000000000000, 0.0000000000000000000, 1.000000000000000900 ) ) ;
#192 = CARTESIAN_POINT ( 'NONE',  ( 25.00000000000000000, 3.061616997868383000E-015, 120.0000000000000000 ) ) ;
#193 = DIRECTION ( 'NONE',  ( 1.000000000000000000, 0.0000000000000000000, -0.0000000000000000000 ) ) ;
#194 = EDGE_CURVE ( 'NONE', #181, #104, #93, .T. ) ;
#195 = DIRECTION ( 'NONE',  ( 0.0000000000000000000, 0.0000000000000000000, 1.000000000000000000 ) ) ;
#196 = ORIENTED_EDGE ( 'NONE', *, *, #62, .T. ) ;
#197 = VERTEX_POINT ( 'NONE', #4 ) ;
#198 = ORIENTED_EDGE ( 'NONE', *, *, #102, .F. ) ;
#199 = APPLICATION_PROTOCOL_DEFINITION ( 'draft international standard', 'automotive_design', 1998, #76 ) ;
#200 = SURFACE_SIDE_STYLE ('',( #19 ) ) ;
#201 = CARTESIAN_POINT ( 'NONE',  ( 0.0000000000000000000, 0.0000000000000000000, 0.0000000000000000000 ) ) ;
#202 = VERTEX_POINT ( 'NONE', #151 ) ;
#203 = EDGE_LOOP ( 'NONE', ( #63, #186 ) ) ;
#204 = DIRECTION ( 'NONE',  ( 0.0000000000000000000, 0.0000000000000000000, 1.000000000000000000 ) ) ;
#205 = STYLED_ITEM ( 'NONE', ( #24 ), #61 ) ;
#206 = ORIENTED_EDGE ( 'NONE', *, *, #102, .T. ) ;
#207 = AXIS2_PLACEMENT_3D ( 'NONE', #211, #209, #110 ) ;
#208 = CIRCLE ( 'NONE', #214, 24.00000000000000000 ) ;
#209 = DIRECTION ( 'NONE',  ( -0.0000000000000000000, -0.0000000000000000000, -1.000000000000000000 ) ) ;
#210 =( NAMED_UNIT ( * ) SI_UNIT ( $, .STERADIAN. ) SOLID_ANGLE_UNIT ( ) );
#211 = CARTESIAN_POINT ( 'NONE',  ( 0.0000000000000000000, 0.0000000000000000000, 120.0000000000000000 ) ) ;
#212 = CARTESIAN_POINT ( 'NONE',  ( 0.0000000000000000000, 0.0000000000000000000, 0.0000000000000000000 ) ) ;
#213 = DIRECTION ( 'NONE',  ( -1.000000000000000000, 0.0000000000000000000, 0.0000000000000000000 ) ) ;
#214 = AXIS2_PLACEMENT_3D ( 'NONE', #124, #142, #111 ) ;
#215 = DIRECTION ( 'NONE',  ( 1.000000000000000000, 0.0000000000000000000, 0.0000000000000000000 ) ) ;
#216 = FILL_AREA_STYLE ('',( #145 ) ) ;
#217 = DIRECTION ( 'NONE',  ( 0.0000000000000000000, 0.0000000000000000000, 1.000000000000000000 ) ) ;
#218 = DIRECTION ( 'NONE',  ( -0.0000000000000000000, -0.0000000000000000000, -1.000000000000000000 ) ) ;
#219 = FACE_OUTER_BOUND ( 'NONE', #203, .T. ) ;
#220 = AXIS2_PLACEMENT_3D ( 'NONE', #166, #218, #132 ) ;
#221 = PRODUCT_DEFINITION_CONTEXT ( 'detailed design', #76, 'design' ) ;
#222 = VECTOR ( 'NONE', #88, 1000.000000000000000 ) ;
#223 = PLANE ( 'NONE',  #157 ) ;
#224 = ORIENTED_EDGE ( 'NONE', *, *, #95, .F. ) ;
#225 = CIRCLE ( 'NONE', #150, 25.00000000000000000 ) ;
#226 = EDGE_CURVE ( 'NONE', #154, #197, #179, .T. ) ;
#227 = DIRECTION ( 'NONE',  ( -1.000000000000000000, 0.0000000000000000000, 0.0000000000000000000 ) ) ;
#228 = ORIENTED_EDGE ( 'NONE', *, *, #122, .F. ) ;
ENDSEC;
END-ISO-10303-21;
