  0
SECTION
  2
HEADER
  9
$ACADVER
  1
AC1018
  9
$ACADMAINTVER
 70
     0
  9
$DWGCODEPAGE
  3
ANSI_1252
  9
$INSBASE
 10
0.0
 20
0.0
 30
0.0
  9
$EXTMIN
 10
-1508.630568450362
 20
-480.2695904971823
 30
-48.59622528513923
  9
$EXTMAX
 10
262.7901427597782
 20
250.1377549490554
 30
240.861341553663
  9
$LIMMIN
 10
-100.0
 20
-100.0
  9
$LIMMAX
 10
100.0
 20
100.0
  9
$ORTHOMODE
 70
     0
  9
$REGENMODE
 70
     1
  9
$FILLMODE
 70
     1
  9
$QTEXTMODE
 70
     0
  9
$MIRRTEXT
 70
     1
  9
$LTSCALE
 40
1.0
  9
$ATTMODE
 70
     1
  9
$TEXTSIZE
 40
0.2
  9
$TRACEWID
 40
0.05
  9
$TEXTSTYLE
  7
STANDARD
  9
$CLAYER
  8
.Neuer Ordner
  9
$CELTYPE
  6
ByLayer
  9
$CECOLOR
 62
   256
  9
$CELTSCALE
 40
1.0
  9
$DISPSILH
 70
     0
  9
$DIMSCALE
 40
1.0
  9
$DIMASZ
 40
50.0
  9
$DIMEXO
 40
40.0
  9
$DIMDLI
 40
0.38
  9
$DIMRND
 40
0.0
  9
$DIMDLE
 40
0.0
  9
$DIMEXE
 40
20.0
  9
$DIMTP
 40
0.0
  9
$DIMTM
 40
0.0
  9
$DIMTXT
 40
50.0
  9
$DIMCEN
 40
0.09
  9
$DIMTSZ
 40
0.0
  9
$DIMTOL
 70
     0
  9
$DIMLIM
 70
     0
  9
$DIMTIH
 70
     0
  9
$DIMTOH
 70
     0
  9
$DIMSE1
 70
     0
  9
$DIMSE2
 70
     0
  9
$DIMTAD
 70
     0
  9
$DIMZIN
 70
     1
  9
$DIMBLK
  1
VDDIM_DEFAULT
  9
$DIMASO
 70
     1
  9
$DIMSHO
 70
     1
  9
$DIMPOST
  1

  9
$DIMAPOST
  1

  9
$DIMALT
 70
     0
  9
$DIMALTD
 70
     2
  9
$DIMALTF
 40
25.4
  9
$DIMLFAC
 40
1.0
  9
$DIMTOFL
 70
     1
  9
$DIMTVP
 40
0.0
  9
$DIMTIX
 70
     1
  9
$DIMSOXD
 70
     0
  9
$DIMSAH
 70
     0
  9
$DIMBLK1
  1

  9
$DIMBLK2
  1

  9
$DIMSTYLE
  2
STANDARD
  9
$DIMCLRD
 70
     5
  9
$DIMCLRE
 70
   216
  9
$DIMCLRT
 70
   116
  9
$DIMTFAC
 40
1.0
  9
$DIMGAP
 40
10.0
  9
$DIMJUST
 70
     0
  9
$DIMSD1
 70
     0
  9
$DIMSD2
 70
     0
  9
$DIMTOLJ
 70
     1
  9
$DIMTZIN
 70
     1
  9
$DIMALTZ
 70
     0
  9
$DIMALTTZ
 70
     0
  9
$DIMUPT
 70
     1
  9
$DIMDEC
 70
     1
  9
$DIMTDEC
 70
     1
  9
$DIMALTU
 70
     2
  9
$DIMALTTD
 70
     2
  9
$DIMTXSTY
  7
STANDARD
  9
$DIMAUNIT
 70
     0
  9
$DIMADEC
 70
     2
  9
$DIMALTRND
 40
0.0
  9
$DIMAZIN
 70
     0
  9
$DIMDSEP
 70
    46
  9
$DIMATFIT
 70
     3
  9
$DIMFRAC
 70
     0
  9
$DIMLDRBLK
  1

  9
$DIMLUNIT
 70
     2
  9
$DIMLWD
 70
    -2
  9
$DIMLWE
 70
    -2
  9
$DIMTMOVE
 70
     0
  9
$LUNITS
 70
     2
  9
$LUPREC
 70
     4
  9
$SKETCHINC
 40
0.1
  9
$FILLETRAD
 40
0.5
  9
$AUNITS
 70
     0
  9
$AUPREC
 70
     0
  9
$MENU
  1
.
  9
$ELEVATION
 40
0.0
  9
$PELEVATION
 40
0.0
  9
$THICKNESS
 40
0.0
  9
$LIMCHECK
 70
     0
  9
$CHAMFERA
 40
0.5
  9
$CHAMFERB
 40
0.5
  9
$CHAMFERC
 40
1.0
  9
$CHAMFERD
 40
0.0
  9
$SKPOLY
 70
     0
  9
$TDCREATE
 40
2457700.588683715
  9
$TDUCREATE
 40
2457700.547017049
  9
$TDUPDATE
 40
2457700.588683727
  9
$TDUUPDATE
 40
2457700.54701706
  9
$TDINDWG
 40
0.0000000116
  9
$TDUSRTIMER
 40
0.0000000116
  9
$USRTIMER
 70
     1
  9
$ANGBASE
 50
0.0
  9
$ANGDIR
 70
     0
  9
$PDMODE
 70
    35
  9
$PDSIZE
 40
100.0
  9
$PLINEWID
 40
0.0
  9
$SPLFRAME
 70
     0
  9
$SPLINETYPE
 70
     6
  9
$SPLINESEGS
 70
     8
  9
$HANDSEED
  5
340
  9
$SURFTAB1
 70
     6
  9
$SURFTAB2
 70
     6
  9
$SURFTYPE
 70
     6
  9
$SURFU
 70
     6
  9
$SURFV
 70
     6
  9
$UCSBASE
  2

  9
$UCSNAME
  2

  9
$UCSORG
 10
0.0
 20
0.0
 30
0.0
  9
$UCSXDIR
 10
1.0
 20
0.0
 30
0.0
  9
$UCSYDIR
 10
0.0
 20
1.0
 30
0.0
  9
$UCSORTHOREF
  2

  9
$UCSORTHOVIEW
 70
     0
  9
$UCSORGTOP
 10
0.0
 20
0.0
 30
0.0
  9
$UCSORGBOTTOM
 10
0.0
 20
0.0
 30
0.0
  9
$UCSORGLEFT
 10
0.0
 20
0.0
 30
0.0
  9
$UCSORGRIGHT
 10
0.0
 20
0.0
 30
0.0
  9
$UCSORGFRONT
 10
0.0
 20
0.0
 30
0.0
  9
$UCSORGBACK
 10
0.0
 20
0.0
 30
0.0
  9
$PUCSBASE
  2

  9
$PUCSNAME
  2

  9
$PUCSORG
 10
0.0
 20
0.0
 30
0.0
  9
$PUCSXDIR
 10
1.0
 20
0.0
 30
0.0
  9
$PUCSYDIR
 10
0.0
 20
1.0
 30
0.0
  9
$PUCSORTHOREF
  2

  9
$PUCSORTHOVIEW
 70
     0
  9
$PUCSORGTOP
 10
0.0
 20
0.0
 30
0.0
  9
$PUCSORGBOTTOM
 10
0.0
 20
0.0
 30
0.0
  9
$PUCSORGLEFT
 10
0.0
 20
0.0
 30
0.0
  9
$PUCSORGRIGHT
 10
0.0
 20
0.0
 30
0.0
  9
$PUCSORGFRONT
 10
0.0
 20
0.0
 30
0.0
  9
$PUCSORGBACK
 10
0.0
 20
0.0
 30
0.0
  9
$USERI1
 70
     0
  9
$USERI2
 70
     0
  9
$USERI3
 70
     0
  9
$USERI4
 70
     0
  9
$USERI5
 70
     0
  9
$USERR1
 40
0.0
  9
$USERR2
 40
0.0
  9
$USERR3
 40
0.0
  9
$USERR4
 40
0.0
  9
$USERR5
 40
0.0
  9
$WORLDVIEW
 70
     1
  9
$SHADEDGE
 70
     3
  9
$SHADEDIF
 70
    70
  9
$TILEMODE
 70
     1
  9
$MAXACTVP
 70
    64
  9
$PINSBASE
 10
0.0
 20
0.0
 30
0.0
  9
$PLIMCHECK
 70
     0
  9
$PEXTMIN
 10
1.000000000000000E+20
 20
1.000000000000000E+20
 30
1.000000000000000E+20
  9
$PEXTMAX
 10
-1.000000000000000E+20
 20
-1.000000000000000E+20
 30
-1.000000000000000E+20
  9
$PLIMMIN
 10
0.0
 20
0.0
  9
$PLIMMAX
 10
12.0
 20
9.0
  9
$UNITMODE
 70
     0
  9
$VISRETAIN
 70
     1
  9
$PLINEGEN
 70
     0
  9
$PSLTSCALE
 70
     1
  9
$TREEDEPTH
 70
  3020
  9
$CMLSTYLE
  2
Standard
  9
$CMLJUST
 70
     0
  9
$CMLSCALE
 40
1.0
  9
$PROXYGRAPHICS
 70
     1
  9
$MEASUREMENT
 70
     0
  9
$CELWEIGHT
370
    -1
  9
$ENDCAPS
280
     0
  9
$JOINSTYLE
280
     0
  9
$LWDISPLAY
290
     0
  9
$INSUNITS
 70
     1
  9
$HYPERLINKBASE
  1

  9
$STYLESHEET
  1

  9
$XEDIT
290
     1
  9
$CEPSNTYPE
380
     0
  9
$PSTYLEMODE
290
     1
  9
$FINGERPRINTGUID
  2
{FAEB1C30-E019-11D5-929B-00C0DF256EC4}
  9
$VERSIONGUID
  2
{FAEB1C32-E019-11D5-929B-00C0DF256EC4}
  9
$EXTNAMES
290
     1
  9
$PSVPSCALE
 40
0.0
  9
$OLESTARTUP
290
     0
  9
$SORTENTS
280
   127
  9
$INDEXCTL
280
     0
  9
$HIDETEXT
280
     1
  9
$XCLIPFRAME
290
     0
  9
$HALOGAP
280
     0
  9
$OBSCOLOR
 70
   257
  9
$OBSLTYPE
280
     0
  9
$INTERSECTIONDISPLAY
280
     0
  9
$INTERSECTIONCOLOR
 70
   257
  9
$DIMASSOC
280
     2
  9
$PROJECTNAME
  1

  0
ENDSEC
  0
SECTION
  2
CLASSES
  0
CLASS
  1
ACDBDICTIONARYWDFLT
  2
AcDbDictionaryWithDefault
  3
ObjectDBX Classes
 90
        0
 91
        1
280
     0
281
     0
  0
ENDSEC
  0
SECTION
  2
TABLES
  0
TABLE
  2
VPORT
  5
2DD
330
0
100
AcDbSymbolTable
 70
     2
  0
VPORT
  5
2FE
330
2DD
100
AcDbSymbolTableRecord
100
AcDbViewportTableRecord
  2
*Active
 70
     0
 10
0.0
 20
0.0
 11
1.0
 21
1.0
 12
242.0220295434476
 22
-2408.868118429015
 13
0.0
 23
0.0
 14
1.0
 24
1.0
 15
1.0
 25
1.0
 16
-0.5792279653396164
 26
-0.5792279653395089
 36
0.5735764363510594
 17
0.0
 27
0.0
 37
0.0
 40
22189.41144662888
 41
0.0008002355897705
 42
50.0
 43
0.0
 44
0.0
 50
10.0
 51
0.0
 71
     0
 72
   100
 73
     1
 74
     3
 75
     0
 76
     0
 77
     0
 78
     0
281
     0
 65
     1
110
0.0
120
0.0
130
0.0
111
1.0
121
0.0
131
0.0
112
0.0
122
1.0
132
0.0
 79
     0
146
0.0
  0
ENDTAB
  0
TABLE
  2
LTYPE
  5
2DA
330
0
100
AcDbSymbolTable
 70
    25
  0
LTYPE
  5
2E9
330
2DA
100
AcDbSymbolTableRecord
100
AcDbLinetypeTableRecord
  2
ByBlock
 70
     0
  3

 72
    65
 73
     0
 40
0.0
  0
LTYPE
  5
2EA
330
2DA
100
AcDbSymbolTableRecord
100
AcDbLinetypeTableRecord
  2
ByLayer
 70
     0
  3

 72
    65
 73
     0
 40
0.0
  0
LTYPE
  5
2EB
330
2DA
100
AcDbSymbolTableRecord
100
AcDbLinetypeTableRecord
  2
Continuous
 70
     0
  3
Solid line
 72
    65
 73
     0
 40
0.0
  0
LTYPE
  5
307
330
2DA
100
AcDbSymbolTableRecord
100
AcDbLinetypeTableRecord
  2
CENTER
 70
     0
  3
Center ____ _ ____ _ ____ _ ____ _ ____ _ ____
 72
    65
 73
     4
 40
2.0
 49
1.25
 74
     0
 49
-0.25
 74
     0
 49
0.25
 74
     0
 49
-0.25
 74
     0
  0
LTYPE
  5
308
330
2DA
100
AcDbSymbolTableRecord
100
AcDbLinetypeTableRecord
  2
DASHDOT
 70
     0
  3
Dashdot __ . __ . __ . __ . __ . __ . __ . __
 72
    65
 73
     4
 40
1.0
 49
0.5
 74
     0
 49
-0.25
 74
     0
 49
0.0
 74
     0
 49
-0.25
 74
     0
  0
LTYPE
  5
309
330
2DA
100
AcDbSymbolTableRecord
100
AcDbLinetypeTableRecord
  2
DASHED
 70
     0
  3
Dashed __ __ __ __ __ __ __ __ __ __ __ __ __ _
 72
    65
 73
     2
 40
0.75
 49
0.5
 74
     0
 49
-0.25
 74
     0
  0
LTYPE
  5
30A
330
2DA
100
AcDbSymbolTableRecord
100
AcDbLinetypeTableRecord
  2
HIDDEN
 70
     0
  3
Hidden __ __ __ __ __ __ __ __ __ __ __ __ __ __
 72
    65
 73
     2
 40
0.375
 49
0.25
 74
     0
 49
-0.125
 74
     0
  0
LTYPE
  5
30B
330
2DA
100
AcDbSymbolTableRecord
100
AcDbLinetypeTableRecord
  2
HIDDEN2
 70
     0
  3
Hidden2 _ _ _ _ _ _ _ _ _ _ _ _ _ _ _ _ _ 
 72
    65
 73
     2
 40
0.1875
 49
0.125
 74
     0
 49
-0.0625
 74
     0
  0
LTYPE
  5
30C
330
2DA
100
AcDbSymbolTableRecord
100
AcDbLinetypeTableRecord
  2
BORDER
 70
     0
  3
Border __ __ . __ __ . __ __ . __ __ . __ __ .
 72
    65
 73
     6
 40
1.75
 49
0.5
 74
     0
 49
-0.25
 74
     0
 49
0.5
 74
     0
 49
-0.25
 74
     0
 49
0.0
 74
     0
 49
-0.25
 74
     0
  0
LTYPE
  5
30D
330
2DA
100
AcDbSymbolTableRecord
100
AcDbLinetypeTableRecord
  2
BORDER2
 70
     0
  3
Border2 __.__.__.__.__.__.__.__.__.__.__.
 72
    65
 73
     6
 40
0.875
 49
0.25
 74
     0
 49
-0.125
 74
     0
 49
0.25
 74
     0
 49
-0.125
 74
     0
 49
0.0
 74
     0
 49
-0.125
 74
     0
  0
LTYPE
  5
30E
330
2DA
100
AcDbSymbolTableRecord
100
AcDbLinetypeTableRecord
  2
BORDERX2
 70
     0
  3
Borderx2  ____  ____  .  ____  ____  .  ___
 72
    65
 73
     6
 40
3.5
 49
1.0
 74
     0
 49
-0.5
 74
     0
 49
1.0
 74
     0
 49
-0.5
 74
     0
 49
0.0
 74
     0
 49
-0.5
 74
     0
  0
LTYPE
  5
30F
330
2DA
100
AcDbSymbolTableRecord
100
AcDbLinetypeTableRecord
  2
CENTER2
 70
     0
  3
Center2  ___ _ ___ _ ___ _ ___ _ ___ _ ___
 72
    65
 73
     4
 40
1.125
 49
0.75
 74
     0
 49
-0.125
 74
     0
 49
0.125
 74
     0
 49
-0.125
 74
     0
  0
LTYPE
  5
310
330
2DA
100
AcDbSymbolTableRecord
100
AcDbLinetypeTableRecord
  2
CENTERX2
 70
     0
  3
Centerx2  ________  __  ________  __  _____
 72
    65
 73
     4
 40
4.0
 49
2.5
 74
     0
 49
-0.5
 74
     0
 49
0.5
 74
     0
 49
-0.5
 74
     0
  0
LTYPE
  5
311
330
2DA
100
AcDbSymbolTableRecord
100
AcDbLinetypeTableRecord
  2
DASHDOT2
 70
     0
  3
Dashdot2  _._._._._._._._._._._._._._._.
 72
    65
 73
     4
 40
0.5
 49
0.25
 74
     0
 49
-0.125
 74
     0
 49
0.0
 74
     0
 49
-0.125
 74
     0
  0
LTYPE
  5
312
330
2DA
100
AcDbSymbolTableRecord
100
AcDbLinetypeTableRecord
  2
DASHDOTX2
 70
     0
  3
Dashdotx2 ____  .  ____  .  ____  .  ___
 72
    65
 73
     4
 40
2.0
 49
1.0
 74
     0
 49
-0.5
 74
     0
 49
0.0
 74
     0
 49
-0.5
 74
     0
  0
LTYPE
  5
313
330
2DA
100
AcDbSymbolTableRecord
100
AcDbLinetypeTableRecord
  2
DASHED2
 70
     0
  3
Dashed2 _ _ _ _ _ _ _ _ _ _ _ _ _ _ _ _ _ 
 72
    65
 73
     2
 40
0.375
 49
0.25
 74
     0
 49
-0.125
 74
     0
  0
LTYPE
  5
314
330
2DA
100
AcDbSymbolTableRecord
100
AcDbLinetypeTableRecord
  2
DASHEDX2
 70
     0
  3
Dashedx2 ____  ____  ____  ____  ____  ___
 72
    65
 73
     2
 40
1.5
 49
1.0
 74
     0
 49
-0.5
 74
     0
  0
LTYPE
  5
315
330
2DA
100
AcDbSymbolTableRecord
100
AcDbLinetypeTableRecord
  2
DIVIDE
 70
     0
  3
Divide ____ . . ____ . . ____ . . ____ . . ____
 72
    65
 73
     6
 40
1.25
 49
0.5
 74
     0
 49
-0.25
 74
     0
 49
0.0
 74
     0
 49
-0.25
 74
     0
 49
0.0
 74
     0
 49
-0.25
 74
     0
  0
LTYPE
  5
316
330
2DA
100
AcDbSymbolTableRecord
100
AcDbLinetypeTableRecord
  2
DIVIDE2
 70
     0
  3
Divide2 __..__..__..__..__..__..__..__.._
 72
    65
 73
     6
 40
0.625
 49
0.25
 74
     0
 49
-0.125
 74
     0
 49
0.0
 74
     0
 49
-0.125
 74
     0
 49
0.0
 74
     0
 49
-0.125
 74
     0
  0
LTYPE
  5
317
330
2DA
100
AcDbSymbolTableRecord
100
AcDbLinetypeTableRecord
  2
DIVIDEX2
 70
     0
  3
Dividex2 ________  .  .  ________  .  .  _
 72
    65
 73
     6
 40
2.5
 49
1.0
 74
     0
 49
-0.5
 74
     0
 49
0.0
 74
     0
 49
-0.5
 74
     0
 49
0.0
 74
     0
 49
-0.5
 74
     0
  0
LTYPE
  5
318
330
2DA
100
AcDbSymbolTableRecord
100
AcDbLinetypeTableRecord
  2
DOT
 70
     0
  3
Dot . . . . . . . . . . . . . . . . . . . . . . . .
 72
    65
 73
     2
 40
0.25
 49
0.0
 74
     0
 49
-0.25
 74
     0
  0
LTYPE
  5
319
330
2DA
100
AcDbSymbolTableRecord
100
AcDbLinetypeTableRecord
  2
DOT2
 70
     0
  3
Dot2 ........................................
 72
    65
 73
     2
 40
0.125
 49
0.0
 74
     0
 49
-0.125
 74
     0
  0
LTYPE
  5
31A
330
2DA
100
AcDbSymbolTableRecord
100
AcDbLinetypeTableRecord
  2
DOTX2
 70
     0
  3
Dotx2 .  .  .  .  .  .  .  .  .  .  .  .  .  .
 72
    65
 73
     2
 40
0.5
 49
0.0
 74
     0
 49
-0.5
 74
     0
  0
LTYPE
  5
31B
330
2DA
100
AcDbSymbolTableRecord
100
AcDbLinetypeTableRecord
  2
HIDDENX2
 70
     0
  3
Hiddenx2 ____ ____ ____ ____ ____ ____ ____ 
 72
    65
 73
     2
 40
0.75
 49
0.5
 74
     0
 49
-0.25
 74
     0
  0
LTYPE
  5
31C
330
2DA
100
AcDbSymbolTableRecord
100
AcDbLinetypeTableRecord
  2
PHANTOM
 70
     0
  3
Phantom ______  __  __  ______  __  __  ______ 
 72
    65
 73
     6
 40
2.5
 49
1.25
 74
     0
 49
-0.25
 74
     0
 49
0.25
 74
     0
 49
-0.25
 74
     0
 49
0.25
 74
     0
 49
-0.25
 74
     0
  0
LTYPE
  5
31D
330
2DA
100
AcDbSymbolTableRecord
100
AcDbLinetypeTableRecord
  2
PHANTOM2
 70
     0
  3
Phantom2 ___ _ _ ___ _ _ ___ _ _ ___ _ _
 72
    65
 73
     6
 40
1.25
 49
0.625
 74
     0
 49
-0.125
 74
     0
 49
0.125
 74
     0
 49
-0.125
 74
     0
 49
0.125
 74
     0
 49
-0.125
 74
     0
  0
LTYPE
  5
31E
330
2DA
100
AcDbSymbolTableRecord
100
AcDbLinetypeTableRecord
  2
PHANTOMX2
 70
     0
  3
Phantomx2 ____________    ____    ____   _
 72
    65
 73
     6
 40
5.0
 49
2.5
 74
     0
 49
-0.5
 74
     0
 49
0.5
 74
     0
 49
-0.5
 74
     0
 49
0.5
 74
     0
 49
-0.5
 74
     0
  0
ENDTAB
  0
TABLE
  2
LAYER
  5
2D7
330
0
100
AcDbSymbolTable
 70
     9
  0
LAYER
  5
2E5
330
2D7
100
AcDbSymbolTableRecord
100
AcDbLayerTableRecord
  2
0
 70
     0
 62
     7
  6
Continuous
370
     0
390
2E4
  0
LAYER
  5
24
330
2D7
100
AcDbSymbolTableRecord
100
AcDbLayerTableRecord
  2
.Neuer Ordner
 70
     0
 62
     7
  6
Continuous
370
     0
390
2E4
1001
PE_VERSION
1070
     1
1001
PE_EBENE_EBENE
1070
     0
1001
PE_EBENE_P1
1010
0.0
1020
0.0
1030
0.0
1001
PE_EBENE_P2
1010
0.0
1020
0.0
1030
0.0
1001
PE_EBENE_P3
1010
0.0
1020
0.0
1030
0.0
1001
GRAUM_LAYER_TYP
1070
     1
  0
LAYER
  5
26
330
2D7
100
AcDbSymbolTableRecord
100
AcDbLayerTableRecord
  2
.Neuer Ordner.Grundriss
 70
     0
 62
     7
  6
Continuous
370
     0
390
2E4
1001
PE_VERSION
1070
     1
1001
PE_EBENE_EBENE
1070
     1
1001
PE_EBENE_P1
1010
0.0
1020
0.0
1030
-1170.092
1001
PE_EBENE_P2
1010
1.0
1020
0.0
1030
-1170.092
1001
PE_EBENE_P3
1010
0.0
1020
1.0
1030
-1170.092
1001
GRAUM_LAYER_TYP
1070
     9
  0
LAYER
  5
35
330
2D7
100
AcDbSymbolTableRecord
100
AcDbLayerTableRecord
  2
.Neuer Ordner.Boden
 70
     0
 62
     7
  6
Continuous
370
     0
390
2E4
1001
PE_VERSION
1070
     1
1001
PE_EBENE_EBENE
1070
     1
1001
PE_EBENE_P1
1010
0.0
1020
0.0
1030
-1170.092
1001
PE_EBENE_P2
1010
1.0
1020
0.0
1030
-1170.092
1001
PE_EBENE_P3
1010
0.0
1020
1.0
1030
-1170.092
1001
GRAUM_LAYER_TYP
1070
     2
  0
LAYER
  5
3C
330
2D7
100
AcDbSymbolTableRecord
100
AcDbLayerTableRecord
  2
.Neuer Ordner.Decke
 70
     0
 62
     7
  6
Continuous
370
     0
390
2E4
1001
PE_VERSION
1070
     1
1070
     1
1001
PE_EBENE_EBENE
1070
     1
1070
     1
1001
PE_EBENE_P1
1010
0.0
1020
0.0
1030
5803.454998539965
1010
0.0
1020
0.0
1030
-1170.092
1001
PE_EBENE_P2
1010
1.0
1020
0.0
1030
5803.454998539965
1010
1.0
1020
0.0
1030
-1170.092
1001
PE_EBENE_P3
1010
0.0
1020
1.0
1030
5803.454998539965
1010
0.0
1020
1.0
1030
-1170.092
1001
GRAUM_LAYER_TYP
1070
     3
1070
     2
  0
LAYER
  5
3D
330
2D7
100
AcDbSymbolTableRecord
100
AcDbLayerTableRecord
  2
.Neuer Ordner.Wand 1
 70
     0
 62
     7
  6
Continuous
370
     0
390
2E4
1001
PE_VERSION
1070
     1
1001
PE_EBENE_EBENE
1070
     2
1001
PE_EBENE_P1
1010
6190.735351016392
1020
-11766.67535864161
1030
-1170.092
1001
PE_EBENE_P2
1010
-37597.29399922278
1020
-11714.75708763871
1030
-1170.092
1001
PE_EBENE_P3
1010
6190.735351016392
1020
-11766.67535864161
1030
-1070.092
1001
GRAUM_LAYER_TYP
1070
     4
1001
GRAUM_LAYER_SIZE
1010
43788.06012926665
1020
6973.546998539965
1030
0.0
  0
LAYER
  5
42
330
2D7
100
AcDbSymbolTableRecord
100
AcDbLayerTableRecord
  2
.Neuer Ordner.Wand 2
 70
     0
 62
     7
  6
Continuous
370
     0
390
2E4
1001
PE_VERSION
1070
     1
1001
PE_EBENE_EBENE
1070
     2
1001
PE_EBENE_P1
1010
-37597.29399922278
1020
-11714.75708763871
1030
-1170.092
1001
PE_EBENE_P2
1010
-37835.08194352416
1020
5900.43136720735
1030
-1170.092
1001
PE_EBENE_P3
1010
-37597.29399922278
1020
-11714.75708763871
1030
-1070.092
1001
GRAUM_LAYER_TYP
1070
     4
1001
GRAUM_LAYER_SIZE
1010
17616.79333494597
1020
6973.546998539965
1030
0.0
  0
LAYER
  5
47
330
2D7
100
AcDbSymbolTableRecord
100
AcDbLayerTableRecord
  2
.Neuer Ordner.Wand 3
 70
     0
 62
     7
  6
Continuous
370
     0
390
2E4
1001
PE_VERSION
1070
     1
1001
PE_EBENE_EBENE
1070
     2
1001
PE_EBENE_P1
1010
-37835.08194352416
1020
5900.43136720735
1030
-1170.092
1001
PE_EBENE_P2
1010
6236.963973303698
1020
5869.366023556067
1030
-1170.092
1001
PE_EBENE_P3
1010
-37835.08194352416
1020
5900.43136720735
1030
-1070.092
1001
GRAUM_LAYER_TYP
1070
     4
1001
GRAUM_LAYER_SIZE
1010
44072.05686543979
1020
6973.546998539965
1030
0.0
  0
LAYER
  5
4C
330
2D7
100
AcDbSymbolTableRecord
100
AcDbLayerTableRecord
  2
.Neuer Ordner.Wand 4
 70
     0
 62
     7
  6
Continuous
370
     0
390
2E4
1001
PE_VERSION
1070
     1
1001
PE_EBENE_EBENE
1070
     2
1001
PE_EBENE_P1
1010
6236.963973303698
1020
5869.366023556067
1030
-1170.092
1001
PE_EBENE_P2
1010
6190.735351016392
1020
-11766.67535864161
1030
-1170.092
1001
PE_EBENE_P3
1010
6236.963973303698
1020
5869.366023556067
1030
-1070.092
1001
GRAUM_LAYER_TYP
1070
     4
1001
GRAUM_LAYER_SIZE
1010
17636.10197067673
1020
6973.546998539965
1030
0.0
  0
ENDTAB
  0
TABLE
  2
STYLE
  5
2D8
330
0
100
AcDbSymbolTable
 70
     1
  0
STYLE
  5
2E6
330
2D8
100
AcDbSymbolTableRecord
100
AcDbTextStyleTableRecord
  2
STANDARD
 70
     0
 40
50.0
 41
1.0
 50
0.0
 71
     0
 42
0.2
  3
arial.ttf
  4

1001
ACAD
1000
Arial
1071
        0
  0
ENDTAB
  0
TABLE
  2
VIEW
  5
2DB
330
0
100
AcDbSymbolTable
 70
     0
  0
ENDTAB
  0
TABLE
  2
UCS
  5
2DC
330
0
100
AcDbSymbolTable
 70
     0
  0
ENDTAB
  0
TABLE
  2
APPID
  5
2DE
330
0
100
AcDbSymbolTable
 70
    31
  0
APPID
  5
2E7
330
2DE
100
AcDbSymbolTableRecord
100
AcDbRegAppTableRecord
  2
ACAD
 70
     0
  0
APPID
  5
2FF
330
2DE
100
AcDbSymbolTableRecord
100
AcDbRegAppTableRecord
  2
VD_INVISIBLE_NOT_FOR_READ
 70
     0
  0
APPID
  5
300
330
2DE
100
AcDbSymbolTableRecord
100
AcDbRegAppTableRecord
  2
VD_TEMPHATCH
 70
     0
  0
APPID
  5
301
330
2DE
100
AcDbSymbolTableRecord
100
AcDbRegAppTableRecord
  2
VDEXTRALINETYPE
 70
     0
  0
APPID
  5
302
330
2DE
100
AcDbSymbolTableRecord
100
AcDbRegAppTableRecord
  2
VDEXTRAPARAM
 70
     0
  0
APPID
  5
303
330
2DE
100
AcDbSymbolTableRecord
100
AcDbRegAppTableRecord
  2
PE_URL
 70
     0
  0
APPID
  5
304
330
2DE
100
AcDbSymbolTableRecord
100
AcDbRegAppTableRecord
  2
VD_UNKNOWN
 70
     0
  0
APPID
  5
327
330
2DE
100
AcDbSymbolTableRecord
100
AcDbRegAppTableRecord
  2
PE_VERSION
 70
     0
  0
APPID
  5
328
330
2DE
100
AcDbSymbolTableRecord
100
AcDbRegAppTableRecord
  2
PE_EBENE_EBENE
 70
     0
  0
APPID
  5
329
330
2DE
100
AcDbSymbolTableRecord
100
AcDbRegAppTableRecord
  2
PE_EBENE_P1
 70
     0
  0
APPID
  5
32A
330
2DE
100
AcDbSymbolTableRecord
100
AcDbRegAppTableRecord
  2
PE_EBENE_P2
 70
     0
  0
APPID
  5
32B
330
2DE
100
AcDbSymbolTableRecord
100
AcDbRegAppTableRecord
  2
PE_EBENE_P3
 70
     0
  0
APPID
  5
32C
330
2DE
100
AcDbSymbolTableRecord
100
AcDbRegAppTableRecord
  2
GRAUM_LAYER_TYP
 70
     0
  0
APPID
  5
32D
330
2DE
100
AcDbSymbolTableRecord
100
AcDbRegAppTableRecord
  2
GRAUM_LAYER_SIZE
 70
     0
  0
APPID
  5
32F
330
2DE
100
AcDbSymbolTableRecord
100
AcDbRegAppTableRecord
  2
CEedFileStamp
 70
     0
  0
APPID
  5
330
330
2DE
100
AcDbSymbolTableRecord
100
AcDbRegAppTableRecord
  2
GRAUM_ELEMENT_TYP
 70
     0
  0
APPID
  5
331
330
2DE
100
AcDbSymbolTableRecord
100
AcDbRegAppTableRecord
  2
VD_SOLID_FILL_TRANSP
 70
     0
  0
APPID
  5
332
330
2DE
100
AcDbSymbolTableRecord
100
AcDbRegAppTableRecord
  2
GRAUM_WALLNUMBER
 70
     0
  0
APPID
  5
333
330
2DE
100
AcDbSymbolTableRecord
100
AcDbRegAppTableRecord
  2
GRAUM_WAND_MIN_POINT_WCS
 70
     0
  0
APPID
  5
334
330
2DE
100
AcDbSymbolTableRecord
100
AcDbRegAppTableRecord
  2
GRAUM_WAND_MAX_POINT_WCS
 70
     0
  0
APPID
  5
335
330
2DE
100
AcDbSymbolTableRecord
100
AcDbRegAppTableRecord
  2
CLaserDistTaskSchraffurDist
 70
     0
  0
APPID
  5
336
330
2DE
100
AcDbSymbolTableRecord
100
AcDbRegAppTableRecord
  2
VD_EX_PRINTER_NAME
 70
     0
  0
APPID
  5
337
330
2DE
100
AcDbSymbolTableRecord
100
AcDbRegAppTableRecord
  2
VD_EX_PRINTER_PAPER
 70
     0
  0
APPID
  5
338
330
2DE
100
AcDbSymbolTableRecord
100
AcDbRegAppTableRecord
  2
VD_EX_PRINTER_ORIENT
 70
     0
  0
APPID
  5
339
330
2DE
100
AcDbSymbolTableRecord
100
AcDbRegAppTableRecord
  2
VD_EX_PRINTER_SIZEX
 70
     0
  0
APPID
  5
33A
330
2DE
100
AcDbSymbolTableRecord
100
AcDbRegAppTableRecord
  2
VD_EX_PRINTER_SIZEY
 70
     0
  0
APPID
  5
33B
330
2DE
100
AcDbSymbolTableRecord
100
AcDbRegAppTableRecord
  2
VD_EX_PRINTER_AVSIZEX
 70
     0
  0
APPID
  5
33C
330
2DE
100
AcDbSymbolTableRecord
100
AcDbRegAppTableRecord
  2
VD_EX_PRINTER_AVSIZEY
 70
     0
  0
APPID
  5
33D
330
2DE
100
AcDbSymbolTableRecord
100
AcDbRegAppTableRecord
  2
VD_EX_PRINTER_MARX
 70
     0
  0
APPID
  5
33E
330
2DE
100
AcDbSymbolTableRecord
100
AcDbRegAppTableRecord
  2
VD_EX_PRINTER_MARY
 70
     0
  0
APPID
  5
33F
330
2DE
100
AcDbSymbolTableRecord
100
AcDbRegAppTableRecord
  2
VD_EX_PRINTER_PAPER_NAME
 70
     0
  0
ENDTAB
  0
TABLE
  2
DIMSTYLE
  5
2DF
330
0
100
AcDbSymbolTable
 70
     1
100
AcDbDimStyleTable
  0
DIMSTYLE
105
2FC
330
2DF
100
AcDbSymbolTableRecord
100
AcDbDimStyleTableRecord
  2
STANDARD
 70
     0
 41
50.0
 42
40.0
 44
20.0
 73
     0
 74
     0
 78
     1
140
50.0
147
10.0
172
     1
174
     1
176
     5
177
   216
178
   116
179
     2
271
     1
272
     1
284
     1
288
     1
340
2E6
342
7
  0
ENDTAB
  0
TABLE
  2
BLOCK_RECORD
  5
2D6
330
0
100
AcDbSymbolTable
 70
     5
  0
BLOCK_RECORD
  5
2F4
330
2D6
100
AcDbSymbolTableRecord
100
AcDbBlockTableRecord
  2
*Model_Space
340
2F7
  0
BLOCK_RECORD
  5
2F0
330
2D6
100
AcDbSymbolTableRecord
100
AcDbBlockTableRecord
  2
*Paper_Space
340
2F3
  0
BLOCK_RECORD
  5
2F8
330
2D6
100
AcDbSymbolTableRecord
100
AcDbBlockTableRecord
  2
*Paper_Space0
340
2FB
  0
BLOCK_RECORD
  5
7
330
2D6
100
AcDbSymbolTableRecord
100
AcDbBlockTableRecord
  2
VDDIM_DEFAULT
340
0
  0
BLOCK_RECORD
  5
9
330
2D6
100
AcDbSymbolTableRecord
100
AcDbBlockTableRecord
  2
VDDIM_NONE
340
0
  0
BLOCK_RECORD
  5
A
330
2D6
100
AcDbSymbolTableRecord
100
AcDbBlockTableRecord
  2
flexijetdatablock
340
0
1001
CEedFileStamp
1004
05FFFEFF0B32002C00200030002C00200030002C0020003600300000000000000000000000000000000000FFFEFF074300680072006900730073006900FFFEFF043000380031003500FFFEFF06610062006300640065006600FFFEFF0531003200330034003500FFFEFF000000000000000000
  0
BLOCK_RECORD
  5
E
330
2D6
100
AcDbSymbolTableRecord
100
AcDbBlockTableRecord
  2
blocktempBKSDraufsicht1
340
0
  0
ENDTAB
  0
ENDSEC
  0
SECTION
  2
BLOCKS
  0
BLOCK
  5
2F5
330
2F4
100
AcDbEntity
  8
0
100
AcDbBlockBegin
  2
*Model_Space
 70
     0
 71
     0
 10
0.0
 20
0.0
 30
0.0
  3
*Model_Space
  1

  0
ENDBLK
  5
2F6
330
2F4
100
AcDbEntity
  8
0
100
AcDbBlockEnd
  0
BLOCK
  5
2F1
330
2F0
100
AcDbEntity
 67
     1
  8
0
100
AcDbBlockBegin
  2
*Paper_Space
 70
     0
 71
     0
 10
0.0
 20
0.0
 30
0.0
  3
*Paper_Space
  1

  0
ENDBLK
  5
2F2
330
2F0
100
AcDbEntity
 67
     1
  8
0
100
AcDbBlockEnd
  0
BLOCK
  5
2F9
330
2F8
100
AcDbEntity
  8
0
100
AcDbBlockBegin
  2
*Paper_Space0
 70
     0
 71
     0
 10
0.0
 20
0.0
 30
0.0
  3
*Paper_Space0
  1

  0
ENDBLK
  5
2FA
330
2F8
100
AcDbEntity
  8
0
100
AcDbBlockEnd
  0
BLOCK
  5
31F
330
7
100
AcDbEntity
  8
0
100
AcDbBlockBegin
  2
VDDIM_DEFAULT
 70
     0
 71
     0
 10
0.0
 20
0.0
 30
0.0
  3
VDDIM_DEFAULT
  1

  0
LWPOLYLINE
  5
8
330
7
100
AcDbEntity
  8
0
  6
Continuous
 62
     0
100
AcDbPolyline
 90
        4
 70
     0
 43
0.0
 10
0.0
 20
0.0
 10
-1.0
 20
-0.1665
 10
-1.0
 20
0.1665
 10
0.0
 20
0.0
1001
VDEXTRAPARAM
1071
        1
1071
      256
1071
      256
1040
1.0
1000

1000

1040
0.0
1040
0.0
1071
-1023410176
1071
-1023410176
  0
HATCH
  5
32E
330
7
100
AcDbEntity
  8
0
  6
Continuous
 62
     0
100
AcDbHatch
 10
0.0
 20
0.0
 30
0.0
210
0.0
220
0.0
230
1.0
  2
SOLID
 70
     1
 71
     0
 91
        1
 92
        2
 72
     0
 73
     1
 93
        3
 10
0.0
 20
0.0
 10
-1.0
 20
-0.1665
 10
-1.0
 20
0.1665
 97
        0
 75
     0
 76
     1
 98
        1
 10
0.0
 20
0.0
1001
VDEXTRAPARAM
1071
        1
1071
      256
1071
      256
1040
1.0
1000

1000

1040
0.0
1040
0.0
1071
-1023410176
1071
-1023410176
1001
VD_TEMPHATCH
1000
VD_TEMPHATCH
  0
ENDBLK
  5
320
330
7
100
AcDbEntity
  8
0
100
AcDbBlockEnd
  0
BLOCK
  5
321
330
9
100
AcDbEntity
  8
0
100
AcDbBlockBegin
  2
VDDIM_NONE
 70
     0
 71
     0
 10
0.0
 20
0.0
 30
0.0
  3
VDDIM_NONE
  1

  0
ENDBLK
  5
322
330
9
100
AcDbEntity
  8
0
100
AcDbBlockEnd
  0
BLOCK
  5
323
330
A
100
AcDbEntity
  8
0
100
AcDbBlockBegin
  2
flexijetdatablock
 70
     0
 71
     0
 10
0.0
 20
0.0
 30
0.0
  3
flexijetdatablock
  1

  0
ENDBLK
  5
324
330
A
100
AcDbEntity
  8
0
100
AcDbBlockEnd
  0
BLOCK
  5
325
330
E
100
AcDbEntity
  8
0
100
AcDbBlockBegin
  2
blocktempBKSDraufsicht1
 70
     0
 71
     0
 10
0.0
 20
0.0
 30
0.0
  3
blocktempBKSDraufsicht1
  1

  0
ENDBLK
  5
326
330
E
100
AcDbEntity
  8
0
100
AcDbBlockEnd
  0
ENDSEC
  0
SECTION
  2
ENTITIES
  0
LWPOLYLINE
  5
56
330
2F4
100
AcDbEntity
  8
.Neuer Ordner.Decke
100
AcDbPolyline
 90
        5
 70
     0
 43
0.0
 38
228.4824802574789
 10
243.7297382289918
 20
-463.2549353795909
 10
-1480.208425166251
 20
-461.2109089621537
 10
-1489.570155256857
 20
232.3004475278484
 10
245.5497627284921
 20
231.0774025022074
 10
243.7297382289918
 20
-463.2549353795909
1001
GRAUM_ELEMENT_TYP
1070
     3
1001
VD_SOLID_FILL_TRANSP
1070
    40
1001
PE_URL
1000

1002
{
1000
Decke
1002
}
  0
LWPOLYLINE
  5
55
330
2F4
100
AcDbEntity
  8
.Neuer Ordner.Boden
100
AcDbPolyline
 90
        5
 70
     0
 43
0.0
 38
-46.06661417322835
 10
243.7297382289918
 20
-463.2549353795909
 10
-1480.208425166251
 20
-461.2109089621537
 10
-1489.570155256857
 20
232.3004475278484
 10
245.5497627284921
 20
231.0774025022074
 10
243.7297382289918
 20
-463.2549353795909
1001
GRAUM_ELEMENT_TYP
1070
     2
1001
VD_SOLID_FILL_TRANSP
1070
    40
1001
PE_URL
1000

1002
{
1000
Boden
1002
}
  0
LINE
  5
2A
330
2F4
100
AcDbEntity
  8
.Neuer Ordner.Grundriss
100
AcDbLine
 10
243.7297382289918
 20
-463.2549353795909
 30
-46.06661417322835
 11
-1480.208425166251
 21
-461.2109089621537
 31
-46.06661417322835
  0
LINE
  5
2D
330
2F4
100
AcDbEntity
  8
.Neuer Ordner.Grundriss
100
AcDbLine
 10
-1480.208425166251
 20
-461.2109089621537
 30
-46.06661417322835
 11
-1489.570155256857
 21
232.3004475278485
 31
-46.06661417322835
  0
LINE
  5
30
330
2F4
100
AcDbEntity
  8
.Neuer Ordner.Grundriss
100
AcDbLine
 10
-1489.570155256857
 20
232.3004475278484
 30
-46.06661417322835
 11
245.5497627284922
 21
231.0774025022074
 31
-46.06661417322835
  0
LINE
  5
33
330
2F4
100
AcDbEntity
  8
.Neuer Ordner.Grundriss
100
AcDbLine
 10
245.5497627284921
 20
231.0774025022074
 30
-46.06661417322835
 11
243.7297382289918
 21
-463.2549353795909
 31
-46.06661417322835
  0
TEXT
  5
37
330
2F4
100
AcDbEntity
  8
.Neuer Ordner.Boden
100
AcDbText
 10
-618.2253394702013
 20
-451.4061588194054
 30
-46.06661417322835
 40
1.968503937007874
  1
W1
 11
-618.2253394702013
 21
-450.4219068509015
 31
-46.06661417322835
100
AcDbText
 73
     2
  0
TEXT
  5
38
330
2F4
100
AcDbEntity
  8
.Neuer Ordner.Boden
100
AcDbText
 10
-1473.079342567206
 20
-115.2800598568941
 30
-46.06661417322835
 40
1.968503937007874
  1
W2
 11
-1473.079342567206
 21
-114.2958078883902
 31
-46.06661417322835
100
AcDbText
 73
     2
  0
TEXT
  5
39
330
2F4
100
AcDbEntity
  8
.Neuer Ordner.Boden
100
AcDbText
 10
-622.0185215735459
 20
218.8936523586333
 30
-46.06661417322835
 40
1.968503937007874
  1
W3
 11
-622.0185215735459
 21
219.8779043271372
 31
-46.06661417322835
100
AcDbText
 73
     2
  0
TEXT
  5
3A
330
2F4
100
AcDbEntity
  8
.Neuer Ordner.Boden
100
AcDbText
 10
232.8287674332325
 20
-117.0420587682257
 30
-46.06661417322835
 40
1.968503937007874
  1
W4
 11
232.8287674332325
 21
-116.0578067997218
 31
-46.06661417322835
100
AcDbText
 73
     2
  0
LWPOLYLINE
  5
40
330
2F4
100
AcDbEntity
  8
.Neuer Ordner.Wand 1
370
     0
100
AcDbPolyline
 90
        5
 70
     0
 43
0.0
 38
-462.9656262598056
 10
-244.2788352530528
 20
-46.06661417322837
 10
-244.2788352530538
 20
228.4824802574789
 10
1479.660539914925
 20
228.4824802574789
 10
1479.660539914926
 20
-46.06661417322837
 10
-244.2788352530528
 20
-46.06661417322837
210
0.001185671866550448
220
0.9999992970908654
230
0.0
1001
VD_SOLID_FILL_TRANSP
1070
   128
1001
GRAUM_ELEMENT_TYP
1070
     1
1001
GRAUM_WALLNUMBER
1070
     1
1001
GRAUM_WAND_MIN_POINT_WCS
1010
6190.735351016393
1020
-11766.67535864161
1030
-1170.092
1001
GRAUM_WAND_MAX_POINT_WCS
1010
-37597.29399922279
1020
-11714.75708763871
1030
5803.454998539964
1001
PE_URL
1000

1002
{
1000
Wand 1
1002
}
  0
TEXT
  5
41
330
2F4
100
AcDbEntity
  8
.Neuer Ordner.Wand 1
100
AcDbText
 10
-263.0859218672259
 20
238.9074981529693
 30
-462.9656262598093
 40
1.968503937007874
  1
Wand 1
 41
1.0
 72
     2
 11
-254.1213549380921
 21
238.3249999425183
 31
-462.9656262598093
210
0.001185671866550448
220
0.9999992970908654
230
0.0
100
AcDbText
 73
     1
  0
LWPOLYLINE
  5
45
330
2F4
100
AcDbEntity
  8
.Neuer Ordner.Wand 2
370
     0
100
AcDbPolyline
 90
        5
 70
     0
 43
0.0
 38
-1486.298911377213
 10
-441.1893363599799
 20
-46.06661417322836
 10
-441.1893363599808
 20
228.4824802574788
 10
252.3852043859236
 20
228.4824802574788
 10
252.3852043859245
 20
-46.06661417322836
 10
-441.1893363599799
 20
-46.06661417322836
210
0.999908900554746
220
0.01349779950210623
230
0.0
1001
VD_SOLID_FILL_TRANSP
1070
   128
1001
GRAUM_ELEMENT_TYP
1070
     1
1001
GRAUM_WALLNUMBER
1070
     2
1001
GRAUM_WAND_MIN_POINT_WCS
1010
-37597.29399922278
1020
-11714.75708763871
1030
-1170.092
1001
GRAUM_WAND_MAX_POINT_WCS
1010
-37835.08194352415
1020
5900.431367207351
1030
5803.454998539964
1001
PE_URL
1000

1002
{
1000
Wand 2
1002
}
  0
TEXT
  5
46
330
2F4
100
AcDbEntity
  8
.Neuer Ordner.Wand 2
100
AcDbText
 10
-460.3546906906883
 20
238.9074981529692
 30
-1486.298911377215
 40
1.968503937007874
  1
Wand 2
 72
     2
 11
-451.031856045019
 21
238.3249999425182
 31
-1486.298911377215
210
0.999908900554746
220
0.01349779950210623
230
0.0
100
AcDbText
 73
     1
  0
LWPOLYLINE
  5
4A
330
2F4
100
AcDbEntity
  8
.Neuer Ordner.Wand 3
370
     0
100
AcDbPolyline
 90
        5
 70
     0
 43
0.0
 38
-231.2504272814857
 10
-1489.733528264604
 20
-46.06661417322835
 10
-1489.733528264605
 20
228.4824802574789
 10
245.386820781083
 20
228.4824802574789
 10
245.3868207810839
 20
-46.06661417322835
 10
-1489.733528264604
 20
-46.06661417322835
210
-0.0007048761908660524
220
-0.999999751574747
230
0.0
1001
VD_SOLID_FILL_TRANSP
1070
   128
1001
GRAUM_ELEMENT_TYP
1070
     1
1001
GRAUM_WALLNUMBER
1070
     3
1001
GRAUM_WAND_MIN_POINT_WCS
1010
-37835.08194352416
1020
5900.43136720735
1030
-1170.092
1001
GRAUM_WAND_MAX_POINT_WCS
1010
6236.963973303697
1020
5869.366023556067
1030
5803.454998539963
1001
PE_URL
1000

1002
{
1000
Wand 3
1002
}
  0
TEXT
  5
4B
330
2F4
100
AcDbEntity
  8
.Neuer Ordner.Wand 3
100
AcDbText
 10
-1508.920536138687
 20
238.9074981529691
 30
-231.2504272815046
 40
1.968503937007874
  1
Wand 3
 41
1.000000000007276
 72
     2
 11
-1499.576047949642
 21
238.3249999425182
 31
-231.2504272815046
210
-0.0007048761908660524
220
-0.999999751574747
230
0.0
100
AcDbText
 73
     1
  0
LWPOLYLINE
  5
4F
330
2F4
100
AcDbEntity
  8
.Neuer Ordner.Wand 4
370
     0
100
AcDbPolyline
 90
        5
 70
     0
 43
0.0
 38
-244.943207636833
 10
-231.7202558167179
 20
-46.06661417322836
 10
-231.7202558167189
 20
228.4824802574788
 10
462.6144674389017
 20
228.4824802574788
 10
462.6144674389026
 20
-46.06661417322836
 10
-231.7202558167179
 20
-46.06661417322836
210
-0.9999965645198035
220
0.002621249433103813
230
0.0
1001
VD_SOLID_FILL_TRANSP
1070
   128
1001
GRAUM_ELEMENT_TYP
1070
     1
1001
GRAUM_WALLNUMBER
1070
     4
1001
GRAUM_WAND_MIN_POINT_WCS
1010
6236.963973303698
1020
5869.366023556066
1030
-1170.092
1001
GRAUM_WAND_MAX_POINT_WCS
1010
6190.735351016392
1020
-11766.67535864161
1030
5803.454998539963
1001
PE_URL
1000

1002
{
1000
Wand 4
1002
}
  0
TEXT
  5
50
330
2F4
100
AcDbEntity
  8
.Neuer Ordner.Wand 4
100
AcDbText
 10
-250.899389674994
 20
238.9074981529691
 30
-244.9432076368299
 40
1.968503937007874
  1
Wand 4
 41
1.00000000000091
 72
     2
 11
-241.5627755017572
 21
238.3249999425181
 31
-244.9432076368299
210
-0.9999965645198035
220
0.002621249433103813
230
0.0
100
AcDbText
 73
     1
  0
TEXT
  5
51
330
2F4
100
AcDbEntity
  8
.Neuer Ordner.Decke
100
AcDbText
 10
-618.2253394702013
 20
-451.4061588194054
 30
228.4824802574789
 40
1.968503937007874
  1
W1
 11
-618.2253394702013
 21
-450.4219068509015
 31
228.4824802574789
100
AcDbText
 73
     2
  0
TEXT
  5
52
330
2F4
100
AcDbEntity
  8
.Neuer Ordner.Decke
100
AcDbText
 10
-1473.079342567206
 20
-115.2800598568941
 30
228.4824802574789
 40
1.968503937007874
  1
W2
 11
-1473.079342567206
 21
-114.2958078883902
 31
228.4824802574789
100
AcDbText
 73
     2
  0
TEXT
  5
53
330
2F4
100
AcDbEntity
  8
.Neuer Ordner.Decke
100
AcDbText
 10
-622.0185215735459
 20
218.8936523586333
 30
228.4824802574789
 40
1.968503937007874
  1
W3
 11
-622.0185215735459
 21
219.8779043271372
 31
228.4824802574789
100
AcDbText
 73
     2
  0
TEXT
  5
54
330
2F4
100
AcDbEntity
  8
.Neuer Ordner.Decke
100
AcDbText
 10
232.8287674332325
 20
-117.0420587682257
 30
228.4824802574789
 40
1.968503937007874
  1
W4
 11
232.8287674332325
 21
-116.0578067997218
 31
228.4824802574789
100
AcDbText
 73
     2
  0
TEXT
  5
58
330
2F4
100
AcDbEntity
  8
.Neuer Ordner.Boden
100
AcDbText
 10
-1489.570155256857
 20
242.7254654233388
 30
-46.06661417322836
 40
1.968503937007874
  1
Boden
 11
-1489.570155256857
 21
242.1429672128878
 31
-46.06661417322836
100
AcDbText
 73
     1
  0
TEXT
  5
5A
330
2F4
100
AcDbEntity
  8
.Neuer Ordner.Decke
100
AcDbText
 10
-1489.570155256857
 20
242.7254654233388
 30
228.482480257479
 40
1.968503937007874
  1
Decke
 11
-1489.570155256857
 21
242.1429672128878
 31
228.482480257479
100
AcDbText
 73
     1
  0
LWPOLYLINE
  5
5E
330
2F4
100
AcDbEntity
  8
.Neuer Ordner.Grundriss
100
AcDbPolyline
 90
        5
 70
     0
 43
0.0
 38
-46.06661417322835
 10
-219.5918897637795
 20
-117.0444645669291
 10
-219.59188976378
 20
24.36674803149606
 10
-56.96198425196899
 20
24.36674803149606
 10
-56.9619842519685
 20
-117.0444645669291
 10
-219.5918897637795
 20
-117.0444645669291
1001
VD_SOLID_FILL_TRANSP
1070
    40
  0
HATCH
  5
5F
330
2F4
100
AcDbEntity
  8
.Neuer Ordner.Grundriss
100
AcDbHatch
 10
0.0
 20
0.0
 30
-46.06661417322835
210
0.0
220
0.0
230
1.0
  2
SOLID
 70
     1
 71
     0
 91
        1
 92
        2
 72
     0
 73
     1
 93
        4
 10
-219.5918897637795
 20
-117.0444645669291
 10
-219.59188976378
 20
24.36674803149606
 10
-56.96198425196899
 20
24.36674803149606
 10
-56.9619842519685
 20
-117.0444645669291
 97
        0
 75
     0
 76
     1
 98
        1
 10
0.0
 20
0.0
  0
POINT
  5
61
330
2F4
100
AcDbEntity
  8
.Neuer Ordner.Grundriss
 62
    90
100
AcDbPoint
 10
-60.57243245424043
 20
-100.8927496066862
 30
-47.28513643442384
1001
CLaserDistTaskSchraffurDist
1040
7.198515119521517
1001
PE_URL
1000

1002
{
1000
7.2
1002
}
  0
TEXT
  5
62
330
2F4
100
AcDbEntity
  8
.Neuer Ordner.Grundriss
100
AcDbText
 10
-60.57243245424043
 20
-100.060609306042
 30
-47.28513643442384
 40
2.81214848143982
  1
7.2
 11
-60.57243245424043
 21
-100.8927496066862
 31
-47.28513643442384
100
AcDbText
 73
     1
  0
POINT
  5
63
330
2F4
100
AcDbEntity
  8
.Neuer Ordner.Grundriss
 62
   190
100
AcDbPoint
 10
-80.05451432302472
 20
-100.020731743352
 30
-46.89466516192644
1001
CLaserDistTaskSchraffurDist
1040
17.11648544095556
1001
PE_URL
1000

1002
{
1000
17.1
1002
}
  0
TEXT
  5
64
330
2F4
100
AcDbEntity
  8
.Neuer Ordner.Grundriss
100
AcDbText
 10
-80.05451432302472
 20
-99.18859144270779
 30
-46.89466516192644
 40
2.81214848143982
  1
17.1
 11
-80.05451432302472
 21
-100.020731743352
 31
-46.89466516192644
100
AcDbText
 73
     1
  0
POINT
  5
65
330
2F4
100
AcDbEntity
  8
.Neuer Ordner.Grundriss
 62
   140
100
AcDbPoint
 10
-100.3343841098586
 20
-100.3153314198261
 30
-47.06781201151884
1001
CLaserDistTaskSchraffurDist
1040
12.7185554613086
1001
PE_URL
1000

1002
{
1000
12.7
1002
}
  0
TEXT
  5
66
330
2F4
100
AcDbEntity
  8
.Neuer Ordner.Grundriss
100
AcDbText
 10
-100.3343841098586
 20
-99.48319111918183
 30
-47.06781201151884
 40
2.81214848143982
  1
12.7
 11
-100.3343841098586
 21
-100.3153314198261
 31
-47.06781201151884
100
AcDbText
 73
     1
  0
POINT
  5
67
330
2F4
100
AcDbEntity
  8
.Neuer Ordner.Grundriss
 62
   120
100
AcDbPoint
 10
-120.9410085272072
 20
-100.6989910024536
 30
-47.1609679164421
1001
CLaserDistTaskSchraffurDist
1040
10.3523954762577
1001
PE_URL
1000

1002
{
1000
10.4
1002
}
  0
TEXT
  5
68
330
2F4
100
AcDbEntity
  8
.Neuer Ordner.Grundriss
100
AcDbText
 10
-120.9410085272072
 20
-99.8668507018094
 30
-47.1609679164421
 40
2.81214848143982
  1
10.4
 11
-120.9410085272072
 21
-100.6989910024536
 31
-47.1609679164421
100
AcDbText
 73
     1
  0
POINT
  5
69
330
2F4
100
AcDbEntity
  8
.Neuer Ordner.Grundriss
 62
   130
100
AcDbPoint
 10
-140.6406429987511
 20
-100.4672956504702
 30
-47.12237174826689
1001
CLaserDistTaskSchraffurDist
1040
11.33273814790823
1001
PE_URL
1000

1002
{
1000
11.3
1002
}
  0
TEXT
  5
6A
330
2F4
100
AcDbEntity
  8
.Neuer Ordner.Grundriss
100
AcDbText
 10
-140.6406429987511
 20
-99.63515534982599
 30
-47.12237174826689
 40
2.81214848143982
  1
11.3
 11
-140.6406429987511
 21
-100.4672956504702
 31
-47.12237174826689
100
AcDbText
 73
     1
  0
POINT
  5
6B
330
2F4
100
AcDbEntity
  8
.Neuer Ordner.Grundriss
 62
   160
100
AcDbPoint
 10
-160.3207482844232
 20
-100.2198504070676
 30
-46.99302120446632
1001
CLaserDistTaskSchraffurDist
1040
14.61824196044245
1001
PE_URL
1000

1002
{
1000
14.6
1002
}
  0
TEXT
  5
6C
330
2F4
100
AcDbEntity
  8
.Neuer Ordner.Grundriss
100
AcDbText
 10
-160.3207482844232
 20
-99.38771010642331
 30
-46.99302120446632
 40
2.81214848143982
  1
14.6
 11
-160.3207482844232
 21
-100.2198504070676
 31
-46.99302120446632
100
AcDbText
 73
     1
  0
POINT
  5
6D
330
2F4
100
AcDbEntity
  8
.Neuer Ordner.Grundriss
 62
   110
100
AcDbPoint
 10
-181.328814583895
 20
-100.7626260714426
 30
-47.21338888974519
1001
CLaserDistTaskSchraffurDist
1040
9.020902754359213
1001
PE_URL
1000

1002
{
1000
9.0
1002
}
  0
TEXT
  5
6E
330
2F4
100
AcDbEntity
  8
.Neuer Ordner.Grundriss
100
AcDbText
 10
-181.328814583895
 20
-99.93048577079838
 30
-47.21338888974519
 40
2.81214848143982
  1
9.0
 11
-181.328814583895
 21
-100.7626260714426
 31
-47.21338888974519
100
AcDbText
 73
     1
  0
POINT
  5
6F
330
2F4
100
AcDbEntity
  8
.Neuer Ordner.Grundriss
 62
   180
100
AcDbPoint
 10
-200.5750347271521
 20
-100.2864657288526
 30
-46.93541976387228
1001
CLaserDistTaskSchraffurDist
1040
16.08131855153101
1001
PE_URL
1000

1002
{
1000
16.1
1002
}
  0
TEXT
  5
70
330
2F4
100
AcDbEntity
  8
.Neuer Ordner.Grundriss
100
AcDbText
 10
-200.5750347271521
 20
-99.45432542820835
 30
-46.93541976387228
 40
2.81214848143982
  1
16.1
 11
-200.5750347271521
 21
-100.2864657288526
 31
-46.93541976387228
100
AcDbText
 73
     1
  0
POINT
  5
71
330
2F4
100
AcDbEntity
  8
.Neuer Ordner.Grundriss
 62
   110
100
AcDbPoint
 10
-221.55859273898
 20
-100.7184411279746
 30
-47.22851388942217
1001
CLaserDistTaskSchraffurDist
1040
8.636727762564078
1001
PE_URL
1000

1002
{
1000
8.6
1002
}
  0
TEXT
  5
72
330
2F4
100
AcDbEntity
  8
.Neuer Ordner.Grundriss
100
AcDbText
 10
-221.55859273898
 20
-99.88630082733037
 30
-47.22851388942217
 40
2.81214848143982
  1
8.6
 11
-221.55859273898
 21
-100.7184411279746
 31
-47.22851388942217
100
AcDbText
 73
     1
  0
POINT
  5
73
330
2F4
100
AcDbEntity
  8
.Neuer Ordner.Grundriss
 62
   100
100
AcDbPoint
 10
-60.53693718947785
 20
-80.70107797654936
 30
-47.24998902399828
1001
CLaserDistTaskSchraffurDist
1040
8.091259344330638
1001
PE_URL
1000

1002
{
1000
8.1
1002
}
  0
TEXT
  5
74
330
2F4
100
AcDbEntity
  8
.Neuer Ordner.Grundriss
100
AcDbText
 10
-60.53693718947785
 20
-79.86893767590512
 30
-47.24998902399828
 40
2.81214848143982
  1
8.1
 11
-60.53693718947785
 21
-80.70107797654936
 31
-47.24998902399828
100
AcDbText
 73
     1
  0
POINT
  5
75
330
2F4
100
AcDbEntity
  8
.Neuer Ordner.Grundriss
 62
   110
100
AcDbPoint
 10
-80.60542461097951
 20
-80.61310752673488
 30
-47.21237984250146
1001
CLaserDistTaskSchraffurDist
1040
9.046532554350051
1001
PE_URL
1000

1002
{
1000
9.0
1002
}
  0
TEXT
  5
76
330
2F4
100
AcDbEntity
  8
.Neuer Ordner.Grundriss
100
AcDbText
 10
-80.60542461097951
 20
-79.78096722609064
 30
-47.21237984250146
 40
2.81214848143982
  1
9.0
 11
-80.60542461097951
 21
-80.61310752673488
 31
-47.21237984250146
100
AcDbText
 73
     1
  0
POINT
  5
77
330
2F4
100
AcDbEntity
  8
.Neuer Ordner.Grundriss
 62
   110
100
AcDbPoint
 10
-100.6984845333581
 20
-80.51313547302391
 30
-47.21663991071507
1001
CLaserDistTaskSchraffurDist
1040
8.938326821724331
1001
PE_URL
1000

1002
{
1000
8.9
1002
}
  0
TEXT
  5
78
330
2F4
100
AcDbEntity
  8
.Neuer Ordner.Grundriss
100
AcDbText
 10
-100.6984845333581
 20
-79.68099517237967
 30
-47.21663991071507
 40
2.81214848143982
  1
8.9
 11
-100.6984845333581
 21
-80.51313547302391
 31
-47.21663991071507
100
AcDbText
 73
     1
  0
POINT
  5
79
330
2F4
100
AcDbEntity
  8
.Neuer Ordner.Grundriss
 62
    90
100
AcDbPoint
 10
-120.9381252528487
 20
-80.64687952059965
 30
-47.28468848215403
1001
CLaserDistTaskSchraffurDist
1040
7.209893107174594
1001
PE_URL
1000

1002
{
1000
7.2
1002
}
  0
TEXT
  5
7A
330
2F4
100
AcDbEntity
  8
.Neuer Ordner.Grundriss
100
AcDbText
 10
-120.9381252528487
 20
-79.81473921995541
 30
-47.28468848215403
 40
2.81214848143982
  1
7.2
 11
-120.9381252528487
 21
-80.64687952059965
 31
-47.28468848215403
100
AcDbText
 73
     1
  0
POINT
  5
7B
330
2F4
100
AcDbEntity
  8
.Neuer Ordner.Grundriss
 62
   110
100
AcDbPoint
 10
-141.0311562512016
 20
-80.50382716932398
 30
-47.19879126220206
1001
CLaserDistTaskSchraffurDist
1040
9.391682493954704
1001
PE_URL
1000

1002
{
1000
9.4
1002
}
  0
TEXT
  5
7C
330
2F4
100
AcDbEntity
  8
.Neuer Ordner.Grundriss
100
AcDbText
 10
-141.0311562512016
 20
-79.67168686867974
 30
-47.19879126220206
 40
2.81214848143982
  1
9.4
 11
-141.0311562512016
 21
-80.50382716932398
 31
-47.19879126220206
100
AcDbText
 73
     1
  0
POINT
  5
7D
330
2F4
100
AcDbEntity
  8
.Neuer Ordner.Grundriss
 62
    90
100
AcDbPoint
 10
-161.291624168073
 20
-80.72783338138422
 30
-47.2984409120779
1001
CLaserDistTaskSchraffurDist
1040
6.860581387108368
1001
PE_URL
1000

1002
{
1000
6.9
1002
}
  0
TEXT
  5
7E
330
2F4
100
AcDbEntity
  8
.Neuer Ordner.Grundriss
100
AcDbText
 10
-161.291624168073
 20
-79.89569308073997
 30
-47.2984409120779
 40
2.81214848143982
  1
6.9
 11
-161.291624168073
 21
-80.72783338138422
 31
-47.2984409120779
100
AcDbText
 73
     1
  0
POINT
  5
7F
330
2F4
100
AcDbEntity
  8
.Neuer Ordner.Grundriss
 62
   120
100
AcDbPoint
 10
-181.1060058773148
 20
-80.39180447979422
 30
-47.16898540912955
1001
CLaserDistTaskSchraffurDist
1040
10.14875116199642
1001
PE_URL
1000

1002
{
1000
10.1
1002
}
  0
TEXT
  5
80
330
2F4
100
AcDbEntity
  8
.Neuer Ordner.Grundriss
100
AcDbText
 10
-181.1060058773148
 20
-79.55966417914998
 30
-47.16898540912955
 40
2.81214848143982
  1
10.1
 11
-181.1060058773148
 21
-80.39180447979422
 31
-47.16898540912955
100
AcDbText
 73
     1
  0
POINT
  5
81
330
2F4
100
AcDbEntity
  8
.Neuer Ordner.Grundriss
 62
    80
100
AcDbPoint
 10
-201.8639365275746
 20
-80.73811947431614
 30
-47.31951455592019
1001
CLaserDistTaskSchraffurDist
1040
6.325310833514322
1001
PE_URL
1000

1002
{
1000
6.3
1002
}
  0
TEXT
  5
82
330
2F4
100
AcDbEntity
  8
.Neuer Ordner.Grundriss
100
AcDbText
 10
-201.8639365275746
 20
-79.9059791736719
 30
-47.31951455592019
 40
2.81214848143982
  1
6.3
 11
-201.8639365275746
 21
-80.73811947431614
 31
-47.31951455592019
100
AcDbText
 73
     1
  0
POINT
  5
83
330
2F4
100
AcDbEntity
  8
.Neuer Ordner.Grundriss
 62
    80
100
AcDbPoint
 10
-222.0269217913765
 20
-80.7254004910471
 30
-47.33180217617759
1001
CLaserDistTaskSchraffurDist
1040
6.013205278976329
1001
PE_URL
1000

1002
{
1000
6.0
1002
}
  0
TEXT
  5
84
330
2F4
100
AcDbEntity
  8
.Neuer Ordner.Grundriss
100
AcDbText
 10
-222.0269217913765
 20
-79.89326019040286
 30
-47.33180217617759
 40
2.81214848143982
  1
6.0
 11
-222.0269217913765
 21
-80.7254004910471
 31
-47.33180217617759
100
AcDbText
 73
     1
  0
POINT
  5
85
330
2F4
100
AcDbEntity
  8
.Neuer Ordner.Grundriss
 62
    90
100
AcDbPoint
 10
-60.55522216368068
 20
-60.531409589465
 30
-47.29783893835685
1001
CLaserDistTaskSchraffurDist
1040
6.875871519623161
1001
PE_URL
1000

1002
{
1000
6.9
1002
}
  0
TEXT
  5
86
330
2F4
100
AcDbEntity
  8
.Neuer Ordner.Grundriss
100
AcDbText
 10
-60.55522216368068
 20
-59.69926928882076
 30
-47.29783893835685
 40
2.81214848143982
  1
6.9
 11
-60.55522216368068
 21
-60.531409589465
 31
-47.29783893835685
100
AcDbText
 73
     1
  0
POINT
  5
87
330
2F4
100
AcDbEntity
  8
.Neuer Ordner.Grundriss
 62
    80
100
AcDbPoint
 10
-80.7939858855964
 20
-60.59393194129866
 30
-47.34339024149593
1001
CLaserDistTaskSchraffurDist
1040
5.718868419890441
1001
PE_URL
1000

1002
{
1000
5.7
1002
}
  0
TEXT
  5
88
330
2F4
100
AcDbEntity
  8
.Neuer Ordner.Grundriss
100
AcDbText
 10
-80.7939858855964
 20
-59.76179164065442
 30
-47.34339024149593
 40
2.81214848143982
  1
5.7
 11
-80.7939858855964
 21
-60.59393194129866
 31
-47.34339024149593
100
AcDbText
 73
     1
  0
POINT
  5
89
330
2F4
100
AcDbEntity
  8
.Neuer Ordner.Grundriss
 62
   100
100
AcDbPoint
 10
-100.7662538799456
 20
-60.43447517093309
 30
-47.27329278636899
1001
CLaserDistTaskSchraffurDist
1040
7.499343780114714
1001
PE_URL
1000

1002
{
1000
7.5
1002
}
  0
TEXT
  5
8A
330
2F4
100
AcDbEntity
  8
.Neuer Ordner.Grundriss
100
AcDbText
 10
-100.7662538799456
 20
-59.60233487028885
 30
-47.27329278636899
 40
2.81214848143982
  1
7.5
 11
-100.7662538799456
 21
-60.43447517093309
 31
-47.27329278636899
100
AcDbText
 73
     1
  0
POINT
  5
8B
330
2F4
100
AcDbEntity
  8
.Neuer Ordner.Grundriss
 62
   100
100
AcDbPoint
 10
-120.8900220760071
 20
-60.45862709093061
 30
-47.25539386433707
1001
CLaserDistTaskSchraffurDist
1040
7.953976399725434
1001
PE_URL
1000

1002
{
1000
8.0
1002
}
  0
TEXT
  5
8C
330
2F4
100
AcDbEntity
  8
.Neuer Ordner.Grundriss
100
AcDbText
 10
-120.8900220760071
 20
-59.62648679028637
 30
-47.25539386433707
 40
2.81214848143982
  1
8.0
 11
-120.8900220760071
 21
-60.45862709093061
 31
-47.25539386433707
100
AcDbText
 73
     1
  0
POINT
  5
8D
330
2F4
100
AcDbEntity
  8
.Neuer Ordner.Grundriss
 62
    70
100
AcDbPoint
 10
-141.4905025491362
 20
-60.61473764346999
 30
-47.37726000001578
1001
CLaserDistTaskSchraffurDist
1040
4.858576553486273
1001
PE_URL
1000

1002
{
1000
4.9
1002
}
  0
TEXT
  5
8E
330
2F4
100
AcDbEntity
  8
.Neuer Ordner.Grundriss
100
AcDbText
 10
-141.4905025491362
 20
-59.78259734282575
 30
-47.37726000001578
 40
2.81214848143982
  1
4.9
 11
-141.4905025491362
 21
-60.61473764346999
 31
-47.37726000001578
100
AcDbText
 73
     1
  0
POINT
  5
8F
330
2F4
100
AcDbEntity
  8
.Neuer Ordner.Grundriss
 62
    70
100
AcDbPoint
 10
-161.8002153660125
 20
-60.66354026686464
 30
-47.36661673781451
1001
CLaserDistTaskSchraffurDist
1040
5.128915413398545
1001
PE_URL
1000

1002
{
1000
5.1
1002
}
  0
TEXT
  5
90
330
2F4
100
AcDbEntity
  8
.Neuer Ordner.Grundriss
100
AcDbText
 10
-161.8002153660125
 20
-59.8313999662204
 30
-47.36661673781451
 40
2.81214848143982
  1
5.1
 11
-161.8002153660125
 21
-60.66354026686464
 31
-47.36661673781451
100
AcDbText
 73
     1
  0
POINT
  5
91
330
2F4
100
AcDbEntity
  8
.Neuer Ordner.Grundriss
 62
    60
100
AcDbPoint
 10
-181.8825944322196
 20
-60.72417974348846
 30
-47.43770173427063
1001
CLaserDistTaskSchraffurDist
1040
3.323356503413152
1001
PE_URL
1000

1002
{
1000
3.3
1002
}
  0
TEXT
  5
92
330
2F4
100
AcDbEntity
  8
.Neuer Ordner.Grundriss
100
AcDbText
 10
-181.8825944322196
 20
-59.89203944284422
 30
-47.43770173427063
 40
2.81214848143982
  1
3.3
 11
-181.8825944322196
 21
-60.72417974348846
 31
-47.43770173427063
100
AcDbText
 73
     1
  0
POINT
  5
93
330
2F4
100
AcDbEntity
  8
.Neuer Ordner.Grundriss
 62
    10
100
AcDbPoint
 10
-203.4249815191153
 20
-61.03565080637578
 30
-47.64540565557
1001
CLaserDistTaskSchraffurDist
1040
-1.952323097590806
1001
PE_URL
1000

1002
{
1000
-2.0
1002
}
  0
TEXT
  5
94
330
2F4
100
AcDbEntity
  8
.Neuer Ordner.Grundriss
100
AcDbText
 10
-203.4249815191153
 20
-60.20351050573154
 30
-47.64540565557
 40
2.81214848143982
  1
-2.0
 11
-203.4249815191153
 21
-61.03565080637578
 31
-47.64540565557
100
AcDbText
 73
     1
  0
POINT
  5
95
330
2F4
100
AcDbEntity
  8
.Neuer Ordner.Grundriss
 62
    30
100
AcDbPoint
 10
-223.4137369933762
 20
-60.99469097047658
 30
-47.56005088746087
1001
CLaserDistTaskSchraffurDist
1040
0.2156880123809515
1001
PE_URL
1000

1002
{
1000
0.2
1002
}
  0
TEXT
  5
96
330
2F4
100
AcDbEntity
  8
.Neuer Ordner.Grundriss
100
AcDbText
 10
-223.4137369933762
 20
-60.16255066983234
 30
-47.56005088746087
 40
2.81214848143982
  1
0.2
 11
-223.4137369933762
 21
-60.99469097047658
 31
-47.56005088746087
100
AcDbText
 73
     1
  0
POINT
  5
97
330
2F4
100
AcDbEntity
  8
.Neuer Ordner.Grundriss
 62
    30
100
AcDbPoint
 10
-60.90140189409375
 20
-40.56576614703854
 30
-47.55123769076278
1001
CLaserDistTaskSchraffurDist
1040
0.4395432085123048
1001
PE_URL
1000

1002
{
1000
0.4
1002
}
  0
TEXT
  5
98
330
2F4
100
AcDbEntity
  8
.Neuer Ordner.Grundriss
100
AcDbText
 10
-60.90140189409375
 20
-39.7336258463943
 30
-47.55123769076278
 40
2.81214848143982
  1
0.4
 11
-60.90140189409375
 21
-40.56576614703854
 31
-47.55123769076278
100
AcDbText
 73
     1
  0
POINT
  5
99
330
2F4
100
AcDbEntity
  8
.Neuer Ordner.Grundriss
 62
    10
100
AcDbPoint
 10
-81.25895500634624
 20
-40.67131457739233
 30
-47.65896662544937
1001
CLaserDistTaskSchraffurDist
1040
-2.29677173252685
1001
PE_URL
1000

1002
{
1000
-2.3
1002
}
  0
TEXT
  5
9A
330
2F4
100
AcDbEntity
  8
.Neuer Ordner.Grundriss
100
AcDbText
 10
-81.25895500634624
 20
-39.83917427674809
 30
-47.65896662544937
 40
2.81214848143982
  1
-2.3
 11
-81.25895500634624
 21
-40.67131457739233
 31
-47.65896662544937
100
AcDbText
 73
     1
  0
POINT
  5
9B
330
2F4
100
AcDbEntity
  8
.Neuer Ordner.Grundriss
 62
    60
100
AcDbPoint
 10
-101.1289116867137
 20
-40.38603527441689
 30
-47.43186737268391
1001
CLaserDistTaskSchraffurDist
1040
3.471549287715789
1001
PE_URL
1000

1002
{
1000
3.5
1002
}
  0
TEXT
  5
9C
330
2F4
100
AcDbEntity
  8
.Neuer Ordner.Grundriss
100
AcDbText
 10
-101.1289116867137
 20
-39.55389497377265
 30
-47.43186737268391
 40
2.81214848143982
  1
3.5
 11
-101.1289116867137
 21
-40.38603527441689
 31
-47.43186737268391
100
AcDbText
 73
     1
  0
POINT
  5
9D
330
2F4
100
AcDbEntity
  8
.Neuer Ordner
 62
    80
100
AcDbPoint
 10
-121.1347059607724
 20
-40.36397861277413
 30
-47.33015778891282
1001
CLaserDistTaskSchraffurDist
1040
6.054972715501435
1001
PE_URL
1000

1002
{
1000
6.1
1002
}
  0
TEXT
  5
9E
330
2F4
100
AcDbEntity
  8
.Neuer Ordner
100
AcDbText
 10
-121.1347059607724
 20
-39.53183831212989
 30
-47.33015778891282
 40
2.81214848143982
  1
6.1
 11
-121.1347059607724
 21
-40.36397861277413
 31
-47.33015778891282
100
AcDbText
 73
     1
  0
POINT
  5
9F
330
2F4
100
AcDbEntity
  8
.Neuer Ordner
 62
    70
100
AcDbPoint
 10
-141.3466680993456
 20
-40.38768216025025
 30
-47.37174541839423
1001
CLaserDistTaskSchraffurDist
1040
4.998646926673473
1001
PE_URL
1000

1002
{
1000
5.0
1002
}
  0
TEXT
  5
A0
330
2F4
100
AcDbEntity
  8
.Neuer Ordner
100
AcDbText
 10
-141.3466680993456
 20
-39.55554185960601
 30
-47.37174541839423
 40
2.81214848143982
  1
5.0
 11
-141.3466680993456
 21
-40.38768216025025
 31
-47.37174541839423
100
AcDbText
 73
     1
  0
POINT
  5
A1
330
2F4
100
AcDbEntity
  8
.Neuer Ordner
 62
    40
100
AcDbPoint
 10
-162.3277755895481
 20
-40.62259024935953
 30
-47.51821723387643
1001
CLaserDistTaskSchraffurDist
1040
1.278262813425727
1001
PE_URL
1000

1002
{
1000
1.3
1002
}
  0
TEXT
  5
A2
330
2F4
100
AcDbEntity
  8
.Neuer Ordner
100
AcDbText
 10
-162.3277755895481
 20
-39.79044994871529
 30
-47.51821723387643
 40
2.81214848143982
  1
1.3
 11
-162.3277755895481
 21
-40.62259024935953
 31
-47.51821723387643
100
AcDbText
 73
     1
  0
POINT
  5
A3
330
2F4
100
AcDbEntity
  8
.Neuer Ordner
 62
    20
100
AcDbPoint
 10
-182.6837502385136
 20
-40.66559430725896
 30
-47.58965401171225
1001
CLaserDistTaskSchraffurDist
1040
-0.5362313436039585
1001
PE_URL
1000

1002
{
1000
-0.5
1002
}
  0
TEXT
  5
A4
330
2F4
100
AcDbEntity
  8
.Neuer Ordner
100
AcDbText
 10
-182.6837502385136
 20
-39.83345400661472
 30
-47.58965401171225
 40
2.81214848143982
  1
-0.5
 11
-182.6837502385136
 21
-40.66559430725896
 31
-47.58965401171225
100
AcDbText
 73
     1
  0
POINT
  5
A5
330
2F4
100
AcDbEntity
  8
.Neuer Ordner
 62
    10
100
AcDbPoint
 10
-203.2494024825693
 20
-40.62700957444559
 30
-47.64542849941554
1001
CLaserDistTaskSchraffurDist
1040
-1.952903331267635
1001
PE_URL
1000

1002
{
1000
-2.0
1002
}
  0
TEXT
  5
A6
330
2F4
100
AcDbEntity
  8
.Neuer Ordner
100
AcDbText
 10
-203.2494024825693
 20
-39.79486927380135
 30
-47.64542849941554
 40
2.81214848143982
  1
-2.0
 11
-203.2494024825693
 21
-40.62700957444559
 31
-47.64542849941554
100
AcDbText
 73
     1
  0
POINT
  5
A8
330
2F4
100
AcDbEntity
  8
.Neuer Ordner.Grundriss
 62
    20
100
AcDbPoint
 10
-223.8212590006186
 20
-40.78409471779014
 30
-47.60240805541289
1001
CLaserDistTaskSchraffurDist
1040
-0.8601840536005057
1001
PE_URL
1000

1002
{
1000
-0.9
1002
}
  0
TEXT
  5
A9
330
2F4
100
AcDbEntity
  8
.Neuer Ordner.Grundriss
100
AcDbText
 10
-223.8212590006186
 20
-39.9519544171459
 30
-47.60240805541289
 40
2.81214848143982
  1
-0.9
 11
-223.8212590006186
 21
-40.78409471779014
 31
-47.60240805541289
100
AcDbText
 73
     1
  0
POINT
  5
AA
330
2F4
100
AcDbEntity
  8
.Neuer Ordner.Grundriss
 62
    10
100
AcDbPoint
 10
-60.97020643988424
 20
-20.31381100988392
 30
-47.62254635190833
1001
CLaserDistTaskSchraffurDist
1040
-1.371696784584628
1001
PE_URL
1000

1002
{
1000
-1.4
1002
}
  0
TEXT
  5
AB
330
2F4
100
AcDbEntity
  8
.Neuer Ordner.Grundriss
100
AcDbText
 10
-60.97020643988424
 20
-19.48167070923969
 30
-47.62254635190833
 40
2.81214848143982
  1
-1.4
 11
-60.97020643988424
 21
-20.31381100988392
 31
-47.62254635190833
100
AcDbText
 73
     1
  0
POINT
  5
AC
330
2F4
100
AcDbEntity
  8
.Neuer Ordner.Grundriss
 62
    40
100
AcDbPoint
 10
-81.04206481774885
 20
-20.26882520351907
 30
-47.50692607753948
1001
CLaserDistTaskSchraffurDist
1040
1.56505818438427
1001
PE_URL
1000

1002
{
1000
1.6
1002
}
  0
TEXT
  5
AD
330
2F4
100
AcDbEntity
  8
.Neuer Ordner.Grundriss
100
AcDbText
 10
-81.04206481774885
 20
-19.43668490287483
 30
-47.50692607753948
 40
2.81214848143982
  1
1.6
 11
-81.04206481774885
 21
-20.26882520351907
 31
-47.50692607753948
100
AcDbText
 73
     1
  0
POINT
  5
AE
330
2F4
100
AcDbEntity
  8
.Neuer Ordner.Grundriss
 62
    60
100
AcDbPoint
 10
-101.0963856836184
 20
-20.18139492137303
 30
-47.42475479031584
1001
CLaserDistTaskSchraffurDist
1040
3.652208879864702
1001
PE_URL
1000

1002
{
1000
3.7
1002
}
  0
TEXT
  5
AF
330
2F4
100
AcDbEntity
  8
.Neuer Ordner.Grundriss
100
AcDbText
 10
-101.0963856836184
 20
-19.3492546207288
 30
-47.42475479031584
 40
2.81214848143982
  1
3.7
 11
-101.0963856836184
 21
-20.18139492137303
 31
-47.42475479031584
100
AcDbText
 73
     1
  0
POINT
  5
B0
330
2F4
100
AcDbEntity
  8
.Neuer Ordner.Grundriss
 62
    80
100
AcDbPoint
 10
-121.3546952495014
 20
-20.27789018274827
 30
-47.34934419033078
1001
CLaserDistTaskSchraffurDist
1040
5.567638119485309
1001
PE_URL
1000

1002
{
1000
5.6
1002
}
  0
TEXT
  5
B1
330
2F4
100
AcDbEntity
  8
.Neuer Ordner.Grundriss
100
AcDbText
 10
-121.3546952495014
 20
-19.44574988210403
 30
-47.34934419033078
 40
2.81214848143982
  1
5.6
 11
-121.3546952495014
 21
-20.27789018274827
 31
-47.34934419033078
100
AcDbText
 73
     1
  0
POINT
  5
B2
330
2F4
100
AcDbEntity
  8
.Neuer Ordner.Grundriss
 62
    70
100
AcDbPoint
 10
-141.3986092229557
 20
-20.2445775166097
 30
-47.39975442583539
1001
CLaserDistTaskSchraffurDist
1040
4.287218137668106
1001
PE_URL
1000

1002
{
1000
4.3
1002
}
  0
TEXT
  5
B3
330
2F4
100
AcDbEntity
  8
.Neuer Ordner.Grundriss
100
AcDbText
 10
-141.3986092229557
 20
-19.41243721596546
 30
-47.39975442583539
 40
2.81214848143982
  1
4.3
 11
-141.3986092229557
 21
-20.2445775166097
 31
-47.39975442583539
100
AcDbText
 73
     1
  0
POINT
  5
B4
330
2F4
100
AcDbEntity
  8
.Neuer Ordner.Grundriss
 62
    40
100
AcDbPoint
 10
-162.330184632019
 20
-20.34606246594425
 30
-47.49526479383816
1001
CLaserDistTaskSchraffurDist
1040
1.861254790397879
1001
PE_URL
1000

1002
{
1000
1.9
1002
}
  0
TEXT
  5
B5
330
2F4
100
AcDbEntity
  8
.Neuer Ordner.Grundriss
100
AcDbText
 10
-162.330184632019
 20
-19.51392216530001
 30
-47.49526479383816
 40
2.81214848143982
  1
1.9
 11
-162.330184632019
 21
-20.34606246594425
 31
-47.49526479383816
100
AcDbText
 73
     1
  0
POINT
  5
B6
330
2F4
100
AcDbEntity
  8
.Neuer Ordner.Grundriss
 62
    20
100
AcDbPoint
 10
-182.6329286307336
 20
-20.29370325001815
 30
-47.58028127168465
1001
CLaserDistTaskSchraffurDist
1040
-0.298163746902901
1001
PE_URL
1000

1002
{
1000
-0.3
1002
}
  0
TEXT
  5
B7
330
2F4
100
AcDbEntity
  8
.Neuer Ordner.Grundriss
100
AcDbText
 10
-182.6329286307336
 20
-19.46156294937392
 30
-47.58028127168465
 40
2.81214848143982
  1
-0.3
 11
-182.6329286307336
 21
-20.29370325001815
 31
-47.58028127168465
100
AcDbText
 73
     1
  0
POINT
  5
B8
330
2F4
100
AcDbEntity
  8
.Neuer Ordner.Grundriss
 62
    20
100
AcDbPoint
 10
-202.924288291107
 20
-20.34830835748544
 30
-47.59520916201789
1001
CLaserDistTaskSchraffurDist
1040
-0.6773321613673033
1001
PE_URL
1000

1002
{
1000
-0.7
1002
}
  0
TEXT
  5
B9
330
2F4
100
AcDbEntity
  8
.Neuer Ordner.Grundriss
100
AcDbText
 10
-202.924288291107
 20
-19.51616805684121
 30
-47.59520916201789
 40
2.81214848143982
  1
-0.7
 11
-202.924288291107
 21
-20.34830835748544
 31
-47.59520916201789
100
AcDbText
 73
     1
  0
POINT
  5
BA
330
2F4
100
AcDbEntity
  8
.Neuer Ordner.Grundriss
 62
    30
100
AcDbPoint
 10
-223.5022098353102
 20
-20.36046214327643
 30
-47.54579361175702
1001
CLaserDistTaskSchraffurDist
1040
0.5778228152587417
1001
PE_URL
1000

1002
{
1000
0.6
1002
}
  0
TEXT
  5
BB
330
2F4
100
AcDbEntity
  8
.Neuer Ordner.Grundriss
100
AcDbText
 10
-223.5022098353102
 20
-19.52832184263219
 30
-47.54579361175702
 40
2.81214848143982
  1
0.6
 11
-223.5022098353102
 21
-20.36046214327643
 31
-47.54579361175702
100
AcDbText
 73
     1
  0
POINT
  5
BC
330
2F4
100
AcDbEntity
  8
.Neuer Ordner.Grundriss
 62
    70
100
AcDbPoint
 10
-60.61130385286445
 20
0.028669640922842
 30
-47.3824401460613
1001
CLaserDistTaskSchraffurDist
1040
4.72700084393
1001
PE_URL
1000

1002
{
1000
4.7
1002
}
  0
TEXT
  5
BD
330
2F4
100
AcDbEntity
  8
.Neuer Ordner.Grundriss
100
AcDbText
 10
-60.61130385286445
 20
0.8608099415670797
 30
-47.3824401460613
 40
2.81214848143982
  1
4.7
 11
-60.61130385286445
 21
0.028669640922842
 31
-47.3824401460613
100
AcDbText
 73
     1
  0
POINT
  5
BE
330
2F4
100
AcDbEntity
  8
.Neuer Ordner.Grundriss
 62
    60
100
AcDbPoint
 10
-80.82454089744344
 20
0.0447998805729086
 30
-47.40734285648167
1001
CLaserDistTaskSchraffurDist
1040
4.094471999252619
1001
PE_URL
1000

1002
{
1000
4.1
1002
}
  0
TEXT
  5
BF
330
2F4
100
AcDbEntity
  8
.Neuer Ordner.Grundriss
100
AcDbText
 10
-80.82454089744344
 20
0.8769401812171462
 30
-47.40734285648167
 40
2.81214848143982
  1
4.1
 11
-80.82454089744344
 21
0.0447998805729086
 31
-47.40734285648167
100
AcDbText
 73
     1
  0
POINT
  5
C0
330
2F4
100
AcDbEntity
  8
.Neuer Ordner.Grundriss
 62
    50
100
AcDbPoint
 10
-101.1995946651397
 20
-0.0026356000302595
 30
-47.46996626471314
1001
CLaserDistTaskSchraffurDist
1040
2.503837430173462
1001
PE_URL
1000

1002
{
1000
2.5
1002
}
  0
TEXT
  5
C1
330
2F4
100
AcDbEntity
  8
.Neuer Ordner.Grundriss
100
AcDbText
 10
-101.1995946651397
 20
0.8295047006139781
 30
-47.46996626471314
 40
2.81214848143982
  1
2.5
 11
-101.1995946651397
 21
-0.0026356000302595
 31
-47.46996626471314
100
AcDbText
 73
     1
  0
POINT
  5
C2
330
2F4
100
AcDbEntity
  8
.Neuer Ordner.Grundriss
 62
    60
100
AcDbPoint
 10
-121.5077327884966
 20
0.0522564624245076
 30
-47.41854993179269
1001
CLaserDistTaskSchraffurDist
1040
3.809812286352781
1001
PE_URL
1000

1002
{
1000
3.8
1002
}
  0
TEXT
  5
C3
330
2F4
100
AcDbEntity
  8
.Neuer Ordner.Grundriss
100
AcDbText
 10
-121.5077327884966
 20
0.8843967630687452
 30
-47.41854993179269
 40
2.81214848143982
  1
3.8
 11
-121.5077327884966
 21
0.0522564624245076
 31
-47.41854993179269
100
AcDbText
 73
     1
  0
POINT
  5
C4
330
2F4
100
AcDbEntity
  8
.Neuer Ordner.Grundriss
 62
    50
100
AcDbPoint
 10
-141.8603507133103
 20
0.0256651600227522
 30
-47.4491725823831
1001
CLaserDistTaskSchraffurDist
1040
3.031996961356299
1001
PE_URL
1000

1002
{
1000
3.0
1002
}
  0
TEXT
  5
C5
330
2F4
100
AcDbEntity
  8
.Neuer Ordner.Grundriss
100
AcDbText
 10
-141.8603507133103
 20
0.8578054606669898
 30
-47.4491725823831
 40
2.81214848143982
  1
3.0
 11
-141.8603507133103
 21
0.0256651600227522
 31
-47.4491725823831
100
AcDbText
 73
     1
  0
POINT
  5
C6
330
2F4
100
AcDbEntity
  8
.Neuer Ordner.Grundriss
 62
    40
100
AcDbPoint
 10
-162.2271192941178
 20
0.0471855200106574
 30
-47.53135466091463
1001
CLaserDistTaskSchraffurDist
1040
0.9445721666554618
1001
PE_URL
1000

1002
{
1000
0.9
1002
}
  0
TEXT
  5
C7
330
2F4
100
AcDbEntity
  8
.Neuer Ordner.Grundriss
100
AcDbText
 10
-162.2271192941178
 20
0.8793258206548951
 30
-47.53135466091463
 40
2.81214848143982
  1
0.9
 11
-162.2271192941178
 21
0.0471855200106574
 31
-47.53135466091463
100
AcDbText
 73
     1
  0
POINT
  5
C8
330
2F4
100
AcDbEntity
  8
.Neuer Ordner.Grundriss
 62
    40
100
AcDbPoint
 10
-182.2283225148631
 20
0.0883279040863331
 30
-47.52806842716266
1001
CLaserDistTaskSchraffurDist
1040
1.028042503955476
1001
PE_URL
1000

1002
{
1000
1.0
1002
}
  0
TEXT
  5
C9
330
2F4
100
AcDbEntity
  8
.Neuer Ordner.Grundriss
100
AcDbText
 10
-182.2283225148631
 20
0.9204682047305707
 30
-47.52806842716266
 40
2.81214848143982
  1
1.0
 11
-182.2283225148631
 21
0.0883279040863331
 31
-47.52806842716266
100
AcDbText
 73
     1
  0
POINT
  5
CA
330
2F4
100
AcDbEntity
  8
.Neuer Ordner.Grundriss
 62
    20
100
AcDbPoint
 10
-203.0813181857785
 20
0.0349515973015932
 30
-47.59312341258538
1001
CLaserDistTaskSchraffurDist
1040
-0.624354125781565
1001
PE_URL
1000

1002
{
1000
-0.6
1002
}
  0
TEXT
  5
CB
330
2F4
100
AcDbEntity
  8
.Neuer Ordner.Grundriss
100
AcDbText
 10
-203.0813181857785
 20
0.8670918979458309
 30
-47.59312341258538
 40
2.81214848143982
  1
-0.6
 11
-203.0813181857785
 21
0.0349515973015932
 31
-47.59312341258538
100
AcDbText
 73
     1
  0
POINT
  5
CC
330
2F4
100
AcDbEntity
  8
.Neuer Ordner.Grundriss
 62
    40
100
AcDbPoint
 10
-223.6306216649989
 20
0.0533304867409918
 30
-47.52860892913763
1001
CLaserDistTaskSchraffurDist
1040
1.014313753791384
1001
PE_URL
1000

1002
{
1000
1.0
1002
}
  0
TEXT
  5
CD
330
2F4
100
AcDbEntity
  8
.Neuer Ordner.Grundriss
100
AcDbText
 10
-223.6306216649989
 20
0.8854707873852294
 30
-47.52860892913763
 40
2.81214848143982
  1
1.0
 11
-223.6306216649989
 21
0.0533304867409918
 31
-47.52860892913763
100
AcDbText
 73
     1
  0
POINT
  5
CE
330
2F4
100
AcDbEntity
  8
.Neuer Ordner.Grundriss
 62
   110
100
AcDbPoint
 10
-60.43022997550803
 20
20.11376321740301
 30
-47.19665405858856
1001
CLaserDistTaskSchraffurDist
1040
9.445967465737795
1001
PE_URL
1000

1002
{
1000
9.4
1002
}
  0
TEXT
  5
CF
330
2F4
100
AcDbEntity
  8
.Neuer Ordner.Grundriss
100
AcDbText
 10
-60.43022997550803
 20
20.94590351804725
 30
-47.19665405858856
 40
2.81214848143982
  1
9.4
 11
-60.43022997550803
 21
20.11376321740301
 31
-47.19665405858856
100
AcDbText
 73
     1
  0
POINT
  5
D0
330
2F4
100
AcDbEntity
  8
.Neuer Ordner.Grundriss
 62
    30
100
AcDbPoint
 10
-81.04827265518405
 20
20.2973631247265
 30
-47.54712117786408
1001
CLaserDistTaskSchraffurDist
1040
0.5441026361395416
1001
PE_URL
1000

1002
{
1000
0.5
1002
}
  0
TEXT
  5
D1
330
2F4
100
AcDbEntity
  8
.Neuer Ordner.Grundriss
100
AcDbText
 10
-81.04827265518405
 20
21.12950342537074
 30
-47.54712117786408
 40
2.81214848143982
  1
0.5
 11
-81.04827265518405
 21
20.2973631247265
 31
-47.54712117786408
100
AcDbText
 73
     1
  0
POINT
  5
D2
330
2F4
100
AcDbEntity
  8
.Neuer Ordner.Grundriss
 62
    40
100
AcDbPoint
 10
-101.2830989360284
 20
20.27301959042795
 30
-47.51878740244938
1001
CLaserDistTaskSchraffurDist
1040
1.263780531672637
1001
PE_URL
1000

1002
{
1000
1.3
1002
}
  0
TEXT
  5
D3
330
2F4
100
AcDbEntity
  8
.Neuer Ordner.Grundriss
100
AcDbText
 10
-101.2830989360284
 20
21.10515989107219
 30
-47.51878740244938
 40
2.81214848143982
  1
1.3
 11
-101.2830989360284
 21
20.27301959042795
 31
-47.51878740244938
100
AcDbText
 73
     1
  0
POINT
  5
D4
330
2F4
100
AcDbEntity
  8
.Neuer Ordner.Grundriss
 62
    50
100
AcDbPoint
 10
-121.5548924364167
 20
20.24351796337539
 30
-47.46372316002776
1001
CLaserDistTaskSchraffurDist
1040
2.66241228918193
1001
PE_URL
1000

1002
{
1000
2.7
1002
}
  0
TEXT
  5
D5
330
2F4
100
AcDbEntity
  8
.Neuer Ordner.Grundriss
100
AcDbText
 10
-121.5548924364167
 20
21.07565826401962
 30
-47.46372316002776
 40
2.81214848143982
  1
2.7
 11
-121.5548924364167
 21
20.24351796337539
 31
-47.46372316002776
100
AcDbText
 73
     1
  0
POINT
  5
D6
330
2F4
100
AcDbEntity
  8
.Neuer Ordner.Grundriss
 62
    70
100
AcDbPoint
 10
-141.305685378099
 20
20.21159165309163
 30
-47.36289950550697
1001
CLaserDistTaskSchraffurDist
1040
5.223333114009847
1001
PE_URL
1000

1002
{
1000
5.2
1002
}
  0
TEXT
  5
D7
330
2F4
100
AcDbEntity
  8
.Neuer Ordner.Grundriss
100
AcDbText
 10
-141.305685378099
 20
21.04373195373587
 30
-47.36289950550697
 40
2.81214848143982
  1
5.2
 11
-141.305685378099
 21
20.21159165309163
 31
-47.36289950550697
100
AcDbText
 73
     1
  0
POINT
  5
D8
330
2F4
100
AcDbEntity
  8
.Neuer Ordner.Grundriss
 62
    60
100
AcDbPoint
 10
-162.0733067487636
 20
20.1973791476171
 30
-47.42791768440672
1001
CLaserDistTaskSchraffurDist
1040
3.571871369956398
1001
PE_URL
1000

1002
{
1000
3.6
1002
}
  0
TEXT
  5
D9
330
2F4
100
AcDbEntity
  8
.Neuer Ordner.Grundriss
100
AcDbText
 10
-162.0733067487636
 20
21.02951944826134
 30
-47.42791768440672
 40
2.81214848143982
  1
3.6
 11
-162.0733067487636
 21
20.1973791476171
 31
-47.42791768440672
100
AcDbText
 73
     1
  0
POINT
  5
DA
330
2F4
100
AcDbEntity
  8
.Neuer Ordner.Grundriss
 62
    50
100
AcDbPoint
 10
-182.0722968745596
 20
20.28822389180258
 30
-47.44836921299233
1001
CLaserDistTaskSchraffurDist
1040
3.052402543881954
1001
PE_URL
1000

1002
{
1000
3.1
1002
}
  0
TEXT
  5
DB
330
2F4
100
AcDbEntity
  8
.Neuer Ordner.Grundriss
100
AcDbText
 10
-182.0722968745596
 20
21.12036419244682
 30
-47.44836921299233
 40
2.81214848143982
  1
3.1
 11
-182.0722968745596
 21
20.28822389180258
 31
-47.44836921299233
100
AcDbText
 73
     1
  0
POINT
  5
DC
330
2F4
100
AcDbEntity
  8
.Neuer Ordner.Grundriss
 62
    40
100
AcDbPoint
 10
-202.5350951383379
 20
20.27456457735219
 30
-47.49108487052972
1001
CLaserDistTaskSchraffurDist
1040
1.967424842432138
1001
PE_URL
1000

1002
{
1000
2.0
1002
}
  0
TEXT
  5
DD
330
2F4
100
AcDbEntity
  8
.Neuer Ordner.Grundriss
100
AcDbText
 10
-202.5350951383379
 20
21.10670487799643
 30
-47.49108487052972
 40
2.81214848143982
  1
2.0
 11
-202.5350951383379
 21
20.27456457735219
 31
-47.49108487052972
100
AcDbText
 73
     1
  0
POINT
  5
DE
330
2F4
100
AcDbEntity
  8
.Neuer Ordner.Grundriss
 62
    40
100
AcDbPoint
 10
-223.3933081245933
 20
20.36005852906059
 30
-47.51297720715391
1001
CLaserDistTaskSchraffurDist
1040
1.41135949217778
1001
PE_URL
1000

1002
{
1000
1.4
1002
}
  0
TEXT
  5
DF
330
2F4
100
AcDbEntity
  8
.Neuer Ordner.Grundriss
100
AcDbText
 10
-223.3933081245933
 20
21.19219882970483
 30
-47.51297720715391
 40
2.81214848143982
  1
1.4
 11
-223.3933081245933
 21
20.36005852906059
 31
-47.51297720715391
100
AcDbText
 73
     1
  0
TEXT
  5
E0
330
2F4
100
AcDbEntity
  8
.Neuer Ordner.Grundriss
100
AcDbText
 10
-88.67459055190305
 20
-39.83917427674809
 30
-47.65896662544937
 40
2.81214848143982
  1
min 
 72
     2
 11
-81.25895500634624
 21
-40.67131457739233
 31
-47.65896662544937
100
AcDbText
 73
     1
  0
TEXT
  5
E1
330
2F4
100
AcDbEntity
  8
.Neuer Ordner.Grundriss
100
AcDbText
 10
-88.56126347938017
 20
-99.18859144270779
 30
-46.89466516192644
 40
2.81214848143982
  1
max 
 72
     2
 11
-80.05451432302472
 21
-100.020731743352
 31
-46.89466516192644
100
AcDbText
 73
     1
  0
LWPOLYLINE
  5
E3
330
2F4
100
AcDbEntity
  8
.Neuer Ordner.Grundriss
100
AcDbPolyline
 90
        5
 70
     0
 43
0.0
 38
-46.06661417322835
 10
-252.5142007874016
 20
46.96096456692914
 10
-245.2606023622047
 20
-101.5506535433071
 10
-475.5842716535433
 20
-117.7580511811024
 10
-467.2007047244094
 20
44.1367874015748
 10
-252.5142007874016
 20
46.96096456692914
1001
VD_SOLID_FILL_TRANSP
1070
    40
  0
HATCH
  5
E7
330
2F4
100
AcDbEntity
  8
.Neuer Ordner.Grundriss
100
AcDbHatch
 10
0.0
 20
0.0
 30
-46.06661417322835
210
0.0
220
0.0
230
1.0
  2
SOLID
 70
     1
 71
     0
 91
        1
 92
        2
 72
     0
 73
     1
 93
        4
 10
-252.5142007874016
 20
46.96096456692914
 10
-245.2606023622047
 20
-101.5506535433071
 10
-475.5842716535433
 20
-117.7580511811024
 10
-467.2007047244094
 20
44.1367874015748
 97
        0
 75
     0
 76
     1
 98
        1
 10
0.0
 20
0.0
  0
POINT
  5
E8
330
2F4
100
AcDbEntity
  8
.Neuer Ordner.Grundriss
100
AcDbPoint
 10
-263.7364240095403
 20
-101.3559858304977
 30
-47.40525994132634
1001
CLaserDistTaskSchraffurDist
1040
-34.00160250968884
1001
PE_URL
1000

1002
{
1000
-34.0
1002
}
  0
TEXT
  5
E9
330
2F4
100
AcDbEntity
  8
.Neuer Ordner.Grundriss
100
AcDbText
 10
-263.7364240095403
 20
-100.5238455298535
 30
-47.40525994132634
 40
2.81214848143982
  1
-34.0
 11
-263.7364240095403
 21
-101.3559858304977
 31
-47.40525994132634
100
AcDbText
 73
     1
  0
POINT
  5
EA
330
2F4
100
AcDbEntity
  8
.Neuer Ordner.Grundriss
100
AcDbPoint
 10
-283.6030760130508
 20
-101.3088281322468
 30
-47.55305812778702
1001
CLaserDistTaskSchraffurDist
1040
-37.75567644579019
1001
PE_URL
1000

1002
{
1000
-37.8
1002
}
  0
TEXT
  5
EB
330
2F4
100
AcDbEntity
  8
.Neuer Ordner.Grundriss
100
AcDbText
 10
-283.6030760130508
 20
-100.4766878316025
 30
-47.55305812778702
 40
2.81214848143982
  1
-37.8
 11
-283.6030760130508
 21
-101.3088281322468
 31
-47.55305812778702
100
AcDbText
 73
     1
  0
POINT
  5
EC
330
2F4
100
AcDbEntity
  8
.Neuer Ordner.Grundriss
100
AcDbPoint
 10
-302.7622204325869
 20
-100.8034090671989
 30
-47.34398272934275
1001
CLaserDistTaskSchraffurDist
1040
-32.44516132530566
1001
PE_URL
1000

1002
{
1000
-32.4
1002
}
  0
TEXT
  5
ED
330
2F4
100
AcDbEntity
  8
.Neuer Ordner.Grundriss
100
AcDbText
 10
-302.7622204325869
 20
-99.97126876655464
 30
-47.34398272934275
 40
2.81214848143982
  1
-32.4
 11
-302.7622204325869
 21
-100.8034090671989
 31
-47.34398272934275
100
AcDbText
 73
     1
  0
POINT
  5
EE
330
2F4
100
AcDbEntity
  8
.Neuer Ordner.Grundriss
100
AcDbPoint
 10
-324.2388132861147
 20
-101.327134574243
 30
-47.45066844578385
1001
CLaserDistTaskSchraffurDist
1040
-35.15497852290969
1001
PE_URL
1000

1002
{
1000
-35.2
1002
}
  0
TEXT
  5
EF
330
2F4
100
AcDbEntity
  8
.Neuer Ordner.Grundriss
100
AcDbText
 10
-324.2388132861147
 20
-100.4949942735987
 30
-47.45066844578385
 40
2.81214848143982
  1
-35.2
 11
-324.2388132861147
 21
-101.327134574243
 31
-47.45066844578385
100
AcDbText
 73
     1
  0
POINT
  5
F0
330
2F4
100
AcDbEntity
  8
.Neuer Ordner.Grundriss
100
AcDbPoint
 10
-342.2598350885455
 20
-100.697794653056
 30
-47.19635397302092
1001
CLaserDistTaskSchraffurDist
1040
-28.69539091473121
1001
PE_URL
1000

1002
{
1000
-28.7
1002
}
  0
TEXT
  5
F1
330
2F4
100
AcDbEntity
  8
.Neuer Ordner.Grundriss
100
AcDbText
 10
-342.2598350885455
 20
-99.86565435241172
 30
-47.19635397302092
 40
2.81214848143982
  1
-28.7
 11
-342.2598350885455
 21
-100.697794653056
 31
-47.19635397302092
100
AcDbText
 73
     1
  0
POINT
  5
F2
330
2F4
100
AcDbEntity
  8
.Neuer Ordner.Grundriss
100
AcDbPoint
 10
-363.4745710529839
 20
-101.0752394963584
 30
-47.48281749750817
1001
CLaserDistTaskSchraffurDist
1040
-35.97156443670724
1001
PE_URL
1000

1002
{
1000
-36.0
1002
}
  0
TEXT
  5
F3
330
2F4
100
AcDbEntity
  8
.Neuer Ordner.Grundriss
100
AcDbText
 10
-363.4745710529839
 20
-100.2430991957141
 30
-47.48281749750817
 40
2.81214848143982
  1
-36.0
 11
-363.4745710529839
 21
-101.0752394963584
 31
-47.48281749750817
100
AcDbText
 73
     1
  0
POINT
  5
F4
330
2F4
100
AcDbEntity
  8
.Neuer Ordner.Grundriss
100
AcDbPoint
 10
-387.0693553215748
 20
-102.0401111341869
 30
-47.87949249148709
1001
CLaserDistTaskSchraffurDist
1040
-46.04710928377199
1001
PE_URL
1000

1002
{
1000
-46.0
1002
}
  0
TEXT
  5
F5
330
2F4
100
AcDbEntity
  8
.Neuer Ordner.Grundriss
100
AcDbText
 10
-387.0693553215748
 20
-101.2079708335426
 30
-47.87949249148709
 40
2.81214848143982
  1
-46.0
 11
-387.0693553215748
 21
-102.0401111341869
 31
-47.87949249148709
100
AcDbText
 73
     1
  0
POINT
  5
F6
330
2F4
100
AcDbEntity
  8
.Neuer Ordner.Grundriss
100
AcDbPoint
 10
-414.0794924945877
 20
-103.681727522054
 30
-48.46951696566435
1001
CLaserDistTaskSchraffurDist
1040
-61.03373092787433
1001
PE_URL
1000

1002
{
1000
-61.0
1002
}
  0
TEXT
  5
F7
330
2F4
100
AcDbEntity
  8
.Neuer Ordner.Grundriss
100
AcDbText
 10
-414.0794924945877
 20
-102.8495872214097
 30
-48.46951696566435
 40
2.81214848143982
  1
-61.0
 11
-414.0794924945877
 21
-103.681727522054
 31
-48.46951696566435
100
AcDbText
 73
     1
  0
POINT
  5
F8
330
2F4
100
AcDbEntity
  8
.Neuer Ordner.Grundriss
100
AcDbPoint
 10
-433.789590771404
 20
-103.1426838642264
 30
-48.24298601774899
1001
CLaserDistTaskSchraffurDist
1040
-55.27984485082425
1001
PE_URL
1000

1002
{
1000
-55.3
1002
}
  0
TEXT
  5
F9
330
2F4
100
AcDbEntity
  8
.Neuer Ordner.Grundriss
100
AcDbText
 10
-433.789590771404
 20
-102.3105435635822
 30
-48.24298601774899
 40
2.81214848143982
  1
-55.3
 11
-433.789590771404
 21
-103.1426838642264
 31
-48.24298601774899
100
AcDbText
 73
     1
  0
POINT
  5
FA
330
2F4
100
AcDbEntity
  8
.Neuer Ordner.Grundriss
100
AcDbPoint
 10
-452.8369741508469
 20
-102.9578324999369
 30
-48.2376477752924
1001
CLaserDistTaskSchraffurDist
1040
-55.14425349242674
1001
PE_URL
1000

1002
{
1000
-55.1
1002
}
  0
TEXT
  5
FB
330
2F4
100
AcDbEntity
  8
.Neuer Ordner.Grundriss
100
AcDbText
 10
-452.8369741508469
 20
-102.1256921992927
 30
-48.2376477752924
 40
2.81214848143982
  1
-55.1
 11
-452.8369741508469
 21
-102.9578324999369
 31
-48.2376477752924
100
AcDbText
 73
     1
  0
POINT
  5
FC
330
2F4
100
AcDbEntity
  8
.Neuer Ordner.Grundriss
100
AcDbPoint
 10
-471.5220475858533
 20
-102.7027809143616
 30
-48.21776062509819
1001
CLaserDistTaskSchraffurDist
1040
-54.63911987749407
1001
PE_URL
1000

1002
{
1000
-54.6
1002
}
  0
TEXT
  5
FD
330
2F4
100
AcDbEntity
  8
.Neuer Ordner.Grundriss
100
AcDbText
 10
-471.5220475858533
 20
-101.8706406137174
 30
-48.21776062509819
 40
2.81214848143982
  1
-54.6
 11
-471.5220475858533
 21
-102.7027809143616
 31
-48.21776062509819
100
AcDbText
 73
     1
  0
POINT
  5
FE
330
2F4
100
AcDbEntity
  8
.Neuer Ordner.Grundriss
100
AcDbPoint
 10
-491.3207642209194
 20
-102.4890477187107
 30
-48.16110737899913
1001
CLaserDistTaskSchraffurDist
1040
-53.20012742657787
1001
PE_URL
1000

1002
{
1000
-53.2
1002
}
  0
TEXT
  5
FF
330
2F4
100
AcDbEntity
  8
.Neuer Ordner.Grundriss
100
AcDbText
 10
-491.3207642209194
 20
-101.6569074180665
 30
-48.16110737899913
 40
2.81214848143982
  1
-53.2
 11
-491.3207642209194
 21
-102.4890477187107
 31
-48.16110737899913
100
AcDbText
 73
     1
  0
POINT
  5
100
330
2F4
100
AcDbEntity
  8
.Neuer Ordner.Grundriss
100
AcDbPoint
 10
-264.646075643896
 20
-81.31889254286411
 30
-47.54555684254383
1001
CLaserDistTaskSchraffurDist
1040
-37.56514380061321
1001
PE_URL
1000

1002
{
1000
-37.6
1002
}
  0
TEXT
  5
101
330
2F4
100
AcDbEntity
  8
.Neuer Ordner.Grundriss
100
AcDbText
 10
-264.646075643896
 20
-80.48675224221987
 30
-47.54555684254383
 40
2.81214848143982
  1
-37.6
 11
-264.646075643896
 21
-81.31889254286411
 31
-47.54555684254383
100
AcDbText
 73
     1
  0
POINT
  5
102
330
2F4
100
AcDbEntity
  8
.Neuer Ordner.Grundriss
100
AcDbPoint
 10
-285.3184230152871
 20
-81.58109724263912
 30
-47.70255085111774
1001
CLaserDistTaskSchraffurDist
1040
-41.5527916183903
1001
PE_URL
1000

1002
{
1000
-41.6
1002
}
  0
TEXT
  5
103
330
2F4
100
AcDbEntity
  8
.Neuer Ordner.Grundriss
100
AcDbText
 10
-285.3184230152871
 20
-80.74895694199488
 30
-47.70255085111774
 40
2.81214848143982
  1
-41.6
 11
-285.3184230152871
 21
-81.58109724263912
 31
-47.70255085111774
100
AcDbText
 73
     1
  0
POINT
  5
104
330
2F4
100
AcDbEntity
  8
.Neuer Ordner.Grundriss
100
AcDbPoint
 10
-305.2538517807408
 20
-81.53674375788388
 30
-47.64178327906707
1001
CLaserDistTaskSchraffurDist
1040
-40.00929528830352
1001
PE_URL
1000

1002
{
1000
-40.0
1002
}
  0
TEXT
  5
105
330
2F4
100
AcDbEntity
  8
.Neuer Ordner.Grundriss
100
AcDbText
 10
-305.2538517807408
 20
-80.70460345723964
 30
-47.64178327906707
 40
2.81214848143982
  1
-40.0
 11
-305.2538517807408
 21
-81.53674375788388
 31
-47.64178327906707
100
AcDbText
 73
     1
  0
POINT
  5
106
330
2F4
100
AcDbEntity
  8
.Neuer Ordner.Grundriss
100
AcDbPoint
 10
-324.1187402629351
 20
-81.1720503478733
 30
-47.55745629370301
1001
CLaserDistTaskSchraffurDist
1040
-37.86738986005616
1001
PE_URL
1000

1002
{
1000
-37.9
1002
}
  0
TEXT
  5
107
330
2F4
100
AcDbEntity
  8
.Neuer Ordner.Grundriss
100
AcDbText
 10
-324.1187402629351
 20
-80.33991004722905
 30
-47.55745629370301
 40
2.81214848143982
  1
-37.9
 11
-324.1187402629351
 21
-81.1720503478733
 31
-47.55745629370301
100
AcDbText
 73
     1
  0
POINT
  5
108
330
2F4
100
AcDbEntity
  8
.Neuer Ordner.Grundriss
100
AcDbPoint
 10
-343.880596406181
 20
-80.78533463965684
 30
-47.49282285898963
1001
CLaserDistTaskSchraffurDist
1040
-36.22570061833653
1001
PE_URL
1000

1002
{
1000
-36.2
1002
}
  0
TEXT
  5
109
330
2F4
100
AcDbEntity
  8
.Neuer Ordner.Grundriss
100
AcDbText
 10
-343.880596406181
 20
-79.9531943390126
 30
-47.49282285898963
 40
2.81214848143982
  1
-36.2
 11
-343.880596406181
 21
-80.78533463965684
 31
-47.49282285898963
100
AcDbText
 73
     1
  0
POINT
  5
10A
330
2F4
100
AcDbEntity
  8
.Neuer Ordner.Grundriss
100
AcDbPoint
 10
-364.5810013851364
 20
-80.98968731490496
 30
-47.54510647511637
1001
CLaserDistTaskSchraffurDist
1040
-37.55370446795564
1001
PE_URL
1000

1002
{
1000
-37.6
1002
}
  0
TEXT
  5
10B
330
2F4
100
AcDbEntity
  8
.Neuer Ordner.Grundriss
100
AcDbText
 10
-364.5810013851364
 20
-80.15754701426071
 30
-47.54510647511637
 40
2.81214848143982
  1
-37.6
 11
-364.5810013851364
 21
-80.98968731490496
 31
-47.54510647511637
100
AcDbText
 73
     1
  0
POINT
  5
10C
330
2F4
100
AcDbEntity
  8
.Neuer Ordner.Grundriss
100
AcDbPoint
 10
-390.7119078736992
 20
-82.38218737595209
 30
-48.33373143242959
1001
CLaserDistTaskSchraffurDist
1040
-57.58477838371141
1001
PE_URL
1000

1002
{
1000
-57.6
1002
}
  0
TEXT
  5
10D
330
2F4
100
AcDbEntity
  8
.Neuer Ordner.Grundriss
100
AcDbText
 10
-390.7119078736992
 20
-81.55004707530785
 30
-48.33373143242959
 40
2.81214848143982
  1
-57.6
 11
-390.7119078736992
 21
-82.38218737595209
 31
-48.33373143242959
100
AcDbText
 73
     1
  0
POINT
  5
10E
330
2F4
100
AcDbEntity
  8
.Neuer Ordner.Grundriss
100
AcDbPoint
 10
-413.2827327938744
 20
-82.7872231427977
 30
-48.40095803104698
1001
CLaserDistTaskSchraffurDist
1040
-59.29233398859333
1001
PE_URL
1000

1002
{
1000
-59.3
1002
}
  0
TEXT
  5
10F
330
2F4
100
AcDbEntity
  8
.Neuer Ordner.Grundriss
100
AcDbText
 10
-413.2827327938744
 20
-81.95508284215346
 30
-48.40095803104698
 40
2.81214848143982
  1
-59.3
 11
-413.2827327938744
 21
-82.7872231427977
 31
-48.40095803104698
100
AcDbText
 73
     1
  0
POINT
  5
110
330
2F4
100
AcDbEntity
  8
.Neuer Ordner.Grundriss
100
AcDbPoint
 10
-435.2393365288727
 20
-82.9273298261939
 30
-48.37262087133669
1001
CLaserDistTaskSchraffurDist
1040
-58.57257013195181
1001
PE_URL
1000

1002
{
1000
-58.6
1002
}
  0
TEXT
  5
111
330
2F4
100
AcDbEntity
  8
.Neuer Ordner.Grundriss
100
AcDbText
 10
-435.2393365288727
 20
-82.09518952554966
 30
-48.37262087133669
 40
2.81214848143982
  1
-58.6
 11
-435.2393365288727
 21
-82.9273298261939
 31
-48.37262087133669
100
AcDbText
 73
     1
  0
POINT
  5
112
330
2F4
100
AcDbEntity
  8
.Neuer Ordner.Grundriss
100
AcDbPoint
 10
-453.4749145738034
 20
-82.4002611844667
 30
-48.40619266564375
1001
CLaserDistTaskSchraffurDist
1040
-59.4252937073511
1001
PE_URL
1000

1002
{
1000
-59.4
1002
}
  0
TEXT
  5
113
330
2F4
100
AcDbEntity
  8
.Neuer Ordner.Grundriss
100
AcDbText
 10
-453.4749145738034
 20
-81.56812088382246
 30
-48.40619266564375
 40
2.81214848143982
  1
-59.4
 11
-453.4749145738034
 21
-82.4002611844667
 31
-48.40619266564375
100
AcDbText
 73
     1
  0
POINT
  5
114
330
2F4
100
AcDbEntity
  8
.Neuer Ordner.Grundriss
100
AcDbPoint
 10
-473.7633207018231
 20
-82.33790645042981
 30
-48.36526521274116
1001
CLaserDistTaskSchraffurDist
1040
-58.38573640362529
1001
PE_URL
1000

1002
{
1000
-58.4
1002
}
  0
TEXT
  5
115
330
2F4
100
AcDbEntity
  8
.Neuer Ordner.Grundriss
100
AcDbText
 10
-473.7633207018231
 20
-81.50576614978557
 30
-48.36526521274116
 40
2.81214848143982
  1
-58.4
 11
-473.7633207018231
 21
-82.33790645042981
 31
-48.36526521274116
100
AcDbText
 73
     1
  0
POINT
  5
116
330
2F4
100
AcDbEntity
  8
.Neuer Ordner.Grundriss
100
AcDbPoint
 10
-492.486303207933
 20
-82.19680808820462
 30
-48.27654232352127
1001
CLaserDistTaskSchraffurDist
1040
-56.1321750174402
  0
TEXT
  5
117
330
2F4
100
AcDbEntity
  8
.Neuer Ordner.Grundriss
100
AcDbText
 10
-492.486303207933
 20
-81.36466778756038
 30
-48.27654232352127
 40
2.81214848143982
  1
-56.1
 11
-492.486303207933
 21
-82.19680808820462
 31
-48.27654232352127
100
AcDbText
 73
     1
  0
POINT
  5
118
330
2F4
100
AcDbEntity
  8
.Neuer Ordner.Grundriss
100
AcDbPoint
 10
-262.950428104559
 20
-101.0865644932097
 30
-47.42691792212575
1001
CLaserDistTaskSchraffurDist
1040
-34.55171522199407
1001
PE_URL
1000

1002
{
1000
-34.6
1002
}
  0
TEXT
  5
119
330
2F4
100
AcDbEntity
  8
.Neuer Ordner.Grundriss
100
AcDbText
 10
-262.950428104559
 20
-100.2544241925655
 30
-47.42691792212575
 40
2.81214848143982
  1
-34.6
 11
-262.950428104559
 21
-101.0865644932097
 31
-47.42691792212575
100
AcDbText
 73
     1
  0
POINT
  5
11A
330
2F4
100
AcDbEntity
  8
.Neuer Ordner.Grundriss
100
AcDbPoint
 10
-284.2510823526018
 20
-101.5689896752981
 30
-47.57753569420637
1001
CLaserDistTaskSchraffurDist
1040
-38.37740663284171
1001
PE_URL
1000

1002
{
1000
-38.4
1002
}
  0
TEXT
  5
11B
330
2F4
100
AcDbEntity
  8
.Neuer Ordner.Grundriss
100
AcDbText
 10
-284.2510823526018
 20
-100.7368493746538
 30
-47.57753569420637
 40
2.81214848143982
  1
-38.4
 11
-284.2510823526018
 21
-101.5689896752981
 31
-47.57753569420637
100
AcDbText
 73
     1
  0
POINT
  5
11C
330
2F4
100
AcDbEntity
  8
.Neuer Ordner.Grundriss
100
AcDbPoint
 10
-304.5226149923
 20
-101.5154453167032
 30
-47.47476618495267
1001
CLaserDistTaskSchraffurDist
1040
-35.76706109779775
1001
PE_URL
1000

1002
{
1000
-35.8
1002
}
  0
TEXT
  5
11D
330
2F4
100
AcDbEntity
  8
.Neuer Ordner.Grundriss
100
AcDbText
 10
-304.5226149923
 20
-100.683305016059
 30
-47.47476618495267
 40
2.81214848143982
  1
-35.8
 11
-304.5226149923
 21
-101.5154453167032
 31
-47.47476618495267
100
AcDbText
 73
     1
  0
POINT
  5
11E
330
2F4
100
AcDbEntity
  8
.Neuer Ordner.Grundriss
100
AcDbPoint
 10
-323.8822710350275
 20
-101.1830389442002
 30
-47.46198697617299
1001
CLaserDistTaskSchraffurDist
1040
-35.44246919479383
1001
PE_URL
1000

1002
{
1000
-35.4
1002
}
  0
TEXT
  5
11F
330
2F4
100
AcDbEntity
  8
.Neuer Ordner.Grundriss
100
AcDbText
 10
-323.8822710350275
 20
-100.3508986435559
 30
-47.46198697617299
 40
2.81214848143982
  1
-35.4
 11
-323.8822710350275
 21
-101.1830389442002
 31
-47.46198697617299
100
AcDbText
 73
     1
  0
POINT
  5
120
330
2F4
100
AcDbEntity
  8
.Neuer Ordner.Grundriss
100
AcDbPoint
 10
-341.9251433338043
 20
-100.6007702714803
 30
-47.21812840665906
1001
CLaserDistTaskSchraffurDist
1040
-29.24846152914006
1001
PE_URL
1000

1002
{
1000
-29.2
1002
}
  0
TEXT
  5
121
330
2F4
100
AcDbEntity
  8
.Neuer Ordner.Grundriss
100
AcDbText
 10
-341.9251433338043
 20
-99.76862997083605
 30
-47.21812840665906
 40
2.81214848143982
  1
-29.2
 11
-341.9251433338043
 21
-100.6007702714803
 31
-47.21812840665906
100
AcDbText
 73
     1
  0
POINT
  5
122
330
2F4
100
AcDbEntity
  8
.Neuer Ordner.Grundriss
100
AcDbPoint
 10
-364.2934324754008
 20
-101.3005687303971
 30
-47.4825487842909
1001
CLaserDistTaskSchraffurDist
1040
-35.96473912098873
1001
PE_URL
1000

1002
{
1000
-36.0
1002
}
  0
TEXT
  5
123
330
2F4
100
AcDbEntity
  8
.Neuer Ordner.Grundriss
100
AcDbText
 10
-364.2934324754008
 20
-100.4684284297528
 30
-47.4825487842909
 40
2.81214848143982
  1
-36.0
 11
-364.2934324754008
 21
-101.3005687303971
 31
-47.4825487842909
100
AcDbText
 73
     1
  0
POINT
  5
124
330
2F4
100
AcDbEntity
  8
.Neuer Ordner.Grundriss
100
AcDbPoint
 10
-386.9268504577347
 20
-101.8438820631453
 30
-47.85830949986325
1001
CLaserDistTaskSchraffurDist
1040
-45.5090612965264
1001
PE_URL
1000

1002
{
1000
-45.5
1002
}
  0
TEXT
  5
125
330
2F4
100
AcDbEntity
  8
.Neuer Ordner.Grundriss
100
AcDbText
 10
-386.9268504577347
 20
-101.011741762501
 30
-47.85830949986325
 40
2.81214848143982
  1
-45.5
 11
-386.9268504577347
 21
-101.8438820631453
 31
-47.85830949986325
100
AcDbText
 73
     1
  0
POINT
  5
126
330
2F4
100
AcDbEntity
  8
.Neuer Ordner.Grundriss
100
AcDbPoint
 10
-413.9761618180784
 20
-103.6566525080965
 30
-48.49832702652969
1001
CLaserDistTaskSchraffurDist
1040
-61.7655064738542
1001
PE_URL
1000

1002
{
1000
-61.8
1002
}
  0
TEXT
  5
127
330
2F4
100
AcDbEntity
  8
.Neuer Ordner.Grundriss
100
AcDbText
 10
-413.9761618180784
 20
-102.8245122074523
 30
-48.49832702652969
 40
2.81214848143982
  1
-61.8
 11
-413.9761618180784
 21
-103.6566525080965
 31
-48.49832702652969
100
AcDbText
 73
     1
  0
POINT
  5
128
330
2F4
100
AcDbEntity
  8
.Neuer Ordner.Grundriss
100
AcDbPoint
 10
-433.7705540249151
 20
-103.1381636728082
 30
-48.24082478484668
1001
CLaserDistTaskSchraffurDist
1040
-55.22494953510568
1001
PE_URL
1000

1002
{
1000
-55.2
1002
}
  0
TEXT
  5
129
330
2F4
100
AcDbEntity
  8
.Neuer Ordner.Grundriss
100
AcDbText
 10
-433.7705540249151
 20
-102.306023372164
 30
-48.24082478484668
 40
2.81214848143982
  1
-55.2
 11
-433.7705540249151
 21
-103.1381636728082
 31
-48.24082478484668
100
AcDbText
 73
     1
  0
POINT
  5
12A
330
2F4
100
AcDbEntity
  8
.Neuer Ordner.Grundriss
100
AcDbPoint
 10
-453.2648641290958
 20
-103.1455946521643
 30
-48.24053725595085
1001
CLaserDistTaskSchraffurDist
1040
-55.21764630115149
1001
PE_URL
1000

1002
{
1000
-55.2
1002
}
  0
TEXT
  5
12B
330
2F4
100
AcDbEntity
  8
.Neuer Ordner.Grundriss
100
AcDbText
 10
-453.2648641290958
 20
-102.3134543515201
 30
-48.24053725595085
 40
2.81214848143982
  1
-55.2
 11
-453.2648641290958
 21
-103.1455946521643
 31
-48.24053725595085
100
AcDbText
 73
     1
  0
POINT
  5
12C
330
2F4
100
AcDbEntity
  8
.Neuer Ordner.Grundriss
100
AcDbPoint
 10
-472.1489068466254
 20
-102.7908590876019
 30
-48.23615736786331
1001
CLaserDistTaskSchraffurDist
1040
-55.10639714372792
1001
PE_URL
1000

1002
{
1000
-55.1
1002
}
  0
TEXT
  5
12D
330
2F4
100
AcDbEntity
  8
.Neuer Ordner.Grundriss
100
AcDbText
 10
-472.1489068466254
 20
-101.9587187869577
 30
-48.23615736786331
 40
2.81214848143982
  1
-55.1
 11
-472.1489068466254
 21
-102.7908590876019
 31
-48.23615736786331
100
AcDbText
 73
     1
  0
POINT
  5
12E
330
2F4
100
AcDbEntity
  8
.Neuer Ordner.Grundriss
100
AcDbPoint
 10
-492.3616020022564
 20
-102.8026549304655
 30
-48.16930332348478
1001
CLaserDistTaskSchraffurDist
1040
-53.40830441651315
1001
PE_URL
1000

1002
{
1000
-53.4
1002
}
  0
TEXT
  5
12F
330
2F4
100
AcDbEntity
  8
.Neuer Ordner.Grundriss
100
AcDbText
 10
-492.3616020022564
 20
-101.9705146298213
 30
-48.16930332348478
 40
2.81214848143982
  1
-53.4
 11
-492.3616020022564
 21
-102.8026549304655
 31
-48.16930332348478
100
AcDbText
 73
     1
  0
POINT
  5
130
330
2F4
100
AcDbEntity
  8
.Neuer Ordner.Grundriss
100
AcDbPoint
 10
-264.4670219709599
 20
-81.29224607430413
 30
-47.54072890714356
1001
CLaserDistTaskSchraffurDist
1040
-37.44251424144636
1001
PE_URL
1000

1002
{
1000
-37.4
1002
}
  0
TEXT
  5
131
330
2F4
100
AcDbEntity
  8
.Neuer Ordner.Grundriss
100
AcDbText
 10
-264.4670219709599
 20
-80.46010577365989
 30
-47.54072890714356
 40
2.81214848143982
  1
-37.4
 11
-264.4670219709599
 21
-81.29224607430413
 31
-47.54072890714356
100
AcDbText
 73
     1
  0
POINT
  5
132
330
2F4
100
AcDbEntity
  8
.Neuer Ordner.Grundriss
100
AcDbPoint
 10
-284.2869375229475
 20
-81.2309812979305
 30
-47.69668577736335
1001
CLaserDistTaskSchraffurDist
1040
-41.40381874502896
1001
PE_URL
1000

1002
{
1000
-41.4
1002
}
  0
TEXT
  5
133
330
2F4
100
AcDbEntity
  8
.Neuer Ordner.Grundriss
100
AcDbText
 10
-284.2869375229475
 20
-80.39884099728626
 30
-47.69668577736335
 40
2.81214848143982
  1
-41.4
 11
-284.2869375229475
 21
-81.2309812979305
 31
-47.69668577736335
100
AcDbText
 73
     1
  0
POINT
  5
134
330
2F4
100
AcDbEntity
  8
.Neuer Ordner.Grundriss
100
AcDbPoint
 10
-305.6802769802216
 20
-81.64929270848504
 30
-47.64844216487135
1001
CLaserDistTaskSchraffurDist
1040
-40.1784309877321
1001
PE_URL
1000

1002
{
1000
-40.2
1002
}
  0
TEXT
  5
135
330
2F4
100
AcDbEntity
  8
.Neuer Ordner.Grundriss
100
AcDbText
 10
-305.6802769802216
 20
-80.81715240784079
 30
-47.64844216487135
 40
2.81214848143982
  1
-40.2
 11
-305.6802769802216
 21
-81.64929270848504
 31
-47.64844216487135
100
AcDbText
 73
     1
  0
POINT
  5
136
330
2F4
100
AcDbEntity
  8
.Neuer Ordner.Grundriss
100
AcDbPoint
 10
-324.1187402629351
 20
-81.1720503478733
 30
-47.55745629370301
1001
CLaserDistTaskSchraffurDist
1040
-37.86738986005616
1001
PE_URL
1000

1002
{
1000
-37.9
1002
}
  0
TEXT
  5
137
330
2F4
100
AcDbEntity
  8
.Neuer Ordner.Grundriss
100
AcDbText
 10
-324.1187402629351
 20
-80.33991004722905
 30
-47.55745629370301
 40
2.81214848143982
  1
-37.9
 11
-324.1187402629351
 21
-81.1720503478733
 31
-47.55745629370301
100
AcDbText
 73
     1
  0
POINT
  5
138
330
2F4
100
AcDbEntity
  8
.Neuer Ordner.Grundriss
100
AcDbPoint
 10
-343.7780704521205
 20
-80.76129054602649
 30
-47.4783372487317
1001
CLaserDistTaskSchraffurDist
1040
-35.8577661177851
1001
PE_URL
1000

1002
{
1000
-35.9
1002
}
  0
TEXT
  5
139
330
2F4
100
AcDbEntity
  8
.Neuer Ordner.Grundriss
100
AcDbText
 10
-343.7780704521205
 20
-79.92915024538225
 30
-47.4783372487317
 40
2.81214848143982
  1
-35.9
 11
-343.7780704521205
 21
-80.76129054602649
 31
-47.4783372487317
100
AcDbText
 73
     1
  0
POINT
  5
13A
330
2F4
100
AcDbEntity
  8
.Neuer Ordner.Grundriss
100
AcDbPoint
 10
-364.6153046189906
 20
-80.99729445842425
 30
-47.54968053519636
1001
CLaserDistTaskSchraffurDist
1040
-37.66988559398737
1001
PE_URL
1000

1002
{
1000
-37.7
1002
}
  0
TEXT
  5
13B
330
2F4
100
AcDbEntity
  8
.Neuer Ordner.Grundriss
100
AcDbText
 10
-364.6153046189906
 20
-80.16515415778001
 30
-47.54968053519636
 40
2.81214848143982
  1
-37.7
 11
-364.6153046189906
 21
-80.99729445842425
 31
-47.54968053519636
100
AcDbText
 73
     1
  0
POINT
  5
13C
330
2F4
100
AcDbEntity
  8
.Neuer Ordner.Grundriss
100
AcDbPoint
 10
-390.6126976606514
 20
-82.32217893930033
 30
-48.32062963320393
1001
CLaserDistTaskSchraffurDist
1040
-57.25199268337974
1001
PE_URL
1000

1002
{
1000
-57.3
1002
}
  0
TEXT
  5
13D
330
2F4
100
AcDbEntity
  8
.Neuer Ordner.Grundriss
100
AcDbText
 10
-390.6126976606514
 20
-81.49003863865609
 30
-48.32062963320393
 40
2.81214848143982
  1
-57.3
 11
-390.6126976606514
 21
-82.32217893930033
 31
-48.32062963320393
100
AcDbText
 73
     1
  0
POINT
  5
13E
330
2F4
100
AcDbEntity
  8
.Neuer Ordner.Grundriss
100
AcDbPoint
 10
-413.1792068795059
 20
-82.76652026689466
 30
-48.38857665056845
1001
CLaserDistTaskSchraffurDist
1040
-58.97784692443838
1001
PE_URL
1000

1002
{
1000
-59.0
1002
}
  0
TEXT
  5
13F
330
2F4
100
AcDbEntity
  8
.Neuer Ordner.Grundriss
100
AcDbText
 10
-413.1792068795059
 20
-81.93437996625042
 30
-48.38857665056845
 40
2.81214848143982
  1
-59.0
 11
-413.1792068795059
 21
-82.76652026689466
 31
-48.38857665056845
100
AcDbText
 73
     1
  0
POINT
  5
140
330
2F4
100
AcDbEntity
  8
.Neuer Ordner.Grundriss
100
AcDbPoint
 10
-434.9777416374014
 20
-82.92080186460963
 30
-48.34336541300414
1001
CLaserDistTaskSchraffurDist
1040
-57.82948149030517
1001
PE_URL
1000

1002
{
1000
-57.8
1002
}
  0
TEXT
  5
141
330
2F4
100
AcDbEntity
  8
.Neuer Ordner.Grundriss
100
AcDbText
 10
-434.9777416374014
 20
-82.08866156396539
 30
-48.34336541300414
 40
2.81214848143982
  1
-57.8
 11
-434.9777416374014
 21
-82.92080186460963
 31
-48.34336541300414
100
AcDbText
 73
     1
  0
POINT
  5
142
330
2F4
100
AcDbEntity
  8
.Neuer Ordner.Grundriss
100
AcDbPoint
 10
-453.5866146269687
 20
-82.42052352170532
 30
-48.41836073383785
1001
CLaserDistTaskSchraffurDist
1040
-59.73436263948133
1001
PE_URL
1000

1002
{
1000
-59.7
1002
}
  0
TEXT
  5
143
330
2F4
100
AcDbEntity
  8
.Neuer Ordner.Grundriss
100
AcDbText
 10
-453.5866146269687
 20
-81.58838322106108
 30
-48.41836073383785
 40
2.81214848143982
  1
-59.7
 11
-453.5866146269687
 21
-82.42052352170532
 31
-48.41836073383785
100
AcDbText
 73
     1
  0
POINT
  5
144
330
2F4
100
AcDbEntity
  8
.Neuer Ordner.Grundriss
100
AcDbPoint
 10
-473.8903903382023
 20
-82.45359472509722
 30
-48.37911461906097
1001
CLaserDistTaskSchraffurDist
1040
-58.7375113241485
1001
PE_URL
1000

1002
{
1000
-58.7
1002
}
  0
TEXT
  5
145
330
2F4
100
AcDbEntity
  8
.Neuer Ordner.Grundriss
100
AcDbText
 10
-473.8903903382023
 20
-81.62145442445298
 30
-48.37911461906097
 40
2.81214848143982
  1
-58.7
 11
-473.8903903382023
 21
-82.45359472509722
 31
-48.37911461906097
100
AcDbText
 73
     1
  0
POINT
  5
146
330
2F4
100
AcDbEntity
  8
.Neuer Ordner.Grundriss
100
AcDbPoint
 10
-492.4515207160916
 20
-82.19101274474717
 30
-48.273064570436
1001
CLaserDistTaskSchraffurDist
1040
-56.04384008907437
1001
PE_URL
1000

1002
{
1000
-56.0
1002
}
  0
TEXT
  5
147
330
2F4
100
AcDbEntity
  8
.Neuer Ordner.Grundriss
100
AcDbText
 10
-492.4515207160916
 20
-81.35887244410293
 30
-48.273064570436
 40
2.81214848143982
  1
-56.0
 11
-492.4515207160916
 21
-82.19101274474717
 31
-48.273064570436
100
AcDbText
 73
     1
  0
POINT
  5
148
330
2F4
100
AcDbEntity
  8
.Neuer Ordner.Grundriss
100
AcDbPoint
 10
-264.8335173021722
 20
-61.06704474647565
 30
-47.67611761110956
1001
CLaserDistTaskSchraffurDist
1040
-40.88138732218272
1001
PE_URL
1000

1002
{
1000
-40.9
1002
}
  0
TEXT
  5
149
330
2F4
100
AcDbEntity
  8
.Neuer Ordner.Grundriss
100
AcDbText
 10
-264.8335173021722
 20
-60.23490444583141
 30
-47.67611761110956
 40
2.81214848143982
  1
-40.9
 11
-264.8335173021722
 21
-61.06704474647565
 31
-47.67611761110956
100
AcDbText
 73
     1
  0
POINT
  5
14A
330
2F4
100
AcDbEntity
  8
.Neuer Ordner.Grundriss
100
AcDbPoint
 10
-284.6572591387973
 20
-61.00719921496138
 30
-47.74023573779346
1001
CLaserDistTaskSchraffurDist
1040
-42.50998773995366
1001
PE_URL
1000

1002
{
1000
-42.5
1002
}
  0
TEXT
  5
14B
330
2F4
100
AcDbEntity
  8
.Neuer Ordner.Grundriss
100
AcDbText
 10
-284.6572591387973
 20
-60.17505891431714
 30
-47.74023573779346
 40
2.81214848143982
  1
-42.5
 11
-284.6572591387973
 21
-61.00719921496138
 31
-47.74023573779346
100
AcDbText
 73
     1
  0
POINT
  5
14C
330
2F4
100
AcDbEntity
  8
.Neuer Ordner.Grundriss
100
AcDbPoint
 10
-306.7922362951833
 20
-61.37588788408808
 30
-47.75966648352451
1001
CLaserDistTaskSchraffurDist
1040
-43.00352868152231
1001
PE_URL
1000

1002
{
1000
-43.0
1002
}
  0
TEXT
  5
14D
330
2F4
100
AcDbEntity
  8
.Neuer Ordner.Grundriss
100
AcDbText
 10
-306.7922362951833
 20
-60.54374758344384
 30
-47.75966648352451
 40
2.81214848143982
  1
-43.0
 11
-306.7922362951833
 21
-61.37588788408808
 31
-47.75966648352451
100
AcDbText
 73
     1
  0
POINT
  5
14F
330
2F4
100
AcDbEntity
  8
.Neuer Ordner.Grundriss
 62
   160
100
AcDbPoint
 10
-262.5347771965873
 20
-100.985880426052
 30
-47.40792052833142
1001
CLaserDistTaskSchraffurDist
1040
5.680628553391898
1001
PE_URL
1000

1002
{
1000
5.7
1002
}
  0
TEXT
  5
150
330
2F4
100
AcDbEntity
  8
.Neuer Ordner.Grundriss
100
AcDbText
 10
-262.5347771965873
 20
-100.1537401254078
 30
-47.40792052833142
 40
2.81214848143982
  1
5.7
 11
-262.5347771965873
 21
-100.985880426052
 31
-47.40792052833142
100
AcDbText
 73
     1
  0
POINT
  5
151
330
2F4
100
AcDbEntity
  8
.Neuer Ordner.Grundriss
 62
   130
100
AcDbPoint
 10
-284.6506145003148
 20
-101.7719573249721
 30
-47.58984020103846
1001
CLaserDistTaskSchraffurDist
1040
1.059868866632996
1001
PE_URL
1000

1002
{
1000
1.1
1002
}
  0
TEXT
  5
152
330
2F4
100
AcDbEntity
  8
.Neuer Ordner.Grundriss
100
AcDbText
 10
-284.6506145003148
 20
-100.9398170243279
 30
-47.58984020103846
 40
2.81214848143982
  1
1.1
 11
-284.6506145003148
 21
-101.7719573249721
 31
-47.58984020103846
100
AcDbText
 73
     1
  0
POINT
  5
153
330
2F4
100
AcDbEntity
  8
.Neuer Ordner.Grundriss
 62
   160
100
AcDbPoint
 10
-303.444868507324
 20
-101.0614942470963
 30
-47.3923556827788
1001
CLaserDistTaskSchraffurDist
1040
6.075975630428502
1001
PE_URL
1000

1002
{
1000
6.1
1002
}
  0
TEXT
  5
154
330
2F4
100
AcDbEntity
  8
.Neuer Ordner.Grundriss
100
AcDbText
 10
-303.444868507324
 20
-100.2293539464521
 30
-47.3923556827788
 40
2.81214848143982
  1
6.1
 11
-303.444868507324
 21
-101.0614942470963
 31
-47.3923556827788
100
AcDbText
 73
     1
  0
POINT
  5
155
330
2F4
100
AcDbEntity
  8
.Neuer Ordner.Grundriss
 62
   150
100
AcDbPoint
 10
-323.9470221942612
 20
-101.237335131601
 30
-47.47277233939526
1001
CLaserDistTaskSchraffurDist
1040
4.033392552370515
1001
PE_URL
1000

1002
{
1000
4.0
1002
}
  0
TEXT
  5
156
330
2F4
100
AcDbEntity
  8
.Neuer Ordner.Grundriss
100
AcDbText
 10
-323.9470221942612
 20
-100.4051948309567
 30
-47.47277233939526
 40
2.81214848143982
  1
4.0
 11
-323.9470221942612
 21
-101.237335131601
 31
-47.47277233939526
100
AcDbText
 73
     1
  0
POINT
  5
157
330
2F4
100
AcDbEntity
  8
.Neuer Ordner.Grundriss
 62
   180
100
AcDbPoint
 10
-342.4290545125327
 20
-100.7468563742812
 30
-47.18568114592434
1001
CLaserDistTaskSchraffurDist
1040
11.32550886653189
1001
PE_URL
1000

1002
{
1000
11.3
1002
}
  0
TEXT
  5
158
330
2F4
100
AcDbEntity
  8
.Neuer Ordner.Grundriss
100
AcDbText
 10
-342.4290545125327
 20
-99.91471607363697
 30
-47.18568114592434
 40
2.81214848143982
  1
11.3
 11
-342.4290545125327
 21
-100.7468563742812
 31
-47.18568114592434
100
AcDbText
 73
     1
  0
POINT
  5
159
330
2F4
100
AcDbEntity
  8
.Neuer Ordner.Grundriss
 62
   150
100
AcDbPoint
 10
-364.6629674106534
 20
-101.4024955296539
 30
-47.49521143444184
1001
CLaserDistTaskSchraffurDist
1040
3.463439538187231
1001
PE_URL
1000

1002
{
1000
3.5
1002
}
  0
TEXT
  5
15A
330
2F4
100
AcDbEntity
  8
.Neuer Ordner.Grundriss
100
AcDbText
 10
-364.6629674106534
 20
-100.5703552290096
 30
-47.49521143444184
 40
2.81214848143982
  1
3.5
 11
-364.6629674106534
 21
-101.4024955296539
 31
-47.49521143444184
100
AcDbText
 73
     1
  0
POINT
  5
15B
330
2F4
100
AcDbEntity
  8
.Neuer Ordner.Grundriss
 62
    90
100
AcDbPoint
 10
-388.4089872840722
 20
-102.3500509499101
 30
-47.89290196334955
1001
CLaserDistTaskSchraffurDist
1040
-6.637899896068575
1001
PE_URL
1000

1002
{
1000
-6.6
1002
}
  0
TEXT
  5
15C
330
2F4
100
AcDbEntity
  8
.Neuer Ordner.Grundriss
100
AcDbText
 10
-388.4089872840722
 20
-101.5179106492659
 30
-47.89290196334955
 40
2.81214848143982
  1
-6.6
 11
-388.4089872840722
 21
-102.3500509499101
 31
-47.89290196334955
100
AcDbText
 73
     1
  0
POINT
  5
15D
330
2F4
100
AcDbEntity
  8
.Neuer Ordner.Grundriss
 62
    20
100
AcDbPoint
 10
-413.518491442861
 20
-103.5008340086435
 30
-48.48397480451922
1001
CLaserDistTaskSchraffurDist
1040
-21.65115006177825
1001
PE_URL
1000

1002
{
1000
-21.7
1002
}
  0
TEXT
  5
15E
330
2F4
100
AcDbEntity
  8
.Neuer Ordner.Grundriss
100
AcDbText
 10
-413.518491442861
 20
-102.6686937079993
 30
-48.48397480451922
 40
2.81214848143982
  1
-21.7
 11
-413.518491442861
 21
-103.5008340086435
 31
-48.48397480451922
100
AcDbText
 73
     1
  0
POINT
  5
15F
330
2F4
100
AcDbEntity
  8
.Neuer Ordner.Grundriss
 62
    50
100
AcDbPoint
 10
-432.1443185343362
 20
-102.7559613911142
 30
-48.27021281846097
1001
CLaserDistTaskSchraffurDist
1040
-16.22159561589865
1001
PE_URL
1000

1002
{
1000
-16.2
1002
}
  0
TEXT
  5
160
330
2F4
100
AcDbEntity
  8
.Neuer Ordner.Grundriss
100
AcDbText
 10
-432.1443185343362
 20
-101.92382109047
 30
-48.27021281846097
 40
2.81214848143982
  1
-16.2
 11
-432.1443185343362
 21
-102.7559613911142
 31
-48.27021281846097
100
AcDbText
 73
     1
  0
POINT
  5
161
330
2F4
100
AcDbEntity
  8
.Neuer Ordner.Grundriss
 62
    50
100
AcDbPoint
 10
-454.8792518021746
 20
-103.4182417209257
 30
-48.2799894908443
1001
CLaserDistTaskSchraffurDist
1040
-16.46992309443522
1001
PE_URL
1000

1002
{
1000
-16.5
1002
}
  0
TEXT
  5
162
330
2F4
100
AcDbEntity
  8
.Neuer Ordner.Grundriss
100
AcDbText
 10
-454.8792518021746
 20
-102.5861014202815
 30
-48.2799894908443
 40
2.81214848143982
  1
-16.5
 11
-454.8792518021746
 21
-103.4182417209257
 31
-48.2799894908443
100
AcDbText
 73
     1
  0
POINT
  5
163
330
2F4
100
AcDbEntity
  8
.Neuer Ordner.Grundriss
 62
    50
100
AcDbPoint
 10
-471.3510967028868
 20
-102.6190992010128
 30
-48.24584582402895
1001
CLaserDistTaskSchraffurDist
1040
-15.60267395732558
1001
PE_URL
1000

1002
{
1000
-15.6
1002
}
  0
TEXT
  5
164
330
2F4
100
AcDbEntity
  8
.Neuer Ordner.Grundriss
100
AcDbText
 10
-471.3510967028868
 20
-101.7869589003686
 30
-48.24584582402895
 40
2.81214848143982
  1
-15.6
 11
-471.3510967028868
 21
-102.6190992010128
 31
-48.24584582402895
100
AcDbText
 73
     1
  0
POINT
  5
165
330
2F4
100
AcDbEntity
  8
.Neuer Ordner.Grundriss
 62
    60
100
AcDbPoint
 10
-492.5495591381974
 20
-102.8418454984712
 30
-48.1880593587634
1001
CLaserDistTaskSchraffurDist
1040
-14.13489773958054
1001
PE_URL
1000

1002
{
1000
-14.1
1002
}
  0
TEXT
  5
166
330
2F4
100
AcDbEntity
  8
.Neuer Ordner.Grundriss
100
AcDbText
 10
-492.5495591381974
 20
-102.009705197827
 30
-48.1880593587634
 40
2.81214848143982
  1
-14.1
 11
-492.5495591381974
 21
-102.8418454984712
 31
-48.1880593587634
100
AcDbText
 73
     1
  0
POINT
  5
167
330
2F4
100
AcDbEntity
  8
.Neuer Ordner.Grundriss
 62
   140
100
AcDbPoint
 10
-264.4410754017845
 20
-81.28428423089748
 30
-47.53594496352013
1001
CLaserDistTaskSchraffurDist
1040
2.428807899598724
1001
PE_URL
1000

1002
{
1000
2.4
1002
}
  0
TEXT
  5
168
330
2F4
100
AcDbEntity
  8
.Neuer Ordner.Grundriss
100
AcDbText
 10
-264.4410754017845
 20
-80.45214393025324
 30
-47.53594496352013
 40
2.81214848143982
  1
2.4
 11
-264.4410754017845
 21
-81.28428423089748
 31
-47.53594496352013
100
AcDbText
 73
     1
  0
POINT
  5
169
330
2F4
100
AcDbEntity
  8
.Neuer Ordner.Grundriss
 62
   120
100
AcDbPoint
 10
-284.5270782856381
 20
-81.26941855826939
 30
-47.70813108733081
1001
CLaserDistTaskSchraffurDist
1040
-1.944719645192663
1001
PE_URL
1000

1002
{
1000
-1.9
1002
}
  0
TEXT
  5
16A
330
2F4
100
AcDbEntity
  8
.Neuer Ordner.Grundriss
100
AcDbText
 10
-284.5270782856381
 20
-80.43727825762515
 30
-47.70813108733081
 40
2.81214848143982
  1
-1.9
 11
-284.5270782856381
 21
-81.26941855826939
 31
-47.70813108733081
100
AcDbText
 73
     1
  0
POINT
  5
16B
330
2F4
100
AcDbEntity
  8
.Neuer Ordner.Grundriss
 62
   130
100
AcDbPoint
 10
-305.6584877615421
 20
-81.54927792241298
 30
-47.64227582705529
1001
CLaserDistTaskSchraffurDist
1040
-0.2719960341944443
1001
PE_URL
1000

1002
{
1000
-0.3
1002
}
  0
TEXT
  5
16C
330
2F4
100
AcDbEntity
  8
.Neuer Ordner.Grundriss
100
AcDbText
 10
-305.6584877615421
 20
-80.71713762176874
 30
-47.64227582705529
 40
2.81214848143982
  1
-0.3
 11
-305.6584877615421
 21
-81.54927792241298
 31
-47.64227582705529
100
AcDbText
 73
     1
  0
POINT
  5
16D
330
2F4
100
AcDbEntity
  8
.Neuer Ordner.Grundriss
 62
   140
100
AcDbPoint
 10
-323.9818924250535
 20
-81.13844233521461
 30
-47.56929709975721
1001
CLaserDistTaskSchraffurDist
1040
1.581663639176895
1001
PE_URL
1000

1002
{
1000
1.6
1002
}
  0
TEXT
  5
16E
330
2F4
100
AcDbEntity
  8
.Neuer Ordner.Grundriss
100
AcDbText
 10
-323.9818924250535
 20
-80.30630203457037
 30
-47.56929709975721
 40
2.81214848143982
  1
1.6
 11
-323.9818924250535
 21
-81.13844233521461
 31
-47.56929709975721
100
AcDbText
 73
     1
  0
POINT
  5
16F
330
2F4
100
AcDbEntity
  8
.Neuer Ordner.Grundriss
 62
   150
100
AcDbPoint
 10
-343.8653023432393
 20
-80.81654599987401
 30
-47.49136765829508
1001
CLaserDistTaskSchraffurDist
1040
3.561071452314764
1001
PE_URL
1000

1002
{
1000
3.6
1002
}
  0
TEXT
  5
170
330
2F4
100
AcDbEntity
  8
.Neuer Ordner.Grundriss
100
AcDbText
 10
-343.8653023432393
 20
-79.98440569922977
 30
-47.49136765829508
 40
2.81214848143982
  1
3.6
 11
-343.8653023432393
 21
-80.81654599987401
 31
-47.49136765829508
100
AcDbText
 73
     1
  0
POINT
  5
171
330
2F4
100
AcDbEntity
  8
.Neuer Ordner.Grundriss
 62
   140
100
AcDbPoint
 10
-364.5466981512818
 20
-80.98208017138556
 30
-47.54053241503639
1001
CLaserDistTaskSchraffurDist
1040
2.312286631085726
1001
PE_URL
1000

1002
{
1000
2.3
1002
}
  0
TEXT
  5
172
330
2F4
100
AcDbEntity
  8
.Neuer Ordner.Grundriss
100
AcDbText
 10
-364.5466981512818
 20
-80.14993987074132
 30
-47.54053241503639
 40
2.81214848143982
  1
2.3
 11
-364.5466981512818
 21
-80.98208017138556
 31
-47.54053241503639
100
AcDbText
 73
     1
  0
POINT
  5
173
330
2F4
100
AcDbEntity
  8
.Neuer Ordner.Grundriss
 62
    40
100
AcDbPoint
 10
-390.6700505966983
 20
-82.33424563678517
 30
-48.3278782547016
1001
CLaserDistTaskSchraffurDist
1040
-17.68629769641075
1001
PE_URL
1000

1002
{
1000
-17.7
1002
}
  0
TEXT
  5
174
330
2F4
100
AcDbEntity
  8
.Neuer Ordner.Grundriss
100
AcDbText
 10
-390.6700505966983
 20
-81.50210533614093
 30
-48.3278782547016
 40
2.81214848143982
  1
-17.7
 11
-390.6700505966983
 21
-82.33424563678517
 31
-48.3278782547016
100
AcDbText
 73
     1
  0
POINT
  5
175
330
2F4
100
AcDbEntity
  8
.Neuer Ordner.Grundriss
 62
    30
100
AcDbPoint
 10
-413.1142392111713
 20
-82.71232072227274
 30
-48.38031493273093
1001
CLaserDistTaskSchraffurDist
1040
-19.01818931835555
1001
PE_URL
1000

1002
{
1000
-19.0
1002
}
  0
TEXT
  5
176
330
2F4
100
AcDbEntity
  8
.Neuer Ordner.Grundriss
100
AcDbText
 10
-413.1142392111713
 20
-81.8801804216285
 30
-48.38031493273093
 40
2.81214848143982
  1
-19.0
 11
-413.1142392111713
 21
-82.71232072227274
 31
-48.38031493273093
100
AcDbText
 73
     1
  0
POINT
  5
177
330
2F4
100
AcDbEntity
  8
.Neuer Ordner.Grundriss
 62
    30
100
AcDbPoint
 10
-434.5416962563442
 20
-82.83935873702646
 30
-48.37915281427802
1001
CLaserDistTaskSchraffurDist
1040
-18.98867150965157
1001
PE_URL
1000

1002
{
1000
-19.0
1002
}
  0
TEXT
  5
178
330
2F4
100
AcDbEntity
  8
.Neuer Ordner.Grundriss
100
AcDbText
 10
-434.5416962563442
 20
-82.00721843638222
 30
-48.37915281427802
 40
2.81214848143982
  1
-19.0
 11
-434.5416962563442
 21
-82.83935873702646
 31
-48.37915281427802
100
AcDbText
 73
     1
  0
POINT
  5
179
330
2F4
100
AcDbEntity
  8
.Neuer Ordner.Grundriss
 62
    30
100
AcDbPoint
 10
-453.1120010419967
 20
-82.33522656732382
 30
-48.41100917389722
1001
CLaserDistTaskSchraffurDist
1040
-19.79782304397941
1001
PE_URL
1000

1002
{
1000
-19.8
1002
}
  0
TEXT
  5
17A
330
2F4
100
AcDbEntity
  8
.Neuer Ordner.Grundriss
100
AcDbText
 10
-453.1120010419967
 20
-81.50308626667957
 30
-48.41100917389722
 40
2.81214848143982
  1
-19.8
 11
-453.1120010419967
 21
-82.33522656732382
 31
-48.41100917389722
100
AcDbText
 73
     1
  0
POINT
  5
17B
330
2F4
100
AcDbEntity
  8
.Neuer Ordner.Grundriss
 62
    30
100
AcDbPoint
 10
-474.6988538298044
 20
-82.49856023547476
 30
-48.36996611844271
1001
CLaserDistTaskSchraffurDist
1040
-18.75532943543499
1001
PE_URL
1000

1002
{
1000
-18.8
1002
}
  0
TEXT
  5
17C
330
2F4
100
AcDbEntity
  8
.Neuer Ordner.Grundriss
100
AcDbText
 10
-474.6988538298044
 20
-81.66641993483052
 30
-48.36996611844271
 40
2.81214848143982
  1
-18.8
 11
-474.6988538298044
 21
-82.49856023547476
 31
-48.36996611844271
100
AcDbText
 73
     1
  0
POINT
  5
17D
330
2F4
100
AcDbEntity
  8
.Neuer Ordner.Grundriss
 62
    50
100
AcDbPoint
 10
-492.4010660115244
 20
-82.27968324814495
 30
-48.26852980487612
1001
CLaserDistTaskSchraffurDist
1040
-16.1788470708434
1001
PE_URL
1000

1002
{
1000
-16.2
1002
}
  0
TEXT
  5
17E
330
2F4
100
AcDbEntity
  8
.Neuer Ordner.Grundriss
100
AcDbText
 10
-492.4010660115244
 20
-81.44754294750071
 30
-48.26852980487612
 40
2.81214848143982
  1
-16.2
 11
-492.4010660115244
 21
-82.27968324814495
 31
-48.26852980487612
100
AcDbText
 73
     1
  0
POINT
  5
17F
330
2F4
100
AcDbEntity
  8
.Neuer Ordner.Grundriss
 62
   120
100
AcDbPoint
 10
-265.1395077184337
 20
-61.05610593819388
 30
-47.67705859756641
1001
CLaserDistTaskSchraffurDist
1040
-1.155478405176837
1001
PE_URL
1000

1002
{
1000
-1.2
1002
}
  0
TEXT
  5
180
330
2F4
100
AcDbEntity
  8
.Neuer Ordner.Grundriss
100
AcDbText
 10
-265.1395077184337
 20
-60.22396563754964
 30
-47.67705859756641
 40
2.81214848143982
  1
-1.2
 11
-265.1395077184337
 21
-61.05610593819388
 31
-47.67705859756641
100
AcDbText
 73
     1
  0
POINT
  5
181
330
2F4
100
AcDbEntity
  8
.Neuer Ordner.Grundriss
 62
   120
100
AcDbPoint
 10
-284.7094052920491
 20
-60.98926265728103
 30
-47.72012532492123
1001
CLaserDistTaskSchraffurDist
1040
-2.249373279989186
1001
PE_URL
1000

1002
{
1000
-2.2
1002
}
  0
TEXT
  5
182
330
2F4
100
AcDbEntity
  8
.Neuer Ordner.Grundriss
100
AcDbText
 10
-284.7094052920491
 20
-60.15712235663679
 30
-47.72012532492123
 40
2.81214848143982
  1
-2.2
 11
-284.7094052920491
 21
-60.98926265728103
 31
-47.72012532492123
100
AcDbText
 73
     1
  0
POINT
  5
183
330
2F4
100
AcDbEntity
  8
.Neuer Ordner.Grundriss
 62
   110
100
AcDbPoint
 10
-306.625174644391
 20
-61.43486427588277
 30
-47.76522061605181
1001
CLaserDistTaskSchraffurDist
1040
-3.394793674705852
1001
PE_URL
1000

1002
{
1000
-3.4
1002
}
  0
TEXT
  5
184
330
2F4
100
AcDbEntity
  8
.Neuer Ordner.Grundriss
100
AcDbText
 10
-306.625174644391
 20
-60.60272397523853
 30
-47.76522061605181
 40
2.81214848143982
  1
-3.4
 11
-306.625174644391
 21
-61.43486427588277
 31
-47.76522061605181
100
AcDbText
 73
     1
  0
POINT
  5
185
330
2F4
100
AcDbEntity
  8
.Neuer Ordner.Grundriss
 62
   100
100
AcDbPoint
 10
-326.6039631142702
 20
-61.3106355313579
 30
-47.87465692085599
1001
CLaserDistTaskSchraffurDist
1040
-6.174475816732183
1001
PE_URL
1000

1002
{
1000
-6.2
1002
}
  0
TEXT
  5
186
330
2F4
100
AcDbEntity
  8
.Neuer Ordner.Grundriss
100
AcDbText
 10
-326.6039631142702
 20
-60.47849523071366
 30
-47.87465692085599
 40
2.81214848143982
  1
-6.2
 11
-326.6039631142702
 21
-61.3106355313579
 31
-47.87465692085599
100
AcDbText
 73
     1
  0
POINT
  5
187
330
2F4
100
AcDbEntity
  8
.Neuer Ordner.Grundriss
 62
   110
100
AcDbPoint
 10
-345.6486645160902
 20
-60.95473003842855
 30
-47.78024351667159
1001
CLaserDistTaskSchraffurDist
1040
-3.776375350448461
1001
PE_URL
1000

1002
{
1000
-3.8
1002
}
  0
TEXT
  5
188
330
2F4
100
AcDbEntity
  8
.Neuer Ordner.Grundriss
100
AcDbText
 10
-345.6486645160902
 20
-60.12258973778431
 30
-47.78024351667159
 40
2.81214848143982
  1
-3.8
 11
-345.6486645160902
 21
-60.95473003842855
 31
-47.78024351667159
100
AcDbText
 73
     1
  0
POINT
  5
189
330
2F4
100
AcDbEntity
  8
.Neuer Ordner.Grundriss
 62
   100
100
AcDbPoint
 10
-367.5874291663424
 20
-61.27656197542467
 30
-47.84540257171187
1001
CLaserDistTaskSchraffurDist
1040
-5.431415348471546
1001
PE_URL
1000

1002
{
1000
-5.4
1002
}
  0
TEXT
  5
18A
330
2F4
100
AcDbEntity
  8
.Neuer Ordner.Grundriss
100
AcDbText
 10
-367.5874291663424
 20
-60.44442167478043
 30
-47.84540257171187
 40
2.81214848143982
  1
-5.4
 11
-367.5874291663424
 21
-61.27656197542467
 31
-47.84540257171187
100
AcDbText
 73
     1
  0
POINT
  5
18B
330
2F4
100
AcDbEntity
  8
.Neuer Ordner.Grundriss
 62
    30
100
AcDbPoint
 10
-391.1427642114829
 20
-61.91378960805547
 30
-48.38309483596547
1001
CLaserDistTaskSchraffurDist
1040
-19.08879886051295
1001
PE_URL
1000

1002
{
1000
-19.1
1002
}
  0
TEXT
  5
18C
330
2F4
100
AcDbEntity
  8
.Neuer Ordner.Grundriss
100
AcDbText
 10
-391.1427642114829
 20
-61.08164930741123
 30
-48.38309483596547
 40
2.81214848143982
  1
-19.1
 11
-391.1427642114829
 21
-61.91378960805547
 31
-48.38309483596547
100
AcDbText
 73
     1
  0
POINT
  5
18D
330
2F4
100
AcDbEntity
  8
.Neuer Ordner.Grundriss
 62
    20
100
AcDbPoint
 10
-414.0891066657791
 20
-62.27640163705619
 30
-48.50823636627494
1001
CLaserDistTaskSchraffurDist
1040
-22.26739373037367
1001
PE_URL
1000

1002
{
1000
-22.3
1002
}
  0
TEXT
  5
18E
330
2F4
100
AcDbEntity
  8
.Neuer Ordner.Grundriss
100
AcDbText
 10
-414.0891066657791
 20
-61.44426133641195
 30
-48.50823636627494
 40
2.81214848143982
  1
-22.3
 11
-414.0891066657791
 21
-62.27640163705619
 31
-48.50823636627494
100
AcDbText
 73
     1
  0
POINT
  5
18F
330
2F4
100
AcDbEntity
  8
.Neuer Ordner.Grundriss
 62
    20
100
AcDbPoint
 10
-435.0178400718452
 20
-62.13262620051332
 30
-48.44917685206146
1001
CLaserDistTaskSchraffurDist
1040
-20.76728206935104
1001
PE_URL
1000

1002
{
1000
-20.8
1002
}
  0
TEXT
  5
190
330
2F4
100
AcDbEntity
  8
.Neuer Ordner.Grundriss
100
AcDbText
 10
-435.0178400718452
 20
-61.30048589986907
 30
-48.44917685206146
 40
2.81214848143982
  1
-20.8
 11
-435.0178400718452
 21
-62.13262620051332
 31
-48.44917685206146
100
AcDbText
 73
     1
  0
POINT
  5
191
330
2F4
100
AcDbEntity
  8
.Neuer Ordner.Grundriss
 62
    10
100
AcDbPoint
 10
-454.6038912611617
 20
-61.99693401587741
 30
-48.54060491665454
1001
CLaserDistTaskSchraffurDist
1040
-23.08955491001552
1001
PE_URL
1000

1002
{
1000
-23.1
1002
}
  0
TEXT
  5
192
330
2F4
100
AcDbEntity
  8
.Neuer Ordner.Grundriss
100
AcDbText
 10
-454.6038912611617
 20
-61.16479371523317
 30
-48.54060491665454
 40
2.81214848143982
  1
-23.1
 11
-454.6038912611617
 21
-61.99693401587741
 31
-48.54060491665454
100
AcDbText
 73
     1
  0
POINT
  5
193
330
2F4
100
AcDbEntity
  8
.Neuer Ordner.Grundriss
 62
    20
100
AcDbPoint
 10
-476.2459520376319
 20
-62.29582011612077
 30
-48.48515403287451
1001
CLaserDistTaskSchraffurDist
1040
-21.68110246200263
1001
PE_URL
1000

1002
{
1000
-21.7
1002
}
  0
TEXT
  5
194
330
2F4
100
AcDbEntity
  8
.Neuer Ordner.Grundriss
100
AcDbText
 10
-476.2459520376319
 20
-61.46367981547652
 30
-48.48515403287451
 40
2.81214848143982
  1
-21.7
 11
-476.2459520376319
 21
-62.29582011612077
 31
-48.48515403287451
100
AcDbText
 73
     1
  0
POINT
  5
195
330
2F4
100
AcDbEntity
  8
.Neuer Ordner.Grundriss
 62
    30
100
AcDbPoint
 10
-493.9213977583694
 20
-61.82464969005481
 30
-48.39906617805326
1001
CLaserDistTaskSchraffurDist
1040
-19.4944709495428
1001
PE_URL
1000

1002
{
1000
-19.5
1002
}
  0
TEXT
  5
196
330
2F4
100
AcDbEntity
  8
.Neuer Ordner.Grundriss
100
AcDbText
 10
-493.9213977583694
 20
-60.99250938941057
 30
-48.39906617805326
 40
2.81214848143982
  1
-19.5
 11
-493.9213977583694
 21
-61.82464969005481
 31
-48.39906617805326
100
AcDbText
 73
     1
  0
POINT
  5
197
330
2F4
100
AcDbEntity
  8
.Neuer Ordner.Grundriss
 62
   120
100
AcDbPoint
 10
-264.8830377043792
 20
-40.66062483736319
 30
-47.66695616335682
1001
CLaserDistTaskSchraffurDist
1040
-0.8988765762533149
1001
PE_URL
1000

1002
{
1000
-0.9
1002
}
  0
TEXT
  5
198
330
2F4
100
AcDbEntity
  8
.Neuer Ordner.Grundriss
100
AcDbText
 10
-264.8830377043792
 20
-39.82848453671895
 30
-47.66695616335682
 40
2.81214848143982
  1
-0.9
 11
-264.8830377043792
 21
-40.66062483736319
 31
-47.66695616335682
100
AcDbText
 73
     1
  0
POINT
  5
199
330
2F4
100
AcDbEntity
  8
.Neuer Ordner.Grundriss
 62
   110
100
AcDbPoint
 10
-285.7830087479308
 20
-40.96129107889149
 30
-47.78501686769159
1001
CLaserDistTaskSchraffurDist
1040
-3.897618466356335
1001
PE_URL
1000

1002
{
1000
-3.9
1002
}
  0
TEXT
  5
19A
330
2F4
100
AcDbEntity
  8
.Neuer Ordner.Grundriss
100
AcDbText
 10
-285.7830087479308
 20
-40.12915077824725
 30
-47.78501686769159
 40
2.81214848143982
  1
-3.9
 11
-285.7830087479308
 21
-40.96129107889149
 31
-47.78501686769159
100
AcDbText
 73
     1
  0
POINT
  5
19B
330
2F4
100
AcDbEntity
  8
.Neuer Ordner.Grundriss
 62
    90
100
AcDbPoint
 10
-307.0929386621543
 20
-41.09021117694749
 30
-47.90121925132812
1001
CLaserDistTaskSchraffurDist
1040
-6.849159010724179
1001
PE_URL
1000

1002
{
1000
-6.8
1002
}
  0
TEXT
  5
19C
330
2F4
100
AcDbEntity
  8
.Neuer Ordner.Grundriss
100
AcDbText
 10
-307.0929386621543
 20
-40.25807087630325
 30
-47.90121925132812
 40
2.81214848143982
  1
-6.8
 11
-307.0929386621543
 21
-41.09021117694749
 31
-47.90121925132812
100
AcDbText
 73
     1
  0
POINT
  5
19D
330
2F4
100
AcDbEntity
  8
.Neuer Ordner.Grundriss
 62
    80
100
AcDbPoint
 10
-327.3274954077882
 20
-41.05127082305483
 30
-47.99941939688648
1001
CLaserDistTaskSchraffurDist
1040
-9.343442707906661
1001
PE_URL
1000

1002
{
1000
-9.3
1002
}
  0
TEXT
  5
19E
330
2F4
100
AcDbEntity
  8
.Neuer Ordner.Grundriss
100
AcDbText
 10
-327.3274954077882
 20
-40.21913052241059
 30
-47.99941939688648
 40
2.81214848143982
  1
-9.3
 11
-327.3274954077882
 21
-41.05127082305483
 31
-47.99941939688648
100
AcDbText
 73
     1
  0
POINT
  5
19F
330
2F4
100
AcDbEntity
  8
.Neuer Ordner.Grundriss
 62
    70
100
AcDbPoint
 10
-348.2079855593439
 20
-40.96426328426286
 30
-48.12288803935657
1001
CLaserDistTaskSchraffurDist
1040
-12.47954622664679
1001
PE_URL
1000

1002
{
1000
-12.5
1002
}
  0
TEXT
  5
1A0
330
2F4
100
AcDbEntity
  8
.Neuer Ordner.Grundriss
100
AcDbText
 10
-348.2079855593439
 20
-40.13212298361862
 30
-48.12288803935657
 40
2.81214848143982
  1
-12.5
 11
-348.2079855593439
 21
-40.96426328426286
 31
-48.12288803935657
100
AcDbText
 73
     1
  0
POINT
  5
1A1
330
2F4
100
AcDbEntity
  8
.Neuer Ordner.Grundriss
 62
    60
100
AcDbPoint
 10
-369.6670013852904
 20
-41.09309129534881
 30
-48.19217544599614
1001
CLaserDistTaskSchraffurDist
1040
-14.2394463552921
1001
PE_URL
1000

1002
{
1000
-14.2
1002
}
  0
TEXT
  5
1A2
330
2F4
100
AcDbEntity
  8
.Neuer Ordner.Grundriss
100
AcDbText
 10
-369.6670013852904
 20
-40.26095099470457
 30
-48.19217544599614
 40
2.81214848143982
  1
-14.2
 11
-369.6670013852904
 21
-41.09309129534881
 31
-48.19217544599614
100
AcDbText
 73
     1
  0
POINT
  5
1A3
330
2F4
100
AcDbEntity
  8
.Neuer Ordner.Grundriss
 62
    30
100
AcDbPoint
 10
-391.8019295812587
 20
-41.33053321238379
 30
-48.4309338039735
1001
CLaserDistTaskSchraffurDist
1040
-20.30390864791707
1001
PE_URL
1000

1002
{
1000
-20.3
1002
}
  0
TEXT
  5
1A4
330
2F4
100
AcDbEntity
  8
.Neuer Ordner.Grundriss
100
AcDbText
 10
-391.8019295812587
 20
-40.49839291173955
 30
-48.4309338039735
 40
2.81214848143982
  1
-20.3
 11
-391.8019295812587
 21
-41.33053321238379
 31
-48.4309338039735
100
AcDbText
 73
     1
  0
POINT
  5
1A5
330
2F4
100
AcDbEntity
  8
.Neuer Ordner.Grundriss
 62
    20
100
AcDbPoint
 10
-413.9045489425253
 20
-41.43992644731604
 30
-48.48717817100579
1001
CLaserDistTaskSchraffurDist
1040
-21.73251557053709
1001
PE_URL
1000

1002
{
1000
-21.7
1002
}
  0
TEXT
  5
1A6
330
2F4
100
AcDbEntity
  8
.Neuer Ordner.Grundriss
100
AcDbText
 10
-413.9045489425253
 20
-40.6077861466718
 30
-48.48717817100579
 40
2.81214848143982
  1
-21.7
 11
-413.9045489425253
 21
-41.43992644731604
 31
-48.48717817100579
100
AcDbText
 73
     1
  0
POINT
  5
1A7
330
2F4
100
AcDbEntity
  8
.Neuer Ordner.Grundriss
 62
    10
100
AcDbPoint
 10
-435.8452372762898
 20
-41.47486951246108
 30
-48.57704252550187
1001
CLaserDistTaskSchraffurDist
1040
-24.01507017473773
1001
PE_URL
1000

1002
{
1000
-24.0
1002
}
  0
TEXT
  5
1A8
330
2F4
100
AcDbEntity
  8
.Neuer Ordner.Grundriss
100
AcDbText
 10
-435.8452372762898
 20
-40.64272921181684
 30
-48.57704252550187
 40
2.81214848143982
  1
-24.0
 11
-435.8452372762898
 21
-41.47486951246108
 31
-48.57704252550187
100
AcDbText
 73
     1
  0
POINT
  5
1A9
330
2F4
100
AcDbEntity
  8
.Neuer Ordner.Grundriss
 62
    10
100
AcDbPoint
 10
-455.38877441222
 20
-41.57101948438058
 30
-48.55391020300036
1001
CLaserDistTaskSchraffurDist
1040
-23.42750918319916
1001
PE_URL
1000

1002
{
1000
-23.4
1002
}
  0
TEXT
  5
1AA
330
2F4
100
AcDbEntity
  8
.Neuer Ordner.Grundriss
100
AcDbText
 10
-455.38877441222
 20
-40.73887918373634
 30
-48.55391020300036
 40
2.81214848143982
  1
-23.4
 11
-455.38877441222
 21
-41.57101948438058
 31
-48.55391020300036
100
AcDbText
 73
     1
  0
POINT
  5
1AB
330
2F4
100
AcDbEntity
  8
.Neuer Ordner.Grundriss
 62
    10
100
AcDbPoint
 10
-477.8287721669531
 20
-41.63078307150909
 30
-48.59622528513923
1001
CLaserDistTaskSchraffurDist
1040
-24.50231226952656
1001
PE_URL
1000

1002
{
1000
-24.5
1002
}
  0
TEXT
  5
1AC
330
2F4
100
AcDbEntity
  8
.Neuer Ordner.Grundriss
100
AcDbText
 10
-477.8287721669531
 20
-40.79864277086485
 30
-48.59622528513923
 40
2.81214848143982
  1
-24.5
 11
-477.8287721669531
 21
-41.63078307150909
 31
-48.59622528513923
100
AcDbText
 73
     1
  0
POINT
  5
1AD
330
2F4
100
AcDbEntity
  8
.Neuer Ordner.Grundriss
 62
   130
100
AcDbPoint
 10
-264.8034860058877
 20
-20.25405938659784
 30
-47.58249516848024
1001
CLaserDistTaskSchraffurDist
1040
1.246432693611723
1001
PE_URL
1000

1002
{
1000
1.2
1002
}
  0
TEXT
  5
1AE
330
2F4
100
AcDbEntity
  8
.Neuer Ordner.Grundriss
100
AcDbText
 10
-264.8034860058877
 20
-19.4219190859536
 30
-47.58249516848024
 40
2.81214848143982
  1
1.2
 11
-264.8034860058877
 21
-20.25405938659784
 31
-47.58249516848024
100
AcDbText
 73
     1
  0
POINT
  5
1AF
330
2F4
100
AcDbEntity
  8
.Neuer Ordner.Grundriss
 62
   120
100
AcDbPoint
 10
-285.9756565471745
 20
-20.33441673900446
 30
-47.72725878241153
1001
CLaserDistTaskSchraffurDist
1040
-2.430563100242807
1001
PE_URL
1000

1002
{
1000
-2.4
1002
}
  0
TEXT
  5
1B0
330
2F4
100
AcDbEntity
  8
.Neuer Ordner.Grundriss
100
AcDbText
 10
-285.9756565471745
 20
-19.50227643836022
 30
-47.72725878241153
 40
2.81214848143982
  1
-2.4
 11
-285.9756565471745
 21
-20.33441673900446
 31
-47.72725878241153
100
AcDbText
 73
     1
  0
POINT
  5
1B1
330
2F4
100
AcDbEntity
  8
.Neuer Ordner.Grundriss
 62
   100
100
AcDbPoint
 10
-307.2278716368934
 20
-20.58935683283185
 30
-47.85226721040495
1001
CLaserDistTaskSchraffurDist
1040
-5.605777171275804
1001
PE_URL
1000

1002
{
1000
-5.6
1002
}
  0
TEXT
  5
1B2
330
2F4
100
AcDbEntity
  8
.Neuer Ordner.Grundriss
100
AcDbText
 10
-307.2278716368934
 20
-19.75721653218762
 30
-47.85226721040495
 40
2.81214848143982
  1
-5.6
 11
-307.2278716368934
 21
-20.58935683283185
 31
-47.85226721040495
100
AcDbText
 73
     1
  0
POINT
  5
1B3
330
2F4
100
AcDbEntity
  8
.Neuer Ordner.Grundriss
 62
    90
100
AcDbPoint
 10
-326.3737909989516
 20
-20.45980859692661
 30
-47.92032747512425
1001
CLaserDistTaskSchraffurDist
1040
-7.334507895145862
1001
PE_URL
1000

1002
{
1000
-7.3
1002
}
  0
TEXT
  5
1B4
330
2F4
100
AcDbEntity
  8
.Neuer Ordner.Grundriss
100
AcDbText
 10
-326.3737909989516
 20
-19.62766829628237
 30
-47.92032747512425
 40
2.81214848143982
  1
-7.3
 11
-326.3737909989516
 21
-20.45980859692661
 31
-47.92032747512425
100
AcDbText
 73
     1
  0
POINT
  5
1B5
330
2F4
100
AcDbEntity
  8
.Neuer Ordner.Grundriss
 62
    70
100
AcDbPoint
 10
-347.9552008766127
 20
-20.51058392852704
 30
-48.08986534672572
1001
CLaserDistTaskSchraffurDist
1040
-11.64076983382324
1001
PE_URL
1000

1002
{
1000
-11.6
1002
}
  0
TEXT
  5
1B6
330
2F4
100
AcDbEntity
  8
.Neuer Ordner.Grundriss
100
AcDbText
 10
-347.9552008766127
 20
-19.6784436278828
 30
-48.08986534672572
 40
2.81214848143982
  1
-11.6
 11
-347.9552008766127
 21
-20.51058392852704
 31
-48.08986534672572
100
AcDbText
 73
     1
  0
POINT
  5
1B7
330
2F4
100
AcDbEntity
  8
.Neuer Ordner.Grundriss
 62
    60
100
AcDbPoint
 10
-369.4890931921294
 20
-20.58199570908319
 30
-48.16385212880716
1001
CLaserDistTaskSchraffurDist
1040
-13.52003409869212
1001
PE_URL
1000

1002
{
1000
-13.5
1002
}
  0
TEXT
  5
1B8
330
2F4
100
AcDbEntity
  8
.Neuer Ordner.Grundriss
100
AcDbText
 10
-369.4890931921294
 20
-19.74985540843895
 30
-48.16385212880716
 40
2.81214848143982
  1
-13.5
 11
-369.4890931921294
 21
-20.58199570908319
 31
-48.16385212880716
100
AcDbText
 73
     1
  0
POINT
  5
1B9
330
2F4
100
AcDbEntity
  8
.Neuer Ordner.Grundriss
 62
    40
100
AcDbPoint
 10
-391.0356229003127
 20
-20.67443064210564
 30
-48.35143876081695
1001
CLaserDistTaskSchraffurDist
1040
-18.28473455174071
1001
PE_URL
1000

1002
{
1000
-18.3
1002
}
  0
TEXT
  5
1BA
330
2F4
100
AcDbEntity
  8
.Neuer Ordner.Grundriss
100
AcDbText
 10
-391.0356229003127
 20
-19.8422903414614
 30
-48.35143876081695
 40
2.81214848143982
  1
-18.3
 11
-391.0356229003127
 21
-20.67443064210564
 31
-48.35143876081695
100
AcDbText
 73
     1
  0
POINT
  5
1BB
330
2F4
100
AcDbEntity
  8
.Neuer Ordner.Grundriss
 62
    20
100
AcDbPoint
 10
-413.491749755992
 20
-20.77302407894658
 30
-48.47488230241004
1001
CLaserDistTaskSchraffurDist
1040
-21.42020050820497
1001
PE_URL
1000

1002
{
1000
-21.4
1002
}
  0
TEXT
  5
1BC
330
2F4
100
AcDbEntity
  8
.Neuer Ordner.Grundriss
100
AcDbText
 10
-413.491749755992
 20
-19.94088377830234
 30
-48.47488230241004
 40
2.81214848143982
  1
-21.4
 11
-413.491749755992
 21
-20.77302407894658
 31
-48.47488230241004
100
AcDbText
 73
     1
  0
POINT
  5
1BD
330
2F4
100
AcDbEntity
  8
.Neuer Ordner.Grundriss
 62
    10
100
AcDbPoint
 10
-436.0004623573556
 20
-20.80345504678934
 30
-48.56482710712947
1001
CLaserDistTaskSchraffurDist
1040
-23.70479854807877
1001
PE_URL
1000

1002
{
1000
-23.7
1002
}
  0
TEXT
  5
1BE
330
2F4
100
AcDbEntity
  8
.Neuer Ordner.Grundriss
100
AcDbText
 10
-436.0004623573556
 20
-19.9713147461451
 30
-48.56482710712947
 40
2.81214848143982
  1
-23.7
 11
-436.0004623573556
 21
-20.80345504678934
 31
-48.56482710712947
100
AcDbText
 73
     1
  0
POINT
  5
1BF
330
2F4
100
AcDbEntity
  8
.Neuer Ordner.Grundriss
 62
    10
100
AcDbPoint
 10
-455.8989509311643
 20
-20.69947399741086
 30
-48.54621359750197
1001
CLaserDistTaskSchraffurDist
1040
-23.23201540354012
1001
PE_URL
1000

1002
{
1000
-23.2
1002
}
  0
TEXT
  5
1C0
330
2F4
100
AcDbEntity
  8
.Neuer Ordner.Grundriss
100
AcDbText
 10
-455.8989509311643
 20
-19.86733369676663
 30
-48.54621359750197
 40
2.81214848143982
  1
-23.2
 11
-455.8989509311643
 21
-20.69947399741086
 31
-48.54621359750197
100
AcDbText
 73
     1
  0
POINT
  5
1C1
330
2F4
100
AcDbEntity
  8
.Neuer Ordner.Grundriss
 62
    10
100
AcDbPoint
 10
-476.9806992005794
 20
-20.83247029948054
 30
-48.58911466012178
1001
CLaserDistTaskSchraffurDist
1040
-24.32170239408333
1001
PE_URL
1000

1002
{
1000
-24.3
1002
}
  0
TEXT
  5
1C2
330
2F4
100
AcDbEntity
  8
.Neuer Ordner.Grundriss
100
AcDbText
 10
-476.9806992005794
 20
-20.0003299988363
 30
-48.58911466012178
 40
2.81214848143982
  1
-24.3
 11
-476.9806992005794
 21
-20.83247029948054
 31
-48.58911466012178
100
AcDbText
 73
     1
  0
POINT
  5
1C3
330
2F4
100
AcDbEntity
  8
.Neuer Ordner.Grundriss
 62
   140
100
AcDbPoint
 10
-264.59924476173
 20
0.1650913665753063
 30
-47.5701593768349
1001
CLaserDistTaskSchraffurDist
1040
1.559761801403511
1001
PE_URL
1000

1002
{
1000
1.6
1002
}
  0
TEXT
  5
1C4
330
2F4
100
AcDbEntity
  8
.Neuer Ordner.Grundriss
100
AcDbText
 10
-264.59924476173
 20
0.9972316672195439
 30
-47.5701593768349
 40
2.81214848143982
  1
1.6
 11
-264.59924476173
 21
0.1650913665753063
 31
-47.5701593768349
100
AcDbText
 73
     1
  0
POINT
  5
1C5
330
2F4
100
AcDbEntity
  8
.Neuer Ordner.Grundriss
 62
   120
100
AcDbPoint
 10
-285.1726810282117
 20
0.1425023512322498
 30
-47.65739223219823
1001
CLaserDistTaskSchraffurDist
1040
-0.6559527248250561
1001
PE_URL
1000

1002
{
1000
-0.7
1002
}
  0
TEXT
  5
1C6
330
2F4
100
AcDbEntity
  8
.Neuer Ordner.Grundriss
100
AcDbText
 10
-285.1726810282117
 20
0.9746426518764874
 30
-47.65739223219823
 40
2.81214848143982
  1
-0.7
 11
-285.1726810282117
 21
0.1425023512322498
 31
-47.65739223219823
100
AcDbText
 73
     1
  0
POINT
  5
1C7
330
2F4
100
AcDbEntity
  8
.Neuer Ordner.Grundriss
 62
   100
100
AcDbPoint
 10
-307.0736232641754
 20
0.166255625760862
 30
-47.81926003600011
1001
CLaserDistTaskSchraffurDist
1040
-4.767394941392922
1001
PE_URL
1000

1002
{
1000
-4.8
1002
}
  0
TEXT
  5
1C8
330
2F4
100
AcDbEntity
  8
.Neuer Ordner.Grundriss
100
AcDbText
 10
-307.0736232641754
 20
0.9983959264050997
 30
-47.81926003600011
 40
2.81214848143982
  1
-4.8
 11
-307.0736232641754
 21
0.166255625760862
 31
-47.81926003600011
100
AcDbText
 73
     1
  0
POINT
  5
1C9
330
2F4
100
AcDbEntity
  8
.Neuer Ordner.Grundriss
 62
    90
100
AcDbPoint
 10
-326.4446080540841
 20
0.1734780580812299
 30
-47.9268961891613
1001
CLaserDistTaskSchraffurDist
1040
-7.501353231687062
1001
PE_URL
1000

1002
{
1000
-7.5
1002
}
  0
TEXT
  5
1CA
330
2F4
100
AcDbEntity
  8
.Neuer Ordner.Grundriss
100
AcDbText
 10
-326.4446080540841
 20
1.005618358725468
 30
-47.9268961891613
 40
2.81214848143982
  1
-7.5
 11
-326.4446080540841
 21
0.1734780580812299
 31
-47.9268961891613
100
AcDbText
 73
     1
  0
POINT
  5
1CB
330
2F4
100
AcDbEntity
  8
.Neuer Ordner.Grundriss
 62
    60
100
AcDbPoint
 10
-348.3920008193833
 20
0.1797106564041134
 30
-48.15016867434385
1001
CLaserDistTaskSchraffurDist
1040
-13.17247435532386
1001
PE_URL
1000

1002
{
1000
-13.2
1002
}
  0
TEXT
  5
1CC
330
2F4
100
AcDbEntity
  8
.Neuer Ordner.Grundriss
100
AcDbText
 10
-348.3920008193833
 20
1.011850957048351
 30
-48.15016867434385
 40
2.81214848143982
  1
-13.2
 11
-348.3920008193833
 21
0.1797106564041134
 31
-48.15016867434385
100
AcDbText
 73
     1
  0
POINT
  5
1CD
330
2F4
100
AcDbEntity
  8
.Neuer Ordner.Grundriss
 62
    60
100
AcDbPoint
 10
-370.2722628669056
 20
0.1801972736648927
 30
-48.19620907202344
1001
CLaserDistTaskSchraffurDist
1040
-14.34190045638547
1001
PE_URL
1000

1002
{
1000
-14.3
1002
}
  0
TEXT
  5
1CE
330
2F4
100
AcDbEntity
  8
.Neuer Ordner.Grundriss
100
AcDbText
 10
-370.2722628669056
 20
1.01233757430913
 30
-48.19620907202344
 40
2.81214848143982
  1
-14.3
 11
-370.2722628669056
 21
0.1801972736648927
 31
-48.19620907202344
100
AcDbText
 73
     1
  0
POINT
  5
1CF
330
2F4
100
AcDbEntity
  8
.Neuer Ordner.Grundriss
 62
    40
100
AcDbPoint
 10
-390.5025814468556
 20
0.2035040162145974
 30
-48.3213024667205
1001
CLaserDistTaskSchraffurDist
1040
-17.51927268169084
1001
PE_URL
1000

1002
{
1000
-17.5
1002
}
  0
TEXT
  5
1D0
330
2F4
100
AcDbEntity
  8
.Neuer Ordner.Grundriss
100
AcDbText
 10
-390.5025814468556
 20
1.035644316858835
 30
-48.3213024667205
 40
2.81214848143982
  1
-17.5
 11
-390.5025814468556
 21
0.2035040162145974
 31
-48.3213024667205
100
AcDbText
 73
     1
  0
POINT
  5
1D1
330
2F4
100
AcDbEntity
  8
.Neuer Ordner.Grundriss
 62
    20
100
AcDbPoint
 10
-413.717058403035
 20
0.1909433038283415
 30
-48.49983313346997
1001
CLaserDistTaskSchraffurDist
1040
-22.05395161712727
1001
PE_URL
1000

1002
{
1000
-22.1
1002
}
  0
TEXT
  5
1D2
330
2F4
100
AcDbEntity
  8
.Neuer Ordner.Grundriss
100
AcDbText
 10
-413.717058403035
 20
1.023083604472579
 30
-48.49983313346997
 40
2.81214848143982
  1
-22.1
 11
-413.717058403035
 21
0.1909433038283415
 31
-48.49983313346997
100
AcDbText
 73
     1
  0
POINT
  5
1D3
330
2F4
100
AcDbEntity
  8
.Neuer Ordner.Grundriss
 62
    20
100
AcDbPoint
 10
-436.2067717748453
 20
0.2123560225080975
 30
-48.49979096692236
1001
CLaserDistTaskSchraffurDist
1040
-22.05288058681799
1001
PE_URL
1000

1002
{
1000
-22.1
1002
}
  0
TEXT
  5
1D4
330
2F4
100
AcDbEntity
  8
.Neuer Ordner.Grundriss
100
AcDbText
 10
-436.2067717748453
 20
1.044496323152335
 30
-48.49979096692236
 40
2.81214848143982
  1
-22.1
 11
-436.2067717748453
 21
0.2123560225080975
 31
-48.49979096692236
100
AcDbText
 73
     1
  0
POINT
  5
1D5
330
2F4
100
AcDbEntity
  8
.Neuer Ordner.Grundriss
 62
    20
100
AcDbPoint
 10
-456.4525419103403
 20
0.1802799637983862
 30
-48.46611576464285
1001
CLaserDistTaskSchraffurDist
1040
-21.19753044891854
1001
PE_URL
1000

1002
{
1000
-21.2
1002
}
  0
TEXT
  5
1D6
330
2F4
100
AcDbEntity
  8
.Neuer Ordner.Grundriss
100
AcDbText
 10
-456.4525419103403
 20
1.012420264442624
 30
-48.46611576464285
 40
2.81214848143982
  1
-21.2
 11
-456.4525419103403
 21
0.1802799637983862
 31
-48.46611576464285
100
AcDbText
 73
     1
  0
POINT
  5
1D7
330
2F4
100
AcDbEntity
  8
.Neuer Ordner.Grundriss
 62
    10
100
AcDbPoint
 10
-475.6055457769818
 20
0.2275170873312464
 30
-48.52679896901551
1001
CLaserDistTaskSchraffurDist
1040
-22.73888383998406
1001
PE_URL
1000

1002
{
1000
-22.7
1002
}
  0
TEXT
  5
1D8
330
2F4
100
AcDbEntity
  8
.Neuer Ordner.Grundriss
100
AcDbText
 10
-475.6055457769818
 20
1.059657387975484
 30
-48.52679896901551
 40
2.81214848143982
  1
-22.7
 11
-475.6055457769818
 21
0.2275170873312464
 31
-48.52679896901551
100
AcDbText
 73
     1
  0
POINT
  5
1D9
330
2F4
100
AcDbEntity
  8
.Neuer Ordner.Grundriss
 62
   140
100
AcDbPoint
 10
-264.10158673871
 20
20.20831279687456
 30
-47.51631902879358
1001
CLaserDistTaskSchraffurDist
1040
2.927306641653104
1001
PE_URL
1000

1002
{
1000
2.9
1002
}
  0
TEXT
  5
1DA
330
2F4
100
AcDbEntity
  8
.Neuer Ordner.Grundriss
100
AcDbText
 10
-264.10158673871
 20
21.0404530975188
 30
-47.51631902879358
 40
2.81214848143982
  1
2.9
 11
-264.10158673871
 21
20.20831279687456
 31
-47.51631902879358
100
AcDbText
 73
     1
  0
POINT
  5
1DB
330
2F4
100
AcDbEntity
  8
.Neuer Ordner.Grundriss
 62
   130
100
AcDbPoint
 10
-283.6468720604393
 20
20.37641235918724
 30
-47.59058605921481
1001
CLaserDistTaskSchraffurDist
1040
1.0409240689537
1001
PE_URL
1000

1002
{
1000
1.0
1002
}
  0
TEXT
  5
1DC
330
2F4
100
AcDbEntity
  8
.Neuer Ordner.Grundriss
100
AcDbText
 10
-283.6468720604393
 20
21.20855265983148
 30
-47.59058605921481
 40
2.81214848143982
  1
1.0
 11
-283.6468720604393
 21
20.37641235918724
 31
-47.59058605921481
100
AcDbText
 73
     1
  0
POINT
  5
1DD
330
2F4
100
AcDbEntity
  8
.Neuer Ordner.Grundriss
 62
   110
100
AcDbPoint
 10
-306.8872177553965
 20
20.49247912274863
 30
-47.77805056651498
1001
CLaserDistTaskSchraffurDist
1040
-3.720674416470502
1001
PE_URL
1000

1002
{
1000
-3.7
1002
}
  0
TEXT
  5
1DE
330
2F4
100
AcDbEntity
  8
.Neuer Ordner.Grundriss
100
AcDbText
 10
-306.8872177553965
 20
21.32461942339286
 30
-47.77805056651498
 40
2.81214848143982
  1
-3.7
 11
-306.8872177553965
 21
20.49247912274863
 31
-47.77805056651498
100
AcDbText
 73
     1
  0
POINT
  5
1DF
330
2F4
100
AcDbEntity
  8
.Neuer Ordner.Grundriss
 62
    90
100
AcDbPoint
 10
-326.3763493636488
 20
20.46794929772768
 30
-47.90354488286036
1001
CLaserDistTaskSchraffurDist
1040
-6.908230051643159
1001
PE_URL
1000

1002
{
1000
-6.9
1002
}
  0
TEXT
  5
1E0
330
2F4
100
AcDbEntity
  8
.Neuer Ordner.Grundriss
100
AcDbText
 10
-326.3763493636488
 20
21.30008959837192
 30
-47.90354488286036
 40
2.81214848143982
  1
-6.9
 11
-326.3763493636488
 21
20.46794929772768
 31
-47.90354488286036
100
AcDbText
 73
     1
  0
POINT
  5
1E1
330
2F4
100
AcDbEntity
  8
.Neuer Ordner.Grundriss
 62
    70
100
AcDbPoint
 10
-348.8465476369879
 20
20.69585875713485
 30
-48.10481897350164
1001
CLaserDistTaskSchraffurDist
1040
-12.02059195393167
1001
PE_URL
1000

1002
{
1000
-12.0
1002
}
  0
TEXT
  5
1E2
330
2F4
100
AcDbEntity
  8
.Neuer Ordner.Grundriss
100
AcDbText
 10
-348.8465476369879
 20
21.52799905777909
 30
-48.10481897350164
 40
2.81214848143982
  1
-12.0
 11
-348.8465476369879
 21
20.69585875713485
 31
-48.10481897350164
100
AcDbText
 73
     1
  0
POINT
  5
1E3
330
2F4
100
AcDbEntity
  8
.Neuer Ordner.Grundriss
 62
    50
100
AcDbPoint
 10
-369.5820935669801
 20
20.66421767534236
 30
-48.21153083142617
1001
CLaserDistTaskSchraffurDist
1040
-14.73107314521462
1001
PE_URL
1000

1002
{
1000
-14.7
1002
}
  0
TEXT
  5
1E4
330
2F4
100
AcDbEntity
  8
.Neuer Ordner.Grundriss
100
AcDbText
 10
-369.5820935669801
 20
21.49635797598659
 30
-48.21153083142617
 40
2.81214848143982
  1
-14.7
 11
-369.5820935669801
 21
20.66421767534236
 31
-48.21153083142617
100
AcDbText
 73
     1
  0
POINT
  5
1E5
330
2F4
100
AcDbEntity
  8
.Neuer Ordner.Grundriss
 62
    40
100
AcDbPoint
 10
-390.8948755105647
 20
20.59251629381217
 30
-48.30737111179933
1001
CLaserDistTaskSchraffurDist
1040
-17.16541626669323
1001
PE_URL
1000

1002
{
1000
-17.2
1002
}
  0
TEXT
  5
1E6
330
2F4
100
AcDbEntity
  8
.Neuer Ordner.Grundriss
100
AcDbText
 10
-390.8948755105647
 20
21.42465659445641
 30
-48.30737111179933
 40
2.81214848143982
  1
-17.2
 11
-390.8948755105647
 21
20.59251629381217
 31
-48.30737111179933
100
AcDbText
 73
     1
  0
POINT
  5
1E7
330
2F4
100
AcDbEntity
  8
.Neuer Ordner.Grundriss
 62
    20
100
AcDbPoint
 10
-414.2974046250526
 20
20.8432890190896
 30
-48.48257498944492
1001
CLaserDistTaskSchraffurDist
1040
-21.61559475889112
1001
PE_URL
1000

1002
{
1000
-21.6
1002
}
  0
TEXT
  5
1E8
330
2F4
100
AcDbEntity
  8
.Neuer Ordner.Grundriss
100
AcDbText
 10
-414.2974046250526
 20
21.67542931973383
 30
-48.48257498944492
 40
2.81214848143982
  1
-21.6
 11
-414.2974046250526
 21
20.8432890190896
 31
-48.48257498944492
100
AcDbText
 73
     1
  0
POINT
  5
1E9
330
2F4
100
AcDbEntity
  8
.Neuer Ordner.Grundriss
 62
    30
100
AcDbPoint
 10
-435.4125007702812
 20
20.90830767463016
 30
-48.42553379913859
1001
CLaserDistTaskSchraffurDist
1040
-20.16674852511028
1001
PE_URL
1000

1002
{
1000
-20.2
1002
}
  0
TEXT
  5
1EA
330
2F4
100
AcDbEntity
  8
.Neuer Ordner.Grundriss
100
AcDbText
 10
-435.4125007702812
 20
21.74044797527439
 30
-48.42553379913859
 40
2.81214848143982
  1
-20.2
 11
-435.4125007702812
 21
20.90830767463016
 31
-48.42553379913859
100
AcDbText
 73
     1
  0
POINT
  5
1EB
330
2F4
100
AcDbEntity
  8
.Neuer Ordner.Grundriss
 62
    20
100
AcDbPoint
 10
-457.5320682952004
 20
20.83001598218673
 30
-48.49205044295872
1001
CLaserDistTaskSchraffurDist
1040
-21.85627127814155
1001
PE_URL
1000

1002
{
1000
-21.9
1002
}
  0
TEXT
  5
1EC
330
2F4
100
AcDbEntity
  8
.Neuer Ordner.Grundriss
100
AcDbText
 10
-457.5320682952004
 20
21.66215628283097
 30
-48.49205044295872
 40
2.81214848143982
  1
-21.9
 11
-457.5320682952004
 21
20.83001598218673
 31
-48.49205044295872
100
AcDbText
 73
     1
  0
POINT
  5
1ED
330
2F4
100
AcDbEntity
  8
.Neuer Ordner.Grundriss
 62
    10
100
AcDbPoint
 10
-476.2408664830849
 20
20.84958182673346
 30
-48.57524538876857
1001
CLaserDistTaskSchraffurDist
1040
-23.9694229017116
1001
PE_URL
1000

1002
{
1000
-24.0
1002
}
  0
TEXT
  5
1EE
330
2F4
100
AcDbEntity
  8
.Neuer Ordner.Grundriss
100
AcDbText
 10
-476.2408664830849
 20
21.6817221273777
 30
-48.57524538876857
 40
2.81214848143982
  1
-24.0
 11
-476.2408664830849
 21
20.84958182673346
 31
-48.57524538876857
100
AcDbText
 73
     1
  0
POINT
  5
1EF
330
2F4
100
AcDbEntity
  8
.Neuer Ordner.Grundriss
 62
   130
100
AcDbPoint
 10
-265.0393793359239
 20
40.71792482730157
 30
-47.63639588042966
1001
CLaserDistTaskSchraffurDist
1040
-0.1226453899034823
1001
PE_URL
1000

1002
{
1000
-0.1
1002
}
  0
TEXT
  5
1F0
330
2F4
100
AcDbEntity
  8
.Neuer Ordner.Grundriss
100
AcDbText
 10
-265.0393793359239
 20
41.55006512794581
 30
-47.63639588042966
 40
2.81214848143982
  1
-0.1
 11
-265.0393793359239
 21
40.71792482730157
 31
-47.63639588042966
100
AcDbText
 73
     1
  0
POINT
  5
1F1
330
2F4
100
AcDbEntity
  8
.Neuer Ordner.Grundriss
 62
   110
100
AcDbPoint
 10
-284.5133917828523
 20
40.56515953530583
 30
-47.74366494186732
1001
CLaserDistTaskSchraffurDist
1040
-2.847279550419898
1001
PE_URL
1000

1002
{
1000
-2.8
1002
}
  0
TEXT
  5
1F2
330
2F4
100
AcDbEntity
  8
.Neuer Ordner.Grundriss
100
AcDbText
 10
-284.5133917828523
 20
41.39729983595007
 30
-47.74366494186732
 40
2.81214848143982
  1
-2.8
 11
-284.5133917828523
 21
40.56515953530583
 31
-47.74366494186732
100
AcDbText
 73
     1
  0
POINT
  5
1F3
330
2F4
100
AcDbEntity
  8
.Neuer Ordner.Grundriss
 62
    90
100
AcDbPoint
 10
-307.9420922430866
 20
41.2069976352274
 30
-47.93221826440879
1001
CLaserDistTaskSchraffurDist
1040
-7.636533942973301
1001
PE_URL
1000

1002
{
1000
-7.6
1002
}
  0
TEXT
  5
1F4
330
2F4
100
AcDbEntity
  8
.Neuer Ordner.Grundriss
100
AcDbText
 10
-307.9420922430866
 20
42.03913793587164
 30
-47.93221826440879
 40
2.81214848143982
  1
-7.6
 11
-307.9420922430866
 21
41.2069976352274
 31
-47.93221826440879
100
AcDbText
 73
     1
  0
POINT
  5
1F5
330
2F4
100
AcDbEntity
  8
.Neuer Ordner.Grundriss
 62
    90
100
AcDbPoint
 10
-326.5176475536809
 20
40.94396149244791
 30
-47.93383957160727
1001
CLaserDistTaskSchraffurDist
1040
-7.677715145814773
1001
PE_URL
1000

1002
{
1000
-7.7
1002
}
  0
TEXT
  5
1F6
330
2F4
100
AcDbEntity
  8
.Neuer Ordner.Grundriss
100
AcDbText
 10
-326.5176475536809
 20
41.77610179309215
 30
-47.93383957160727
 40
2.81214848143982
  1
-7.7
 11
-326.5176475536809
 21
40.94396149244791
 31
-47.93383957160727
100
AcDbText
 73
     1
  0
POINT
  5
1F7
330
2F4
100
AcDbEntity
  8
.Neuer Ordner.Grundriss
 62
    60
100
AcDbPoint
 10
-349.4831181645683
 20
41.09337421781362
 30
-48.2041057297623
1001
CLaserDistTaskSchraffurDist
1040
-14.54247556295263
1001
PE_URL
1000

1002
{
1000
-14.5
1002
}
  0
TEXT
  5
1F8
330
2F4
100
AcDbEntity
  8
.Neuer Ordner.Grundriss
100
AcDbText
 10
-349.4831181645683
 20
41.92551451845786
 30
-48.2041057297623
 40
2.81214848143982
  1
-14.5
 11
-349.4831181645683
 21
41.09337421781362
 31
-48.2041057297623
100
AcDbText
 73
     1
  0
POINT
  5
1F9
330
2F4
100
AcDbEntity
  8
.Neuer Ordner.Grundriss
 62
    50
100
AcDbPoint
 10
-370.1875689451724
 20
41.09943517820003
 30
-48.21469129095776
1001
CLaserDistTaskSchraffurDist
1040
-14.81134881731714
1001
PE_URL
1000

1002
{
1000
-14.8
1002
}
  0
TEXT
  5
1FA
330
2F4
100
AcDbEntity
  8
.Neuer Ordner.Grundriss
100
AcDbText
 10
-370.1875689451724
 20
41.93157547884427
 30
-48.21469129095776
 40
2.81214848143982
  1
-14.8
 11
-370.1875689451724
 21
41.09943517820003
 31
-48.21469129095776
100
AcDbText
 73
     1
  0
POINT
  5
1FB
330
2F4
100
AcDbEntity
  8
.Neuer Ordner.Grundriss
 62
    40
100
AcDbPoint
 10
-391.8281108754914
 20
41.34804716699209
 30
-48.34045536331131
1001
CLaserDistTaskSchraffurDist
1040
-18.00575625509737
1001
PE_URL
1000

1002
{
1000
-18.0
1002
}
  0
TEXT
  5
1FC
330
2F4
100
AcDbEntity
  8
.Neuer Ordner.Grundriss
100
AcDbText
 10
-391.8281108754914
 20
42.18018746763633
 30
-48.34045536331131
 40
2.81214848143982
  1
-18.0
 11
-391.8281108754914
 21
41.34804716699209
 31
-48.34045536331131
100
AcDbText
 73
     1
  0
POINT
  5
1FD
330
2F4
100
AcDbEntity
  8
.Neuer Ordner.Grundriss
 62
    30
100
AcDbPoint
 10
-413.1602890079216
 20
41.4451408702726
 30
-48.41522545013432
1001
CLaserDistTaskSchraffurDist
1040
-19.90491646040186
1001
PE_URL
1000

1002
{
1000
-19.9
1002
}
  0
TEXT
  5
1FE
330
2F4
100
AcDbEntity
  8
.Neuer Ordner.Grundriss
100
AcDbText
 10
-413.1602890079216
 20
42.27728117091684
 30
-48.41522545013432
 40
2.81214848143982
  1
-19.9
 11
-413.1602890079216
 21
41.4451408702726
 31
-48.41522545013432
100
AcDbText
 73
     1
  0
POINT
  5
1FF
330
2F4
100
AcDbEntity
  8
.Neuer Ordner.Grundriss
 62
    30
100
AcDbPoint
 10
-434.7379571700988
 20
41.51118964535212
 30
-48.38355669827903
1001
CLaserDistTaskSchraffurDist
1040
-19.10053016327743
1001
PE_URL
1000

1002
{
1000
-19.1
1002
}
  0
TEXT
  5
200
330
2F4
100
AcDbEntity
  8
.Neuer Ordner.Grundriss
100
AcDbText
 10
-434.7379571700988
 20
42.34332994599636
 30
-48.38355669827903
 40
2.81214848143982
  1
-19.1
 11
-434.7379571700988
 21
41.51118964535212
 31
-48.38355669827903
100
AcDbText
 73
     1
  0
POINT
  5
201
330
2F4
100
AcDbEntity
  8
.Neuer Ordner.Grundriss
 62
    30
100
AcDbPoint
 10
-456.778060571879
 20
41.71735332900622
 30
-48.41837961424782
1001
CLaserDistTaskSchraffurDist
1040
-19.98503222888462
1001
PE_URL
1000

1002
{
1000
-20.0
1002
}
  0
TEXT
  5
202
330
2F4
100
AcDbEntity
  8
.Neuer Ordner.Grundriss
100
AcDbText
 10
-456.778060571879
 20
42.54949362965046
 30
-48.41837961424782
 40
2.81214848143982
  1
-20.0
 11
-456.778060571879
 21
41.71735332900622
 31
-48.41837961424782
100
AcDbText
 73
     1
  0
POINT
  5
203
330
2F4
100
AcDbEntity
  8
.Neuer Ordner.Grundriss
 62
    10
100
AcDbPoint
 10
-474.8612866221318
 20
41.15364641673079
 30
-48.54180470557343
1001
CLaserDistTaskSchraffurDist
1040
-23.12002954855529
1001
PE_URL
1000

1002
{
1000
-23.1
1002
}
  0
TEXT
  5
204
330
2F4
100
AcDbEntity
  8
.Neuer Ordner.Grundriss
100
AcDbText
 10
-474.8612866221318
 20
41.98578671737503
 30
-48.54180470557343
 40
2.81214848143982
  1
-23.1
 11
-474.8612866221318
 21
41.15364641673079
 31
-48.54180470557343
100
AcDbText
 73
     1
  0
TEXT
  5
205
330
2F4
100
AcDbEntity
  8
.Neuer Ordner.Grundriss
100
AcDbText
 10
-485.2444077125099
 20
-40.79864277086485
 30
-48.59622528513923
 40
2.81214848143982
  1
min 
 72
     2
 11
-477.8287721669531
 21
-41.63078307150909
 31
-48.59622528513923
100
AcDbText
 73
     1
  0
TEXT
  5
206
330
2F4
100
AcDbEntity
  8
.Neuer Ordner.Grundriss
100
AcDbText
 10
-350.9358036688881
 20
-99.91471607363697
 30
-47.18568114592434
 40
2.81214848143982
  1
max 
 72
     2
 11
-342.4290545125327
 21
-100.7468563742812
 31
-47.18568114592434
100
AcDbText
 73
     1
  0
POINT
  5
207
330
2F4
100
AcDbEntity
  8
.Neuer Ordner.Grundriss
100
AcDbPoint
 10
-60.5385443491641
 20
-101.0098158384289
 30
-47.28020512715613
1001
CLaserDistTaskSchraffurDist
1040
-30.82521022976562
1001
PE_URL
1000

1002
{
1000
-30.8
1002
}
  0
TEXT
  5
208
330
2F4
100
AcDbEntity
  8
.Neuer Ordner.Grundriss
100
AcDbText
 10
-60.5385443491641
 20
-100.1776755377846
 30
-47.28020512715613
 40
2.81214848143982
  1
-30.8
 11
-60.5385443491641
 21
-101.0098158384289
 31
-47.28020512715613
100
AcDbText
 73
     1
  0
POINT
  5
209
330
2F4
100
AcDbEntity
  8
.Neuer Ordner.Grundriss
100
AcDbPoint
 10
-80.02553879775707
 20
-100.0630114319161
 30
-46.89973651566731
1001
CLaserDistTaskSchraffurDist
1040
-21.16130749794957
1001
PE_URL
1000

1002
{
1000
-21.2
1002
}
  0
TEXT
  5
20A
330
2F4
100
AcDbEntity
  8
.Neuer Ordner.Grundriss
100
AcDbText
 10
-80.02553879775707
 20
-99.23087113127187
 30
-46.89973651566731
 40
2.81214848143982
  1
-21.2
 11
-80.02553879775707
 21
-100.0630114319161
 31
-46.89973651566731
100
AcDbText
 73
     1
  0
POINT
  5
20B
330
2F4
100
AcDbEntity
  8
.Neuer Ordner.Grundriss
100
AcDbPoint
 10
-100.3501914647563
 20
-100.331108718733
 30
-47.07550652166202
1001
CLaserDistTaskSchraffurDist
1040
-25.62586565021525
1001
PE_URL
1000

1002
{
1000
-25.6
1002
}
  0
TEXT
  5
20C
330
2F4
100
AcDbEntity
  8
.Neuer Ordner.Grundriss
100
AcDbText
 10
-100.3501914647563
 20
-99.49896841808877
 30
-47.07550652166202
 40
2.81214848143982
  1
-25.6
 11
-100.3501914647563
 21
-100.331108718733
 31
-47.07550652166202
100
AcDbText
 73
     1
  0
POINT
  5
20D
330
2F4
100
AcDbEntity
  8
.Neuer Ordner.Grundriss
100
AcDbPoint
 10
-120.811439588086
 20
-100.5924942910418
 30
-47.1573976293856
1001
CLaserDistTaskSchraffurDist
1040
-27.70589978639418
1001
PE_URL
1000

1002
{
1000
-27.7
1002
}
  0
TEXT
  5
20E
330
2F4
100
AcDbEntity
  8
.Neuer Ordner.Grundriss
100
AcDbText
 10
-120.811439588086
 20
-99.76035399039756
 30
-47.1573976293856
 40
2.81214848143982
  1
-27.7
 11
-120.811439588086
 21
-100.5924942910418
 31
-47.1573976293856
100
AcDbText
 73
     1
  0
POINT
  5
20F
330
2F4
100
AcDbEntity
  8
.Neuer Ordner.Grundriss
100
AcDbPoint
 10
-140.6521936189334
 20
-100.4759483466181
 30
-47.14397360422149
1001
CLaserDistTaskSchraffurDist
1040
-27.36492954722576
1001
PE_URL
1000

1002
{
1000
-27.4
1002
}
  0
TEXT
  5
210
330
2F4
100
AcDbEntity
  8
.Neuer Ordner.Grundriss
100
AcDbText
 10
-140.6521936189334
 20
-99.6438080459739
 30
-47.14397360422149
 40
2.81214848143982
  1
-27.4
 11
-140.6521936189334
 21
-100.4759483466181
 31
-47.14397360422149
100
AcDbText
 73
     1
  0
POINT
  5
211
330
2F4
100
AcDbEntity
  8
.Neuer Ordner.Grundriss
100
AcDbPoint
 10
-160.3982495397873
 20
-100.2468524091033
 30
-47.01377762088968
1001
CLaserDistTaskSchraffurDist
1040
-24.05795157059788
1001
PE_URL
1000

1002
{
1000
-24.1
1002
}
  0
TEXT
  5
212
330
2F4
100
AcDbEntity
  8
.Neuer Ordner.Grundriss
100
AcDbText
 10
-160.3982495397873
 20
-99.41471210845903
 30
-47.01377762088968
 40
2.81214848143982
  1
-24.1
 11
-160.3982495397873
 21
-100.2468524091033
 31
-47.01377762088968
100
AcDbText
 73
     1
  0
POINT
  5
213
330
2F4
100
AcDbEntity
  8
.Neuer Ordner.Grundriss
100
AcDbPoint
 10
-181.2488889806134
 20
-100.6968917837949
 30
-47.25165431855145
1001
CLaserDistTaskSchraffurDist
1040
-30.10001969120685
1001
PE_URL
1000

1002
{
1000
-30.1
1002
}
  0
TEXT
  5
214
330
2F4
100
AcDbEntity
  8
.Neuer Ordner.Grundriss
100
AcDbText
 10
-181.2488889806134
 20
-99.86475148315068
 30
-47.25165431855145
 40
2.81214848143982
  1
-30.1
 11
-181.2488889806134
 21
-100.6968917837949
 31
-47.25165431855145
100
AcDbText
 73
     1
  0
POINT
  5
215
330
2F4
100
AcDbEntity
  8
.Neuer Ordner.Grundriss
100
AcDbPoint
 10
-60.62819477135349
 20
-100.9831129256569
 30
-47.2652562052123
1001
CLaserDistTaskSchraffurDist
1040
-30.44550761239225
1001
PE_URL
1000

1002
{
1000
-30.4
1002
}
  0
TEXT
  5
216
330
2F4
100
AcDbEntity
  8
.Neuer Ordner.Grundriss
100
AcDbText
 10
-60.62819477135349
 20
-100.1509726250126
 30
-47.2652562052123
 40
2.81214848143982
  1
-30.4
 11
-60.62819477135349
 21
-100.9831129256569
 31
-47.2652562052123
100
AcDbText
 73
     1
  0
POINT
  5
217
330
2F4
100
AcDbEntity
  8
.Neuer Ordner.Grundriss
100
AcDbPoint
 10
-79.99954425963192
 20
-100.0697920228136
 30
-46.89526035443839
1001
CLaserDistTaskSchraffurDist
1040
-21.04761300273503
1001
PE_URL
1000

1002
{
1000
-21.0
1002
}
  0
TEXT
  5
218
330
2F4
100
AcDbEntity
  8
.Neuer Ordner.Grundriss
100
AcDbText
 10
-79.99954425963192
 20
-99.2376517221694
 30
-46.89526035443839
 40
2.81214848143982
  1
-21.0
 11
-79.99954425963192
 21
-100.0697920228136
 31
-46.89526035443839
100
AcDbText
 73
     1
  0
LWPOLYLINE
  5
21B
330
2F4
100
AcDbEntity
  8
.Neuer Ordner.Grundriss
100
AcDbPolyline
 90
        5
 70
     0
 43
0.0
 38
-46.06661417322835
 10
-707.7233661417323
 20
-37.23065748031496
 10
-707.7233661417328
 20
98.73414173228348
 10
-499.8959645669295
 20
98.73414173228348
 10
-499.8959645669291
 20
-37.23065748031496
 10
-707.7233661417323
 20
-37.23065748031496
1001
VD_SOLID_FILL_TRANSP
1070
    40
  0
HATCH
  5
21C
330
2F4
100
AcDbEntity
  8
.Neuer Ordner.Grundriss
100
AcDbHatch
 10
0.0
 20
0.0
 30
-46.06661417322835
210
0.0
220
0.0
230
1.0
  2
SOLID
 70
     1
 71
     0
 91
        1
 92
        2
 72
     0
 73
     1
 93
        4
 10
-707.7233661417323
 20
-37.23065748031496
 10
-707.7233661417328
 20
98.73414173228348
 10
-499.8959645669295
 20
98.73414173228348
 10
-499.8959645669291
 20
-37.23065748031496
 97
        0
 75
     0
 76
     1
 98
        1
 10
0.0
 20
0.0
  0
POINT
  5
21D
330
2F4
100
AcDbEntity
  8
.Neuer Ordner.Grundriss
100
AcDbPoint
 10
-536.7382107687181
 20
-20.42648259023067
 30
-48.30720718819107
1001
CLaserDistTaskSchraffurDist
1040
-56.91106258005289
1001
PE_URL
1000

1002
{
1000
-56.9
1002
}
  0
TEXT
  5
21E
330
2F4
100
AcDbEntity
  8
.Neuer Ordner.Grundriss
100
AcDbText
 10
-536.7382107687181
 20
-19.59434228958643
 30
-48.30720718819107
 40
2.81214848143982
  1
-56.9
 11
-536.7382107687181
 21
-20.42648259023067
 31
-48.30720718819107
100
AcDbText
 73
     1
  0
POINT
  5
21F
330
2F4
100
AcDbEntity
  8
.Neuer Ordner.Grundriss
100
AcDbPoint
 10
-554.0067529597034
 20
-20.78602777253186
 30
-48.2955859438343
1001
CLaserDistTaskSchraffurDist
1040
-56.61588297339131
1001
PE_URL
1000

1002
{
1000
-56.6
1002
}
  0
TEXT
  5
220
330
2F4
100
AcDbEntity
  8
.Neuer Ordner.Grundriss
100
AcDbText
 10
-554.0067529597034
 20
-19.95388747188762
 30
-48.2955859438343
 40
2.81214848143982
  1
-56.6
 11
-554.0067529597034
 21
-20.78602777253186
 31
-48.2955859438343
100
AcDbText
 73
     1
  0
POINT
  5
221
330
2F4
100
AcDbEntity
  8
.Neuer Ordner.Grundriss
100
AcDbPoint
 10
-573.9274920794885
 20
-20.78196145474945
 30
-48.30571556739479
1001
CLaserDistTaskSchraffurDist
1040
-56.87317541182756
1001
PE_URL
1000

1002
{
1000
-56.9
1002
}
  0
TEXT
  5
222
330
2F4
100
AcDbEntity
  8
.Neuer Ordner.Grundriss
100
AcDbText
 10
-573.9274920794885
 20
-19.94982115410521
 30
-48.30571556739479
 40
2.81214848143982
  1
-56.9
 11
-573.9274920794885
 21
-20.78196145474945
 31
-48.30571556739479
100
AcDbText
 73
     1
  0
POINT
  5
223
330
2F4
100
AcDbEntity
  8
.Neuer Ordner.Grundriss
100
AcDbPoint
 10
-592.8522719019292
 20
-20.74861064735413
 30
-48.11138763316718
1001
CLaserDistTaskSchraffurDist
1040
-51.93724588244641
1001
PE_URL
1000

1002
{
1000
-51.9
1002
}
  0
TEXT
  5
224
330
2F4
100
AcDbEntity
  8
.Neuer Ordner.Grundriss
100
AcDbText
 10
-592.8522719019292
 20
-19.91647034670989
 30
-48.11138763316718
 40
2.81214848143982
  1
-51.9
 11
-592.8522719019292
 21
-20.74861064735413
 31
-48.11138763316718
100
AcDbText
 73
     1
  0
POINT
  5
225
330
2F4
100
AcDbEntity
  8
.Neuer Ordner.Grundriss
100
AcDbPoint
 10
-615.0176739910988
 20
-20.66043753073099
 30
-48.06044429547088
1001
CLaserDistTaskSchraffurDist
1040
-50.64328510496034
1001
PE_URL
1000

1002
{
1000
-50.6
1002
}
  0
TEXT
  5
226
330
2F4
100
AcDbEntity
  8
.Neuer Ordner.Grundriss
100
AcDbText
 10
-615.0176739910988
 20
-19.82829723008675
 30
-48.06044429547088
 40
2.81214848143982
  1
-50.6
 11
-615.0176739910988
 21
-20.66043753073099
 31
-48.06044429547088
100
AcDbText
 73
     1
  0
POINT
  5
227
330
2F4
100
AcDbEntity
  8
.Neuer Ordner.Grundriss
100
AcDbPoint
 10
-635.3179837273409
 20
-20.70000840423034
 30
-48.03443052277078
1001
CLaserDistTaskSchraffurDist
1040
-49.98253527837778
1001
PE_URL
1000

1002
{
1000
-50.0
1002
}
  0
TEXT
  5
228
330
2F4
100
AcDbEntity
  8
.Neuer Ordner.Grundriss
100
AcDbText
 10
-635.3179837273409
 20
-19.86786810358611
 30
-48.03443052277078
 40
2.81214848143982
  1
-50.0
 11
-635.3179837273409
 21
-20.70000840423034
 31
-48.03443052277078
100
AcDbText
 73
     1
  0
POINT
  5
229
330
2F4
100
AcDbEntity
  8
.Neuer Ordner.Grundriss
100
AcDbPoint
 10
-658.4246928176633
 20
-20.91332820154311
 30
-48.1115738778752
1001
CLaserDistTaskSchraffurDist
1040
-51.94197649802982
1001
PE_URL
1000

1002
{
1000
-51.9
1002
}
  0
TEXT
  5
22A
330
2F4
100
AcDbEntity
  8
.Neuer Ordner.Grundriss
100
AcDbText
 10
-658.4246928176633
 20
-20.08118790089887
 30
-48.1115738778752
 40
2.81214848143982
  1
-51.9
 11
-658.4246928176633
 21
-20.91332820154311
 31
-48.1115738778752
100
AcDbText
 73
     1
  0
POINT
  5
22B
330
2F4
100
AcDbEntity
  8
.Neuer Ordner.Grundriss
100
AcDbPoint
 10
-674.2650905708085
 20
-20.74619661869025
 30
-48.13088843850036
1001
CLaserDistTaskSchraffurDist
1040
-52.43256633790907
1001
PE_URL
1000

1002
{
1000
-52.4
1002
}
  0
TEXT
  5
22C
330
2F4
100
AcDbEntity
  8
.Neuer Ordner.Grundriss
100
AcDbText
 10
-674.2650905708085
 20
-19.91405631804601
 30
-48.13088843850036
 40
2.81214848143982
  1
-52.4
 11
-674.2650905708085
 21
-20.74619661869025
 31
-48.13088843850036
100
AcDbText
 73
     1
  0
POINT
  5
22D
330
2F4
100
AcDbEntity
  8
.Neuer Ordner.Grundriss
100
AcDbPoint
 10
-537.9961301131312
 20
-20.52307169800864
 30
-48.26707484921168
1001
CLaserDistTaskSchraffurDist
1040
-55.89170116997661
1001
PE_URL
1000

1002
{
1000
-55.9
1002
}
  0
TEXT
  5
22E
330
2F4
100
AcDbEntity
  8
.Neuer Ordner.Grundriss
100
AcDbText
 10
-537.9961301131312
 20
-19.6909313973644
 30
-48.26707484921168
 40
2.81214848143982
  1
-55.9
 11
-537.9961301131312
 21
-20.52307169800864
 31
-48.26707484921168
100
AcDbText
 73
     1
  0
POINT
  5
22F
330
2F4
100
AcDbEntity
  8
.Neuer Ordner.Grundriss
100
AcDbPoint
 10
-554.2458033424048
 20
-20.79493648254861
 30
-48.31682658335843
1001
CLaserDistTaskSchraffurDist
1040
-57.15539521730398
1001
PE_URL
1000

1002
{
1000
-57.2
1002
}
  0
TEXT
  5
230
330
2F4
100
AcDbEntity
  8
.Neuer Ordner.Grundriss
100
AcDbText
 10
-554.2458033424048
 20
-19.96279618190437
 30
-48.31682658335843
 40
2.81214848143982
  1
-57.2
 11
-554.2458033424048
 21
-20.79493648254861
 31
-48.31682658335843
100
AcDbText
 73
     1
  0
POINT
  5
231
330
2F4
100
AcDbEntity
  8
.Neuer Ordner.Grundriss
100
AcDbPoint
 10
-573.7589282187144
 20
-20.7758988602293
 30
-48.29125779758926
1001
CLaserDistTaskSchraffurDist
1040
-56.50594805876722
1001
PE_URL
1000

1002
{
1000
-56.5
1002
}
  0
TEXT
  5
232
330
2F4
100
AcDbEntity
  8
.Neuer Ordner.Grundriss
100
AcDbText
 10
-573.7589282187144
 20
-19.94375855958507
 30
-48.29125779758926
 40
2.81214848143982
  1
-56.5
 11
-573.7589282187144
 21
-20.7758988602293
 31
-48.29125779758926
100
AcDbText
 73
     1
  0
POINT
  5
233
330
2F4
100
AcDbEntity
  8
.Neuer Ordner.Grundriss
100
AcDbPoint
 10
-594.1006824786941
 20
-20.7900793104462
 30
-48.10049382591732
1001
CLaserDistTaskSchraffurDist
1040
-51.6605431782998
1001
PE_URL
1000

1002
{
1000
-51.7
1002
}
  0
TEXT
  5
234
330
2F4
100
AcDbEntity
  8
.Neuer Ordner.Grundriss
100
AcDbText
 10
-594.1006824786941
 20
-19.95793900980196
 30
-48.10049382591732
 40
2.81214848143982
  1
-51.7
 11
-594.1006824786941
 21
-20.7900793104462
 31
-48.10049382591732
100
AcDbText
 73
     1
  0
POINT
  5
235
330
2F4
100
AcDbEntity
  8
.Neuer Ordner.Grundriss
100
AcDbPoint
 10
-615.1275018225166
 20
-20.66410193933202
 30
-48.06918751340044
1001
CLaserDistTaskSchraffurDist
1040
-50.86536284037106
1001
PE_URL
1000

1002
{
1000
-50.9
1002
}
  0
TEXT
  5
236
330
2F4
100
AcDbEntity
  8
.Neuer Ordner.Grundriss
100
AcDbText
 10
-615.1275018225166
 20
-19.83196163868778
 30
-48.06918751340044
 40
2.81214848143982
  1
-50.9
 11
-615.1275018225166
 21
-20.66410193933202
 31
-48.06918751340044
100
AcDbText
 73
     1
  0
POINT
  5
237
330
2F4
100
AcDbEntity
  8
.Neuer Ordner.Grundriss
100
AcDbPoint
 10
-635.500439993125
 20
-20.76692634363643
 30
-48.04799684827792
1001
CLaserDistTaskSchraffurDist
1040
-50.32711994625902
1001
PE_URL
1000

1002
{
1000
-50.3
1002
}
  0
TEXT
  5
238
330
2F4
100
AcDbEntity
  8
.Neuer Ordner.Grundriss
100
AcDbText
 10
-635.500439993125
 20
-19.93478604299219
 30
-48.04799684827792
 40
2.81214848143982
  1
-50.3
 11
-635.500439993125
 21
-20.76692634363643
 31
-48.04799684827792
100
AcDbText
 73
     1
  0
POINT
  5
239
330
2F4
100
AcDbEntity
  8
.Neuer Ordner.Grundriss
100
AcDbPoint
 10
-658.7504023528463
 20
-20.92360402521526
 30
-48.13581062060063
1001
CLaserDistTaskSchraffurDist
1040
-52.55758976325592
1001
PE_URL
1000

1002
{
1000
-52.6
1002
}
  0
TEXT
  5
23A
330
2F4
100
AcDbEntity
  8
.Neuer Ordner.Grundriss
100
AcDbText
 10
-658.7504023528463
 20
-20.09146372457102
 30
-48.13581062060063
 40
2.81214848143982
  1
-52.6
 11
-658.7504023528463
 21
-20.92360402521526
 31
-48.13581062060063
100
AcDbText
 73
     1
  0
POINT
  5
23B
330
2F4
100
AcDbEntity
  8
.Neuer Ordner.Grundriss
100
AcDbPoint
 10
-674.4966553420817
 20
-20.75327320164836
 30
-48.14771955819094
1001
CLaserDistTaskSchraffurDist
1040
-52.86007677804992
1001
PE_URL
1000

1002
{
1000
-52.9
1002
}
  0
TEXT
  5
23C
330
2F4
100
AcDbEntity
  8
.Neuer Ordner.Grundriss
100
AcDbText
 10
-674.4966553420817
 20
-19.92113290100412
 30
-48.14771955819094
 40
2.81214848143982
  1
-52.9
 11
-674.4966553420817
 21
-20.75327320164836
 31
-48.14771955819094
100
AcDbText
 73
     1
  0
POINT
  5
23D
330
2F4
100
AcDbEntity
  8
.Neuer Ordner.Grundriss
100
AcDbPoint
 10
-695.1818233501069
 20
-20.7579132531815
 30
-48.05537644649661
1001
CLaserDistTaskSchraffurDist
1040
-50.51456174101372
1001
PE_URL
1000

1002
{
1000
-50.5
1002
}
  0
TEXT
  5
23E
330
2F4
100
AcDbEntity
  8
.Neuer Ordner.Grundriss
100
AcDbText
 10
-695.1818233501069
 20
-19.92577295253726
 30
-48.05537644649661
 40
2.81214848143982
  1
-50.5
 11
-695.1818233501069
 21
-20.7579132531815
 31
-48.05537644649661
100
AcDbText
 73
     1
  0
POINT
  5
23F
330
2F4
100
AcDbEntity
  8
.Neuer Ordner.Grundriss
100
AcDbPoint
 10
-718.1705073035031
 20
-20.51694936781027
 30
-48.09629090009532
1001
CLaserDistTaskSchraffurDist
1040
-51.55378886242102
1001
PE_URL
1000

1002
{
1000
-51.6
1002
}
  0
TEXT
  5
240
330
2F4
100
AcDbEntity
  8
.Neuer Ordner.Grundriss
100
AcDbText
 10
-718.1705073035031
 20
-19.68480906716603
 30
-48.09629090009532
 40
2.81214848143982
  1
-51.6
 11
-718.1705073035031
 21
-20.51694936781027
 31
-48.09629090009532
100
AcDbText
 73
     1
  0
POINT
  5
241
330
2F4
100
AcDbEntity
  8
.Neuer Ordner.Grundriss
100
AcDbPoint
 10
-538.4407869925468
 20
0.2854843914476261
 30
-48.33333274298331
1001
CLaserDistTaskSchraffurDist
1040
-57.57465167177588
1001
PE_URL
1000

1002
{
1000
-57.6
1002
}
  0
TEXT
  5
242
330
2F4
100
AcDbEntity
  8
.Neuer Ordner.Grundriss
100
AcDbText
 10
-538.4407869925468
 20
1.117624692091864
 30
-48.33333274298331
 40
2.81214848143982
  1
-57.6
 11
-538.4407869925468
 21
0.2854843914476261
 31
-48.33333274298331
100
AcDbText
 73
     1
  0
POINT
  5
243
330
2F4
100
AcDbEntity
  8
.Neuer Ordner.Grundriss
100
AcDbPoint
 10
-554.3130108057002
 20
0.2688922259016979
 30
-48.34739690120724
1001
CLaserDistTaskSchraffurDist
1040
-57.9318812906638
1001
PE_URL
1000

1002
{
1000
-57.9
1002
}
  0
TEXT
  5
244
330
2F4
100
AcDbEntity
  8
.Neuer Ordner.Grundriss
100
AcDbText
 10
-554.3130108057002
 20
1.101032526545936
 30
-48.34739690120724
 40
2.81214848143982
  1
-57.9
 11
-554.3130108057002
 21
0.2688922259016979
 31
-48.34739690120724
100
AcDbText
 73
     1
  0
LWPOLYLINE
  5
247
330
2F4
100
AcDbEntity
  8
.Neuer Ordner.Grundriss
100
AcDbPolyline
 90
        5
 70
     0
 43
0.0
 38
-46.06661417322835
 10
-38.76630708661418
 20
-87.79216141732283
 10
-38.76630708661469
 20
57.5095472440945
 10
138.2644960629916
 20
57.5095472440945
 10
138.2644960629921
 20
-87.79216141732283
 10
-38.76630708661418
 20
-87.79216141732283
1001
VD_SOLID_FILL_TRANSP
1070
    40
  0
HATCH
  5
248
330
2F4
100
AcDbEntity
  8
.Neuer Ordner.Grundriss
100
AcDbHatch
 10
0.0
 20
0.0
 30
-46.06661417322835
210
0.0
220
0.0
230
1.0
  2
SOLID
 70
     1
 71
     0
 91
        1
 92
        2
 72
     0
 73
     1
 93
        4
 10
-38.76630708661418
 20
-87.79216141732283
 10
-38.76630708661469
 20
57.5095472440945
 10
138.2644960629916
 20
57.5095472440945
 10
138.2644960629921
 20
-87.79216141732283
 97
        0
 75
     0
 76
     1
 98
        1
 10
0.0
 20
0.0
  0
POINT
  5
24A
330
2F4
100
AcDbEntity
  8
.Neuer Ordner.Grundriss
 62
    20
100
AcDbPoint
 10
141.1778273596866
 20
-80.74895495473336
 30
-47.33688224186893
1001
CLaserDistTaskSchraffurDist
1040
-2.386464251227153
1001
PE_URL
1000

1002
{
1000
-2.4
1002
}
  0
TEXT
  5
24B
330
2F4
100
AcDbEntity
  8
.Neuer Ordner.Grundriss
100
AcDbText
 10
141.1778273596866
 20
-79.91681465408912
 30
-47.33688224186893
 40
2.81214848143982
  1
-2.4
 11
141.1778273596866
 21
-80.74895495473336
 31
-47.33688224186893
100
AcDbText
 73
     1
  0
POINT
  5
24C
330
2F4
100
AcDbEntity
  8
.Neuer Ordner.Grundriss
 62
    20
100
AcDbPoint
 10
121.462343561124
 20
-80.97148295232302
 30
-47.35855238509943
1001
CLaserDistTaskSchraffurDist
1040
-2.936885889281939
1001
PE_URL
1000

1002
{
1000
-2.9
1002
}
  0
TEXT
  5
24D
330
2F4
100
AcDbEntity
  8
.Neuer Ordner.Grundriss
100
AcDbText
 10
121.462343561124
 20
-80.13934265167877
 30
-47.35855238509943
 40
2.81214848143982
  1
-2.9
 11
121.462343561124
 21
-80.97148295232302
 31
-47.35855238509943
100
AcDbText
 73
     1
  0
POINT
  5
24E
330
2F4
100
AcDbEntity
  8
.Neuer Ordner.Grundriss
 62
    20
100
AcDbPoint
 10
101.0991437686669
 20
-80.97193618045444
 30
-47.39337595325774
1001
CLaserDistTaskSchraffurDist
1040
-3.821404520502938
1001
PE_URL
1000

1002
{
1000
-3.8
1002
}
  0
TEXT
  5
24F
330
2F4
100
AcDbEntity
  8
.Neuer Ordner.Grundriss
100
AcDbText
 10
101.0991437686669
 20
-80.13979587981019
 30
-47.39337595325774
 40
2.81214848143982
  1
-3.8
 11
101.0991437686669
 21
-80.97193618045444
 31
-47.39337595325774
100
AcDbText
 73
     1
  0
POINT
  5
250
330
2F4
100
AcDbEntity
  8
.Neuer Ordner.Grundriss
 62
    30
100
AcDbPoint
 10
80.55188961167787
 20
-80.56032061344767
 30
-47.12073904397492
1001
CLaserDistTaskSchraffurDist
1040
3.103572975280713
1001
PE_URL
1000

1002
{
1000
3.1
1002
}
  0
TEXT
  5
251
330
2F4
100
AcDbEntity
  8
.Neuer Ordner.Grundriss
100
AcDbText
 10
80.55188961167787
 20
-79.72818031280343
 30
-47.12073904397492
 40
2.81214848143982
  1
3.1
 11
80.55188961167787
 21
-80.56032061344767
 31
-47.12073904397492
100
AcDbText
 73
     1
  0
POINT
  5
252
330
2F4
100
AcDbEntity
  8
.Neuer Ordner.Grundriss
 62
    30
100
AcDbPoint
 10
60.19895390439227
 20
-80.22210027661733
 30
-47.03694281430632
1001
CLaserDistTaskSchraffurDist
1040
5.231997208863049
1001
PE_URL
1000

1002
{
1000
5.2
1002
}
  0
TEXT
  5
253
330
2F4
100
AcDbEntity
  8
.Neuer Ordner.Grundriss
100
AcDbText
 10
60.19895390439227
 20
-79.38995997597309
 30
-47.03694281430632
 40
2.81214848143982
  1
5.2
 11
60.19895390439227
 21
-80.22210027661733
 31
-47.03694281430632
100
AcDbText
 73
     1
  0
POINT
  5
254
330
2F4
100
AcDbEntity
  8
.Neuer Ordner.Grundriss
 62
    30
100
AcDbPoint
 10
40.21012798536388
 20
-80.52788373372151
 30
-47.12367010308875
1001
CLaserDistTaskSchraffurDist
1040
3.029124073789262
1001
PE_URL
1000

1002
{
1000
3.0
1002
}
  0
TEXT
  5
255
330
2F4
100
AcDbEntity
  8
.Neuer Ordner.Grundriss
100
AcDbText
 10
40.21012798536388
 20
-79.69574343307727
 30
-47.12367010308875
 40
2.81214848143982
  1
3.0
 11
40.21012798536388
 21
-80.52788373372151
 31
-47.12367010308875
100
AcDbText
 73
     1
  0
POINT
  5
256
330
2F4
100
AcDbEntity
  8
.Neuer Ordner.Grundriss
 62
    20
100
AcDbPoint
 10
20.1466388384867
 20
-80.53851095279279
 30
-47.22238396054598
1001
CLaserDistTaskSchraffurDist
1040
0.521792094375769
1001
PE_URL
1000

1002
{
1000
0.5
1002
}
  0
TEXT
  5
257
330
2F4
100
AcDbEntity
  8
.Neuer Ordner.Grundriss
100
AcDbText
 10
20.1466388384867
 20
-79.70637065214855
 30
-47.22238396054598
 40
2.81214848143982
  1
0.5
 11
20.1466388384867
 21
-80.53851095279279
 31
-47.22238396054598
100
AcDbText
 73
     1
  0
POINT
  5
258
330
2F4
100
AcDbEntity
  8
.Neuer Ordner.Grundriss
 62
    20
100
AcDbPoint
 10
0.0282017791999822
 20
-80.72949058530435
 30
-47.27707068980978
1001
CLaserDistTaskSchraffurDist
1040
-0.8672508289248526
1001
PE_URL
1000

1002
{
1000
-0.9
1002
}
  0
TEXT
  5
259
330
2F4
100
AcDbEntity
  8
.Neuer Ordner.Grundriss
100
AcDbText
 10
0.0282017791999822
 20
-79.89735028466011
 30
-47.27707068980978
 40
2.81214848143982
  1
-0.9
 11
0.0282017791999822
 21
-80.72949058530435
 31
-47.27707068980978
100
AcDbText
 73
     1
  0
POINT
  5
25A
330
2F4
100
AcDbEntity
  8
.Neuer Ordner.Grundriss
 62
    20
100
AcDbPoint
 10
-20.21602740195164
 20
-80.73888861023961
 30
-47.3463056323114
1001
CLaserDistTaskSchraffurDist
1040
-2.625818368466071
1001
PE_URL
1000

1002
{
1000
-2.6
1002
}
  0
TEXT
  5
25B
330
2F4
100
AcDbEntity
  8
.Neuer Ordner.Grundriss
100
AcDbText
 10
-20.21602740195164
 20
-79.90674830959537
 30
-47.3463056323114
 40
2.81214848143982
  1
-2.6
 11
-20.21602740195164
 21
-80.73888861023961
 31
-47.3463056323114
100
AcDbText
 73
     1
  0
POINT
  5
25C
330
2F4
100
AcDbEntity
  8
.Neuer Ordner.Grundriss
 62
   180
100
AcDbPoint
 10
129.6476792885694
 20
-55.56064955323199
 30
-43.26012310134301
1001
CLaserDistTaskSchraffurDist
1040
101.1632179181311
1001
PE_URL
1000

1002
{
1000
101.2
1002
}
  0
TEXT
  5
25D
330
2F4
100
AcDbEntity
  8
.Neuer Ordner.Grundriss
100
AcDbText
 10
129.6476792885694
 20
-54.72850925258775
 30
-43.26012310134301
 40
2.81214848143982
  1
101.2
 11
129.6476792885694
 21
-55.56064955323199
 31
-43.26012310134301
100
AcDbText
 73
     1
  0
POINT
  5
25E
330
2F4
100
AcDbEntity
  8
.Neuer Ordner.Grundriss
 62
   150
100
AcDbPoint
 10
113.4565680540797
 20
-56.71817237643953
 30
-44.12591141514503
1001
CLaserDistTaskSchraffurDist
1040
79.17219474755984
1001
PE_URL
1000

1002
{
1000
79.2
1002
}
  0
TEXT
  5
25F
330
2F4
100
AcDbEntity
  8
.Neuer Ordner.Grundriss
100
AcDbText
 10
113.4565680540797
 20
-55.88603207579529
 30
-44.12591141514503
 40
2.81214848143982
  1
79.2
 11
113.4565680540797
 21
-56.71817237643953
 31
-44.12591141514503
100
AcDbText
 73
     1
  0
POINT
  5
260
330
2F4
100
AcDbEntity
  8
.Neuer Ordner.Grundriss
 62
   110
100
AcDbPoint
 10
96.43103930221305
 20
-57.80470393211451
 30
-45.02718974387169
1001
CLaserDistTaskSchraffurDist
1040
56.27972519790274
1001
PE_URL
1000

1002
{
1000
56.3
1002
}
  0
TEXT
  5
261
330
2F4
100
AcDbEntity
  8
.Neuer Ordner.Grundriss
100
AcDbText
 10
96.43103930221305
 20
-56.97256363147027
 30
-45.02718974387169
 40
2.81214848143982
  1
56.3
 11
96.43103930221305
 21
-57.80470393211451
 31
-45.02718974387169
100
AcDbText
 73
     1
  0
POINT
  5
262
330
2F4
100
AcDbEntity
  8
.Neuer Ordner.Grundriss
 62
    80
100
AcDbPoint
 10
78.39457792258192
 20
-58.84370028517793
 30
-45.92088762311532
1001
CLaserDistTaskSchraffurDist
1040
33.57979906511446
1001
PE_URL
1000

1002
{
1000
33.6
1002
}
  0
TEXT
  5
263
330
2F4
100
AcDbEntity
  8
.Neuer Ordner.Grundriss
100
AcDbText
 10
78.39457792258192
 20
-58.01155998453369
 30
-45.92088762311532
 40
2.81214848143982
  1
33.6
 11
78.39457792258192
 21
-58.84370028517793
 31
-45.92088762311532
100
AcDbText
 73
     1
  0
POINT
  5
264
330
2F4
100
AcDbEntity
  8
.Neuer Ordner.Grundriss
 62
    30
100
AcDbPoint
 10
60.38768009115302
 20
-60.40828810461311
 30
-47.15444313331745
1001
CLaserDistTaskSchraffurDist
1040
2.247489105980321
1001
PE_URL
1000

1002
{
1000
2.2
1002
}
  0
TEXT
  5
265
330
2F4
100
AcDbEntity
  8
.Neuer Ordner.Grundriss
100
AcDbText
 10
60.38768009115302
 20
-59.57614780396887
 30
-47.15444313331745
 40
2.81214848143982
  1
2.2
 11
60.38768009115302
 21
-60.40828810461311
 31
-47.15444313331745
100
AcDbText
 73
     1
  0
POINT
  5
266
330
2F4
100
AcDbEntity
  8
.Neuer Ordner.Grundriss
 62
    30
100
AcDbPoint
 10
40.17488270795803
 20
-60.3306082069542
 30
-47.11868290986662
1001
CLaserDistTaskSchraffurDist
1040
3.155798781631347
1001
PE_URL
1000

1002
{
1000
3.2
1002
}
  0
TEXT
  5
267
330
2F4
100
AcDbEntity
  8
.Neuer Ordner.Grundriss
100
AcDbText
 10
40.17488270795803
 20
-59.49846790630996
 30
-47.11868290986662
 40
2.81214848143982
  1
3.2
 11
40.17488270795803
 21
-60.3306082069542
 31
-47.11868290986662
100
AcDbText
 73
     1
  0
POINT
  5
268
330
2F4
100
AcDbEntity
  8
.Neuer Ordner.Grundriss
 62
    20
100
AcDbPoint
 10
20.14463573131295
 20
-60.4613069559848
 30
-47.29219039622309
1001
CLaserDistTaskSchraffurDist
1040
-1.251291371823072
1001
PE_URL
1000

1002
{
1000
-1.3
1002
}
  0
TEXT
  5
269
330
2F4
100
AcDbEntity
  8
.Neuer Ordner.Grundriss
100
AcDbText
 10
20.14463573131295
 20
-59.62916665534056
 30
-47.29219039622309
 40
2.81214848143982
  1
-1.3
 11
20.14463573131295
 21
-60.4613069559848
 31
-47.29219039622309
100
AcDbText
 73
     1
  0
POINT
  5
26A
330
2F4
100
AcDbEntity
  8
.Neuer Ordner.Grundriss
 62
    20
100
AcDbPoint
 10
-0.0306104124654668
 20
-60.55065124576614
 30
-47.28051310424208
1001
CLaserDistTaskSchraffurDist
1040
-0.9546881555052096
1001
PE_URL
1000

1002
{
1000
-1.0
1002
}
  0
TEXT
  5
26B
330
2F4
100
AcDbEntity
  8
.Neuer Ordner.Grundriss
100
AcDbText
 10
-0.0306104124654668
 20
-59.7185109451219
 30
-47.28051310424208
 40
2.81214848143982
  1
-1.0
 11
-0.0306104124654668
 21
-60.55065124576614
 31
-47.28051310424208
100
AcDbText
 73
     1
  0
POINT
  5
26C
330
2F4
100
AcDbEntity
  8
.Neuer Ordner.Grundriss
 62
    20
100
AcDbPoint
 10
-20.14173012504391
 20
-60.50838439959841
 30
-47.31862470747041
1001
CLaserDistTaskSchraffurDist
1040
-1.922722877504839
1001
PE_URL
1000

1002
{
1000
-1.9
1002
}
  0
TEXT
  5
26D
330
2F4
100
AcDbEntity
  8
.Neuer Ordner.Grundriss
100
AcDbText
 10
-20.14173012504391
 20
-59.67624409895416
 30
-47.31862470747041
 40
2.81214848143982
  1
-1.9
 11
-20.14173012504391
 21
-60.50838439959841
 31
-47.31862470747041
100
AcDbText
 73
     1
  0
POINT
  5
26E
330
2F4
100
AcDbEntity
  8
.Neuer Ordner.Grundriss
 62
   180
100
AcDbPoint
 10
129.6652256326062
 20
-37.06709913506276
 30
-43.25578359109175
1001
CLaserDistTaskSchraffurDist
1040
101.2734414785132
1001
PE_URL
1000

1002
{
1000
101.3
1002
}
  0
TEXT
  5
26F
330
2F4
100
AcDbEntity
  8
.Neuer Ordner.Grundriss
100
AcDbText
 10
129.6652256326062
 20
-36.23495883441852
 30
-43.25578359109175
 40
2.81214848143982
  1
101.3
 11
129.6652256326062
 21
-37.06709913506276
 31
-43.25578359109175
100
AcDbText
 73
     1
  0
POINT
  5
270
330
2F4
100
AcDbEntity
  8
.Neuer Ordner.Grundriss
 62
   150
100
AcDbPoint
 10
113.4612328768119
 20
-37.7771512721574
 30
-44.13226319286706
1001
CLaserDistTaskSchraffurDist
1040
79.01085959342026
1001
PE_URL
1000

1002
{
1000
79.0
1002
}
  0
TEXT
  5
271
330
2F4
100
AcDbEntity
  8
.Neuer Ordner.Grundriss
100
AcDbText
 10
113.4612328768119
 20
-36.94501097151316
 30
-44.13226319286706
 40
2.81214848143982
  1
79.0
 11
113.4612328768119
 21
-37.7771512721574
 31
-44.13226319286706
100
AcDbText
 73
     1
  0
POINT
  5
272
330
2F4
100
AcDbEntity
  8
.Neuer Ordner.Grundriss
 62
   110
100
AcDbPoint
 10
96.45009001033124
 20
-38.54607889115335
 30
-45.04147368081339
1001
CLaserDistTaskSchraffurDist
1040
55.91691319958341
1001
PE_URL
1000

1002
{
1000
55.9
1002
}
  0
TEXT
  5
273
330
2F4
100
AcDbEntity
  8
.Neuer Ordner.Grundriss
100
AcDbText
 10
96.45009001033124
 20
-37.71393859050911
 30
-45.04147368081339
 40
2.81214848143982
  1
55.9
 11
96.45009001033124
 21
-38.54607889115335
 31
-45.04147368081339
100
AcDbText
 73
     1
  0
POINT
  5
274
330
2F4
100
AcDbEntity
  8
.Neuer Ordner.Grundriss
 62
    70
100
AcDbPoint
 10
78.70612081262046
 20
-39.34591968360975
 30
-46.03278845813376
1001
CLaserDistTaskSchraffurDist
1040
30.73751785564605
1001
PE_URL
1000

1002
{
1000
30.7
1002
}
  0
TEXT
  5
275
330
2F4
100
AcDbEntity
  8
.Neuer Ordner.Grundriss
100
AcDbText
 10
78.70612081262046
 20
-38.51377938296551
 30
-46.03278845813376
 40
2.81214848143982
  1
30.7
 11
78.70612081262046
 21
-39.34591968360975
 31
-46.03278845813376
100
AcDbText
 73
     1
  0
POINT
  5
276
330
2F4
100
AcDbEntity
  8
.Neuer Ordner.Grundriss
 62
    20
100
AcDbPoint
 10
60.57391091572389
 20
-40.35122815891417
 30
-47.36719718947468
1001
CLaserDistTaskSchraffurDist
1040
-3.156463920413444
1001
PE_URL
1000

1002
{
1000
-3.2
1002
}
  0
TEXT
  5
277
330
2F4
100
AcDbEntity
  8
.Neuer Ordner.Grundriss
100
AcDbText
 10
60.57391091572389
 20
-39.51908785826993
 30
-47.36719718947468
 40
2.81214848143982
  1
-3.2
 11
60.57391091572389
 21
-40.35122815891417
 31
-47.36719718947468
100
AcDbText
 73
     1
  0
POINT
  5
278
330
2F4
100
AcDbEntity
  8
.Neuer Ordner.Grundriss
 62
    10
100
AcDbPoint
 10
40.4732675370151
 20
-40.52028634531564
 30
-47.46707293483123
1001
CLaserDistTaskSchraffurDist
1040
-5.693307852469616
1001
PE_URL
1000

1002
{
1000
-5.7
1002
}
  0
TEXT
  5
279
330
2F4
100
AcDbEntity
  8
.Neuer Ordner.Grundriss
100
AcDbText
 10
40.4732675370151
 20
-39.6881460446714
 30
-47.46707293483123
 40
2.81214848143982
  1
-5.7
 11
40.4732675370151
 21
-40.52028634531564
 31
-47.46707293483123
100
AcDbText
 73
     1
  0
POINT
  5
27A
330
2F4
100
AcDbEntity
  8
.Neuer Ordner.Grundriss
 62
    10
100
AcDbPoint
 10
20.20452564206239
 20
-40.4011443375729
 30
-47.44767307150289
1001
CLaserDistTaskSchraffurDist
1040
-5.200551323929858
1001
PE_URL
1000

1002
{
1000
-5.2
1002
}
  0
TEXT
  5
27B
330
2F4
100
AcDbEntity
  8
.Neuer Ordner.Grundriss
100
AcDbText
 10
20.20452564206239
 20
-39.56900403692866
 30
-47.44767307150289
 40
2.81214848143982
  1
-5.2
 11
20.20452564206239
 21
-40.4011443375729
 31
-47.44767307150289
100
AcDbText
 73
     1
  0
POINT
  5
27C
330
2F4
100
AcDbEntity
  8
.Neuer Ordner.Grundriss
 62
    10
100
AcDbPoint
 10
-0.0210102420326773
 20
-40.5290771161099
 30
-47.54521961443123
1001
CLaserDistTaskSchraffurDist
1040
-7.678233514309795
1001
PE_URL
1000

1002
{
1000
-7.7
1002
}
  0
TEXT
  5
27D
330
2F4
100
AcDbEntity
  8
.Neuer Ordner.Grundriss
100
AcDbText
 10
-0.0210102420326773
 20
-39.69693681546566
 30
-47.54521961443123
 40
2.81214848143982
  1
-7.7
 11
-0.0210102420326773
 21
-40.5290771161099
 31
-47.54521961443123
100
AcDbText
 73
     1
  0
POINT
  5
27E
330
2F4
100
AcDbEntity
  8
.Neuer Ordner.Grundriss
 62
    10
100
AcDbPoint
 10
-20.20967623155638
 20
-40.43353325659024
 30
-47.47387786692112
1001
CLaserDistTaskSchraffurDist
1040
-5.866153127552934
1001
PE_URL
1000

1002
{
1000
-5.9
1002
}
  0
TEXT
  5
27F
330
2F4
100
AcDbEntity
  8
.Neuer Ordner.Grundriss
100
AcDbText
 10
-20.20967623155638
 20
-39.601392955946
 30
-47.47387786692112
 40
2.81214848143982
  1
-5.9
 11
-20.20967623155638
 21
-40.43353325659024
 31
-47.47387786692112
100
AcDbText
 73
     1
  0
POINT
  5
280
330
2F4
100
AcDbEntity
  8
.Neuer Ordner.Grundriss
 62
   180
100
AcDbPoint
 10
129.5864970849816
 20
-18.50832340996704
 30
-43.26663709550753
1001
CLaserDistTaskSchraffurDist
1040
100.9977624663522
1001
PE_URL
1000

1002
{
1000
101.0
1002
}
  0
TEXT
  5
281
330
2F4
100
AcDbEntity
  8
.Neuer Ordner.Grundriss
100
AcDbText
 10
129.5864970849816
 20
-17.6761831093228
 30
-43.26663709550753
 40
2.81214848143982
  1
101.0
 11
129.5864970849816
 21
-18.50832340996704
 31
-43.26663709550753
100
AcDbText
 73
     1
  0
POINT
  5
282
330
2F4
100
AcDbEntity
  8
.Neuer Ordner.Grundriss
 62
   150
100
AcDbPoint
 10
113.4528245889972
 20
-18.85838123323454
 30
-44.11319278128335
1001
CLaserDistTaskSchraffurDist
1040
79.49524804764656
1001
PE_URL
1000

1002
{
1000
79.5
1002
}
  0
TEXT
  5
283
330
2F4
100
AcDbEntity
  8
.Neuer Ordner.Grundriss
100
AcDbText
 10
113.4528245889972
 20
-18.0262409325903
 30
-44.11319278128335
 40
2.81214848143982
  1
79.5
 11
113.4528245889972
 21
-18.85838123323454
 31
-44.11319278128335
100
AcDbText
 73
     1
  0
POINT
  5
284
330
2F4
100
AcDbEntity
  8
.Neuer Ordner.Grundriss
 62
   110
100
AcDbPoint
 10
96.32393399626656
 20
-19.24743135737146
 30
-45.04554729454198
1001
CLaserDistTaskSchraffurDist
1040
55.8134434108772
1001
PE_URL
1000

1002
{
1000
55.8
1002
}
  0
TEXT
  5
285
330
2F4
100
AcDbEntity
  8
.Neuer Ordner.Grundriss
100
AcDbText
 10
96.32393399626656
 20
-18.41529105672722
 30
-45.04554729454198
 40
2.81214848143982
  1
55.8
 11
96.32393399626656
 21
-19.24743135737146
 31
-45.04554729454198
100
AcDbText
 73
     1
  0
POINT
  5
286
330
2F4
100
AcDbEntity
  8
.Neuer Ordner.Grundriss
 62
    70
100
AcDbPoint
 10
78.85557305376445
 20
-19.71694545165597
 30
-46.10941836134007
1001
CLaserDistTaskSchraffurDist
1040
28.79111831420573
1001
PE_URL
1000

1002
{
1000
28.8
1002
}
  0
TEXT
  5
287
330
2F4
100
AcDbEntity
  8
.Neuer Ordner.Grundriss
100
AcDbText
 10
78.85557305376445
 20
-18.88480515101174
 30
-46.10941836134007
 40
2.81214848143982
  1
28.8
 11
78.85557305376445
 21
-19.71694545165597
 31
-46.10941836134007
100
AcDbText
 73
     1
  0
POINT
  5
288
330
2F4
100
AcDbEntity
  8
.Neuer Ordner.Grundriss
 62
    10
100
AcDbPoint
 10
60.81531507191805
 20
-20.27069862571183
 30
-47.58129090675029
1001
CLaserDistTaskSchraffurDist
1040
-8.594444339213851
1001
PE_URL
1000

1002
{
1000
-8.6
1002
}
  0
TEXT
  5
289
330
2F4
100
AcDbEntity
  8
.Neuer Ordner.Grundriss
100
AcDbText
 10
60.81531507191805
 20
-19.4385583250676
 30
-47.58129090675029
 40
2.81214848143982
  1
-8.6
 11
60.81531507191805
 21
-20.27069862571183
 31
-47.58129090675029
100
AcDbText
 73
     1
  0
POINT
  5
28A
330
2F4
100
AcDbEntity
  8
.Neuer Ordner.Grundriss
 62
    10
100
AcDbPoint
 10
40.55160004732264
 20
-20.2698972141847
 30
-47.59299483528783
1001
CLaserDistTaskSchraffurDist
1040
-8.891724124067196
1001
PE_URL
1000

1002
{
1000
-8.9
1002
}
  0
TEXT
  5
28B
330
2F4
100
AcDbEntity
  8
.Neuer Ordner.Grundriss
100
AcDbText
 10
40.55160004732264
 20
-19.43775691354047
 30
-47.59299483528783
 40
2.81214848143982
  1
-8.9
 11
40.55160004732264
 21
-20.2698972141847
 31
-47.59299483528783
100
AcDbText
 73
     1
  0
POINT
  5
28C
330
2F4
100
AcDbEntity
  8
.Neuer Ordner.Grundriss
 62
    10
100
AcDbPoint
 10
20.2075044781077
 20
-20.22144587976937
 30
-47.56261623052588
1001
CLaserDistTaskSchraffurDist
1040
-8.120107563113834
1001
PE_URL
1000

1002
{
1000
-8.1
1002
}
  0
TEXT
  5
28D
330
2F4
100
AcDbEntity
  8
.Neuer Ordner.Grundriss
100
AcDbText
 10
20.2075044781077
 20
-19.38930557912513
 30
-47.56261623052588
 40
2.81214848143982
  1
-8.1
 11
20.2075044781077
 21
-20.22144587976937
 31
-47.56261623052588
100
AcDbText
 73
     1
  0
POINT
  5
28E
330
2F4
100
AcDbEntity
  8
.Neuer Ordner.Grundriss
 62
    10
100
AcDbPoint
 10
-0.007987144358359
 20
-20.19416684208359
 30
-47.56478331077836
1001
CLaserDistTaskSchraffurDist
1040
-8.175151401526819
1001
PE_URL
1000

1002
{
1000
-8.2
1002
}
  0
TEXT
  5
28F
330
2F4
100
AcDbEntity
  8
.Neuer Ordner.Grundriss
100
AcDbText
 10
-0.007987144358359
 20
-19.36202654143936
 30
-47.56478331077836
 40
2.81214848143982
  1
-8.2
 11
-0.007987144358359
 21
-20.19416684208359
 31
-47.56478331077836
100
AcDbText
 73
     1
  0
POINT
  5
290
330
2F4
100
AcDbEntity
  8
.Neuer Ordner.Grundriss
 62
    10
100
AcDbPoint
 10
-20.24030624456131
 20
-20.2507442684284
 30
-47.61075481446546
1001
CLaserDistTaskSchraffurDist
1040
-9.342827595179188
1001
PE_URL
1000

1002
{
1000
-9.3
1002
}
  0
TEXT
  5
291
330
2F4
100
AcDbEntity
  8
.Neuer Ordner.Grundriss
100
AcDbText
 10
-20.24030624456131
 20
-19.41860396778416
 30
-47.61075481446546
 40
2.81214848143982
  1
-9.3
 11
-20.24030624456131
 21
-20.2507442684284
 31
-47.61075481446546
100
AcDbText
 73
     1
  0
POINT
  5
292
330
2F4
100
AcDbEntity
  8
.Neuer Ordner.Grundriss
 62
   180
100
AcDbPoint
 10
129.8657833346275
 20
-0.0494298979570916
 30
-43.25966050654242
1001
CLaserDistTaskSchraffurDist
1040
101.174967826066
1001
PE_URL
1000

1002
{
1000
101.2
1002
}
  0
TEXT
  5
293
330
2F4
100
AcDbEntity
  8
.Neuer Ordner.Grundriss
100
AcDbText
 10
129.8657833346275
 20
0.782710402687146
 30
-43.25966050654242
 40
2.81214848143982
  1
101.2
 11
129.8657833346275
 21
-0.0494298979570916
 31
-43.25966050654242
100
AcDbText
 73
     1
  0
POINT
  5
294
330
2F4
100
AcDbEntity
  8
.Neuer Ordner.Grundriss
 62
   150
100
AcDbPoint
 10
113.3210162788415
 20
-0.0157946518586424
 30
-44.04965718717301
1001
CLaserDistTaskSchraffurDist
1040
81.10905213804904
1001
PE_URL
1000

1002
{
1000
81.1
1002
}
  0
TEXT
  5
295
330
2F4
100
AcDbEntity
  8
.Neuer Ordner.Grundriss
100
AcDbText
 10
113.3210162788415
 20
0.8163456487855952
 30
-44.04965718717301
 40
2.81214848143982
  1
81.1
 11
113.3210162788415
 21
-0.0157946518586424
 31
-44.04965718717301
100
AcDbText
 73
     1
  0
POINT
  5
296
330
2F4
100
AcDbEntity
  8
.Neuer Ordner.Grundriss
 62
   110
100
AcDbPoint
 10
96.21618709027838
 20
-0.0047079615443015
 30
-45.01399092102557
1001
CLaserDistTaskSchraffurDist
1040
56.61497529819417
1001
PE_URL
1000

1002
{
1000
56.6
1002
}
  0
TEXT
  5
297
330
2F4
100
AcDbEntity
  8
.Neuer Ordner.Grundriss
100
AcDbText
 10
96.21618709027838
 20
0.8274323390999361
 30
-45.01399092102557
 40
2.81214848143982
  1
56.6
 11
96.21618709027838
 21
-0.0047079615443015
 31
-45.01399092102557
100
AcDbText
 73
     1
  0
POINT
  5
298
330
2F4
100
AcDbEntity
  8
.Neuer Ordner.Grundriss
 62
    70
100
AcDbPoint
 10
78.75657177668268
 20
0.0177941886110702
 30
-46.06526866632513
1001
CLaserDistTaskSchraffurDist
1040
29.91252056758526
1001
PE_URL
1000

1002
{
1000
29.9
1002
}
  0
TEXT
  5
299
330
2F4
100
AcDbEntity
  8
.Neuer Ordner.Grundriss
100
AcDbText
 10
78.75657177668268
 20
0.8499344892553078
 30
-46.06526866632513
 40
2.81214848143982
  1
29.9
 11
78.75657177668268
 21
0.0177941886110702
 31
-46.06526866632513
100
AcDbText
 73
     1
  0
POINT
  5
29A
330
2F4
100
AcDbEntity
  8
.Neuer Ordner.Grundriss
 62
    10
100
AcDbPoint
 10
60.70659314872912
 20
0.0262021272826951
 30
-47.47068652173365
1001
CLaserDistTaskSchraffurDist
1040
-5.7850929597912
1001
PE_URL
1000

1002
{
1000
-5.8
1002
}
  0
TEXT
  5
29B
330
2F4
100
AcDbEntity
  8
.Neuer Ordner.Grundriss
100
AcDbText
 10
60.70659314872912
 20
0.8583424279269327
 30
-47.47068652173365
 40
2.81214848143982
  1
-5.8
 11
60.70659314872912
 21
0.0262021272826951
 31
-47.47068652173365
100
AcDbText
 73
     1
  0
POINT
  5
29C
330
2F4
100
AcDbEntity
  8
.Neuer Ordner.Grundriss
 62
    10
100
AcDbPoint
 10
40.46528507777508
 20
0.0163112080037067
 30
-47.50440089796949
1001
CLaserDistTaskSchraffurDist
1040
-6.641438116181462
1001
PE_URL
1000

1002
{
1000
-6.6
1002
}
  0
TEXT
  5
29D
330
2F4
100
AcDbEntity
  8
.Neuer Ordner.Grundriss
100
AcDbText
 10
40.46528507777508
 20
0.8484515086479444
 30
-47.50440089796949
 40
2.81214848143982
  1
-6.6
 11
40.46528507777508
 21
0.0163112080037067
 31
-47.50440089796949
100
AcDbText
 73
     1
  0
POINT
  5
29E
330
2F4
100
AcDbEntity
  8
.Neuer Ordner.Grundriss
 62
    10
100
AcDbPoint
 10
20.21204311934838
 20
0.003408430276021
 30
-47.54761945798468
1001
CLaserDistTaskSchraffurDist
1040
-7.739189540567395
1001
PE_URL
1000

1002
{
1000
-7.7
1002
}
  0
TEXT
  5
29F
330
2F4
100
AcDbEntity
  8
.Neuer Ordner.Grundriss
100
AcDbText
 10
20.21204311934838
 20
0.8355487309202586
 30
-47.54761945798468
 40
2.81214848143982
  1
-7.7
 11
20.21204311934838
 21
0.003408430276021
 31
-47.54761945798468
100
AcDbText
 73
     1
  0
POINT
  5
2A0
330
2F4
100
AcDbEntity
  8
.Neuer Ordner.Grundriss
 62
    10
100
AcDbPoint
 10
-0.3412265703908441
 20
-0.0370366143156132
 30
-47.56741715904238
1001
CLaserDistTaskSchraffurDist
1040
-8.242051147432903
1001
PE_URL
1000

1002
{
1000
-8.2
1002
}
  0
TEXT
  5
2A1
330
2F4
100
AcDbEntity
  8
.Neuer Ordner.Grundriss
100
AcDbText
 10
-0.3412265703908441
 20
0.7951036863286245
 30
-47.56741715904238
 40
2.81214848143982
  1
-8.2
 11
-0.3412265703908441
 21
-0.0370366143156132
 31
-47.56741715904238
100
AcDbText
 73
     1
  0
POINT
  5
2A2
330
2F4
100
AcDbEntity
  8
.Neuer Ordner.Grundriss
 62
    10
100
AcDbPoint
 10
-20.23523025088208
 20
-0.0091197900531172
 30
-47.66880578100728
1001
CLaserDistTaskSchraffurDist
1040
-10.81732214534145
1001
PE_URL
1000

1002
{
1000
-10.8
1002
}
  0
TEXT
  5
2A3
330
2F4
100
AcDbEntity
  8
.Neuer Ordner.Grundriss
100
AcDbText
 10
-20.23523025088208
 20
0.8230205105911204
 30
-47.66880578100728
 40
2.81214848143982
  1
-10.8
 11
-20.23523025088208
 21
-0.0091197900531172
 31
-47.66880578100728
100
AcDbText
 73
     1
  0
POINT
  5
2A4
330
2F4
100
AcDbEntity
  8
.Neuer Ordner.Grundriss
 62
   190
100
AcDbPoint
 10
129.8761846460616
 20
18.58400414190025
 30
-43.24448525883066
1001
CLaserDistTaskSchraffurDist
1040
101.5604191179448
1001
PE_URL
1000

1002
{
1000
101.6
1002
}
  0
TEXT
  5
2A5
330
2F4
100
AcDbEntity
  8
.Neuer Ordner.Grundriss
100
AcDbText
 10
129.8761846460616
 20
19.41614444254449
 30
-43.24448525883066
 40
2.81214848143982
  1
101.6
 11
129.8761846460616
 21
18.58400414190025
 31
-43.24448525883066
100
AcDbText
 73
     1
  0
POINT
  5
2A6
330
2F4
100
AcDbEntity
  8
.Neuer Ordner.Grundriss
 62
   150
100
AcDbPoint
 10
113.3430577141367
 20
18.89634117433046
 30
-44.07167928325953
1001
CLaserDistTaskSchraffurDist
1040
80.54969089745146
1001
PE_URL
1000

1002
{
1000
80.5
1002
}
  0
TEXT
  5
2A7
330
2F4
100
AcDbEntity
  8
.Neuer Ordner.Grundriss
100
AcDbText
 10
113.3430577141367
 20
19.7284814749747
 30
-44.07167928325953
 40
2.81214848143982
  1
80.5
 11
113.3430577141367
 21
18.89634117433046
 31
-44.07167928325953
100
AcDbText
 73
     1
  0
POINT
  5
2A8
330
2F4
100
AcDbEntity
  8
.Neuer Ordner.Grundriss
 62
   110
100
AcDbPoint
 10
96.40253717160779
 20
19.32596297685203
 30
-45.10244626370968
1001
CLaserDistTaskSchraffurDist
1040
54.36820959401757
1001
PE_URL
1000

1002
{
1000
54.4
1002
}
  0
TEXT
  5
2A9
330
2F4
100
AcDbEntity
  8
.Neuer Ordner.Grundriss
100
AcDbText
 10
96.40253717160779
 20
20.15810327749626
 30
-45.10244626370968
 40
2.81214848143982
  1
54.4
 11
96.40253717160779
 21
19.32596297685203
 31
-45.10244626370968
100
AcDbText
 73
     1
  0
POINT
  5
2AA
330
2F4
100
AcDbEntity
  8
.Neuer Ordner.Grundriss
 62
    70
100
AcDbPoint
 10
78.85131396389434
 20
19.68085261221766
 30
-46.08536428692376
1001
CLaserDistTaskSchraffurDist
1040
29.40209180438001
1001
PE_URL
1000

1002
{
1000
29.4
1002
}
  0
TEXT
  5
2AB
330
2F4
100
AcDbEntity
  8
.Neuer Ordner.Grundriss
100
AcDbText
 10
78.85131396389434
 20
20.51299291286189
 30
-46.08536428692376
 40
2.81214848143982
  1
29.4
 11
78.85131396389434
 21
19.68085261221766
 31
-46.08536428692376
100
AcDbText
 73
     1
  0
POINT
  5
2AC
330
2F4
100
AcDbEntity
  8
.Neuer Ordner.Grundriss
 62
    10
100
AcDbPoint
 10
60.78317015944116
 20
20.2217582665366
 30
-47.55233034846516
1001
CLaserDistTaskSchraffurDist
1040
-7.858846158771485
1001
PE_URL
1000

1002
{
1000
-7.9
1002
}
  0
TEXT
  5
2AD
330
2F4
100
AcDbEntity
  8
.Neuer Ordner.Grundriss
100
AcDbText
 10
60.78317015944116
 20
21.05389856718084
 30
-47.55233034846516
 40
2.81214848143982
  1
-7.9
 11
60.78317015944116
 21
20.2217582665366
 31
-47.55233034846516
100
AcDbText
 73
     1
  0
POINT
  5
2AE
330
2F4
100
AcDbEntity
  8
.Neuer Ordner.Grundriss
 62
    10
100
AcDbPoint
 10
40.52424890046319
 20
20.2594664337632
 30
-47.52217196451209
1001
CLaserDistTaskSchraffurDist
1040
-7.092823206363619
1001
PE_URL
1000

1002
{
1000
-7.1
1002
}
  0
TEXT
  5
2AF
330
2F4
100
AcDbEntity
  8
.Neuer Ordner.Grundriss
100
AcDbText
 10
40.52424890046319
 20
21.09160673440744
 30
-47.52217196451209
 40
2.81214848143982
  1
-7.1
 11
40.52424890046319
 21
20.2594664337632
 31
-47.52217196451209
100
AcDbText
 73
     1
  0
POINT
  5
2B0
330
2F4
100
AcDbEntity
  8
.Neuer Ordner.Grundriss
 62
    10
100
AcDbPoint
 10
20.1940145535721
 20
20.18427113355429
 30
-47.48121649415515
1001
CLaserDistTaskSchraffurDist
1040
-6.052554259297267
1001
PE_URL
1000

1002
{
1000
-6.1
1002
}
  0
TEXT
  5
2B1
330
2F4
100
AcDbEntity
  8
.Neuer Ordner.Grundriss
100
AcDbText
 10
20.1940145535721
 20
21.01641143419852
 30
-47.48121649415515
 40
2.81214848143982
  1
-6.1
 11
20.1940145535721
 21
20.18427113355429
 31
-47.48121649415515
100
AcDbText
 73
     1
  0
POINT
  5
2B2
330
2F4
100
AcDbEntity
  8
.Neuer Ordner.Grundriss
 62
    10
100
AcDbPoint
 10
-0.0063960842345053
 20
20.1912411404518
 30
-47.47666624381493
1001
CLaserDistTaskSchraffurDist
1040
-5.936977900655847
1001
PE_URL
1000

1002
{
1000
-5.9
1002
}
  0
TEXT
  5
2B3
330
2F4
100
AcDbEntity
  8
.Neuer Ordner.Grundriss
100
AcDbText
 10
-0.0063960842345053
 20
21.02338144109604
 30
-47.47666624381493
 40
2.81214848143982
  1
-5.9
 11
-0.0063960842345053
 21
20.1912411404518
 31
-47.47666624381493
100
AcDbText
 73
     1
  0
POINT
  5
2B4
330
2F4
100
AcDbEntity
  8
.Neuer Ordner.Grundriss
 62
    10
100
AcDbPoint
 10
-20.22805497980823
 20
20.22592027603579
 30
-47.58140084763076
1001
CLaserDistTaskSchraffurDist
1040
-8.597236837577839
1001
PE_URL
1000

1002
{
1000
-8.6
1002
}
  0
TEXT
  5
2B5
330
2F4
100
AcDbEntity
  8
.Neuer Ordner.Grundriss
100
AcDbText
 10
-20.22805497980823
 20
21.05806057668003
 30
-47.58140084763076
 40
2.81214848143982
  1
-8.6
 11
-20.22805497980823
 21
20.22592027603579
 31
-47.58140084763076
100
AcDbText
 73
     1
  0
POINT
  5
2B6
330
2F4
100
AcDbEntity
  8
.Neuer Ordner.Grundriss
 62
   180
100
AcDbPoint
 10
129.8974832170327
 20
37.17987279253119
 30
-43.25679840696812
1001
CLaserDistTaskSchraffurDist
1040
101.2476651552531
1001
PE_URL
1000

1002
{
1000
101.2
1002
}
  0
TEXT
  5
2B7
330
2F4
100
AcDbEntity
  8
.Neuer Ordner.Grundriss
100
AcDbText
 10
129.8974832170327
 20
38.01201309317543
 30
-43.25679840696812
 40
2.81214848143982
  1
101.2
 11
129.8974832170327
 21
37.17987279253119
 31
-43.25679840696812
100
AcDbText
 73
     1
  0
POINT
  5
2B8
330
2F4
100
AcDbEntity
  8
.Neuer Ordner.Grundriss
 62
   150
100
AcDbPoint
 10
113.4376993178339
 20
37.78869435211593
 30
-44.11373091133379
1001
CLaserDistTaskSchraffurDist
1040
79.48157954436533
1001
PE_URL
1000

1002
{
1000
79.5
1002
}
  0
TEXT
  5
2B9
330
2F4
100
AcDbEntity
  8
.Neuer Ordner.Grundriss
100
AcDbText
 10
113.4376993178339
 20
38.62083465276017
 30
-44.11373091133379
 40
2.81214848143982
  1
79.5
 11
113.4376993178339
 21
37.78869435211593
 31
-44.11373091133379
100
AcDbText
 73
     1
  0
POINT
  5
2BA
330
2F4
100
AcDbEntity
  8
.Neuer Ordner.Grundriss
 62
   110
100
AcDbPoint
 10
96.54700178357851
 20
38.6226615395124
 30
-45.10030258612006
1001
CLaserDistTaskSchraffurDist
1040
54.42265900479401
1001
PE_URL
1000

1002
{
1000
54.4
1002
}
  0
TEXT
  5
2BB
330
2F4
100
AcDbEntity
  8
.Neuer Ordner.Grundriss
100
AcDbText
 10
96.54700178357851
 20
39.45480184015664
 30
-45.10030258612006
 40
2.81214848143982
  1
54.4
 11
96.54700178357851
 21
38.6226615395124
 31
-45.10030258612006
100
AcDbText
 73
     1
  0
POINT
  5
2BC
330
2F4
100
AcDbEntity
  8
.Neuer Ordner.Grundriss
 62
    70
100
AcDbPoint
 10
78.88790518958825
 20
39.44796384832656
 30
-46.14096506240988
1001
CLaserDistTaskSchraffurDist
1040
27.98983210703273
1001
PE_URL
1000

1002
{
1000
28.0
1002
}
  0
TEXT
  5
2BD
330
2F4
100
AcDbEntity
  8
.Neuer Ordner.Grundriss
100
AcDbText
 10
78.88790518958825
 20
40.2801041489708
 30
-46.14096506240988
 40
2.81214848143982
  1
28.0
 11
78.88790518958825
 21
39.44796384832656
 31
-46.14096506240988
100
AcDbText
 73
     1
  0
POINT
  5
2BE
330
2F4
100
AcDbEntity
  8
.Neuer Ordner.Grundriss
 62
    10
100
AcDbPoint
 10
60.88831358227718
 20
40.57797527169036
 30
-47.61839780765547
1001
CLaserDistTaskSchraffurDist
1040
-9.536959622205359
1001
PE_URL
1000

1002
{
1000
-9.5
1002
}
  0
TEXT
  5
2BF
330
2F4
100
AcDbEntity
  8
.Neuer Ordner.Grundriss
100
AcDbText
 10
60.88831358227718
 20
41.4101155723346
 30
-47.61839780765547
 40
2.81214848143982
  1
-9.5
 11
60.88831358227718
 21
40.57797527169036
 31
-47.61839780765547
100
AcDbText
 73
     1
  0
POINT
  5
2C0
330
2F4
100
AcDbEntity
  8
.Neuer Ordner.Grundriss
 62
    10
100
AcDbPoint
 10
40.49724969683899
 20
40.47696617983717
 30
-47.47563358418499
1001
CLaserDistTaskSchraffurDist
1040
-5.910748346055243
1001
PE_URL
1000

1002
{
1000
-5.9
1002
}
  0
TEXT
  5
2C1
330
2F4
100
AcDbEntity
  8
.Neuer Ordner.Grundriss
100
AcDbText
 10
40.49724969683899
 20
41.30910648048141
 30
-47.47563358418499
 40
2.81214848143982
  1
-5.9
 11
40.49724969683899
 21
40.47696617983717
 31
-47.47563358418499
100
AcDbText
 73
     1
  0
POINT
  5
2C2
330
2F4
100
AcDbEntity
  8
.Neuer Ordner.Grundriss
 62
    20
100
AcDbPoint
 10
20.18283439201198
 20
40.40766884639487
 30
-47.42061889816917
1001
CLaserDistTaskSchraffurDist
1040
-4.513375321253307
1001
PE_URL
1000

1002
{
1000
-4.5
1002
}
  0
TEXT
  5
2C3
330
2F4
100
AcDbEntity
  8
.Neuer Ordner.Grundriss
100
AcDbText
 10
20.18283439201198
 20
41.23980914703911
 30
-47.42061889816917
 40
2.81214848143982
  1
-4.5
 11
20.18283439201198
 21
40.40766884639487
 31
-47.42061889816917
100
AcDbText
 73
     1
  0
POINT
  5
2C4
330
2F4
100
AcDbEntity
  8
.Neuer Ordner.Grundriss
 62
    20
100
AcDbPoint
 10
0.0144180369316933
 20
40.34395616181641
 30
-47.370641468385
1001
CLaserDistTaskSchraffurDist
1040
-3.243948604735351
1001
PE_URL
1000

1002
{
1000
-3.2
1002
}
  0
TEXT
  5
2C5
330
2F4
100
AcDbEntity
  8
.Neuer Ordner.Grundriss
100
AcDbText
 10
0.0144180369316933
 20
41.17609646246065
 30
-47.370641468385
 40
2.81214848143982
  1
-3.2
 11
0.0144180369316933
 21
40.34395616181641
 31
-47.370641468385
100
AcDbText
 73
     1
  0
POINT
  5
2C6
330
2F4
100
AcDbEntity
  8
.Neuer Ordner.Grundriss
 62
    10
100
AcDbPoint
 10
-20.22228445607281
 20
40.47335222276558
 30
-47.51667803364506
1001
CLaserDistTaskSchraffurDist
1040
-6.953277362340941
1001
PE_URL
1000

1002
{
1000
-7.0
1002
}
  0
TEXT
  5
2C7
330
2F4
100
AcDbEntity
  8
.Neuer Ordner.Grundriss
100
AcDbText
 10
-20.22228445607281
 20
41.30549252340982
 30
-47.51667803364506
 40
2.81214848143982
  1
-7.0
 11
-20.22228445607281
 21
40.47335222276558
 31
-47.51667803364506
100
AcDbText
 73
     1
  0
TEXT
  5
2C8
330
2F4
100
AcDbEntity
  8
.Neuer Ordner.Grundriss
100
AcDbText
 10
-27.65086579643889
 20
0.8230205105911204
 30
-47.66880578100728
 40
2.81214848143982
  1
min 
 72
     2
 11
-20.23523025088208
 21
-0.0091197900531172
 31
-47.66880578100728
100
AcDbText
 73
     1
  0
TEXT
  5
2C9
330
2F4
100
AcDbEntity
  8
.Neuer Ordner.Grundriss
100
AcDbText
 10
121.3694354897061
 20
19.41614444254449
 30
-43.24448525883066
 40
2.81214848143982
  1
max 
 72
     2
 11
129.8761846460616
 21
18.58400414190025
 31
-43.24448525883066
100
AcDbText
 73
     1
  0
HATCH
  5
2CA
330
2F4
100
AcDbEntity
  8
.Neuer Ordner.Grundriss
100
AcDbHatch
 10
0.0
 20
0.0
 30
0.0
210
0.0
220
0.0
230
1.0
  2
SOLID
 70
     1
 71
     0
 91
        0
 75
     0
 76
     1
 98
        1
 10
0.0
 20
0.0
  0
ENDSEC
  0
SECTION
  2
OBJECTS
  0
DICTIONARY
  5
2E1
330
0
100
AcDbDictionary
281
     1
  3
ACAD_GROUP
350
2E2
  3
ACAD_LAYOUT
350
2EF
  3
ACAD_MLINESTYLE
350
2EC
  3
ACAD_PLOTSETTINGS
350
2EE
  3
ACAD_PLOTSTYLENAME
350
2E3
  3
VECTORDRAW_OBJECTS
350
305
  0
DICTIONARY
  5
2E2
102
{ACAD_REACTORS
330
2E1
102
}
330
2E1
100
AcDbDictionary
281
     1
  0
DICTIONARY
  5
2EF
102
{ACAD_REACTORS
330
2E1
102
}
330
2E1
100
AcDbDictionary
281
     1
  3
Layout1
350
2F3
  3
Layout2
350
2FB
  3
Model
350
2F7
  0
DICTIONARY
  5
2EC
102
{ACAD_REACTORS
330
2E1
102
}
330
2E1
100
AcDbDictionary
281
     1
  3
Standard
350
2ED
  0
DICTIONARY
  5
2EE
102
{ACAD_REACTORS
330
2E1
102
}
330
2E1
100
AcDbDictionary
281
     1
  0
ACDBDICTIONARYWDFLT
  5
2E3
102
{ACAD_REACTORS
330
2E1
102
}
330
2E1
100
AcDbDictionary
281
     1
  3
Normal
350
2E4
100
AcDbDictionaryWithDefault
340
2E4
  0
DICTIONARY
  5
305
102
{ACAD_REACTORS
330
2E1
102
}
330
2E1
100
AcDbDictionary
281
     1
  3
SERIALNO
350
306
  0
LAYOUT
  5
2F3
102
{ACAD_REACTORS
330
2EF
102
}
330
2EF
100
AcDbPlotSettings
  1

  2

  4

  6

 40
0.0
 41
0.0
 42
0.0
 43
0.0
 44
0.0
 45
0.0
 46
0.0
 47
0.0
 48
0.0
 49
0.0
140
0.0
141
0.0
142
1.0
143
1.0
 70
   688
 72
     0
 73
     0
 74
     5
  7

 75
    16
 76
     0
 77
     2
 78
   300
147
1.0
148
0.0
149
0.0
100
AcDbLayout
  1
Layout1
 70
     1
 71
     1
 10
0.0
 20
0.0
 11
12.0
 21
9.0
 12
0.0
 22
0.0
 32
0.0
 14
1.000000000000000E+20
 24
1.000000000000000E+20
 34
1.000000000000000E+20
 15
-1.000000000000000E+20
 25
-1.000000000000000E+20
 35
-1.000000000000000E+20
146
0.0
 13
0.0
 23
0.0
 33
0.0
 16
1.0
 26
0.0
 36
0.0
 17
0.0
 27
1.0
 37
0.0
 76
     0
330
2F0
  0
LAYOUT
  5
2FB
102
{ACAD_REACTORS
330
2EF
102
}
330
2EF
100
AcDbPlotSettings
  1

  2

  4

  6

 40
0.0
 41
0.0
 42
0.0
 43
0.0
 44
0.0
 45
0.0
 46
0.0
 47
0.0
 48
0.0
 49
0.0
140
0.0
141
0.0
142
1.0
143
1.0
 70
   688
 72
     0
 73
     0
 74
     5
  7

 75
    16
 76
     0
 77
     2
 78
   300
147
1.0
148
0.0
149
0.0
100
AcDbLayout
  1
Layout2
 70
     1
 71
     2
 10
0.0
 20
0.0
 11
0.0
 21
0.0
 12
0.0
 22
0.0
 32
0.0
 14
0.0
 24
0.0
 34
0.0
 15
0.0
 25
0.0
 35
0.0
146
0.0
 13
0.0
 23
0.0
 33
0.0
 16
1.0
 26
0.0
 36
0.0
 17
0.0
 27
1.0
 37
0.0
 76
     0
330
2F8
  0
LAYOUT
  5
2F7
102
{ACAD_REACTORS
330
2EF
102
}
330
2EF
100
AcDbPlotSettings
  1

  2

  4

  6

 40
0.0
 41
0.0
 42
0.0
 43
0.0
 44
210.0
 45
297.0
 46
0.0
 47
0.0
 48
0.0
 49
0.0
140
10.0
141
10.0
142
1000.0
143
100.0
 70
  1696
 72
     1
 73
     0
 74
     4
  7
acad.ctb
 75
     0
 76
     0
 77
     2
 78
   300
147
1.0
148
0.0
149
0.0
100
AcDbLayout
  1
Model
 70
     1
 71
     0
 10
-100.0
 20
-100.0
 11
100.0
 21
100.0
 12
0.0
 22
0.0
 32
0.0
 14
-1508.630568450362
 24
-480.2695904971823
 34
-48.59622528513923
 15
262.7901427597782
 25
250.1377549490554
 35
240.861341553663
146
0.0
 13
0.0
 23
0.0
 33
0.0
 16
1.0
 26
0.0
 36
0.0
 17
0.0
 27
1.0
 37
0.0
 76
     0
330
2F4
1001
VD_EX_PRINTER_NAME
1000

1001
VD_EX_PRINTER_PAPER
1070
     0
1001
VD_EX_PRINTER_ORIENT
1070
     1
1001
VD_EX_PRINTER_SIZEX
1040
210.0
1001
VD_EX_PRINTER_SIZEY
1040
297.0
1001
VD_EX_PRINTER_AVSIZEX
1040
210.0
1001
VD_EX_PRINTER_AVSIZEY
1040
297.0
1001
VD_EX_PRINTER_MARX
1040
0.0
1001
VD_EX_PRINTER_MARY
1040
-5.486124068794176E+303
1001
VD_EX_PRINTER_PAPER_NAME
1000

  0
MLINESTYLE
  5
2ED
102
{ACAD_REACTORS
330
2EC
102
}
330
2EC
100
AcDbMlineStyle
  2
Standard
 70
     0
  3

 62
   256
 51
90.0
 52
90.0
 71
     2
 49
0.5
 62
   256
  6
BYLAYER
 49
-0.5
 62
   256
  6
BYLAYER
  0
ACDBPLACEHOLDER
  5
2E4
102
{ACAD_REACTORS
330
2E3
102
}
330
2E3
  0
XRECORD
  5
306
102
{ACAD_REACTORS
330
305
102
}
330
305
100
AcDbXrecord
280
     1
1000
gyogVZI263cpjpFprr7EbX5p8
1070
     5
1070
     1
  0
ENDSEC
  0
EOF
