999
NT  : - 1800
  0
SECTION
  2
HEADER
  9
$ACADVER
  1
AC1015
  9
$DWGCODEPAGE
  3
ANSI_1252
  9
$INSBASE
 10
0.0
 20
0.0
 30
0.0
  9
$EXTMIN
 10
-100083.96142646
 20
-100028.27000000
 30
0.0
  9
$EXTMAX
 10
-99651.03857354
 20
-99694.72999951
 30
0.0
  9
$LIMMIN
 10
-100083.96142646
 20
-100028.27000000
  9
$LIMMAX
 10
-99651.03857354
 20
-99694.72999951
  9
$FILLMODE
 70
     1
  9
$QTEXTMODE
 70
     0
  9
$LTSCALE
 40
1.0
  9
$ATTMODE
 70
     1
  9
$TEXTSTYLE
  7
Standard
  9
$LUNITS
 70
     2
  9
$LUPREC
 70
     4
  9
$AUNITS
 70
     0
  9
$AUPREC
 70
     0
  9
$ANGBASE
 50
0.0
  9
$ANGDIR
 70
     0
  9
$HANDSEED
  5
1D3
  9
$TILEMODE
 70
     1
  9
$VISRETAIN
 70
     0
  0
ENDSEC
  0
SECTION
  2
CLASSES
  0
ENDSEC
  0
SECTION
  2
TABLES
  0
TABLE
  2
VPORT
  5
1
100
AcDbSymbolTable
 70
     1
  0
VPORT
  5
2
100
AcDbSymbolTableRecord
100
AcDbViewportTableRecord
  2
*Active
 70
     0
 10
0.0
 20
0.0
 11
1.0
 21
1.0
 12
-99867.50000000
 22
-99861.49999976
 13
0.0
 23
0.0
 14
1.0
 24
1.0
 15
0.0
 25
0.0
 16
0.0
 26
0.0
 36
1.0
 17
0.0
 27
0.0
 37
0.0
 40
333.540000490
 41
1.297963819
 42
50.0
 43
0.0
 44
0.0
 50
0.0
 51
0.0
 71
     0
 72
   100
 73
     1
 74
     1
 75
     0
 76
     0
 77
     0
 78
     0
  0
ENDTAB
  0
TABLE
  2
LTYPE
  5
3
100
AcDbSymbolTable
 70
    21
  0
LTYPE
  5
4
100
AcDbSymbolTableRecord
100
AcDbLinetypeTableRecord
  2
ByBlock
 70
    64
  3

 72
    65
 73
     0
 40
0.0
  0
LTYPE
  5
5
100
AcDbSymbolTableRecord
100
AcDbLinetypeTableRecord
  2
ByLayer
 70
    64
  3

 72
    65
 73
     0
 40
0.0
  0
LTYPE
  5
6
100
AcDbSymbolTableRecord
100
AcDbLinetypeTableRecord
  2
CONTINUOUS
 70
    64
  3
Solid line
 72
    65
 73
     0
 40
0.0
  0
LTYPE
  5
7
100
AcDbSymbolTableRecord
100
AcDbLinetypeTableRecord
  2
DOT
 70
    64
  3
..............
 72
    65
 73
     2
 40
2.000
 49
0.500
 74
     0
 49
-1.500
 74
     0
  0
LTYPE
  5
8
100
AcDbSymbolTableRecord
100
AcDbLinetypeTableRecord
  2
HIDDEN
 70
    64
  3
-- -- -- -- --
 72
    65
 73
     2
 40
7.000
 49
4.000
 74
     0
 49
-3.000
 74
     0
  0
LTYPE
  5
9
100
AcDbSymbolTableRecord
100
AcDbLinetypeTableRecord
  2
DASHDOT
 70
    64
  3
--.--.--.--.--
 72
    65
 73
     4
 40
8.500
 49
4.000
 74
     0
 49
-2.000
 74
     0
 49
0.500
 74
     0
 49
-2.000
 74
     0
  0
LTYPE
  5
A
100
AcDbSymbolTableRecord
100
AcDbLinetypeTableRecord
  2
STRICHPUNKT2
 70
    64
  3
--.--.--.--.--
 72
    65
 73
     4
 40
18.500
 49
10.000
 74
     0
 49
-4.000
 74
     0
 49
0.500
 74
     0
 49
-4.000
 74
     0
  0
LTYPE
  5
B
100
AcDbSymbolTableRecord
100
AcDbLinetypeTableRecord
  2
STRICHPUNKT3
 70
    64
  3
--.--.--.--.--
 72
    65
 73
     4
 40
35.500
 49
25.000
 74
     0
 49
-5.000
 74
     0
 49
0.500
 74
     0
 49
-5.000
 74
     0
  0
LTYPE
  5
13F
100
AcDbSymbolTableRecord
100
AcDbLinetypeTableRecord
  2
PHANTOM
 70
    64
  3
--..--..--..--
 72
    65
 73
     6
 40
23.000
 49
10.000
 74
     0
 49
-4.000
 74
     0
 49
0.500
 74
     0
 49
-4.000
 74
     0
 49
0.500
 74
     0
 49
-4.000
 74
     0
  0
LTYPE
  5
140
100
AcDbSymbolTableRecord
100
AcDbLinetypeTableRecord
  2
PHANTOM2
 70
    64
  3
--..--..--..--
 72
    65
 73
     6
 40
33.000
 49
20.000
 74
     0
 49
-4.000
 74
     0
 49
0.500
 74
     0
 49
-4.000
 74
     0
 49
0.500
 74
     0
 49
-4.000
 74
     0
  0
LTYPE
  5
141
100
AcDbSymbolTableRecord
100
AcDbLinetypeTableRecord
  2
PHANTOM3
 70
    64
  3
--..--..--..--
 72
    65
 73
     6
 40
50.000
 49
37.000
 74
     0
 49
-4.000
 74
     0
 49
0.500
 74
     0
 49
-4.000
 74
     0
 49
0.500
 74
     0
 49
-4.000
 74
     0
  0
LTYPE
  5
142
100
AcDbSymbolTableRecord
100
AcDbLinetypeTableRecord
  2
STR3PKT
 70
    64
  3
--...--...--...
 72
    65
 73
     8
 40
31.500
 49
20.000
 74
     0
 49
-2.500
 74
     0
 49
0.500
 74
     0
 49
-2.500
 74
     0
 49
0.500
 74
     0
 49
-2.500
 74
     0
 49
0.500
 74
     0
 49
-2.500
 74
     0
  0
LTYPE
  5
143
100
AcDbSymbolTableRecord
100
AcDbLinetypeTableRecord
  2
2STRPKT
 70
    64
  3
--.--.--.--.--
 72
    65
 73
     6
 40
28.000
 49
10.000
 74
     0
 49
-2.500
 74
     0
 49
10.000
 74
     0
 49
-2.500
 74
     0
 49
0.500
 74
     0
 49
-2.500
 74
     0
  0
LTYPE
  5
144
100
AcDbSymbolTableRecord
100
AcDbLinetypeTableRecord
  2
GESTRICHELT2
 70
    64
  3
-- -- -- -- --
 72
    65
 73
     2
 40
25.000
 49
10.000
 74
     0
 49
-15.000
 74
     0
  0
LTYPE
  5
145
100
AcDbSymbolTableRecord
100
AcDbLinetypeTableRecord
  2
2STR2PKT
 70
    64
  3
--..--..--..--
 72
    65
 73
     8
 40
31.000
 49
10.000
 74
     0
 49
-2.500
 74
     0
 49
10.000
 74
     0
 49
-2.500
 74
     0
 49
0.500
 74
     0
 49
-2.500
 74
     0
 49
0.500
 74
     0
 49
-2.500
 74
     0
  0
LTYPE
  5
146
100
AcDbSymbolTableRecord
100
AcDbLinetypeTableRecord
  2
STR3PKT2
 70
    64
  3
--...--...--...
 72
    65
 73
     8
 40
21.000
 49
10.000
 74
     0
 49
-2.500
 74
     0
 49
0.500
 74
     0
 49
-2.500
 74
     0
 49
0.500
 74
     0
 49
-2.500
 74
     0
 49
0.500
 74
     0
 49
-2.000
 74
     0
  0
LTYPE
  5
147
100
AcDbSymbolTableRecord
100
AcDbLinetypeTableRecord
  2
2STR3PKT
 70
    64
  3
--...--...--...
 72
    65
 73
    10
 40
34.000
 49
10.000
 74
     0
 49
-2.500
 74
     0
 49
10.000
 74
     0
 49
-2.500
 74
     0
 49
0.500
 74
     0
 49
-2.500
 74
     0
 49
0.500
 74
     0
 49
-2.500
 74
     0
 49
0.500
 74
     0
 49
-2.500
 74
     0
  0
LTYPE
  5
148
100
AcDbSymbolTableRecord
100
AcDbLinetypeTableRecord
  2
STRKSTR
 70
    64
  3
-- - -- - -- -
 72
    65
 73
     4
 40
30.000
 49
20.000
 74
     0
 49
-2.500
 74
     0
 49
5.000
 74
     0
 49
-2.500
 74
     0
  0
LTYPE
  5
149
100
AcDbSymbolTableRecord
100
AcDbLinetypeTableRecord
  2
STRKSTR2
 70
    64
  3
-- - -- - -- -
 72
    65
 73
     6
 40
37.500
 49
20.000
 74
     0
 49
-2.500
 74
     0
 49
5.000
 74
     0
 49
-2.500
 74
     0
 49
5.000
 74
     0
 49
-2.500
 74
     0
  0
LTYPE
  5
14A
100
AcDbSymbolTableRecord
100
AcDbLinetypeTableRecord
  2
STRKSTR3
 70
    64
  3
-- - -- - -- -
 72
    65
 73
     8
 40
45.000
 49
20.000
 74
     0
 49
-2.500
 74
     0
 49
5.000
 74
     0
 49
-2.500
 74
     0
 49
5.000
 74
     0
 49
-2.500
 74
     0
 49
5.000
 74
     0
 49
-2.500
 74
     0
  0
LTYPE
  5
14B
100
AcDbSymbolTableRecord
100
AcDbLinetypeTableRecord
  2
PUNKT2
 70
    64
  3
..............
 72
    65
 73
     2
 40
3.500
 49
0.500
 74
     0
 49
-3.000
 74
     0
  0
ENDTAB
  0
TABLE
  2
LAYER
  5
14C
100
AcDbSymbolTable
 70
    17
  0
LAYER
  5
14D
100
AcDbSymbolTableRecord
100
AcDbLayerTableRecord
  2
0
 70
    64
 62
     7
  6
CONTINUOUS
370
    -3
390
F
  0
LAYER
  5
14E
100
AcDbSymbolTableRecord
100
AcDbLayerTableRecord
  2
LE_GREEN
 70
    64
 62
     3
  6
CONTINUOUS
370
    -3
390
F
  0
LAYER
  5
14F
100
AcDbSymbolTableRecord
100
AcDbLayerTableRecord
  2
LE_RED
 70
    64
 62
     1
  6
CONTINUOUS
370
    -3
390
F
  0
LAYER
  5
150
100
AcDbSymbolTableRecord
100
AcDbLayerTableRecord
  2
LE_ALL
 70
    64
 62
     7
  6
CONTINUOUS
370
    50
390
F
  0
LAYER
  5
151
100
AcDbSymbolTableRecord
100
AcDbLayerTableRecord
  2
LE_HIDDEN1
 70
    64
 62
     3
  6
HIDDEN
370
    -3
390
F
  0
LAYER
  5
152
100
AcDbSymbolTableRecord
100
AcDbLayerTableRecord
  2
LE_HIDDEN
 70
    64
 62
     7
  6
CONTINUOUS
370
    -3
390
F
  0
LAYER
  5
153
100
AcDbSymbolTableRecord
100
AcDbLayerTableRecord
  2
LE_MIDDLE
 70
    64
 62
     7
  6
CONTINUOUS
370
    -3
390
F
  0
LAYER
  5
154
100
AcDbSymbolTableRecord
100
AcDbLayerTableRecord
  2
TXT_YELLOW
 70
    64
 62
     2
  6
CONTINUOUS
370
    -3
390
F
  0
LAYER
  5
155
100
AcDbSymbolTableRecord
100
AcDbLayerTableRecord
  2
TXT_DIM49
 70
    64
 62
     2
  6
CONTINUOUS
370
    -3
390
F
  0
LAYER
  5
156
100
AcDbSymbolTableRecord
100
AcDbLayerTableRecord
  2
TXT_ALL
 70
    64
 62
     7
  6
CONTINUOUS
370
    -3
390
F
  0
LAYER
  5
157
100
AcDbSymbolTableRecord
100
AcDbLayerTableRecord
  2
DIM49
 70
    64
 62
     4
  6
CONTINUOUS
370
    -3
390
F
  0
LAYER
  5
158
100
AcDbSymbolTableRecord
100
AcDbLayerTableRecord
  2
HATCH
 70
    64
 62
     3
  6
CONTINUOUS
370
    -3
390
F
  0
LAYER
  5
159
100
AcDbSymbolTableRecord
100
AcDbLayerTableRecord
  2
1
 70
    64
 62
     7
  6
CONTINUOUS
370
    -3
390
F
  0
LAYER
  5
15A
100
AcDbSymbolTableRecord
100
AcDbLayerTableRecord
  2
2
 70
    64
 62
     7
  6
CONTINUOUS
370
    -3
390
F
  0
LAYER
  5
15B
100
AcDbSymbolTableRecord
100
AcDbLayerTableRecord
  2
10
 70
    64
 62
     7
  6
CONTINUOUS
370
    -3
390
F
  0
LAYER
  5
15C
100
AcDbSymbolTableRecord
100
AcDbLayerTableRecord
  2
32
 70
    64
 62
     7
  6
CONTINUOUS
370
    -3
390
F
  0
LAYER
  5
15D
100
AcDbSymbolTableRecord
100
AcDbLayerTableRecord
  2
49
 70
    64
 62
     7
  6
CONTINUOUS
370
    -3
390
F
  0
ENDTAB
  0
TABLE
  2
STYLE
  5
15E
100
AcDbSymbolTable
 70
     3
  0
STYLE
  5
15F
100
AcDbSymbolTableRecord
100
AcDbTextStyleTableRecord
  2
MONOTXT
 70
     0
 40
0.0
 41
1.000
 50
0.0
 71
     0
 42
1.000
  3
monotxt.shx
  4

  0
STYLE
  5
160
100
AcDbSymbolTableRecord
100
AcDbTextStyleTableRecord
  2
STANDARD
 70
     0
 40
0.0
 41
1.000
 50
0.0
 71
     0
 42
1.000
  3
txt
  4

  0
STYLE
  5
161
100
AcDbSymbolTableRecord
100
AcDbTextStyleTableRecord
  2
ARIAL
 70
     0
 40
0.0
 41
1.000
 50
0.0
 71
     0
 42
1.000
  3
arial.ttf
  4

  0
ENDTAB
  0
TABLE
  2
VIEW
  5
162
100
AcDbSymbolTable
 70
     0
  0
ENDTAB
  0
TABLE
  2
UCS
  5
163
100
AcDbSymbolTable
 70
     0
  0
ENDTAB
  0
TABLE
  2
APPID
  5
164
100
AcDbSymbolTable
 70
     1
  0
APPID
  5
165
100
AcDbSymbolTableRecord
100
AcDbRegAppTableRecord
  2
ACAD
 70
     0
  0
ENDTAB
  0
TABLE
  2
DIMSTYLE
  5
166
100
AcDbSymbolTable
100
AcDbDimStyleTable
 70
     0
  0
ENDTAB
  0
TABLE
  2
BLOCK_RECORD
  5
167
100
AcDbSymbolTable
 70
    18
  0
BLOCK_RECORD
  5
1E
100
AcDbSymbolTableRecord
100
AcDbBlockTableRecord
  2
*Model_Space
  0
BLOCK_RECORD
  5
1A
100
AcDbSymbolTableRecord
100
AcDbBlockTableRecord
  2
*Paper_Space
  0
BLOCK_RECORD
  5
1CF
100
AcDbSymbolTableRecord
100
AcDbBlockTableRecord
  2
_D1
  0
BLOCK_RECORD
  5
1D0
100
AcDbSymbolTableRecord
100
AcDbBlockTableRecord
  2
_D2
  0
BLOCK_RECORD
  5
168
100
AcDbSymbolTableRecord
100
AcDbBlockTableRecord
  2
551287991_00001
  0
BLOCK_RECORD
  5
169
100
AcDbSymbolTableRecord
100
AcDbBlockTableRecord
  2
551287992_00002
  0
BLOCK_RECORD
  5
16A
100
AcDbSymbolTableRecord
100
AcDbBlockTableRecord
  2
551287993_00003
  0
BLOCK_RECORD
  5
16B
100
AcDbSymbolTableRecord
100
AcDbBlockTableRecord
  2
551287994_00004
  0
BLOCK_RECORD
  5
16C
100
AcDbSymbolTableRecord
100
AcDbBlockTableRecord
  2
551287998_00005
  0
BLOCK_RECORD
  5
16D
100
AcDbSymbolTableRecord
100
AcDbBlockTableRecord
  2
Teil_00006
  0
BLOCK_RECORD
  5
16E
100
AcDbSymbolTableRecord
100
AcDbBlockTableRecord
  2
Teil_00007
  0
BLOCK_RECORD
  5
16F
100
AcDbSymbolTableRecord
100
AcDbBlockTableRecord
  2
Teil_00008
  0
BLOCK_RECORD
  5
170
100
AcDbSymbolTableRecord
100
AcDbBlockTableRecord
  2
551288004_00009
  0
BLOCK_RECORD
  5
171
100
AcDbSymbolTableRecord
100
AcDbBlockTableRecord
  2
Symbol_00010
  0
BLOCK_RECORD
  5
172
100
AcDbSymbolTableRecord
100
AcDbBlockTableRecord
  2
Fadenkreuz_00011
  0
BLOCK_RECORD
  5
173
100
AcDbSymbolTableRecord
100
AcDbBlockTableRecord
  2
551288013_00012
  0
ENDTAB
  0
ENDSEC
  0
SECTION
  2
BLOCKS
  0
BLOCK
  5
174
100
AcDbEntity
  8
0
100
AcDbBlockBegin
  2
*Model_Space
 70
     0
 10
0.0
 20
0.0
 30
0.0
  3
*Model_Space
  1

  0
ENDBLK
  5
175
100
AcDbEntity
  8
0
100
AcDbBlockEnd
  0
BLOCK
  5
176
100
AcDbEntity
100
AcDbBlockBegin
 67
     1
  8
0
  2
*Paper_Space
 70
     0
 10
0.0
 20
0.0
 30
0.0
  3
*Paper_Space
  1

  0
ENDBLK
  5
177
100
AcDbEntity
100
AcDbBlockEnd
 67
     1
  8
0
  0
BLOCK
  5
178
100
AcDbEntity
  8
0
100
AcDbBlockBegin
  2
_D1
 70
    64
 10
0.0
 20
0.0
 30
0.0
  3
_D1
  0
LINE
  5
179
100
AcDbEntity
  8
DIM49
100
AcDbLine
 10
0.0
 20
-11.00000000
 30
0.0
 11
0.0
 21
-1.00000000
 31
0.0
  0
LINE
  5
17A
100
AcDbEntity
  8
DIM49
100
AcDbLine
 10
-0.53033009
 20
-10.53033009
 30
0.0
 11
0.53033009
 21
-9.46966991
 31
0.0
  0
LINE
  5
17B
100
AcDbEntity
  8
DIM49
100
AcDbLine
 10
254.00000000
 20
-11.00000000
 30
0.0
 11
254.00000000
 21
-1.00000000
 31
0.0
  0
LINE
  5
17C
100
AcDbEntity
  8
DIM49
100
AcDbLine
 10
254.53033009
 20
-9.46966991
 30
0.0
 11
253.46966991
 21
-10.53033009
 31
0.0
  0
LINE
  5
17D
100
AcDbEntity
  8
DIM49
100
AcDbLine
 10
0.0
 20
-10.00000000
 30
0.0
 11
254.00000000
 21
-10.00000000
 31
0.0
  0
TEXT
  5
17E
100
AcDbEntity
  8
TXT_DIM49
100
AcDbText
 10
124.42447809
 20
-9.00000000
 30
0.0
 40
3.00000000
  1
254
 50
0.0
 41
1.000
 51
0.0
  7
STANDARD
100
AcDbText
  0
ENDBLK
  5
17F
100
AcDbEntity
  8
0
100
AcDbBlockEnd
  0
BLOCK
  5
180
100
AcDbEntity
  8
0
100
AcDbBlockBegin
  2
_D2
 70
    64
 10
254.00000000
 20
0.0
 30
0.0
  3
_D2
  0
LINE
  5
181
100
AcDbEntity
  8
DIM49
100
AcDbLine
 10
265.00000000
 20
0.00000048
 30
0.0
 11
255.00000000
 21
0.00000004
 31
0.0
  0
LINE
  5
182
100
AcDbEntity
  8
DIM49
100
AcDbLine
 10
264.53033009
 20
-0.53032965
 30
0.0
 11
263.46966991
 21
0.53033052
 31
0.0
  0
LINE
  5
183
100
AcDbEntity
  8
DIM49
100
AcDbLine
 10
265.00000000
 20
302.00000048
 30
0.0
 11
255.00000000
 21
302.00000004
 31
0.0
  0
LINE
  5
184
100
AcDbEntity
  8
DIM49
100
AcDbLine
 10
263.46966991
 20
302.53033052
 30
0.0
 11
264.53033009
 21
301.46967035
 31
0.0
  0
LINE
  5
185
100
AcDbEntity
  8
DIM49
100
AcDbLine
 10
264.00000000
 20
0.00000044
 30
0.0
 11
264.00000000
 21
302.00000044
 31
0.0
  0
TEXT
  5
186
100
AcDbEntity
  8
TXT_DIM49
100
AcDbText
 10
263.00000000
 20
148.42447799
 30
0.0
 40
3.00000000
  1
302
 50
90.000000000
 41
1.000
 51
0.0
  7
STANDARD
100
AcDbText
  0
ENDBLK
  5
187
100
AcDbEntity
  8
0
100
AcDbBlockEnd
  0
BLOCK
  5
188
100
AcDbEntity
  8
0
100
AcDbBlockBegin
  2
551287991_00001
 70
    64
 10
0.0
 20
0.0
 30
0.0
  3
551287991_00001
  0
INSERT
  5
189
100
AcDbEntity
  8
0
100
AcDbBlockReference
  2
551287992_00002
 10
205.38877615
 20
234.96258027
 30
0.0
  0
INSERT
  5
18A
100
AcDbEntity
  8
0
100
AcDbBlockReference
  2
551287993_00003
 10
148.64012581
 20
111.76332635
 30
0.0
  0
INSERT
  5
18B
100
AcDbEntity
  8
0
100
AcDbBlockReference
  2
551287994_00004
 10
168.71156231
 20
84.09326491
 30
0.0
  0
ENDBLK
  5
18C
100
AcDbEntity
  8
0
100
AcDbBlockEnd
  0
BLOCK
  5
18D
100
AcDbEntity
  8
0
100
AcDbBlockBegin
  2
551287992_00002
 70
    64
 10
205.38877615
 20
234.96258027
 30
0.0
  3
551287992_00002
  0
ENDBLK
  5
18E
100
AcDbEntity
  8
0
100
AcDbBlockEnd
  0
BLOCK
  5
18F
100
AcDbEntity
  8
0
100
AcDbBlockBegin
  2
551287993_00003
 70
    64
 10
148.64012581
 20
111.76332635
 30
0.0
  3
551287993_00003
  0
ENDBLK
  5
190
100
AcDbEntity
  8
0
100
AcDbBlockEnd
  0
BLOCK
  5
191
100
AcDbEntity
  8
0
100
AcDbBlockBegin
  2
551287994_00004
 70
    64
 10
168.71156231
 20
84.09326491
 30
0.0
  3
551287994_00004
  0
ENDBLK
  5
192
100
AcDbEntity
  8
0
100
AcDbBlockEnd
  0
BLOCK
  5
193
100
AcDbEntity
  8
0
100
AcDbBlockBegin
  2
551287998_00005
 70
    64
 10
0.0
 20
0.0
 30
0.0
  3
551287998_00005
  0
INSERT
  5
194
100
AcDbEntity
  8
0
100
AcDbBlockReference
  2
Teil_00006
 10
108.00000000
 20
302.00000000
 30
0.0
  0
INSERT
  5
195
100
AcDbEntity
  8
0
100
AcDbBlockReference
  2
Teil_00007
 10
114.00000000
 20
56.00000000
 30
0.0
  0
INSERT
  5
196
100
AcDbEntity
  8
0
100
AcDbBlockReference
  2
Teil_00008
 10
56.00000000
 20
52.00000000
 30
0.0
  0
ENDBLK
  5
197
100
AcDbEntity
  8
0
100
AcDbBlockEnd
  0
BLOCK
  5
198
100
AcDbEntity
  8
0
100
AcDbBlockBegin
  2
Teil_00006
 70
    64
 10
108.00000000
 20
302.00000000
 30
0.0
  3
Teil_00006
  0
LINE
  5
199
100
AcDbEntity
  8
LE_HIDDEN
100
AcDbLine
  6
HIDDEN
 62
     1
 10
108.00000000
 20
302.00000000
 30
0.0
 11
108.00000000
 21
57.00000000
 31
0.0
  0
TEXT
  5
19A
100
AcDbEntity
  8
TXT_ALL
100
AcDbText
 62
     2
 10
107.00001361
 20
175.73907574
 30
0.0
 40
3.50000000
  1
-90°
 50
90.000207410
 41
1.000
 51
0.0
  7
STANDARD
100
AcDbText
  0
ENDBLK
  5
19B
100
AcDbEntity
  8
0
100
AcDbBlockEnd
  0
BLOCK
  5
19C
100
AcDbEntity
  8
0
100
AcDbBlockBegin
  2
Teil_00007
 70
    64
 10
114.00000000
 20
56.00000000
 30
0.0
  3
Teil_00007
  0
LINE
  5
19D
100
AcDbEntity
  8
LE_HIDDEN
100
AcDbLine
  6
HIDDEN
 62
     1
 10
114.00000000
 20
56.00000000
 30
0.0
 11
254.00000000
 21
56.00000000
 31
0.0
  0
TEXT
  5
19E
100
AcDbEntity
  8
TXT_ALL
100
AcDbText
 62
     2
 10
180.23907574
 20
57.00000000
 30
0.0
 40
3.50000000
  1
-90°
 50
0.0
 41
1.000
 51
0.0
  7
STANDARD
100
AcDbText
  0
ENDBLK
  5
19F
100
AcDbEntity
  8
0
100
AcDbBlockEnd
  0
BLOCK
  5
1A0
100
AcDbEntity
  8
0
100
AcDbBlockBegin
  2
Teil_00008
 70
    64
 10
56.00000000
 20
52.00000000
 30
0.0
  3
Teil_00008
  0
LINE
  5
1A1
100
AcDbEntity
  8
LE_ALL
100
AcDbLine
 62
     1
 10
56.00000000
 20
52.00000000
 30
0.0
 11
56.00000000
 21
302.00000000
 31
0.0
  0
TEXT
  5
1A2
100
AcDbEntity
  8
TXT_ALL
100
AcDbText
 62
     2
 10
55.00001127
 20
173.88675185
 30
0.0
 40
3.50000000
  1
90°
 50
90.000207410
 41
1.000
 51
0.0
  7
STANDARD
100
AcDbText
  0
ENDBLK
  5
1A3
100
AcDbEntity
  8
0
100
AcDbBlockEnd
  0
BLOCK
  5
1A4
100
AcDbEntity
  8
0
100
AcDbBlockBegin
  2
551288004_00009
 70
    64
 10
0.0
 20
0.0
 30
0.0
  3
551288004_00009
  0
INSERT
  5
1A5
100
AcDbEntity
  8
0
100
AcDbBlockReference
  2
Symbol_00010
 10
156.71156231
 20
76.09326491
 30
0.0
  0
ENDBLK
  5
1A6
100
AcDbEntity
  8
0
100
AcDbBlockEnd
  0
BLOCK
  5
1A7
100
AcDbEntity
  8
0
100
AcDbBlockBegin
  2
Symbol_00010
 70
    64
 10
156.71156231
 20
76.09326491
 30
0.0
  3
Symbol_00010
  0
POLYLINE
  5
1A8
100
AcDbEntity
  8
LE_ALL
100
AcDb2dPolyline
 62
     4
 66
     1
  0
VERTEX
  5
1A9
100
AcDbEntity
  8
LE_ALL
100
AcDbVertex
100
AcDb2dVertex
 10
156.71156231
 20
76.09326491
 30
0.0
  0
VERTEX
  5
1AA
100
AcDbEntity
  8
LE_ALL
100
AcDbVertex
100
AcDb2dVertex
 10
148.71156231
 20
84.09326491
 30
0.0
  0
VERTEX
  5
1AB
100
AcDbEntity
  8
LE_ALL
100
AcDbVertex
100
AcDb2dVertex
 10
188.71156231
 20
84.09326491
 30
0.0
  0
VERTEX
  5
1AC
100
AcDbEntity
  8
LE_ALL
100
AcDbVertex
100
AcDb2dVertex
 10
180.71156231
 20
92.09326491
 30
0.0
  0
SEQEND
  5
1AD
100
AcDbEntity
  8
LE_ALL
  0
ENDBLK
  5
1AE
100
AcDbEntity
  8
0
100
AcDbBlockEnd
  0
BLOCK
  5
1AF
100
AcDbEntity
  8
0
100
AcDbBlockBegin
  2
Fadenkreuz_00011
 70
    64
 10
205.38877615
 20
234.96258027
 30
0.0
  3
Fadenkreuz_00011
  0
LINE
  5
1B0
100
AcDbEntity
  8
LE_ALL
100
AcDbLine
  6
STRICHPUNKT2
 62
     1
 10
205.38877615
 20
234.96258027
 30
0.0
 11
205.38877615
 21
225.46258027
 31
0.0
  0
LINE
  5
1B1
100
AcDbEntity
  8
LE_ALL
100
AcDbLine
  6
STRICHPUNKT2
 62
     1
 10
205.38877615
 20
234.96258027
 30
0.0
 11
205.38877615
 21
244.46258027
 31
0.0
  0
LINE
  5
1B2
100
AcDbEntity
  8
LE_ALL
100
AcDbLine
  6
STRICHPUNKT2
 62
     1
 10
205.38877615
 20
234.96258027
 30
0.0
 11
214.88877615
 21
234.96258027
 31
0.0
  0
LINE
  5
1B3
100
AcDbEntity
  8
LE_ALL
100
AcDbLine
  6
STRICHPUNKT2
 62
     1
 10
205.38877615
 20
234.96258027
 30
0.0
 11
195.88877615
 21
234.96258027
 31
0.0
  0
LINE
  5
1B4
100
AcDbEntity
  8
LE_ALL
100
AcDbLine
  6
STRICHPUNKT2
 62
     1
 10
148.64012581
 20
111.76332635
 30
0.0
 11
148.64012581
 21
102.26332635
 31
0.0
  0
LINE
  5
1B5
100
AcDbEntity
  8
LE_ALL
100
AcDbLine
  6
STRICHPUNKT2
 62
     1
 10
148.64012581
 20
111.76332635
 30
0.0
 11
148.64012581
 21
121.26332635
 31
0.0
  0
LINE
  5
1B6
100
AcDbEntity
  8
LE_ALL
100
AcDbLine
  6
STRICHPUNKT2
 62
     1
 10
148.64012581
 20
111.76332635
 30
0.0
 11
158.14012581
 21
111.76332635
 31
0.0
  0
LINE
  5
1B7
100
AcDbEntity
  8
LE_ALL
100
AcDbLine
  6
STRICHPUNKT2
 62
     1
 10
148.64012581
 20
111.76332635
 30
0.0
 11
139.14012581
 21
111.76332635
 31
0.0
  0
ENDBLK
  5
1B8
100
AcDbEntity
  8
0
100
AcDbBlockEnd
  0
BLOCK
  5
1B9
100
AcDbEntity
  8
0
100
AcDbBlockBegin
  2
551288013_00012
 70
    64
 10
0.0
 20
0.0
 30
0.0
  3
551288013_00012
  0
INSERT
  5
1BA
100
AcDbEntity
  8
DIM49
100
AcDbBlockReference
  2
_D1
 10
0.0
 20
0.0
 30
0.0
 41
1.00000000
 42
1.00000000
 50
0.0
  0
INSERT
  5
1BB
100
AcDbEntity
  8
DIM49
100
AcDbBlockReference
  2
_D2
 10
254.00000000
 20
0.0
 30
0.0
 41
1.00000000
 42
1.00000000
 50
0.0
  0
ENDBLK
  5
1BC
100
AcDbEntity
  8
0
100
AcDbBlockEnd
  0
ENDSEC
  0
SECTION
  2
ENTITIES
  0
POLYLINE
  5
1BD
100
AcDbEntity
  8
0
100
AcDb2dPolyline
 66
     1
  0
VERTEX
  5
1BE
100
AcDbEntity
  8
0
100
AcDbVertex
100
AcDb2dVertex
 10
102.00000000
 20
52.00000000
 30
0.0
  0
VERTEX
  5
1BF
100
AcDbEntity
  8
0
100
AcDbVertex
100
AcDb2dVertex
 10
114.00000000
 20
62.00000000
 30
0.0
  0
VERTEX
  5
1C0
100
AcDbEntity
  8
0
100
AcDbVertex
100
AcDb2dVertex
 10
114.00000000
 20
0.0
 30
0.0
  0
VERTEX
  5
1C1
100
AcDbEntity
  8
0
100
AcDbVertex
100
AcDb2dVertex
 10
254.00000000
 20
0.0
 30
0.0
  0
VERTEX
  5
1C2
100
AcDbEntity
  8
0
100
AcDbVertex
100
AcDb2dVertex
 10
254.00000000
 20
302.00000000
 30
0.0
  0
VERTEX
  5
1C3
100
AcDbEntity
  8
0
100
AcDbVertex
100
AcDb2dVertex
 10
0.0
 20
302.00000000
 30
0.0
  0
VERTEX
  5
1C4
100
AcDbEntity
  8
0
100
AcDbVertex
100
AcDb2dVertex
 10
0.0
 20
52.00000000
 30
0.0
  0
VERTEX
  5
1C5
100
AcDbEntity
  8
0
100
AcDbVertex
100
AcDb2dVertex
 10
102.00000000
 20
52.00000000
 30
0.0
  0
SEQEND
  5
1C6
100
AcDbEntity
  8
0
  0
CIRCLE
  5
1C7
100
AcDbEntity
  8
LE_ALL
100
AcDbCircle
 10
148.64012581
 20
111.76332635
 30
0.0
 40
6.50000000
  0
CIRCLE
  5
1C8
100
AcDbEntity
  8
LE_ALL
100
AcDbCircle
 10
205.38877615
 20
234.96258027
 30
0.0
 40
6.50000000
  0
TEXT
  5
1C9
100
AcDbEntity
  8
TXT_ALL
100
AcDbText
 62
     1
 10
0.0
 20
-25.00000000
 30
0.0
 40
5.00000000
  1
Pos 1 , DD11 5mm, 1x
 50
0.0
 41
1.000
 51
0.0
  7
Arial
100
AcDbText
  0
INSERT
  5
1CA
100
AcDbEntity
  8
0
100
AcDbBlockReference
  2
551287991_00001
 10
0.0
 20
0.0
 30
0.0
  0
INSERT
  5
1CB
100
AcDbEntity
  8
0
100
AcDbBlockReference
  2
551287998_00005
 10
0.0
 20
0.0
 30
0.0
  0
INSERT
  5
1CC
100
AcDbEntity
  8
0
100
AcDbBlockReference
  2
551288004_00009
 10
0.0
 20
0.0
 30
0.0
  0
INSERT
  5
1CD
100
AcDbEntity
  8
0
100
AcDbBlockReference
  2
Fadenkreuz_00011
 10
205.38877615
 20
234.96258027
 30
0.0
  0
INSERT
  5
1CE
100
AcDbEntity
  8
0
100
AcDbBlockReference
  2
551288013_00012
 10
0.0
 20
0.0
 30
0.0
  0
ENDSEC
  0
SECTION
  2
OBJECTS
  0
DICTIONARY
  5
C
330
0
100
AcDbDictionary
281
     1
  3
ACAD_GROUP
350
D
  3
ACAD_LAYOUT
350
19
  3
ACAD_MLINESTYLE
350
16
  0
DICTIONARY
  5
115
330
1E
100
AcDbDictionary
280
     1
281
     1
  3
ACAD_INDEX
360
116
  0
DICTIONARY
  5
D
100
AcDbDictionary
281
     1
  0
DICTIONARY
  5
19
100
AcDbDictionary
281
     1
  3
Layout1
350
1D
  3
Model
350
21
  0
DICTIONARY
  5
16
100
AcDbDictionary
281
     1
  3
Standard
350
17
  0
DICTIONARY
  5
116
100
AcDbDictionary
281
     1
  3
*A1
350
117
  0
LAYOUT
  5
1D
100
AcDbPlotSettings
  1

  2
C:\Programme\MDT\plotters\DWF Classic.pc3
  4

  6

 40
0.0
 41
0.0
 42
0.0
 43
0.0
 44
0.0
 45
0.0
 46
0.0
 47
0.0
 48
0.0
 49
0.0
140
0.0
141
0.0
142
1.0
143
1.0
 70
   688
 72
     0
 73
     0
 74
     5
  7

 75
    16
147
1.0
148
0.0
149
0.0
100
AcDbLayout
  1
Layout1
 70
     1
 71
     1
 10
0.0
 20
0.0
 11
12.0
 21
9.0
 12
0.0
 22
0.0
 32
0.0
 14
1.000000000000000E+20
 24
1.000000000000000E+20
 34
1.000000000000000E+20
 15
-1.000000000000000E+20
 25
-1.000000000000000E+20
 35
-1.000000000000000E+20
146
0.0
 13
0.0
 23
0.0
 33
0.0
 16
1.0
 26
0.0
 36
0.0
 17
0.0
 27
1.0
 37
0.0
 76
     0
330
1A
  0
LAYOUT
  5
21
100
AcDbPlotSettings
  1

  2
C:\Programme\MDT\plotters\DWF Classic.pc3
  4

  6

 40
0.0
 41
0.0
 42
0.0
 43
0.0
 44
0.0
 45
0.0
 46
0.0
 47
0.0
 48
0.0
 49
0.0
140
0.0
141
0.0
142
1.0
143
1.0
 70
  1712
 72
     0
 73
     0
 74
     0
  7

 75
     0
147
1.0
148
0.0
149
0.0
100
AcDbLayout
  1
Model
 70
     1
 71
     0
 10
0.0
 20
0.0
 11
12.0
 21
9.0
 12
0.0
 22
0.0
 32
0.0
 14
0.0
 24
0.0
 34
0.0
 15
0.0
 25
0.0
 35
0.0
146
0.0
 13
0.0
 23
0.0
 33
0.0
 16
1.0
 26
0.0
 36
0.0
 17
0.0
 27
1.0
 37
0.0
 76
     0
330
1E
  0
MLINESTYLE
  5
17
100
AcDbMlineStyle
  2
STANDARD
 70
     0
  3

 62
   256
 51
90.0
 52
90.0
 71
     2
 49
0.5
 62
   256
  6
BYLAYER
 49
-0.5
 62
   256
  6
BYLAYER
  0
ACDBPLACEHOLDER
  5
F
  0
XRECORD
  5
129
100
AcDbXrecord
280
     1
 90
        0
  0
XRECORD
  5
12A
100
AcDbXrecord
280
     1
  1
{46C4153B-0B27-49FA-99B6-AF3E057D65BC}
  0
XRECORD
  5
122
100
AcDbXrecord
280
     1
  1

  0
XRECORD
  5
128
100
AcDbXrecord
280
     1
 90
        0
  0
XRECORD
  5
124
100
AcDbXrecord
280
     1
340
19
  0
XRECORD
  5
127
100
AcDbXrecord
280
     1
 90
    10781
  0
XRECORD
  5
125
100
AcDbXrecord
280
     1
340
18
  0
XRECORD
  5
126
100
AcDbXrecord
280
     1
340
E
  0
XRECORD
  5
12C
100
AcDbXrecord
280
     1
 40
0.0
  0
XRECORD
  5
12F
100
AcDbXrecord
280
     1
340
0
  0
XRECORD
  5
135
100
AcDbXrecord
280
     1
 10
0.0
 20
0.0
 30
0.0
  0
XRECORD
  5
131
100
AcDbXrecord
280
     1
 10
0.0
 20
0.0
 30
0.0
  0
XRECORD
  5
134
100
AcDbXrecord
280
     1
 10
0.0
 20
0.0
 30
0.0
  0
XRECORD
  5
132
100
AcDbXrecord
280
     1
 10
0.0
 20
0.0
 30
0.0
  0
XRECORD
  5
133
100
AcDbXrecord
280
     1
 10
0.0
 20
0.0
 30
0.0
  0
XRECORD
  5
130
100
AcDbXrecord
280
     1
 10
0.0
 20
0.0
 30
0.0
  0
XRECORD
  5
12D
100
AcDbXrecord
280
     1
340
0
  0
XRECORD
  5
12E
100
AcDbXrecord
280
     1
 70
     0
  0
XRECORD
  5
123
100
AcDbXrecord
280
     1
  1

  0
XRECORD
  5
120
100
AcDbXrecord
280
     1
 90
        1
  0
XRECORD
  5
121
100
AcDbXrecord
280
     1
 90
       70
  0
XRECORD
  5
138
100
AcDbXrecord
280
     1
340
0
  0
XRECORD
  5
13E
100
AcDbXrecord
280
     1
 10
0.0
 20
0.0
 30
0.0
  0
XRECORD
  5
13A
100
AcDbXrecord
280
     1
 10
0.0
 20
0.0
 30
0.0
  0
XRECORD
  5
13D
100
AcDbXrecord
280
     1
 10
0.0
 20
0.0
 30
0.0
  0
XRECORD
  5
13B
100
AcDbXrecord
280
     1
 10
0.0
 20
0.0
 30
0.0
  0
XRECORD
  5
13C
100
AcDbXrecord
280
     1
 10
0.0
 20
0.0
 30
0.0
  0
XRECORD
  5
139
100
AcDbXrecord
280
     1
 10
0.0
 20
0.0
 30
0.0
  0
XRECORD
  5
136
100
AcDbXrecord
280
     1
340
0
  0
XRECORD
  5
137
100
AcDbXrecord
280
     1
 70
     0
  0
XRECORD
  5
12B
100
AcDbXrecord
280
     1
  1
{09700D79-BD6A-4B2C-8A65-8ED4ED61BA28}
  0
DICTIONARYVAR
  5
11D
100
DictionaryVariables
280
     0
  1
1
  0
ENDSEC
  0
EOF
