ISO-10303-21;
HEADER;
FILE_DESCRIPTION(('Creo Elements/Direct Modeling STEP Export'),'2;1');
FILE_NAME('zylinder.stp','2020-08-20T13:38:52',(''),(''),
'Creo Elements/Direct Modeling STEP processor for AP214 (Solid Model)',
'Creo Elements/Direct Modeling 19.0G  27-Nov-2017 (C) Parametric Technol
ogy GmbH','');
FILE_SCHEMA(('AUTOMOTIVE_DESIGN { 1 0 10303 214 1 1 1 1 }'));
ENDSEC;
DATA;
#10=CARTESIAN_POINT('',(0.,0.,0.));
#20=DIRECTION('',(0.,0.,1.));
#30=DIRECTION('',(1.,0.,0.));
#40=AXIS2_PLACEMENT_3D('',#10,#20,#30);
#50=PLANE('',#40);
#60=CARTESIAN_POINT('',(0.,0.,0.));
#70=DIRECTION('',(0.,0.,1.));
#80=DIRECTION('',(1.,0.,0.));
#90=AXIS2_PLACEMENT_3D('',#60,#70,#80);
#100=CIRCLE('',#90,10.);
#110=CARTESIAN_POINT('',(10.,0.,0.));
#120=VERTEX_POINT('',#110);
#130=CARTESIAN_POINT('',(-10.,1.22464679914735E-15,0.));
#140=VERTEX_POINT('',#130);
#150=EDGE_CURVE('',#120,#140,#100,.T.);
#160=ORIENTED_EDGE('',*,*,#150,.F.);
#170=EDGE_CURVE('',#140,#120,#100,.T.);
#180=ORIENTED_EDGE('',*,*,#170,.F.);
#190=EDGE_LOOP('',(#180,#160));
#200=FACE_OUTER_BOUND('',#190,.T.);
#210=ADVANCED_FACE('',(#200),#50,.F.);
#220=CARTESIAN_POINT('',(0.,0.,20.));
#230=DIRECTION('',(0.,0.,1.));
#240=DIRECTION('',(1.,0.,0.));
#250=AXIS2_PLACEMENT_3D('',#220,#230,#240);
#260=PLANE('',#250);
#270=CARTESIAN_POINT('',(0.,0.,20.));
#280=DIRECTION('',(0.,0.,1.));
#290=DIRECTION('',(1.,0.,0.));
#300=AXIS2_PLACEMENT_3D('',#270,#280,#290);
#310=CIRCLE('',#300,10.);
#320=CARTESIAN_POINT('',(10.,0.,20.));
#330=VERTEX_POINT('',#320);
#340=CARTESIAN_POINT('',(-10.,1.22464679914735E-15,20.));
#350=VERTEX_POINT('',#340);
#360=EDGE_CURVE('',#330,#350,#310,.T.);
#370=ORIENTED_EDGE('',*,*,#360,.T.);
#380=EDGE_CURVE('',#350,#330,#310,.T.);
#390=ORIENTED_EDGE('',*,*,#380,.T.);
#400=EDGE_LOOP('',(#390,#370));
#410=FACE_OUTER_BOUND('',#400,.T.);
#420=ADVANCED_FACE('',(#410),#260,.T.);
#430=CARTESIAN_POINT('',(0.,0.,0.));
#440=DIRECTION('',(0.,0.,1.));
#450=DIRECTION('',(1.,0.,0.));
#460=AXIS2_PLACEMENT_3D('',#430,#440,#450);
#470=CYLINDRICAL_SURFACE('',#460,10.);
#480=CARTESIAN_POINT('',(10.,0.,0.));
#490=DIRECTION('',(0.,0.,1.));
#500=VECTOR('',#490,1.);
#510=LINE('',#480,#500);
#520=EDGE_CURVE('',#120,#330,#510,.T.);
#530=ORIENTED_EDGE('',*,*,#520,.T.);
#540=ORIENTED_EDGE('',*,*,#170,.T.);
#550=CARTESIAN_POINT('',(-10.,1.22464679914735E-15,0.));
#560=DIRECTION('',(0.,0.,1.));
#570=VECTOR('',#560,1.);
#580=LINE('',#550,#570);
#590=EDGE_CURVE('',#140,#350,#580,.T.);
#600=ORIENTED_EDGE('',*,*,#590,.F.);
#610=ORIENTED_EDGE('',*,*,#380,.F.);
#620=EDGE_LOOP('',(#610,#600,#540,#530));
#630=FACE_OUTER_BOUND('',#620,.T.);
#640=ADVANCED_FACE('',(#630),#470,.T.);
#650=CARTESIAN_POINT('',(0.,0.,0.));
#660=DIRECTION('',(0.,0.,1.));
#670=DIRECTION('',(1.,0.,0.));
#680=AXIS2_PLACEMENT_3D('',#650,#660,#670);
#690=CYLINDRICAL_SURFACE('',#680,10.);
#700=ORIENTED_EDGE('',*,*,#360,.F.);
#710=ORIENTED_EDGE('',*,*,#590,.T.);
#720=ORIENTED_EDGE('',*,*,#150,.T.);
#730=ORIENTED_EDGE('',*,*,#520,.F.);
#740=EDGE_LOOP('',(#730,#720,#710,#700));
#750=FACE_OUTER_BOUND('',#740,.T.);
#760=ADVANCED_FACE('',(#750),#690,.T.);
#770=CLOSED_SHELL('',(#640,#760,#420,#210));
#780=MANIFOLD_SOLID_BREP('',#770);
#790=CARTESIAN_POINT('',(0.,0.,0.));
#800=DIRECTION('',(0.,0.,1.));
#810=DIRECTION('',(1.,0.,0.));
#820=AXIS2_PLACEMENT_3D('',#790,#800,#810);
#830=APPLICATION_CONTEXT(' ');
#840=APPLICATION_PROTOCOL_DEFINITION(' ','automotive_design',1998,#830);
#850=PRODUCT_CONTEXT('',#830,'mechanical');
#860=PRODUCT_DEFINITION_CONTEXT('part definition',#830,'design');
#870=PRODUCT('T1','T1','',(#850));
#880=PRODUCT_RELATED_PRODUCT_CATEGORY('part',' ',(#870));
#890=PRODUCT_DEFINITION_FORMATION_WITH_SPECIFIED_SOURCE('','',#870,
.BOUGHT.);
#900=PRODUCT_DEFINITION('',' ',#890,#860);
#910=PRODUCT_DEFINITION_SHAPE('','',#900);
#920=DIMENSIONAL_EXPONENTS(1.,0.,0.,0.,0.,0.,0.);
#930=DIMENSIONAL_EXPONENTS(0.,0.,0.,0.,0.,0.,0.);
#940=DIMENSIONAL_EXPONENTS(0.,0.,0.,0.,0.,0.,0.);
#950=(LENGTH_UNIT() NAMED_UNIT(*) SI_UNIT(.MILLI.,.METRE.));
#960=(NAMED_UNIT(*) PLANE_ANGLE_UNIT() SI_UNIT($,.RADIAN.));
#970=(NAMED_UNIT(*) SI_UNIT($,.STERADIAN.) SOLID_ANGLE_UNIT());
#980=(GEOMETRIC_REPRESENTATION_CONTEXT(3) 
GLOBAL_UNCERTAINTY_ASSIGNED_CONTEXT((#990)) GLOBAL_UNIT_ASSIGNED_CONTEXT
((#950,#960,#970)) REPRESENTATION_CONTEXT('',''));
#990=UNCERTAINTY_MEASURE_WITH_UNIT(LENGTH_MEASURE(1.E-6),#950,
'distance_accuracy_value','maximum gap value');
#1000=ADVANCED_BREP_SHAPE_REPRESENTATION('',(#820,#780),#980);
#1010=SHAPE_DEFINITION_REPRESENTATION(#910,#1000);
#1020=COLOUR_RGB('',0.600000023841858,0.600000023841858,
0.600000023841858);
#1030=FILL_AREA_STYLE_COLOUR('',#1020);
#1040=FILL_AREA_STYLE('',(#1030));
#1050=SURFACE_STYLE_FILL_AREA(#1040);
#1060=SURFACE_SIDE_STYLE('',(#1050));
#1070=SURFACE_STYLE_USAGE(.BOTH.,#1060);
#1080=PRESENTATION_STYLE_ASSIGNMENT((#1070));
#1090=STYLED_ITEM('',(#1080),#780);
#1100=DRAUGHTING_MODEL('',(#1090),#980);
ENDSEC;
END-ISO-10303-21;
