  0
SECTION
  2
HEADER
  9
$ACADVER
  1
AC1014
  9
$HANDSEED
  5
FFFF
  9
$MEASUREMENT
 70
     1
  0
ENDSEC
  0
SECTION
  2
TABLES
  0
TABLE
  2
VPORT
  5
8
330
0
100
AcDbSymbolTable
 70
     4
  0
VPORT
  5
2E
330
8
100
AcDbSymbolTableRecord
100
AcDbViewportTableRecord
  2
*ACTIVE
 70
     0
 10
0.0
 20
0.0
 11
1.0
 21
1.0
 12
210.0
 22
148.5
 13
0.0
 23
0.0
 14
10.0
 24
10.0
 15
10.0
 25
10.0
 16
0.0
 26
0.0
 36
1.0
 17
0.0
 27
0.0
 37
0.0
 40
341.0
 41
1.24
 42
50.0
 43
0.0
 44
0.0
 50
0.0
 51
0.0
 71
     0
 72
   100
 73
     1
 74
     3
 75
     0
 76
     0
 77
     0
 78
     0
  0
ENDTAB
  0
TABLE
  2
LTYPE
  5
5
330
0
100
AcDbSymbolTable
 70
     1
  0
LTYPE
  5
14
330
5
100
AcDbSymbolTableRecord
100
AcDbLinetypeTableRecord
  2
BYBLOCK
 70
     0
  3

 72
    65
 73
     0
 40
0.0
  0
LTYPE
  5
15
330
5
100
AcDbSymbolTableRecord
100
AcDbLinetypeTableRecord
  2
BYLAYER
 70
     0
  3

 72
    65
 73
     0
 40
0.0
  0
LTYPE
  5
16
330
5
100
AcDbSymbolTableRecord
100
AcDbLinetypeTableRecord
  2
CONTINUOUS
 70
     0
  3
Solid line
 72
    65
 73
     0
 40
0.0
  0
ENDTAB
  0
TABLE
  2
LAYER
  5
2
100
AcDbSymbolTable
 70
17
  0
LAYER
  5
50
100
AcDbSymbolTableRecord
100
AcDbLayerTableRecord
  2
0
 70
0
  6
CONTINUOUS
  0
LAYER
  5
51
100
AcDbSymbolTableRecord
100
AcDbLayerTableRecord
  2
DEFAULT_1
 70
0
  6
CONTINUOUS
  0
LAYER
  5
52
100
AcDbSymbolTableRecord
100
AcDbLayerTableRecord
  2
DEFAULT_2
 70
0
  6
CONTINUOUS
  0
LAYER
  5
53
100
AcDbSymbolTableRecord
100
AcDbLayerTableRecord
  2
DEFAULT_3
 70
0
  6
CONTINUOUS
  0
LAYER
  5
54
100
AcDbSymbolTableRecord
100
AcDbLayerTableRecord
  2
_00_HILFEN
 70
0
  6
CONTINUOUS
  0
LAYER
  5
55
100
AcDbSymbolTableRecord
100
AcDbLayerTableRecord
  2
_00_PLATZIERUNG
 70
0
  6
CONTINUOUS
  0
LAYER
  5
56
100
AcDbSymbolTableRecord
100
AcDbLayerTableRecord
  2
_00_PRT_START_FEATURES
 70
0
  6
CONTINUOUS
  0
LAYER
  5
57
100
AcDbSymbolTableRecord
100
AcDbLayerTableRecord
  2
_03_2D_ZEICHNUNG_BEMASSUNGEN
 70
0
  6
CONTINUOUS
  0
LAYER
  5
58
100
AcDbSymbolTableRecord
100
AcDbLayerTableRecord
  2
_04_NOTIZEN
 70
0
  6
CONTINUOUS
  0
LAYER
  5
59
100
AcDbSymbolTableRecord
100
AcDbLayerTableRecord
  2
_05_2D_ELEMENTE
 70
0
  6
CONTINUOUS
  0
LAYER
  5
5a
100
AcDbSymbolTableRecord
100
AcDbLayerTableRecord
  2
_21_KURVEN
 70
0
  6
CONTINUOUS
  0
LAYER
  5
5b
100
AcDbSymbolTableRecord
100
AcDbLayerTableRecord
  2
_22_FLAECHEN
 70
0
  6
CONTINUOUS
  0
LAYER
  5
5c
100
AcDbSymbolTableRecord
100
AcDbLayerTableRecord
  2
_26_BEZUGSACHSEN
 70
0
  6
CONTINUOUS
  0
LAYER
  5
5d
100
AcDbSymbolTableRecord
100
AcDbLayerTableRecord
  2
_27_BEZUGSEBENEN
 70
0
  6
CONTINUOUS
  0
LAYER
  5
5e
100
AcDbSymbolTableRecord
100
AcDbLayerTableRecord
  2
_29_KOORDINATENSYSTEME
 70
0
  6
CONTINUOUS
  0
LAYER
  5
5f
100
AcDbSymbolTableRecord
100
AcDbLayerTableRecord
  2
_30_VOLUMEN
 70
0
  6
CONTINUOUS
  0
LAYER
  5
60
100
AcDbSymbolTableRecord
100
AcDbLayerTableRecord
  2
_34_BOHRUNGEN
 70
0
  6
CONTINUOUS
  0
ENDTAB
  0
TABLE
  2
STYLE
  5
3
330
0
100
AcDbSymbolTable
 70
     1
  0
STYLE
  5
11
330
3
100
AcDbSymbolTableRecord
100
AcDbTextStyleTableRecord
  2
STANDARD
 70
     0
 40
0.0
 41
1.0
 50
0.0
 71
     0
 42
2.5
  3
txt
  4

  0
ENDTAB
  0
TABLE
  2
VIEW
  5
6
330
0
100
AcDbSymbolTable
 70
     0
  0
ENDTAB
  0
TABLE
  2
UCS
  5
7
330
0
100
AcDbSymbolTable
 70
     0
  0
ENDTAB
  0
TABLE
  2
APPID
  5
9
330
0
100
AcDbSymbolTable
 70
     2
  0
APPID
  5
12
330
9
100
AcDbSymbolTableRecord
100
AcDbRegAppTableRecord
  2
ACAD
 70
     0
  0
ENDTAB
  0
TABLE
  2
DIMSTYLE
  5
A
330
0
100
AcDbSymbolTable
 70
     1
  0
DIMSTYLE
105
27
330
A
100
AcDbSymbolTableRecord
100
AcDbDimStyleTableRecord
  2
ISO-25
 70
     0
  3

  4

  5

  6

  7

 40
1.0
 41
2.5
 42
0.625
 43
3.75
 44
1.25
 45
0.0
 46
0.0
 47
0.0
 48
0.0
140
2.5
141
2.5
142
0.0
143
0.03937007874016
144
1.0
145
0.0
146
1.0
147
0.625
 71
     0
 72
     0
 73
     0
 74
     0
 75
     0
 76
     0
 77
     1
 78
     8
170
     0
171
     3
172
     1
173
     0
174
     0
175
     0
176
     0
177
     0
178
     0
270
     2
271
     2
272
     2
273
     2
274
     3
340
11
275
     0
280
     0
281
     0
282
     0
283
     0
284
     8
285
     0
286
     0
287
     3
288
     0
  0
ENDTAB
  0
TABLE
  2
BLOCK_RECORD
  5
1
330
0
100
AcDbSymbolTable
 70
     1
  0
BLOCK_RECORD
  5
1F
330
1
100
AcDbSymbolTableRecord
100
AcDbBlockTableRecord
  2
*MODEL_SPACE
  0
BLOCK_RECORD
  5
1B
330
1
100
AcDbSymbolTableRecord
100
AcDbBlockTableRecord
  2
*PAPER_SPACE
  0
ENDTAB
  0
ENDSEC
  0
SECTION
  2
BLOCKS
  0
BLOCK
  5
20
330
1F
100
AcDbEntity
  8
0
100
AcDbBlockBegin
  2
*MODEL_SPACE
 70
     0
 10
0.0
 20
0.0
 30
0.0
  3
*MODEL_SPACE
  1

  0
ENDBLK
  5
21
330
1F
100
AcDbEntity
  8
0
100
AcDbBlockEnd
  0
BLOCK
  5
1C
330
1B
100
AcDbEntity
 67
     1
  8
0
100
AcDbBlockBegin
  2
*PAPER_SPACE
  1

  0
ENDBLK
  5
1D
330
1B
100
AcDbEntity
 67
     1
  8
0
100
AcDbBlockEnd
  0
ENDSEC
  0
SECTION
  2
ENTITIES
  0
LINE
  5
100
100
AcDbEntity
  8
_26_BEZUGSACHSEN
 62
7
100
AcDbLine
 10
41.991266
 20
254.867894
 30
0.0
 11
41.991266
 21
56.475541
 31
0.0
  0
LINE
  5
101
100
AcDbEntity
  8
_26_BEZUGSACHSEN
 62
7
100
AcDbLine
 10
41.991266
 20
56.475541
 30
0.0
 11
664.074195
 21
56.475541
 31
0.0
  0
LINE
  5
102
100
AcDbEntity
  8
_26_BEZUGSACHSEN
 62
7
100
AcDbLine
 10
41.991266
 20
254.867894
 30
0.0
 11
664.074195
 21
254.867894
 31
0.0
  0
LINE
  5
103
100
AcDbEntity
  8
_26_BEZUGSACHSEN
 62
7
100
AcDbLine
 10
664.074195
 20
56.475541
 30
0.0
 11
664.074195
 21
254.867894
 31
0.0
  0
LINE
  5
104
100
AcDbEntity
  8
_26_BEZUGSACHSEN
 62
7
100
AcDbLine
 10
382.791575
 20
215.189422
 30
0.0
 11
382.791575
 21
215.189422
 31
0.0
  0
SPLINE
  5
105
100
AcDbEntity
  8
_26_BEZUGSACHSEN
 62
7
100
AcDbSpline
 70
0
 71
3
 72
22
 73
18
 74
16
 40
0.000000
 40
0.000000
 40
0.000000
 40
0.000000
 40
3.462333
 40
6.875095
 40
10.337428
 40
13.799761
 40
17.212523
 40
20.674857
 40
24.137190
 40
27.549952
 40
31.012285
 40
36.197740
 40
41.229452
 40
46.414907
 40
51.600361
 40
56.632073
 40
61.817528
 40
61.817528
 40
61.817528
 40
61.817528
 10
382.791575
 20
215.189422
 30
0.0
 10
382.673395
 20
216.349462
 30
0.0
 10
382.438728
 20
218.652933
 30
0.0
 10
380.613124
 20
221.697340
 30
0.0
 10
377.939490
 20
223.960868
 30
0.0
 10
374.628368
 20
225.161395
 30
0.0
 10
371.114775
 20
225.161427
 30
0.0
 10
367.808365
 20
223.960770
 30
0.0
 10
365.115916
 20
221.697699
 30
0.0
 10
363.360221
 20
218.651610
 30
0.0
 10
362.640709
 20
214.618176
 30
0.0
 10
363.885416
 20
209.993766
 30
0.0
 10
367.676923
 20
206.205861
 30
0.0
 10
372.880964
 20
204.799966
 30
0.0
 10
378.031502
 20
206.205120
 30
0.0
 10
381.980345
 20
209.996667
 30
0.0
 10
382.518466
 20
213.441226
 30
0.0
 10
382.791575
 20
215.189422
 30
0.0
 11
382.791575
 21
215.189422
 31
0.0
 11
382.188621
 21
218.598850
 31
0.0
 11
380.482905
 21
221.554772
 31
0.0
 11
377.832733
 21
223.782852
 31
0.0
 11
374.578339
 21
224.964660
 31
0.0
 11
371.165577
 21
224.964660
 31
0.0
 11
367.911183
 21
223.782852
 31
0.0
 11
365.261011
 21
221.554772
 31
0.0
 11
363.555294
 21
218.598850
 31
0.0
 11
362.952340
 21
215.189422
 31
0.0
 11
364.307771
 21
210.184250
 31
0.0
 11
367.866328
 21
206.626892
 31
0.0
 11
372.871958
 21
205.273151
 31
0.0
 11
377.877587
 21
206.626892
 31
0.0
 11
381.436145
 21
210.184250
 31
0.0
 11
382.791575
 21
215.189422
 31
0.0
  0
SPLINE
  5
106
100
AcDbEntity
  8
_26_BEZUGSACHSEN
 62
7
100
AcDbSpline
 70
0
 71
3
 72
16
 73
12
 74
10
 40
0.000000
 40
0.000000
 40
0.000000
 40
0.000000
 40
3.462333
 40
6.875095
 40
10.337428
 40
13.799761
 40
17.212523
 40
20.674857
 40
24.137190
 40
27.549952
 40
31.012285
 40
31.012285
 40
31.012285
 40
31.012285
 10
531.585847
 20
215.189422
 30
0.0
 10
531.467669
 20
216.349462
 30
0.0
 10
531.233005
 20
218.652933
 30
0.0
 10
529.407376
 20
221.697340
 30
0.0
 10
526.733840
 20
223.960867
 30
0.0
 10
523.422354
 20
225.161402
 30
0.0
 10
519.910106
 20
225.161402
 30
0.0
 10
516.598620
 20
223.960867
 30
0.0
 10
513.925084
 20
221.697340
 30
0.0
 10
512.099455
 20
218.652933
 30
0.0
 10
511.864791
 20
216.349462
 30
0.0
 10
511.746613
 20
215.189422
 30
0.0
 11
531.585847
 21
215.189422
 31
0.0
 11
530.982893
 21
218.598850
 31
0.0
 11
529.277177
 21
221.554772
 31
0.0
 11
526.627005
 21
223.782852
 31
0.0
 11
523.372611
 21
224.964660
 31
0.0
 11
519.959849
 21
224.964660
 31
0.0
 11
516.705455
 21
223.782852
 31
0.0
 11
514.055283
 21
221.554772
 31
0.0
 11
512.349567
 21
218.598850
 31
0.0
 11
511.746613
 21
215.189422
 31
0.0
  0
LINE
  5
107
100
AcDbEntity
  8
_26_BEZUGSACHSEN
 62
7
100
AcDbLine
 10
531.585847
 20
215.189422
 30
0.0
 11
531.585847
 21
215.189422
 31
0.0
  0
SPLINE
  5
108
100
AcDbEntity
  8
_26_BEZUGSACHSEN
 62
7
100
AcDbSpline
 70
0
 71
3
 72
16
 73
12
 74
10
 40
0.000000
 40
0.000000
 40
0.000000
 40
0.000000
 40
3.462333
 40
6.875095
 40
10.337428
 40
13.799761
 40
17.212523
 40
20.674857
 40
24.137190
 40
27.549952
 40
31.012285
 40
31.012285
 40
31.012285
 40
31.012285
 10
511.746613
 20
215.189422
 30
0.0
 10
511.864791
 20
214.029382
 30
0.0
 10
512.099455
 20
211.725912
 30
0.0
 10
513.925084
 20
208.681504
 30
0.0
 10
516.598620
 20
206.417978
 30
0.0
 10
519.910106
 20
205.217443
 30
0.0
 10
523.422354
 20
205.217443
 30
0.0
 10
526.733840
 20
206.417978
 30
0.0
 10
529.407376
 20
208.681504
 30
0.0
 10
531.233005
 20
211.725912
 30
0.0
 10
531.467669
 20
214.029382
 30
0.0
 10
531.585847
 20
215.189422
 30
0.0
 11
511.746613
 21
215.189422
 31
0.0
 11
512.349567
 21
211.779994
 31
0.0
 11
514.055283
 21
208.824072
 31
0.0
 11
516.705455
 21
206.595993
 31
0.0
 11
519.959849
 21
205.414184
 31
0.0
 11
523.372611
 21
205.414184
 31
0.0
 11
526.627005
 21
206.595993
 31
0.0
 11
529.277177
 21
208.824072
 31
0.0
 11
530.982893
 21
211.779994
 31
0.0
 11
531.585847
 21
215.189422
 31
0.0
  0
LINE
  5
109
100
AcDbEntity
  8
_26_BEZUGSACHSEN
 62
7
100
AcDbLine
 10
382.791575
 20
96.154013
 30
0.0
 11
382.791575
 21
96.154013
 31
0.0
  0
SPLINE
  5
10a
100
AcDbEntity
  8
_26_BEZUGSACHSEN
 62
7
100
AcDbSpline
 70
0
 71
3
 72
22
 73
18
 74
16
 40
0.000000
 40
0.000000
 40
0.000000
 40
0.000000
 40
3.462333
 40
6.875095
 40
10.337428
 40
13.799761
 40
17.212523
 40
20.674857
 40
24.137190
 40
27.549952
 40
31.012285
 40
36.197740
 40
41.229452
 40
46.414907
 40
51.600361
 40
56.632073
 40
61.817528
 40
61.817528
 40
61.817528
 40
61.817528
 10
382.791575
 20
96.154013
 30
0.0
 10
382.673395
 20
97.314053
 30
0.0
 10
382.438728
 20
99.617523
 30
0.0
 10
380.613124
 20
102.661930
 30
0.0
 10
377.939490
 20
104.925459
 30
0.0
 10
374.628368
 20
106.125985
 30
0.0
 10
371.114775
 20
106.126018
 30
0.0
 10
367.808365
 20
104.925360
 30
0.0
 10
365.115916
 20
102.662289
 30
0.0
 10
363.360221
 20
99.616200
 30
0.0
 10
362.640709
 20
95.582767
 30
0.0
 10
363.885416
 20
90.958356
 30
0.0
 10
367.676923
 20
87.170452
 30
0.0
 10
372.880964
 20
85.764557
 30
0.0
 10
378.031502
 20
87.169710
 30
0.0
 10
381.980345
 20
90.961257
 30
0.0
 10
382.518466
 20
94.405817
 30
0.0
 10
382.791575
 20
96.154013
 30
0.0
 11
382.791575
 21
96.154013
 31
0.0
 11
382.188621
 21
99.563441
 31
0.0
 11
380.482905
 21
102.519363
 31
0.0
 11
377.832733
 21
104.747442
 31
0.0
 11
374.578339
 21
105.929251
 31
0.0
 11
371.165577
 21
105.929251
 31
0.0
 11
367.911183
 21
104.747442
 31
0.0
 11
365.261011
 21
102.519363
 31
0.0
 11
363.555294
 21
99.563441
 31
0.0
 11
362.952340
 21
96.154013
 31
0.0
 11
364.307771
 21
91.148840
 31
0.0
 11
367.866328
 21
87.591483
 31
0.0
 11
372.871958
 21
86.237741
 31
0.0
 11
377.877587
 21
87.591483
 31
0.0
 11
381.436145
 21
91.148840
 31
0.0
 11
382.791575
 21
96.154013
 31
0.0
  0
SPLINE
  5
10b
100
AcDbEntity
  8
_26_BEZUGSACHSEN
 62
7
100
AcDbSpline
 70
0
 71
3
 72
16
 73
12
 74
10
 40
0.000000
 40
0.000000
 40
0.000000
 40
0.000000
 40
3.462333
 40
6.875095
 40
10.337428
 40
13.799761
 40
17.212523
 40
20.674857
 40
24.137190
 40
27.549952
 40
31.012285
 40
31.012285
 40
31.012285
 40
31.012285
 10
531.585847
 20
96.154013
 30
0.0
 10
531.467669
 20
97.314052
 30
0.0
 10
531.233005
 20
99.617523
 30
0.0
 10
529.407376
 20
102.661931
 30
0.0
 10
526.733840
 20
104.925457
 30
0.0
 10
523.422354
 20
106.125992
 30
0.0
 10
519.910106
 20
106.125992
 30
0.0
 10
516.598620
 20
104.925457
 30
0.0
 10
513.925084
 20
102.661931
 30
0.0
 10
512.099455
 20
99.617523
 30
0.0
 10
511.864791
 20
97.314052
 30
0.0
 10
511.746613
 20
96.154013
 30
0.0
 11
531.585847
 21
96.154013
 31
0.0
 11
530.982893
 21
99.563441
 31
0.0
 11
529.277177
 21
102.519363
 31
0.0
 11
526.627005
 21
104.747442
 31
0.0
 11
523.372611
 21
105.929251
 31
0.0
 11
519.959849
 21
105.929251
 31
0.0
 11
516.705455
 21
104.747442
 31
0.0
 11
514.055283
 21
102.519363
 31
0.0
 11
512.349567
 21
99.563441
 31
0.0
 11
511.746613
 21
96.154013
 31
0.0
  0
LINE
  5
10c
100
AcDbEntity
  8
_26_BEZUGSACHSEN
 62
7
100
AcDbLine
 10
531.585847
 20
96.154013
 30
0.0
 11
531.585847
 21
96.154013
 31
0.0
  0
SPLINE
  5
10d
100
AcDbEntity
  8
_26_BEZUGSACHSEN
 62
7
100
AcDbSpline
 70
0
 71
3
 72
16
 73
12
 74
10
 40
0.000000
 40
0.000000
 40
0.000000
 40
0.000000
 40
3.462333
 40
6.875095
 40
10.337428
 40
13.799761
 40
17.212523
 40
20.674857
 40
24.137190
 40
27.549952
 40
31.012285
 40
31.012285
 40
31.012285
 40
31.012285
 10
511.746613
 20
96.154013
 30
0.0
 10
511.864791
 20
94.993973
 30
0.0
 10
512.099455
 20
92.690502
 30
0.0
 10
513.925084
 20
89.646095
 30
0.0
 10
516.598620
 20
87.382568
 30
0.0
 10
519.910106
 20
86.182033
 30
0.0
 10
523.422354
 20
86.182033
 30
0.0
 10
526.733840
 20
87.382568
 30
0.0
 10
529.407376
 20
89.646095
 30
0.0
 10
531.233005
 20
92.690502
 30
0.0
 10
531.467669
 20
94.993973
 30
0.0
 10
531.585847
 20
96.154013
 30
0.0
 11
511.746613
 21
96.154013
 31
0.0
 11
512.349567
 21
92.744585
 31
0.0
 11
514.055283
 21
89.788663
 31
0.0
 11
516.705455
 21
87.560583
 31
0.0
 11
519.959849
 21
86.378775
 31
0.0
 11
523.372611
 21
86.378775
 31
0.0
 11
526.627005
 21
87.560583
 31
0.0
 11
529.277177
 21
89.788663
 31
0.0
 11
530.982893
 21
92.744585
 31
0.0
 11
531.585847
 21
96.154013
 31
0.0
  0
SPLINE
  5
10e
100
AcDbEntity
  8
_26_BEZUGSACHSEN
 62
7
100
AcDbSpline
 70
0
 71
3
 72
16
 73
12
 74
10
 40
0.000000
 40
0.000000
 40
0.000000
 40
0.000000
 40
1.385212
 40
2.750583
 40
4.135795
 40
5.521007
 40
6.886378
 40
8.271590
 40
9.656802
 40
11.022173
 40
12.407385
 40
12.407385
 40
12.407385
 40
12.407385
 10
95.557202
 20
215.189422
 30
0.0
 10
95.510058
 20
215.653547
 30
0.0
 10
95.416445
 20
216.575150
 30
0.0
 10
94.686293
 20
217.793322
 30
0.0
 10
93.616786
 20
218.699069
 30
0.0
 10
92.291950
 20
219.179476
 30
0.0
 10
90.886760
 20
219.179476
 30
0.0
 10
89.561924
 20
218.699069
 30
0.0
 10
88.492416
 20
217.793322
 30
0.0
 10
87.762265
 20
216.575150
 30
0.0
 10
87.668652
 20
215.653547
 30
0.0
 10
87.621508
 20
215.189422
 30
0.0
 11
95.557202
 21
215.189422
 31
0.0
 11
95.316354
 21
216.553535
 31
0.0
 11
94.634183
 21
217.736279
 31
0.0
 11
93.574027
 21
218.627839
 31
0.0
 11
92.272041
 21
219.100748
 31
0.0
 11
90.906669
 21
219.100748
 31
0.0
 11
89.604683
 21
218.627839
 31
0.0
 11
88.544526
 21
217.736279
 31
0.0
 11
87.862356
 21
216.553535
 31
0.0
 11
87.621508
 21
215.189422
 31
0.0
  0
LINE
  5
10f
100
AcDbEntity
  8
_26_BEZUGSACHSEN
 62
7
100
AcDbLine
 10
95.557202
 20
215.189422
 30
0.0
 11
95.557202
 21
215.189422
 31
0.0
  0
SPLINE
  5
110
100
AcDbEntity
  8
_26_BEZUGSACHSEN
 62
7
100
AcDbSpline
 70
0
 71
3
 72
16
 73
12
 74
10
 40
0.000000
 40
0.000000
 40
0.000000
 40
0.000000
 40
1.385212
 40
2.750583
 40
4.135795
 40
5.521007
 40
6.886378
 40
8.271590
 40
9.656802
 40
11.022173
 40
12.407385
 40
12.407385
 40
12.407385
 40
12.407385
 10
87.621508
 20
215.189422
 30
0.0
 10
87.668652
 20
214.725297
 30
0.0
 10
87.762265
 20
213.803695
 30
0.0
 10
88.492416
 20
212.585523
 30
0.0
 10
89.561924
 20
211.679775
 30
0.0
 10
90.886760
 20
211.199368
 30
0.0
 10
92.291950
 20
211.199368
 30
0.0
 10
93.616786
 20
211.679775
 30
0.0
 10
94.686293
 20
212.585523
 30
0.0
 10
95.416445
 20
213.803695
 30
0.0
 10
95.510058
 20
214.725297
 30
0.0
 10
95.557202
 20
215.189422
 30
0.0
 11
87.621508
 21
215.189422
 31
0.0
 11
87.862356
 21
213.825309
 31
0.0
 11
88.544526
 21
212.642566
 31
0.0
 11
89.604683
 21
211.751005
 31
0.0
 11
90.906669
 21
211.278096
 31
0.0
 11
92.272041
 21
211.278096
 31
0.0
 11
93.574027
 21
211.751005
 31
0.0
 11
94.634183
 21
212.642566
 31
0.0
 11
95.316354
 21
213.825309
 31
0.0
 11
95.557202
 21
215.189422
 31
0.0
  0
SPLINE
  5
111
100
AcDbEntity
  8
_26_BEZUGSACHSEN
 62
7
100
AcDbSpline
 70
0
 71
3
 72
16
 73
12
 74
10
 40
0.000000
 40
0.000000
 40
0.000000
 40
0.000000
 40
1.385212
 40
2.750583
 40
4.135795
 40
5.521007
 40
6.886378
 40
8.271590
 40
9.656802
 40
11.022173
 40
12.407385
 40
12.407385
 40
12.407385
 40
12.407385
 10
95.557202
 20
96.154013
 30
0.0
 10
95.510058
 20
96.618138
 30
0.0
 10
95.416445
 20
97.539740
 30
0.0
 10
94.686293
 20
98.757912
 30
0.0
 10
93.616786
 20
99.663660
 30
0.0
 10
92.291950
 20
100.144066
 30
0.0
 10
90.886760
 20
100.144066
 30
0.0
 10
89.561924
 20
99.663660
 30
0.0
 10
88.492416
 20
98.757912
 30
0.0
 10
87.762265
 20
97.539740
 30
0.0
 10
87.668652
 20
96.618138
 30
0.0
 10
87.621508
 20
96.154013
 30
0.0
 11
95.557202
 21
96.154013
 31
0.0
 11
95.316354
 21
97.518126
 31
0.0
 11
94.634183
 21
98.700869
 31
0.0
 11
93.574027
 21
99.592430
 31
0.0
 11
92.272041
 21
100.065339
 31
0.0
 11
90.906669
 21
100.065339
 31
0.0
 11
89.604683
 21
99.592430
 31
0.0
 11
88.544526
 21
98.700869
 31
0.0
 11
87.862356
 21
97.518126
 31
0.0
 11
87.621508
 21
96.154013
 31
0.0
  0
LINE
  5
112
100
AcDbEntity
  8
_26_BEZUGSACHSEN
 62
7
100
AcDbLine
 10
95.557202
 20
96.154013
 30
0.0
 11
95.557202
 21
96.154013
 31
0.0
  0
SPLINE
  5
113
100
AcDbEntity
  8
_26_BEZUGSACHSEN
 62
7
100
AcDbSpline
 70
0
 71
3
 72
16
 73
12
 74
10
 40
0.000000
 40
0.000000
 40
0.000000
 40
0.000000
 40
1.385212
 40
2.750583
 40
4.135795
 40
5.521007
 40
6.886378
 40
8.271590
 40
9.656802
 40
11.022173
 40
12.407385
 40
12.407385
 40
12.407385
 40
12.407385
 10
87.621508
 20
96.154013
 30
0.0
 10
87.668652
 20
95.689888
 30
0.0
 10
87.762265
 20
94.768285
 30
0.0
 10
88.492416
 20
93.550113
 30
0.0
 10
89.561924
 20
92.644366
 30
0.0
 10
90.886760
 20
92.163959
 30
0.0
 10
92.291950
 20
92.163959
 30
0.0
 10
93.616786
 20
92.644366
 30
0.0
 10
94.686293
 20
93.550113
 30
0.0
 10
95.416445
 20
94.768285
 30
0.0
 10
95.510058
 20
95.689888
 30
0.0
 10
95.557202
 20
96.154013
 30
0.0
 11
87.621508
 21
96.154013
 31
0.0
 11
87.862356
 21
94.789900
 31
0.0
 11
88.544526
 21
93.607156
 31
0.0
 11
89.604683
 21
92.715596
 31
0.0
 11
90.906669
 21
92.242687
 31
0.0
 11
92.272041
 21
92.242687
 31
0.0
 11
93.574027
 21
92.715596
 31
0.0
 11
94.634183
 21
93.607156
 31
0.0
 11
95.316354
 21
94.789900
 31
0.0
 11
95.557202
 21
96.154013
 31
0.0
  0
ENDSEC
  0
SECTION
  2
OBJECTS
  0
DICTIONARY
  5
C
330
0
100
AcDbDictionary
  3
ACAD_GROUP
350
D
  3
ACAD_MLINESTYLE
350
17
  0
DICTIONARY
  5
D
330
C
100
AcDbDictionary
  0
DICTIONARY
  5
1A
330
C
100
AcDbDictionary
  0
DICTIONARY
  5
17
330
C
100
AcDbDictionary
  3
STANDARD
350
18
  0
DICTIONARY
  5
19
330
C
100
AcDbDictionary
  0
ENDSEC
  0
EOF
