  0
SECTION
  2
HEADER
  9
$ACADVER
  1
AC1015
  9
$HANDSEED
  5
FFFF
  9
$INSUNITS
 70
1
  9
$DIMEXE
 40
0.18
  9
$TEXTSTYLE
  7
Standard
  9
$TEXTSTYLE
  7
Roman
  9
$LIMMIN
 10
0.0
 20
0.0
  0
ENDSEC
  0
SECTION
  2
TABLES
  0
TABLE
  2
VPORT
  5
8
100
AcDbSymbolTable
 70
1
  0
VPORT
  5
30
100
AcDbSymbolTableRecord
100
AcDbViewportTableRecord
  2
*Active
 70
0
 10
0.0
 20
0.0
 11
1.0
 21
1.0
 12
286.30555555555549
 22
148.5
 13
0.0
 23
0.0
 14
0.0
 24
0.0
 15
10.0
 25
10.0
 16
0.0
 26
0.0
 36
1.0
 17
0.0
 27
0.0
 37
0.0
 40
297.0
 41
1.92798353909465
 42
50.0
 43
0.0
 44
0.0
 50
0.0
 51
0.0
 71
0
 72
100
 73
1
 74
3
 75
1
 76
1
 77
0
 78
0
281
0
 65
1
110
0.0
120
0.0
130
0.0
111
1.0
121
0.0
131
0.0
112
0.0
122
1.0
132
0.0
 79
0
146
0.0
  0
ENDTAB
  0
TABLE
  2
LTYPE
  5
5
100
AcDbSymbolTable
 70
25
  0
LTYPE
  5
14
100
AcDbSymbolTableRecord
100
AcDbLinetypeTableRecord
  2
BYBLOCK
 70
0
  3

 72
65
 73
0
 40
0.0
  0
LTYPE
  5
15
100
AcDbSymbolTableRecord
100
AcDbLinetypeTableRecord
  2
BYLAYER
 70
0
  3

 72
65
 73
0
 40
0.0
  0
LTYPE
  5
16
100
AcDbSymbolTableRecord
100
AcDbLinetypeTableRecord
  2
CONTINUOUS
 70
0
  3
Solid line
 72
65
 73
0
 40
0.0
  0
LTYPE
  5
31
100
AcDbSymbolTableRecord
100
AcDbLinetypeTableRecord
  2
ACAD_ISO02W100
 70
0
  3
ISO Dashed __ __ __ __ __ __ __ __ __ __ _
 72
65
 73
2
 40
15.0
 49
12.0
 74
0
 49
-3.0
 74
0
  0
LTYPE
  5
32
100
AcDbSymbolTableRecord
100
AcDbLinetypeTableRecord
  2
ACAD_ISO03W100
 70
0
  3
ISO Dashed with Distance __    __    __    _
 72
65
 73
2
 40
30.0
 49
12.0
 74
0
 49
-18.0
 74
0
  0
LTYPE
  5
33
100
AcDbSymbolTableRecord
100
AcDbLinetypeTableRecord
  2
ACAD_ISO04W100
 70
0
  3
ISO Long Dashed Dotted ____ . ____ . __
 72
65
 73
4
 40
30.0
 49
24.0
 74
0
 49
-3.0
 74
0
 49
0.0
 74
0
 49
-3.0
 74
0
  0
LTYPE
  5
34
100
AcDbSymbolTableRecord
100
AcDbLinetypeTableRecord
  2
ACAD_ISO05W100
 70
0
  3
ISO Long Dashed Double Dotted ____ .. __
 72
65
 73
6
 40
33.0
 49
24.0
 74
0
 49
-3.0
 74
0
 49
0.0
 74
0
 49
-3.0
 74
0
 49
0.0
 74
0
 49
-3.0
 74
0
  0
LTYPE
  5
35
100
AcDbSymbolTableRecord
100
AcDbLinetypeTableRecord
  2
BORDER
 70
0
  3
Border __ __ . __ __ . __ __ . __ __ . __ __ .
 72
65
 73
6
 40
44.450000000000003
 49
12.699999999999999
 74
0
 49
-6.3499999999999996
 74
0
 49
12.699999999999999
 74
0
 49
-6.3499999999999996
 74
0
 49
0.0
 74
0
 49
-6.3499999999999996
 74
0
  0
LTYPE
  5
36
100
AcDbSymbolTableRecord
100
AcDbLinetypeTableRecord
  2
BORDER2
 70
0
  3
Border (.5x) __.__.__.__.__.__.__.__.__.__.__.
 72
65
 73
6
 40
22.225000000000001
 49
6.3499999999999996
 74
0
 49
-3.1749999999999998
 74
0
 49
6.3499999999999996
 74
0
 49
-3.1749999999999998
 74
0
 49
0.0
 74
0
 49
-3.1749999999999998
 74
0
  0
LTYPE
  5
37
100
AcDbSymbolTableRecord
100
AcDbLinetypeTableRecord
  2
BORDERX2
 70
0
  3
Border (2x) ____  ____  .  ____  ____  .  ___
 72
65
 73
6
 40
88.900000000000006
 49
25.399999999999999
 74
0
 49
-12.699999999999999
 74
0
 49
25.399999999999999
 74
0
 49
-12.699999999999999
 74
0
 49
0.0
 74
0
 49
-12.699999999999999
 74
0
  0
LTYPE
  5
38
100
AcDbSymbolTableRecord
100
AcDbLinetypeTableRecord
  2
CENTER
 70
0
  3
Center ____ _ ____ _ ____ _ ____ _ ____ _ ____
 72
65
 73
4
 40
50.799999999999997
 49
31.75
 74
0
 49
-6.3499999999999996
 74
0
 49
6.3499999999999996
 74
0
 49
-6.3499999999999996
 74
0
  0
LTYPE
  5
39
100
AcDbSymbolTableRecord
100
AcDbLinetypeTableRecord
  2
CENTER2
 70
0
  3
Center (.5x) ___ _ ___ _ ___ _ ___ _ ___ _ ___
 72
65
 73
4
 40
28.574999999999999
 49
19.050000000000001
 74
0
 49
-3.1749999999999998
 74
0
 49
3.1749999999999998
 74
0
 49
-3.1749999999999998
 74
0
  0
LTYPE
  5
3A
100
AcDbSymbolTableRecord
100
AcDbLinetypeTableRecord
  2
CENTERX2
 70
0
  3
Center (2x) ________  __  ________  __  _____
 72
65
 73
4
 40
101.59999999999999
 49
63.5
 74
0
 49
-12.699999999999999
 74
0
 49
12.699999999999999
 74
0
 49
-12.699999999999999
 74
0
  0
LTYPE
  5
3B
100
AcDbSymbolTableRecord
100
AcDbLinetypeTableRecord
  2
DASHDOT
 70
0
  3
Dash dot __ . __ . __ . __ . __ . __ . __ . __
 72
65
 73
4
 40
25.399999999999999
 49
12.699999999999999
 74
0
 49
-6.3499999999999996
 74
0
 49
0.0
 74
0
 49
-6.3499999999999996
 74
0
  0
LTYPE
  5
3C
100
AcDbSymbolTableRecord
100
AcDbLinetypeTableRecord
  2
DASHDOT2
 70
0
  3
Dash dot (.5x) _._._._._._._._._._._._._._._.
 72
65
 73
4
 40
12.699999999999999
 49
6.3499999999999996
 74
0
 49
-3.1749999999999998
 74
0
 49
0.0
 74
0
 49
-3.1749999999999998
 74
0
  0
LTYPE
  5
3D
100
AcDbSymbolTableRecord
100
AcDbLinetypeTableRecord
  2
DASHDOTX2
 70
0
  3
Dash dot (2x) ____  .  ____  .  ____  .  ___
 72
65
 73
4
 40
50.799999999999997
 49
25.399999999999999
 74
0
 49
-12.699999999999999
 74
0
 49
0.0
 74
0
 49
-12.699999999999999
 74
0
  0
LTYPE
  5
3E
100
AcDbSymbolTableRecord
100
AcDbLinetypeTableRecord
  2
DASHED
 70
0
  3
Dashed __ __ __ __ __ __ __ __ __ __ __ __ __ _
 72
65
 73
2
 40
19.050000000000001
 49
12.699999999999999
 74
0
 49
-6.3499999999999996
 74
0
  0
LTYPE
  5
3F
100
AcDbSymbolTableRecord
100
AcDbLinetypeTableRecord
  2
DASHED2
 70
0
  3
Dashed (.5x) _ _ _ _ _ _ _ _ _ _ _ _ _ _ _ _ _
 72
65
 73
2
 40
9.5250000000000004
 49
6.3499999999999996
 74
0
 49
-3.1749999999999998
 74
0
  0
LTYPE
  5
40
100
AcDbSymbolTableRecord
100
AcDbLinetypeTableRecord
  2
DASHEDX2
 70
0
  3
Dashed (2x) ____  ____  ____  ____  ____  ___
 72
65
 73
2
 40
38.100000000000001
 49
25.399999999999999
 74
0
 49
-12.699999999999999
 74
0
  0
LTYPE
  5
41
100
AcDbSymbolTableRecord
100
AcDbLinetypeTableRecord
  2
DIVIDE
 70
0
  3
Divide ____ . . ____ . . ____ . . ____ . . ____
 72
65
 73
6
 40
31.75
 49
12.699999999999999
 74
0
 49
-6.3499999999999996
 74
0
 49
0.0
 74
0
 49
-6.3499999999999996
 74
0
 49
0.0
 74
0
 49
-6.3499999999999996
 74
0
  0
LTYPE
  5
42
100
AcDbSymbolTableRecord
100
AcDbLinetypeTableRecord
  2
DIVIDE2
 70
0
  3
Divide (.5x) __..__..__..__..__..__..__..__.._
 72
65
 73
6
 40
15.875
 49
6.3499999999999996
 74
0
 49
-3.1749999999999998
 74
0
 49
0.0
 74
0
 49
-3.1749999999999998
 74
0
 49
0.0
 74
0
 49
-3.1749999999999998
 74
0
  0
LTYPE
  5
43
100
AcDbSymbolTableRecord
100
AcDbLinetypeTableRecord
  2
DIVIDEX2
 70
0
  3
Divide (2x) ________  .  .  ________  .  .  _
 72
65
 73
6
 40
63.5
 49
25.399999999999999
 74
0
 49
-12.699999999999999
 74
0
 49
0.0
 74
0
 49
-12.699999999999999
 74
0
 49
0.0
 74
0
 49
-12.699999999999999
 74
0
  0
LTYPE
  5
44
100
AcDbSymbolTableRecord
100
AcDbLinetypeTableRecord
  2
DOT
 70
0
  3
Dot . . . . . . . . . . . . . . . . . . . . . .
 72
65
 73
2
 40
6.3499999999999996
 49
0.0
 74
0
 49
-6.3499999999999996
 74
0
  0
LTYPE
  5
45
100
AcDbSymbolTableRecord
100
AcDbLinetypeTableRecord
  2
DOT2
 70
0
  3
Dot (.5x) .....................................
 72
65
 73
2
 40
3.1749999999999998
 49
0.0
 74
0
 49
-3.1749999999999998
 74
0
  0
LTYPE
  5
46
100
AcDbSymbolTableRecord
100
AcDbLinetypeTableRecord
  2
DOTX2
 70
0
  3
Dot (2x) .  .  .  .  .  .  .  .  .  .  .  .  .
 72
65
 73
2
 40
12.699999999999999
 49
0.0
 74
0
 49
-12.699999999999999
 74
0
  0
ENDTAB
  0
TABLE
  2
LAYER
  5
2
100
AcDbSymbolTable
 70
5
  0
LAYER
  5
10
100
AcDbSymbolTableRecord
100
AcDbLayerTableRecord
  2
0
 70
0
 62
250
  6
CONTINUOUS
370
100
390
F
  0
LAYER
  5
47
100
AcDbSymbolTableRecord
100
AcDbLayerTableRecord
  2
H
 70
0
 62
7
  6
CONTINUOUS
370
100
390
F
  0
LAYER
  5
48
100
AcDbSymbolTableRecord
100
AcDbLayerTableRecord
  2
P
 70
0
 62
250
  6
CONTINUOUS
370
100
390
F
  0
LAYER
  5
49
100
AcDbSymbolTableRecord
100
AcDbLayerTableRecord
  2
Text
 70
0
 62
250
  6
CONTINUOUS
370
100
390
F
  0
LAYER
  5
4A
100
AcDbSymbolTableRecord
100
AcDbLayerTableRecord
  2
Images
 70
0
 62
250
  6
CONTINUOUS
370
100
390
F
  0
ENDTAB
  0
TABLE
  2
STYLE
  5
3
100
AcDbSymbolTable
 70
1
  0
STYLE
  5
11
100
AcDbSymbolTableRecord
100
AcDbTextStyleTableRecord
  2
Standard
 70
0
 40
0.0
 41
0.75
 50
0.0
 71
0
 42
2.5
  3
txt
  4

  0
ENDTAB
  0
TABLE
  2
VIEW
  5
6
100
AcDbSymbolTable
 70
0
  0
ENDTAB
  0
TABLE
  2
UCS
  5
7
100
AcDbSymbolTable
 70
0
  0
ENDTAB
  0
TABLE
  2
APPID
  5
9
100
AcDbSymbolTable
 70
1
  0
APPID
  5
12
100
AcDbSymbolTableRecord
100
AcDbRegAppTableRecord
  2
ACAD
 70
0
  0
ENDTAB
  0
TABLE
  2
DIMSTYLE
  5
A
100
AcDbSymbolTable
 70
1
100
AcDbDimStyleTable
 71
0
  0
DIMSTYLE
105
27
100
AcDbSymbolTableRecord
100
AcDbDimStyleTableRecord
  2
Standard
 41
1.0
 42
1.0
 43
3.75
 44
1.0
 70
0
 73
0
 74
0
 77
1
 78
8
140
1.0
141
2.5
143
0.03937007874016
147
1.0
171
3
172
1
271
2
272
2
274
3
278
44
283
0
284
8
340
11
  0
ENDTAB
  0
TABLE
  2
BLOCK_RECORD
  5
1
100
AcDbSymbolTable
 70
1
  0
BLOCK_RECORD
  5
1F
100
AcDbSymbolTableRecord
100
AcDbBlockTableRecord
  2
*Model_Space
340
22
  0
BLOCK_RECORD
  5
1B
100
AcDbSymbolTableRecord
100
AcDbBlockTableRecord
  2
*Paper_Space
340
1E
  0
BLOCK_RECORD
  5
23
100
AcDbSymbolTableRecord
100
AcDbBlockTableRecord
  2
*Paper_Space0
340
26
  0
ENDTAB
  0
ENDSEC
  0
SECTION
  2
BLOCKS
  0
BLOCK
  5
20
100
AcDbEntity
  8
0
100
AcDbBlockBegin
  2
*Model_Space
 70
0
 10
0.0
 20
0.0
 30
0.0
  3
*Model_Space
  1

  0
ENDBLK
  5
21
100
AcDbEntity
  8
0
100
AcDbBlockEnd
  0
BLOCK
  5
1C
100
AcDbEntity
 67
1
  8
0
100
AcDbBlockBegin
  2
*Paper_Space
 70
0
 10
0.0
 20
0.0
 30
0.0
  3
*Paper_Space
  1

  0
ENDBLK
  5
1D
100
AcDbEntity
 67
1
  8
0
100
AcDbBlockEnd
  0
BLOCK
  5
24
100
AcDbEntity
  8
0
100
AcDbBlockBegin
  2
*Paper_Space0
 70
0
 10
0.0
 20
0.0
 30
0.0
  3
*Paper_Space0
  1

  0
ENDBLK
  5
25
100
AcDbEntity
  8
0
100
AcDbBlockEnd
  0
ENDSEC
  0
SECTION
  2
ENTITIES
  0
MTEXT
  5
4B
100
AcDbEntity
100
AcDbMText
  8
Text
 62
240
370
-1
  6
BYLAYER
 10
168.0
 20
0.0
 30
0.0
 40
1.0
 41
84.0
 71
4
 72
5
  1
Unregistered Version - https://anydwg.com
  7
Standard
 50
0.0
 73
2
 44
1.0
  0
LWPOLYLINE
  5
4C
  8
P
 62
0
370
-1
  6
CONTINUOUS
100
AcDbEntity
100
AcDbPolyline
 90
2
 70
0
 10
335.73333333333335
 20
118.60000000000002
 10
335.80000000000001
 20
118.46666666666664
  0
LWPOLYLINE
  5
4D
  8
P
 62
0
370
-1
  6
CONTINUOUS
100
AcDbEntity
100
AcDbPolyline
 90
2
 70
0
 10
0.1333333333333333
 20
475.86666666666667
 10
0.0
 20
476.0
  0
LWPOLYLINE
  5
4E
  8
P
 62
0
370
-1
  6
CONTINUOUS
100
AcDbEntity
100
AcDbPolyline
 90
2
 70
0
 10
163.53333333333333
 20
176.53333333333336
 10
167.46666666666667
 20
175.06666666666666
  0
LWPOLYLINE
  5
4F
  8
P
 62
0
370
-1
  6
CONTINUOUS
100
AcDbEntity
100
AcDbPolyline
 90
2
 70
0
 10
166.40000000000001
 20
174.26666666666665
 10
166.40000000000001
 20
177.26666666666665
  0
LWPOLYLINE
  5
50
  8
P
 62
0
370
-1
  6
CONTINUOUS
100
AcDbEntity
100
AcDbPolyline
 90
2
 70
0
 10
166.40000000000001
 20
177.26666666666665
 10
164.59999999999999
 20
177.26666666666665
  0
LWPOLYLINE
  5
51
  8
P
 62
0
370
-1
  6
CONTINUOUS
100
AcDbEntity
100
AcDbPolyline
 90
2
 70
0
 10
164.59999999999999
 20
177.26666666666665
 10
164.59999999999999
 20
174.26666666666665
  0
LWPOLYLINE
  5
52
  8
P
 62
0
370
-1
  6
CONTINUOUS
100
AcDbEntity
100
AcDbPolyline
 90
2
 70
0
 10
164.59999999999999
 20
174.26666666666665
 10
166.40000000000001
 20
174.26666666666665
  0
LWPOLYLINE
  5
53
  8
P
 62
0
370
-1
  6
CONTINUOUS
100
AcDbEntity
100
AcDbPolyline
 90
2
 70
0
 10
164.06666666666666
 20
178.26666666666665
 10
163.59999999999999
 20
178.46666666666664
  0
LWPOLYLINE
  5
54
  8
P
 62
0
370
-1
  6
CONTINUOUS
100
AcDbEntity
100
AcDbPolyline
 90
2
 70
0
 10
163.59999999999999
 20
178.46666666666664
 10
163.46666666666667
 20
178.60000000000002
  0
LWPOLYLINE
  5
55
  8
P
 62
0
370
-1
  6
CONTINUOUS
100
AcDbEntity
100
AcDbPolyline
 90
2
 70
0
 10
163.46666666666667
 20
178.60000000000002
 10
163.33333333333334
 20
179.06666666666666
  0
LWPOLYLINE
  5
56
  8
P
 62
0
370
-1
  6
CONTINUOUS
100
AcDbEntity
100
AcDbPolyline
 90
2
 70
0
 10
163.33333333333334
 20
179.06666666666666
 10
163.33333333333334
 20
179.80000000000001
  0
LWPOLYLINE
  5
57
  8
P
 62
0
370
-1
  6
CONTINUOUS
100
AcDbEntity
100
AcDbPolyline
 90
2
 70
0
 10
163.33333333333334
 20
179.80000000000001
 10
163.46666666666667
 20
180.26666666666665
  0
LWPOLYLINE
  5
58
  8
P
 62
0
370
-1
  6
CONTINUOUS
100
AcDbEntity
100
AcDbPolyline
 90
2
 70
0
 10
163.46666666666667
 20
180.26666666666665
 10
163.59999999999999
 20
180.46666666666664
  0
LWPOLYLINE
  5
59
  8
P
 62
0
370
-1
  6
CONTINUOUS
100
AcDbEntity
100
AcDbPolyline
 90
2
 70
0
 10
163.59999999999999
 20
180.46666666666664
 10
164.06666666666666
 20
180.60000000000002
  0
LWPOLYLINE
  5
5A
  8
P
 62
0
370
-1
  6
CONTINUOUS
100
AcDbEntity
100
AcDbPolyline
 90
2
 70
0
 10
164.06666666666666
 20
180.60000000000002
 10
164.40000000000001
 20
180.60000000000002
  0
LWPOLYLINE
  5
5B
  8
P
 62
0
370
-1
  6
CONTINUOUS
100
AcDbEntity
100
AcDbPolyline
 90
2
 70
0
 10
164.40000000000001
 20
180.60000000000002
 10
164.80000000000001
 20
180.46666666666664
  0
LWPOLYLINE
  5
5C
  8
P
 62
0
370
-1
  6
CONTINUOUS
100
AcDbEntity
100
AcDbPolyline
 90
2
 70
0
 10
164.80000000000001
 20
180.46666666666664
 10
167.46666666666667
 20
178.26666666666665
  0
LWPOLYLINE
  5
5D
  8
P
 62
0
370
-1
  6
CONTINUOUS
100
AcDbEntity
100
AcDbPolyline
 90
2
 70
0
 10
167.46666666666667
 20
178.26666666666665
 10
167.46666666666667
 20
180.60000000000002
  0
LWPOLYLINE
  5
5E
  8
P
 62
0
370
-1
  6
CONTINUOUS
100
AcDbEntity
100
AcDbPolyline
 90
2
 70
0
 10
167.46666666666667
 20
183.19999999999999
 10
167.33333333333334
 20
183.53333333333336
  0
LWPOLYLINE
  5
5F
  8
P
 62
0
370
-1
  6
CONTINUOUS
100
AcDbEntity
100
AcDbPolyline
 90
2
 70
0
 10
167.33333333333334
 20
183.53333333333336
 10
166.59999999999999
 20
184.0
  0
LWPOLYLINE
  5
60
  8
P
 62
0
370
-1
  6
CONTINUOUS
100
AcDbEntity
100
AcDbPolyline
 90
2
 70
0
 10
166.59999999999999
 20
184.0
 10
165.66666666666666
 20
184.13333333333333
  0
LWPOLYLINE
  5
61
  8
P
 62
0
370
-1
  6
CONTINUOUS
100
AcDbEntity
100
AcDbPolyline
 90
2
 70
0
 10
165.66666666666666
 20
184.13333333333333
 10
165.13333333333333
 20
184.13333333333333
  0
LWPOLYLINE
  5
62
  8
P
 62
0
370
-1
  6
CONTINUOUS
100
AcDbEntity
100
AcDbPolyline
 90
2
 70
0
 10
165.13333333333333
 20
184.13333333333333
 10
164.19999999999999
 20
184.0
  0
LWPOLYLINE
  5
63
  8
P
 62
0
370
-1
  6
CONTINUOUS
100
AcDbEntity
100
AcDbPolyline
 90
2
 70
0
 10
164.19999999999999
 20
184.0
 10
163.46666666666667
 20
183.53333333333336
  0
LWPOLYLINE
  5
64
  8
P
 62
0
370
-1
  6
CONTINUOUS
100
AcDbEntity
100
AcDbPolyline
 90
2
 70
0
 10
163.46666666666667
 20
183.53333333333336
 10
163.33333333333334
 20
183.19999999999999
  0
LWPOLYLINE
  5
65
  8
P
 62
0
370
-1
  6
CONTINUOUS
100
AcDbEntity
100
AcDbPolyline
 90
2
 70
0
 10
163.33333333333334
 20
183.19999999999999
 10
163.33333333333334
 20
182.86666666666667
  0
LWPOLYLINE
  5
66
  8
P
 62
0
370
-1
  6
CONTINUOUS
100
AcDbEntity
100
AcDbPolyline
 90
2
 70
0
 10
163.33333333333334
 20
182.86666666666667
 10
163.46666666666667
 20
182.53333333333336
  0
LWPOLYLINE
  5
67
  8
P
 62
0
370
-1
  6
CONTINUOUS
100
AcDbEntity
100
AcDbPolyline
 90
2
 70
0
 10
163.46666666666667
 20
182.53333333333336
 10
164.19999999999999
 20
182.0
  0
LWPOLYLINE
  5
68
  8
P
 62
0
370
-1
  6
CONTINUOUS
100
AcDbEntity
100
AcDbPolyline
 90
2
 70
0
 10
164.19999999999999
 20
182.0
 10
165.13333333333333
 20
181.80000000000001
  0
LWPOLYLINE
  5
69
  8
P
 62
0
370
-1
  6
CONTINUOUS
100
AcDbEntity
100
AcDbPolyline
 90
2
 70
0
 10
165.13333333333333
 20
181.80000000000001
 10
165.66666666666666
 20
181.80000000000001
  0
LWPOLYLINE
  5
6A
  8
P
 62
0
370
-1
  6
CONTINUOUS
100
AcDbEntity
100
AcDbPolyline
 90
2
 70
0
 10
165.66666666666666
 20
181.80000000000001
 10
166.59999999999999
 20
182.0
  0
LWPOLYLINE
  5
6B
  8
P
 62
0
370
-1
  6
CONTINUOUS
100
AcDbEntity
100
AcDbPolyline
 90
2
 70
0
 10
166.59999999999999
 20
182.0
 10
167.33333333333334
 20
182.53333333333336
  0
LWPOLYLINE
  5
6C
  8
P
 62
0
370
-1
  6
CONTINUOUS
100
AcDbEntity
100
AcDbPolyline
 90
2
 70
0
 10
167.33333333333334
 20
182.53333333333336
 10
167.46666666666667
 20
182.86666666666667
  0
LWPOLYLINE
  5
6D
  8
P
 62
0
370
-1
  6
CONTINUOUS
100
AcDbEntity
100
AcDbPolyline
 90
2
 70
0
 10
167.46666666666667
 20
182.86666666666667
 10
167.46666666666667
 20
183.19999999999999
  0
LWPOLYLINE
  5
6E
  8
P
 62
0
370
-1
  6
CONTINUOUS
100
AcDbEntity
100
AcDbPolyline
 90
2
 70
0
 10
167.46666666666667
 20
185.26666666666665
 10
163.33333333333334
 20
187.93333333333334
  0
LWPOLYLINE
  5
6F
  8
P
 62
0
370
-1
  6
CONTINUOUS
100
AcDbEntity
100
AcDbPolyline
 90
2
 70
0
 10
163.33333333333334
 20
189.13333333333333
 10
163.33333333333334
 20
190.46666666666664
  0
LWPOLYLINE
  5
70
  8
P
 62
0
370
-1
  6
CONTINUOUS
100
AcDbEntity
100
AcDbPolyline
 90
2
 70
0
 10
163.33333333333334
 20
190.46666666666664
 10
163.46666666666667
 20
191.0
  0
LWPOLYLINE
  5
71
  8
P
 62
0
370
-1
  6
CONTINUOUS
100
AcDbEntity
100
AcDbPolyline
 90
2
 70
0
 10
163.46666666666667
 20
191.0
 10
163.93333333333334
 20
191.13333333333333
  0
LWPOLYLINE
  5
72
  8
P
 62
0
370
-1
  6
CONTINUOUS
100
AcDbEntity
100
AcDbPolyline
 90
2
 70
0
 10
163.93333333333334
 20
191.13333333333333
 10
164.80000000000001
 20
191.13333333333333
  0
LWPOLYLINE
  5
73
  8
P
 62
0
370
-1
  6
CONTINUOUS
100
AcDbEntity
100
AcDbPolyline
 90
2
 70
0
 10
164.80000000000001
 20
191.13333333333333
 10
165.26666666666668
 20
191.0
  0
LWPOLYLINE
  5
74
  8
P
 62
0
370
-1
  6
CONTINUOUS
100
AcDbEntity
100
AcDbPolyline
 90
2
 70
0
 10
165.26666666666668
 20
191.0
 10
165.40000000000001
 20
190.46666666666664
  0
LWPOLYLINE
  5
75
  8
P
 62
0
370
-1
  6
CONTINUOUS
100
AcDbEntity
100
AcDbPolyline
 90
2
 70
0
 10
165.40000000000001
 20
190.46666666666664
 10
165.59999999999999
 20
191.0
  0
LWPOLYLINE
  5
76
  8
P
 62
0
370
-1
  6
CONTINUOUS
100
AcDbEntity
100
AcDbPolyline
 90
2
 70
0
 10
165.59999999999999
 20
191.0
 10
166.0
 20
191.13333333333333
  0
LWPOLYLINE
  5
77
  8
P
 62
0
370
-1
  6
CONTINUOUS
100
AcDbEntity
100
AcDbPolyline
 90
2
 70
0
 10
166.0
 20
191.13333333333333
 10
166.86666666666667
 20
191.13333333333333
  0
LWPOLYLINE
  5
78
  8
P
 62
0
370
-1
  6
CONTINUOUS
100
AcDbEntity
100
AcDbPolyline
 90
2
 70
0
 10
166.86666666666667
 20
191.13333333333333
 10
167.33333333333334
 20
191.0
  0
LWPOLYLINE
  5
79
  8
P
 62
0
370
-1
  6
CONTINUOUS
100
AcDbEntity
100
AcDbPolyline
 90
2
 70
0
 10
167.33333333333334
 20
191.0
 10
167.46666666666667
 20
190.46666666666664
  0
LWPOLYLINE
  5
7A
  8
P
 62
0
370
-1
  6
CONTINUOUS
100
AcDbEntity
100
AcDbPolyline
 90
2
 70
0
 10
167.46666666666667
 20
190.46666666666664
 10
167.46666666666667
 20
189.13333333333333
  0
LWPOLYLINE
  5
7B
  8
P
 62
0
370
-1
  6
CONTINUOUS
100
AcDbEntity
100
AcDbPolyline
 90
2
 70
0
 10
165.40000000000001
 20
189.13333333333333
 10
165.40000000000001
 20
190.46666666666664
  0
LWPOLYLINE
  5
7C
  8
P
 62
0
370
-1
  6
CONTINUOUS
100
AcDbEntity
100
AcDbPolyline
 90
2
 70
0
 10
163.33333333333334
 20
194.19999999999999
 10
164.06666666666666
 20
193.19999999999999
  0
LWPOLYLINE
  5
7D
  8
P
 62
0
370
-1
  6
CONTINUOUS
100
AcDbEntity
100
AcDbPolyline
 90
2
 70
0
 10
164.06666666666666
 20
193.19999999999999
 10
164.19999999999999
 20
193.06666666666666
  0
LWPOLYLINE
  5
7E
  8
P
 62
0
370
-1
  6
CONTINUOUS
100
AcDbEntity
100
AcDbPolyline
 90
2
 70
0
 10
164.19999999999999
 20
193.06666666666666
 10
164.80000000000001
 20
192.73333333333335
  0
LWPOLYLINE
  5
7F
  8
P
 62
0
370
-1
  6
CONTINUOUS
100
AcDbEntity
100
AcDbPolyline
 90
2
 70
0
 10
164.80000000000001
 20
192.73333333333335
 10
165.40000000000001
 20
192.53333333333336
  0
LWPOLYLINE
  5
80
  8
P
 62
0
370
-1
  6
CONTINUOUS
100
AcDbEntity
100
AcDbPolyline
 90
2
 70
0
 10
165.40000000000001
 20
192.53333333333336
 10
166.59999999999999
 20
192.53333333333336
  0
LWPOLYLINE
  5
81
  8
P
 62
0
370
-1
  6
CONTINUOUS
100
AcDbEntity
100
AcDbPolyline
 90
2
 70
0
 10
166.59999999999999
 20
192.53333333333336
 10
167.06666666666666
 20
192.73333333333335
  0
LWPOLYLINE
  5
82
  8
P
 62
0
370
-1
  6
CONTINUOUS
100
AcDbEntity
100
AcDbPolyline
 90
2
 70
0
 10
167.06666666666666
 20
192.73333333333335
 10
167.33333333333334
 20
193.06666666666666
  0
LWPOLYLINE
  5
83
  8
P
 62
0
370
-1
  6
CONTINUOUS
100
AcDbEntity
100
AcDbPolyline
 90
2
 70
0
 10
167.33333333333334
 20
193.06666666666666
 10
167.46666666666667
 20
193.39999999999998
  0
LWPOLYLINE
  5
84
  8
P
 62
0
370
-1
  6
CONTINUOUS
100
AcDbEntity
100
AcDbPolyline
 90
2
 70
0
 10
167.46666666666667
 20
193.39999999999998
 10
167.46666666666667
 20
194.0
  0
LWPOLYLINE
  5
85
  8
P
 62
0
370
-1
  6
CONTINUOUS
100
AcDbEntity
100
AcDbPolyline
 90
2
 70
0
 10
167.46666666666667
 20
194.0
 10
167.33333333333334
 20
194.33333333333331
  0
LWPOLYLINE
  5
86
  8
P
 62
0
370
-1
  6
CONTINUOUS
100
AcDbEntity
100
AcDbPolyline
 90
2
 70
0
 10
167.33333333333334
 20
194.33333333333331
 10
167.06666666666666
 20
194.66666666666669
  0
LWPOLYLINE
  5
87
  8
P
 62
0
370
-1
  6
CONTINUOUS
100
AcDbEntity
100
AcDbPolyline
 90
2
 70
0
 10
167.06666666666666
 20
194.66666666666669
 10
166.59999999999999
 20
194.86666666666667
  0
LWPOLYLINE
  5
88
  8
P
 62
0
370
-1
  6
CONTINUOUS
100
AcDbEntity
100
AcDbPolyline
 90
2
 70
0
 10
166.59999999999999
 20
194.86666666666667
 10
166.0
 20
194.86666666666667
  0
LWPOLYLINE
  5
89
  8
P
 62
0
370
-1
  6
CONTINUOUS
100
AcDbEntity
100
AcDbPolyline
 90
2
 70
0
 10
166.0
 20
194.86666666666667
 10
165.59999999999999
 20
194.66666666666669
  0
LWPOLYLINE
  5
8A
  8
P
 62
0
370
-1
  6
CONTINUOUS
100
AcDbEntity
100
AcDbPolyline
 90
2
 70
0
 10
165.59999999999999
 20
194.66666666666669
 10
165.40000000000001
 20
194.19999999999999
  0
LWPOLYLINE
  5
8B
  8
P
 62
0
370
-1
  6
CONTINUOUS
100
AcDbEntity
100
AcDbPolyline
 90
2
 70
0
 10
165.40000000000001
 20
194.19999999999999
 10
165.40000000000001
 20
192.53333333333336
  0
LWPOLYLINE
  5
8C
  8
P
 62
0
370
-1
  6
CONTINUOUS
100
AcDbEntity
100
AcDbPolyline
 90
2
 70
0
 10
164.53333333333333
 20
198.26666666666665
 10
164.53333333333333
 20
196.93333333333334
  0
LWPOLYLINE
  5
8D
  8
P
 62
0
370
-1
  6
CONTINUOUS
100
AcDbEntity
100
AcDbPolyline
 90
2
 70
0
 10
164.53333333333333
 20
196.93333333333334
 10
164.66666666666666
 20
196.39999999999998
  0
LWPOLYLINE
  5
8E
  8
P
 62
0
370
-1
  6
CONTINUOUS
100
AcDbEntity
100
AcDbPolyline
 90
2
 70
0
 10
164.66666666666666
 20
196.39999999999998
 10
165.13333333333333
 20
196.26666666666665
  0
LWPOLYLINE
  5
8F
  8
P
 62
0
370
-1
  6
CONTINUOUS
100
AcDbEntity
100
AcDbPolyline
 90
2
 70
0
 10
165.13333333333333
 20
196.26666666666665
 10
166.86666666666667
 20
196.26666666666665
  0
LWPOLYLINE
  5
90
  8
P
 62
0
370
-1
  6
CONTINUOUS
100
AcDbEntity
100
AcDbPolyline
 90
2
 70
0
 10
166.86666666666667
 20
196.26666666666665
 10
167.33333333333334
 20
196.39999999999998
  0
LWPOLYLINE
  5
91
  8
P
 62
0
370
-1
  6
CONTINUOUS
100
AcDbEntity
100
AcDbPolyline
 90
2
 70
0
 10
167.33333333333334
 20
196.39999999999998
 10
167.46666666666667
 20
196.93333333333334
  0
LWPOLYLINE
  5
92
  8
P
 62
0
370
-1
  6
CONTINUOUS
100
AcDbEntity
100
AcDbPolyline
 90
2
 70
0
 10
167.46666666666667
 20
196.93333333333334
 10
167.46666666666667
 20
198.26666666666665
  0
LWPOLYLINE
  5
93
  8
P
 62
0
370
-1
  6
CONTINUOUS
100
AcDbEntity
100
AcDbPolyline
 90
2
 70
0
 10
167.46666666666667
 20
199.33333333333331
 10
164.53333333333333
 20
199.33333333333331
  0
LWPOLYLINE
  5
94
  8
P
 62
0
370
-1
  6
CONTINUOUS
100
AcDbEntity
100
AcDbPolyline
 90
2
 70
0
 10
164.53333333333333
 20
199.33333333333331
 10
164.53333333333333
 20
201.66666666666669
  0
LWPOLYLINE
  5
95
  8
P
 62
0
370
-1
  6
CONTINUOUS
100
AcDbEntity
100
AcDbPolyline
 90
2
 70
0
 10
164.53333333333333
 20
201.66666666666669
 10
164.66666666666666
 20
202.13333333333333
  0
LWPOLYLINE
  5
96
  8
P
 62
0
370
-1
  6
CONTINUOUS
100
AcDbEntity
100
AcDbPolyline
 90
2
 70
0
 10
164.66666666666666
 20
202.13333333333333
 10
165.13333333333333
 20
202.33333333333331
  0
LWPOLYLINE
  5
97
  8
P
 62
0
370
-1
  6
CONTINUOUS
100
AcDbEntity
100
AcDbPolyline
 90
2
 70
0
 10
165.13333333333333
 20
202.33333333333331
 10
167.46666666666667
 20
202.33333333333331
  0
LWPOLYLINE
  5
98
  8
P
 62
0
370
-1
  6
CONTINUOUS
100
AcDbEntity
100
AcDbPolyline
 90
2
 70
0
 10
167.46666666666667
 20
200.86666666666667
 10
164.53333333333333
 20
200.86666666666667
  0
LWPOLYLINE
  5
99
  8
P
 62
0
370
-1
  6
CONTINUOUS
100
AcDbEntity
100
AcDbPolyline
 90
2
 70
0
 10
229.80000000000001
 20
215.80000000000001
 10
239.0
 20
215.80000000000001
  0
LWPOLYLINE
  5
9A
  8
P
 62
0
370
-1
  6
CONTINUOUS
100
AcDbEntity
100
AcDbPolyline
 90
2
 70
0
 10
234.40000000000001
 20
211.19999999999999
 10
234.40000000000001
 20
220.46666666666667
  0
LWPOLYLINE
  5
9B
  8
P
 62
0
370
-1
  6
CONTINUOUS
100
AcDbEntity
100
AcDbPolyline
 90
2
 70
0
 10
266.73333333333335
 20
217.0
 10
265.93333333333334
 20
216.60000000000002
  0
LWPOLYLINE
  5
9C
  8
P
 62
0
370
-1
  6
CONTINUOUS
100
AcDbEntity
100
AcDbPolyline
 90
2
 70
0
 10
265.93333333333334
 20
216.60000000000002
 10
265.60000000000002
 20
215.80000000000001
  0
LWPOLYLINE
  5
9D
  8
P
 62
0
370
-1
  6
CONTINUOUS
100
AcDbEntity
100
AcDbPolyline
 90
2
 70
0
 10
265.60000000000002
 20
215.80000000000001
 10
265.93333333333334
 20
215.0
  0
LWPOLYLINE
  5
9E
  8
P
 62
0
370
-1
  6
CONTINUOUS
100
AcDbEntity
100
AcDbPolyline
 90
2
 70
0
 10
265.93333333333334
 20
215.0
 10
266.73333333333335
 20
214.66666666666669
  0
LWPOLYLINE
  5
9F
  8
P
 62
0
370
-1
  6
CONTINUOUS
100
AcDbEntity
100
AcDbPolyline
 90
2
 70
0
 10
266.73333333333335
 20
214.66666666666669
 10
267.60000000000002
 20
215.0
  0
LWPOLYLINE
  5
A0
  8
P
 62
0
370
-1
  6
CONTINUOUS
100
AcDbEntity
100
AcDbPolyline
 90
2
 70
0
 10
267.60000000000002
 20
215.0
 10
267.93333333333334
 20
215.80000000000001
  0
LWPOLYLINE
  5
A1
  8
P
 62
0
370
-1
  6
CONTINUOUS
100
AcDbEntity
100
AcDbPolyline
 90
2
 70
0
 10
267.93333333333334
 20
215.80000000000001
 10
267.60000000000002
 20
216.60000000000002
  0
LWPOLYLINE
  5
A2
  8
P
 62
0
370
-1
  6
CONTINUOUS
100
AcDbEntity
100
AcDbPolyline
 90
2
 70
0
 10
267.60000000000002
 20
216.60000000000002
 10
266.73333333333335
 20
217.0
  0
LWPOLYLINE
  5
A3
  8
P
 62
0
370
-1
  6
CONTINUOUS
100
AcDbEntity
100
AcDbPolyline
 90
2
 70
0
 10
234.40000000000001
 20
217.0
 10
233.59999999999999
 20
216.60000000000002
  0
LWPOLYLINE
  5
A4
  8
P
 62
0
370
-1
  6
CONTINUOUS
100
AcDbEntity
100
AcDbPolyline
 90
2
 70
0
 10
233.59999999999999
 20
216.60000000000002
 10
233.26666666666668
 20
215.80000000000001
  0
LWPOLYLINE
  5
A5
  8
P
 62
0
370
-1
  6
CONTINUOUS
100
AcDbEntity
100
AcDbPolyline
 90
2
 70
0
 10
233.26666666666668
 20
215.80000000000001
 10
233.59999999999999
 20
215.0
  0
LWPOLYLINE
  5
A6
  8
P
 62
0
370
-1
  6
CONTINUOUS
100
AcDbEntity
100
AcDbPolyline
 90
2
 70
0
 10
233.59999999999999
 20
215.0
 10
234.40000000000001
 20
214.66666666666669
  0
LWPOLYLINE
  5
A7
  8
P
 62
0
370
-1
  6
CONTINUOUS
100
AcDbEntity
100
AcDbPolyline
 90
2
 70
0
 10
234.40000000000001
 20
214.66666666666669
 10
235.19999999999999
 20
215.0
  0
LWPOLYLINE
  5
A8
  8
P
 62
0
370
-1
  6
CONTINUOUS
100
AcDbEntity
100
AcDbPolyline
 90
2
 70
0
 10
235.19999999999999
 20
215.0
 10
235.53333333333333
 20
215.80000000000001
  0
LWPOLYLINE
  5
A9
  8
P
 62
0
370
-1
  6
CONTINUOUS
100
AcDbEntity
100
AcDbPolyline
 90
2
 70
0
 10
235.53333333333333
 20
215.80000000000001
 10
235.19999999999999
 20
216.60000000000002
  0
LWPOLYLINE
  5
AA
  8
P
 62
0
370
-1
  6
CONTINUOUS
100
AcDbEntity
100
AcDbPolyline
 90
2
 70
0
 10
235.19999999999999
 20
216.60000000000002
 10
234.40000000000001
 20
217.0
  0
LWPOLYLINE
  5
AB
  8
P
 62
0
370
-1
  6
CONTINUOUS
100
AcDbEntity
100
AcDbPolyline
 90
2
 70
0
 10
262.13333333333333
 20
215.80000000000001
 10
271.39999999999998
 20
215.80000000000001
  0
LWPOLYLINE
  5
AC
  8
P
 62
0
370
-1
  6
CONTINUOUS
100
AcDbEntity
100
AcDbPolyline
 90
2
 70
0
 10
266.73333333333335
 20
211.19999999999999
 10
266.73333333333335
 20
220.46666666666667
  0
LWPOLYLINE
  5
AD
  8
P
 62
0
370
-1
  6
CONTINUOUS
100
AcDbEntity
100
AcDbPolyline
 90
2
 70
0
 10
98.066666666666663
 20
404.13333333333333
 10
107.26666666666667
 20
404.13333333333333
  0
LWPOLYLINE
  5
AE
  8
P
 62
0
370
-1
  6
CONTINUOUS
100
AcDbEntity
100
AcDbPolyline
 90
2
 70
0
 10
102.66666666666667
 20
399.5333333333333
 10
102.66666666666667
 20
408.73333333333335
  0
LWPOLYLINE
  5
AF
  8
P
 62
0
370
-1
  6
CONTINUOUS
100
AcDbEntity
100
AcDbPolyline
 90
2
 70
0
 10
161.59999999999999
 20
241.26666666666668
 10
152.33333333333334
 20
241.26666666666668
  0
LWPOLYLINE
  5
B0
  8
P
 62
0
370
-1
  6
CONTINUOUS
100
AcDbEntity
100
AcDbPolyline
 90
2
 70
0
 10
157.0
 20
236.59999999999999
 10
157.0
 20
245.86666666666667
  0
LWPOLYLINE
  5
B1
  8
P
 62
0
370
-1
  6
CONTINUOUS
100
AcDbEntity
100
AcDbPolyline
 90
2
 70
0
 10
157.0
 20
243.53333333333333
 10
155.59999999999999
 20
243.13333333333333
  0
LWPOLYLINE
  5
B2
  8
P
 62
0
370
-1
  6
CONTINUOUS
100
AcDbEntity
100
AcDbPolyline
 90
2
 70
0
 10
155.59999999999999
 20
243.13333333333333
 10
154.80000000000001
 20
242.0
  0
LWPOLYLINE
  5
B3
  8
P
 62
0
370
-1
  6
CONTINUOUS
100
AcDbEntity
100
AcDbPolyline
 90
2
 70
0
 10
154.80000000000001
 20
242.0
 10
154.80000000000001
 20
240.53333333333333
  0
LWPOLYLINE
  5
B4
  8
P
 62
0
370
-1
  6
CONTINUOUS
100
AcDbEntity
100
AcDbPolyline
 90
2
 70
0
 10
154.80000000000001
 20
240.53333333333333
 10
155.59999999999999
 20
239.40000000000001
  0
LWPOLYLINE
  5
B5
  8
P
 62
0
370
-1
  6
CONTINUOUS
100
AcDbEntity
100
AcDbPolyline
 90
2
 70
0
 10
155.59999999999999
 20
239.40000000000001
 10
157.0
 20
238.93333333333334
  0
LWPOLYLINE
  5
B6
  8
P
 62
0
370
-1
  6
CONTINUOUS
100
AcDbEntity
100
AcDbPolyline
 90
2
 70
0
 10
157.0
 20
238.93333333333334
 10
158.33333333333334
 20
239.40000000000001
  0
LWPOLYLINE
  5
B7
  8
P
 62
0
370
-1
  6
CONTINUOUS
100
AcDbEntity
100
AcDbPolyline
 90
2
 70
0
 10
158.33333333333334
 20
239.40000000000001
 10
159.19999999999999
 20
240.53333333333333
  0
LWPOLYLINE
  5
B8
  8
P
 62
0
370
-1
  6
CONTINUOUS
100
AcDbEntity
100
AcDbPolyline
 90
2
 70
0
 10
159.19999999999999
 20
240.53333333333333
 10
159.19999999999999
 20
242.0
  0
LWPOLYLINE
  5
B9
  8
P
 62
0
370
-1
  6
CONTINUOUS
100
AcDbEntity
100
AcDbPolyline
 90
2
 70
0
 10
159.19999999999999
 20
242.0
 10
158.33333333333334
 20
243.13333333333333
  0
LWPOLYLINE
  5
BA
  8
P
 62
0
370
-1
  6
CONTINUOUS
100
AcDbEntity
100
AcDbPolyline
 90
2
 70
0
 10
158.33333333333334
 20
243.13333333333333
 10
157.0
 20
243.53333333333333
  0
LWPOLYLINE
  5
BB
  8
P
 62
0
370
-1
  6
CONTINUOUS
100
AcDbEntity
100
AcDbPolyline
 90
2
 70
0
 10
172.0
 20
214.66666666666669
 10
170.80000000000001
 20
215.80000000000001
  0
LWPOLYLINE
  5
BC
  8
P
 62
0
370
-1
  6
CONTINUOUS
100
AcDbEntity
100
AcDbPolyline
 90
2
 70
0
 10
170.80000000000001
 20
215.80000000000001
 10
172.0
 20
217.0
  0
LWPOLYLINE
  5
BD
  8
P
 62
0
370
-1
  6
CONTINUOUS
100
AcDbEntity
100
AcDbPolyline
 90
2
 70
0
 10
176.59999999999999
 20
404.13333333333333
 10
165.06666666666666
 20
404.13333333333333
  0
LWPOLYLINE
  5
BE
  8
P
 62
0
370
-1
  6
CONTINUOUS
100
AcDbEntity
100
AcDbPolyline
 90
2
 70
0
 10
176.59999999999999
 20
376.39999999999998
 10
165.06666666666666
 20
376.39999999999998
  0
LWPOLYLINE
  5
BF
  8
P
 62
0
370
-1
  6
CONTINUOUS
100
AcDbEntity
100
AcDbPolyline
 90
2
 70
0
 10
132.66666666666666
 20
404.13333333333333
 10
141.93333333333334
 20
404.13333333333333
  0
LWPOLYLINE
  5
C0
  8
P
 62
0
370
-1
  6
CONTINUOUS
100
AcDbEntity
100
AcDbPolyline
 90
2
 70
0
 10
137.33333333333334
 20
399.5333333333333
 10
137.33333333333334
 20
408.73333333333335
  0
LWPOLYLINE
  5
C1
  8
P
 62
0
370
-1
  6
CONTINUOUS
100
AcDbEntity
100
AcDbPolyline
 90
2
 70
0
 10
254.53333333333333
 20
241.26666666666668
 10
246.66666666666666
 20
241.26666666666668
  0
LWPOLYLINE
  5
C2
  8
P
 62
0
370
-1
  6
CONTINUOUS
100
AcDbEntity
100
AcDbPolyline
 90
2
 70
0
 10
85.333333333333329
 20
439.39999999999998
 10
175.46666666666667
 20
439.39999999999998
  0
LWPOLYLINE
  5
C3
  8
P
 62
0
370
-1
  6
CONTINUOUS
100
AcDbEntity
100
AcDbPolyline
 90
2
 70
0
 10
172.0
 20
423.19999999999999
 10
172.0
 20
442.80000000000001
  0
LWPOLYLINE
  5
C4
  8
P
 62
0
370
-1
  6
CONTINUOUS
100
AcDbEntity
100
AcDbPolyline
 90
2
 70
0
 10
173.0
 20
418.66666666666669
 10
172.73333333333332
 20
418.4666666666667
  0
LWPOLYLINE
  5
C5
  8
P
 62
0
370
-1
  6
CONTINUOUS
100
AcDbEntity
100
AcDbPolyline
 90
2
 70
0
 10
172.73333333333332
 20
418.4666666666667
 10
172.19999999999999
 20
417.86666666666667
  0
LWPOLYLINE
  5
C6
  8
P
 62
0
370
-1
  6
CONTINUOUS
100
AcDbEntity
100
AcDbPolyline
 90
2
 70
0
 10
172.19999999999999
 20
417.86666666666667
 10
172.19999999999999
 20
422.0
  0
LWPOLYLINE
  5
C7
  8
P
 62
0
370
-1
  6
CONTINUOUS
100
AcDbEntity
100
AcDbPolyline
 90
2
 70
0
 10
169.19999999999999
 20
417.86666666666667
 10
169.73333333333332
 20
418.06666666666666
  0
LWPOLYLINE
  5
C8
  8
P
 62
0
370
-1
  6
CONTINUOUS
100
AcDbEntity
100
AcDbPolyline
 90
2
 70
0
 10
169.73333333333332
 20
418.06666666666666
 10
170.06666666666666
 20
418.66666666666669
  0
LWPOLYLINE
  5
C9
  8
P
 62
0
370
-1
  6
CONTINUOUS
100
AcDbEntity
100
AcDbPolyline
 90
2
 70
0
 10
170.06666666666666
 20
418.66666666666669
 10
170.19999999999999
 20
419.66666666666669
  0
LWPOLYLINE
  5
CA
  8
P
 62
0
370
-1
  6
CONTINUOUS
100
AcDbEntity
100
AcDbPolyline
 90
2
 70
0
 10
170.19999999999999
 20
419.66666666666669
 10
170.19999999999999
 20
420.26666666666665
  0
LWPOLYLINE
  5
CB
  8
P
 62
0
370
-1
  6
CONTINUOUS
100
AcDbEntity
100
AcDbPolyline
 90
2
 70
0
 10
170.19999999999999
 20
420.26666666666665
 10
170.06666666666666
 20
421.19999999999999
  0
LWPOLYLINE
  5
CC
  8
P
 62
0
370
-1
  6
CONTINUOUS
100
AcDbEntity
100
AcDbPolyline
 90
2
 70
0
 10
170.06666666666666
 20
421.19999999999999
 10
169.73333333333332
 20
421.80000000000001
  0
LWPOLYLINE
  5
CD
  8
P
 62
0
370
-1
  6
CONTINUOUS
100
AcDbEntity
100
AcDbPolyline
 90
2
 70
0
 10
169.73333333333332
 20
421.80000000000001
 10
169.19999999999999
 20
422.0
  0
LWPOLYLINE
  5
CE
  8
P
 62
0
370
-1
  6
CONTINUOUS
100
AcDbEntity
100
AcDbPolyline
 90
2
 70
0
 10
169.19999999999999
 20
422.0
 10
168.86666666666667
 20
422.0
  0
LWPOLYLINE
  5
CF
  8
P
 62
0
370
-1
  6
CONTINUOUS
100
AcDbEntity
100
AcDbPolyline
 90
2
 70
0
 10
168.86666666666667
 20
422.0
 10
168.40000000000001
 20
421.80000000000001
  0
LWPOLYLINE
  5
D0
  8
P
 62
0
370
-1
  6
CONTINUOUS
100
AcDbEntity
100
AcDbPolyline
 90
2
 70
0
 10
168.40000000000001
 20
421.80000000000001
 10
168.06666666666666
 20
421.19999999999999
  0
LWPOLYLINE
  5
D1
  8
P
 62
0
370
-1
  6
CONTINUOUS
100
AcDbEntity
100
AcDbPolyline
 90
2
 70
0
 10
168.06666666666666
 20
421.19999999999999
 10
167.86666666666667
 20
420.26666666666665
  0
LWPOLYLINE
  5
D2
  8
P
 62
0
370
-1
  6
CONTINUOUS
100
AcDbEntity
100
AcDbPolyline
 90
2
 70
0
 10
167.86666666666667
 20
420.26666666666665
 10
167.86666666666667
 20
419.66666666666669
  0
LWPOLYLINE
  5
D3
  8
P
 62
0
370
-1
  6
CONTINUOUS
100
AcDbEntity
100
AcDbPolyline
 90
2
 70
0
 10
167.86666666666667
 20
419.66666666666669
 10
168.06666666666666
 20
418.66666666666669
  0
LWPOLYLINE
  5
D4
  8
P
 62
0
370
-1
  6
CONTINUOUS
100
AcDbEntity
100
AcDbPolyline
 90
2
 70
0
 10
168.06666666666666
 20
418.66666666666669
 10
168.40000000000001
 20
418.06666666666666
  0
LWPOLYLINE
  5
D5
  8
P
 62
0
370
-1
  6
CONTINUOUS
100
AcDbEntity
100
AcDbPolyline
 90
2
 70
0
 10
168.40000000000001
 20
418.06666666666666
 10
168.86666666666667
 20
417.86666666666667
  0
LWPOLYLINE
  5
D6
  8
P
 62
0
370
-1
  6
CONTINUOUS
100
AcDbEntity
100
AcDbPolyline
 90
2
 70
0
 10
168.86666666666667
 20
417.86666666666667
 10
169.19999999999999
 20
417.86666666666667
  0
LWPOLYLINE
  5
D7
  8
P
 62
0
370
-1
  6
CONTINUOUS
100
AcDbEntity
100
AcDbPolyline
 90
2
 70
0
 10
169.66666666666666
 20
423.19999999999999
 10
169.66666666666666
 20
442.80000000000001
  0
LWPOLYLINE
  5
D8
  8
P
 62
0
370
-1
  6
CONTINUOUS
100
AcDbEntity
100
AcDbPolyline
 90
2
 70
0
 10
134.80000000000001
 20
432.86666666666667
 10
132.93333333333334
 20
432.86666666666667
  0
LWPOLYLINE
  5
D9
  8
P
 62
0
370
-1
  6
CONTINUOUS
100
AcDbEntity
100
AcDbPolyline
 90
2
 70
0
 10
132.93333333333334
 20
432.86666666666667
 10
133.93333333333334
 20
434.4666666666667
  0
LWPOLYLINE
  5
DA
  8
P
 62
0
370
-1
  6
CONTINUOUS
100
AcDbEntity
100
AcDbPolyline
 90
2
 70
0
 10
133.93333333333334
 20
434.4666666666667
 10
133.46666666666667
 20
434.4666666666667
  0
LWPOLYLINE
  5
DB
  8
P
 62
0
370
-1
  6
CONTINUOUS
100
AcDbEntity
100
AcDbPolyline
 90
2
 70
0
 10
133.46666666666667
 20
434.4666666666667
 10
133.13333333333333
 20
434.66666666666669
  0
LWPOLYLINE
  5
DC
  8
P
 62
0
370
-1
  6
CONTINUOUS
100
AcDbEntity
100
AcDbPolyline
 90
2
 70
0
 10
133.13333333333333
 20
434.66666666666669
 10
132.93333333333334
 20
434.86666666666667
  0
LWPOLYLINE
  5
DD
  8
P
 62
0
370
-1
  6
CONTINUOUS
100
AcDbEntity
100
AcDbPolyline
 90
2
 70
0
 10
132.93333333333334
 20
434.86666666666667
 10
132.80000000000001
 20
435.4666666666667
  0
LWPOLYLINE
  5
DE
  8
P
 62
0
370
-1
  6
CONTINUOUS
100
AcDbEntity
100
AcDbPolyline
 90
2
 70
0
 10
132.80000000000001
 20
435.4666666666667
 10
132.80000000000001
 20
435.86666666666667
  0
LWPOLYLINE
  5
DF
  8
P
 62
0
370
-1
  6
CONTINUOUS
100
AcDbEntity
100
AcDbPolyline
 90
2
 70
0
 10
132.80000000000001
 20
435.86666666666667
 10
132.93333333333334
 20
436.4666666666667
  0
LWPOLYLINE
  5
E0
  8
P
 62
0
370
-1
  6
CONTINUOUS
100
AcDbEntity
100
AcDbPolyline
 90
2
 70
0
 10
132.93333333333334
 20
436.4666666666667
 10
133.26666666666668
 20
436.86666666666667
  0
LWPOLYLINE
  5
E1
  8
P
 62
0
370
-1
  6
CONTINUOUS
100
AcDbEntity
100
AcDbPolyline
 90
2
 70
0
 10
133.26666666666668
 20
436.86666666666667
 10
133.80000000000001
 20
437.06666666666666
  0
LWPOLYLINE
  5
E2
  8
P
 62
0
370
-1
  6
CONTINUOUS
100
AcDbEntity
100
AcDbPolyline
 90
2
 70
0
 10
133.80000000000001
 20
437.06666666666666
 10
134.26666666666668
 20
437.06666666666666
  0
LWPOLYLINE
  5
E3
  8
P
 62
0
370
-1
  6
CONTINUOUS
100
AcDbEntity
100
AcDbPolyline
 90
2
 70
0
 10
134.26666666666668
 20
437.06666666666666
 10
134.80000000000001
 20
436.86666666666667
  0
LWPOLYLINE
  5
E4
  8
P
 62
0
370
-1
  6
CONTINUOUS
100
AcDbEntity
100
AcDbPolyline
 90
2
 70
0
 10
134.80000000000001
 20
436.86666666666667
 10
134.93333333333334
 20
436.66666666666669
  0
LWPOLYLINE
  5
E5
  8
P
 62
0
370
-1
  6
CONTINUOUS
100
AcDbEntity
100
AcDbPolyline
 90
2
 70
0
 10
134.93333333333334
 20
436.66666666666669
 10
135.13333333333333
 20
436.26666666666665
  0
LWPOLYLINE
  5
E6
  8
P
 62
0
370
-1
  6
CONTINUOUS
100
AcDbEntity
100
AcDbPolyline
 90
2
 70
0
 10
129.93333333333334
 20
432.86666666666667
 10
131.66666666666666
 20
435.66666666666669
  0
LWPOLYLINE
  5
E7
  8
P
 62
0
370
-1
  6
CONTINUOUS
100
AcDbEntity
100
AcDbPolyline
 90
2
 70
0
 10
131.66666666666666
 20
435.66666666666669
 10
129.13333333333333
 20
435.66666666666669
  0
LWPOLYLINE
  5
E8
  8
P
 62
0
370
-1
  6
CONTINUOUS
100
AcDbEntity
100
AcDbPolyline
 90
2
 70
0
 10
129.93333333333334
 20
432.86666666666667
 10
129.93333333333334
 20
437.06666666666666
  0
LWPOLYLINE
  5
E9
  8
P
 62
0
370
-1
  6
CONTINUOUS
100
AcDbEntity
100
AcDbPolyline
 90
2
 70
0
 10
127.0
 20
432.86666666666667
 10
127.46666666666667
 20
433.13333333333333
  0
LWPOLYLINE
  5
EA
  8
P
 62
0
370
-1
  6
CONTINUOUS
100
AcDbEntity
100
AcDbPolyline
 90
2
 70
0
 10
127.46666666666667
 20
433.13333333333333
 10
127.8
 20
433.66666666666669
  0
LWPOLYLINE
  5
EB
  8
P
 62
0
370
-1
  6
CONTINUOUS
100
AcDbEntity
100
AcDbPolyline
 90
2
 70
0
 10
127.8
 20
433.66666666666669
 10
128.0
 20
434.66666666666669
  0
LWPOLYLINE
  5
EC
  8
P
 62
0
370
-1
  6
CONTINUOUS
100
AcDbEntity
100
AcDbPolyline
 90
2
 70
0
 10
128.0
 20
434.66666666666669
 10
128.0
 20
435.26666666666665
  0
LWPOLYLINE
  5
ED
  8
P
 62
0
370
-1
  6
CONTINUOUS
100
AcDbEntity
100
AcDbPolyline
 90
2
 70
0
 10
128.0
 20
435.26666666666665
 10
127.8
 20
436.26666666666665
  0
LWPOLYLINE
  5
EE
  8
P
 62
0
370
-1
  6
CONTINUOUS
100
AcDbEntity
100
AcDbPolyline
 90
2
 70
0
 10
127.8
 20
436.26666666666665
 10
127.46666666666667
 20
436.86666666666667
  0
LWPOLYLINE
  5
EF
  8
P
 62
0
370
-1
  6
CONTINUOUS
100
AcDbEntity
100
AcDbPolyline
 90
2
 70
0
 10
127.46666666666667
 20
436.86666666666667
 10
127.0
 20
437.06666666666666
  0
LWPOLYLINE
  5
F0
  8
P
 62
0
370
-1
  6
CONTINUOUS
100
AcDbEntity
100
AcDbPolyline
 90
2
 70
0
 10
127.0
 20
437.06666666666666
 10
126.66666666666667
 20
437.06666666666666
  0
LWPOLYLINE
  5
F1
  8
P
 62
0
370
-1
  6
CONTINUOUS
100
AcDbEntity
100
AcDbPolyline
 90
2
 70
0
 10
126.66666666666667
 20
437.06666666666666
 10
126.13333333333334
 20
436.86666666666667
  0
LWPOLYLINE
  5
F2
  8
P
 62
0
370
-1
  6
CONTINUOUS
100
AcDbEntity
100
AcDbPolyline
 90
2
 70
0
 10
126.13333333333334
 20
436.86666666666667
 10
125.8
 20
436.26666666666665
  0
LWPOLYLINE
  5
F3
  8
P
 62
0
370
-1
  6
CONTINUOUS
100
AcDbEntity
100
AcDbPolyline
 90
2
 70
0
 10
125.8
 20
436.26666666666665
 10
125.66666666666667
 20
435.26666666666665
  0
LWPOLYLINE
  5
F4
  8
P
 62
0
370
-1
  6
CONTINUOUS
100
AcDbEntity
100
AcDbPolyline
 90
2
 70
0
 10
125.66666666666667
 20
435.26666666666665
 10
125.66666666666667
 20
434.66666666666669
  0
LWPOLYLINE
  5
F5
  8
P
 62
0
370
-1
  6
CONTINUOUS
100
AcDbEntity
100
AcDbPolyline
 90
2
 70
0
 10
125.66666666666667
 20
434.66666666666669
 10
125.8
 20
433.66666666666669
  0
LWPOLYLINE
  5
F6
  8
P
 62
0
370
-1
  6
CONTINUOUS
100
AcDbEntity
100
AcDbPolyline
 90
2
 70
0
 10
125.8
 20
433.66666666666669
 10
126.13333333333334
 20
433.13333333333333
  0
LWPOLYLINE
  5
F7
  8
P
 62
0
370
-1
  6
CONTINUOUS
100
AcDbEntity
100
AcDbPolyline
 90
2
 70
0
 10
126.13333333333334
 20
433.13333333333333
 10
126.66666666666667
 20
432.86666666666667
  0
LWPOLYLINE
  5
F8
  8
P
 62
0
370
-1
  6
CONTINUOUS
100
AcDbEntity
100
AcDbPolyline
 90
2
 70
0
 10
126.66666666666667
 20
432.86666666666667
 10
127.0
 20
432.86666666666667
  0
LWPOLYLINE
  5
F9
  8
P
 62
0
370
-1
  6
CONTINUOUS
100
AcDbEntity
100
AcDbPolyline
 90
2
 70
0
 10
91.13333333333334
 20
423.19999999999999
 10
91.13333333333334
 20
442.80000000000001
  0
LWPOLYLINE
  5
FA
  8
P
 62
0
370
-1
  6
CONTINUOUS
100
AcDbEntity
100
AcDbPolyline
 90
2
 70
0
 10
92.13333333333334
 20
418.66666666666669
 10
91.799999999999997
 20
418.4666666666667
  0
LWPOLYLINE
  5
FB
  8
P
 62
0
370
-1
  6
CONTINUOUS
100
AcDbEntity
100
AcDbPolyline
 90
2
 70
0
 10
91.799999999999997
 20
418.4666666666667
 10
91.266666666666666
 20
417.86666666666667
  0
LWPOLYLINE
  5
FC
  8
P
 62
0
370
-1
  6
CONTINUOUS
100
AcDbEntity
100
AcDbPolyline
 90
2
 70
0
 10
91.266666666666666
 20
417.86666666666667
 10
91.266666666666666
 20
422.0
  0
LWPOLYLINE
  5
FD
  8
P
 62
0
370
-1
  6
CONTINUOUS
100
AcDbEntity
100
AcDbPolyline
 90
2
 70
0
 10
88.333333333333329
 20
417.86666666666667
 10
88.799999999999997
 20
418.06666666666666
  0
LWPOLYLINE
  5
FE
  8
P
 62
0
370
-1
  6
CONTINUOUS
100
AcDbEntity
100
AcDbPolyline
 90
2
 70
0
 10
88.799999999999997
 20
418.06666666666666
 10
89.13333333333334
 20
418.66666666666669
  0
LWPOLYLINE
  5
FF
  8
P
 62
0
370
-1
  6
CONTINUOUS
100
AcDbEntity
100
AcDbPolyline
 90
2
 70
0
 10
89.13333333333334
 20
418.66666666666669
 10
89.333333333333329
 20
419.66666666666669
  0
LWPOLYLINE
  5
100
  8
P
 62
0
370
-1
  6
CONTINUOUS
100
AcDbEntity
100
AcDbPolyline
 90
2
 70
0
 10
89.333333333333329
 20
419.66666666666669
 10
89.333333333333329
 20
420.26666666666665
  0
LWPOLYLINE
  5
101
  8
P
 62
0
370
-1
  6
CONTINUOUS
100
AcDbEntity
100
AcDbPolyline
 90
2
 70
0
 10
89.333333333333329
 20
420.26666666666665
 10
89.13333333333334
 20
421.19999999999999
  0
LWPOLYLINE
  5
102
  8
P
 62
0
370
-1
  6
CONTINUOUS
100
AcDbEntity
100
AcDbPolyline
 90
2
 70
0
 10
89.13333333333334
 20
421.19999999999999
 10
88.799999999999997
 20
421.80000000000001
  0
LWPOLYLINE
  5
103
  8
P
 62
0
370
-1
  6
CONTINUOUS
100
AcDbEntity
100
AcDbPolyline
 90
2
 70
0
 10
88.799999999999997
 20
421.80000000000001
 10
88.333333333333329
 20
422.0
  0
LWPOLYLINE
  5
104
  8
P
 62
0
370
-1
  6
CONTINUOUS
100
AcDbEntity
100
AcDbPolyline
 90
2
 70
0
 10
88.333333333333329
 20
422.0
 10
88.0
 20
422.0
  0
LWPOLYLINE
  5
105
  8
P
 62
0
370
-1
  6
CONTINUOUS
100
AcDbEntity
100
AcDbPolyline
 90
2
 70
0
 10
88.0
 20
422.0
 10
87.466666666666669
 20
421.80000000000001
  0
LWPOLYLINE
  5
106
  8
P
 62
0
370
-1
  6
CONTINUOUS
100
AcDbEntity
100
AcDbPolyline
 90
2
 70
0
 10
87.466666666666669
 20
421.80000000000001
 10
87.13333333333334
 20
421.19999999999999
  0
LWPOLYLINE
  5
107
  8
P
 62
0
370
-1
  6
CONTINUOUS
100
AcDbEntity
100
AcDbPolyline
 90
2
 70
0
 10
87.13333333333334
 20
421.19999999999999
 10
87.0
 20
420.26666666666665
  0
LWPOLYLINE
  5
108
  8
P
 62
0
370
-1
  6
CONTINUOUS
100
AcDbEntity
100
AcDbPolyline
 90
2
 70
0
 10
87.0
 20
420.26666666666665
 10
87.0
 20
419.66666666666669
  0
LWPOLYLINE
  5
109
  8
P
 62
0
370
-1
  6
CONTINUOUS
100
AcDbEntity
100
AcDbPolyline
 90
2
 70
0
 10
87.0
 20
419.66666666666669
 10
87.13333333333334
 20
418.66666666666669
  0
LWPOLYLINE
  5
10A
  8
P
 62
0
370
-1
  6
CONTINUOUS
100
AcDbEntity
100
AcDbPolyline
 90
2
 70
0
 10
87.13333333333334
 20
418.66666666666669
 10
87.466666666666669
 20
418.06666666666666
  0
LWPOLYLINE
  5
10B
  8
P
 62
0
370
-1
  6
CONTINUOUS
100
AcDbEntity
100
AcDbPolyline
 90
2
 70
0
 10
87.466666666666669
 20
418.06666666666666
 10
88.0
 20
417.86666666666667
  0
LWPOLYLINE
  5
10C
  8
P
 62
0
370
-1
  6
CONTINUOUS
100
AcDbEntity
100
AcDbPolyline
 90
2
 70
0
 10
88.0
 20
417.86666666666667
 10
88.333333333333329
 20
417.86666666666667
  0
LWPOLYLINE
  5
10D
  8
P
 62
0
370
-1
  6
CONTINUOUS
100
AcDbEntity
100
AcDbPolyline
 90
2
 70
0
 10
88.799999999999997
 20
423.19999999999999
 10
88.799999999999997
 20
442.80000000000001
  0
LWPOLYLINE
  5
10E
  8
P
 62
0
370
-1
  6
CONTINUOUS
100
AcDbEntity
100
AcDbPolyline
 90
2
 70
0
 10
224.0
 20
165.06666666666666
 10
277.13333333333333
 20
165.06666666666666
  0
LWPOLYLINE
  5
10F
  8
P
 62
0
370
-1
  6
CONTINUOUS
100
AcDbEntity
100
AcDbPolyline
 90
2
 70
0
 10
224.0
 20
147.73333333333335
 10
277.13333333333333
 20
147.73333333333335
  0
LWPOLYLINE
  5
110
  8
P
 62
0
370
-1
  6
CONTINUOUS
100
AcDbEntity
100
AcDbPolyline
 90
2
 70
0
 10
273.66666666666669
 20
144.26666666666665
 10
273.66666666666669
 20
181.26666666666665
  0
LWPOLYLINE
  5
111
  8
P
 62
0
370
-1
  6
CONTINUOUS
100
AcDbEntity
100
AcDbPolyline
 90
2
 70
0
 10
263.39999999999998
 20
160.0
 10
263.60000000000002
 20
160.60000000000002
  0
LWPOLYLINE
  5
112
  8
P
 62
0
370
-1
  6
CONTINUOUS
100
AcDbEntity
100
AcDbPolyline
 90
2
 70
0
 10
263.60000000000002
 20
160.60000000000002
 10
263.93333333333334
 20
161.0
  0
LWPOLYLINE
  5
113
  8
P
 62
0
370
-1
  6
CONTINUOUS
100
AcDbEntity
100
AcDbPolyline
 90
2
 70
0
 10
263.93333333333334
 20
161.0
 10
264.39999999999998
 20
161.19999999999999
  0
LWPOLYLINE
  5
114
  8
P
 62
0
370
-1
  6
CONTINUOUS
100
AcDbEntity
100
AcDbPolyline
 90
2
 70
0
 10
264.39999999999998
 20
161.19999999999999
 10
264.60000000000002
 20
161.19999999999999
  0
LWPOLYLINE
  5
115
  8
P
 62
0
370
-1
  6
CONTINUOUS
100
AcDbEntity
100
AcDbPolyline
 90
2
 70
0
 10
264.60000000000002
 20
161.19999999999999
 10
265.06666666666666
 20
161.0
  0
LWPOLYLINE
  5
116
  8
P
 62
0
370
-1
  6
CONTINUOUS
100
AcDbEntity
100
AcDbPolyline
 90
2
 70
0
 10
265.06666666666666
 20
161.0
 10
265.39999999999998
 20
160.60000000000002
  0
LWPOLYLINE
  5
117
  8
P
 62
0
370
-1
  6
CONTINUOUS
100
AcDbEntity
100
AcDbPolyline
 90
2
 70
0
 10
265.39999999999998
 20
160.60000000000002
 10
265.53333333333336
 20
160.0
  0
LWPOLYLINE
  5
118
  8
P
 62
0
370
-1
  6
CONTINUOUS
100
AcDbEntity
100
AcDbPolyline
 90
2
 70
0
 10
265.53333333333336
 20
160.0
 10
265.53333333333336
 20
159.80000000000001
  0
LWPOLYLINE
  5
119
  8
P
 62
0
370
-1
  6
CONTINUOUS
100
AcDbEntity
100
AcDbPolyline
 90
2
 70
0
 10
265.53333333333336
 20
159.80000000000001
 10
265.39999999999998
 20
159.19999999999999
  0
LWPOLYLINE
  5
11A
  8
P
 62
0
370
-1
  6
CONTINUOUS
100
AcDbEntity
100
AcDbPolyline
 90
2
 70
0
 10
265.39999999999998
 20
159.19999999999999
 10
265.06666666666666
 20
158.80000000000001
  0
LWPOLYLINE
  5
11B
  8
P
 62
0
370
-1
  6
CONTINUOUS
100
AcDbEntity
100
AcDbPolyline
 90
2
 70
0
 10
265.06666666666666
 20
158.80000000000001
 10
264.60000000000002
 20
158.60000000000002
  0
LWPOLYLINE
  5
11C
  8
P
 62
0
370
-1
  6
CONTINUOUS
100
AcDbEntity
100
AcDbPolyline
 90
2
 70
0
 10
264.60000000000002
 20
158.60000000000002
 10
264.39999999999998
 20
158.60000000000002
  0
LWPOLYLINE
  5
11D
  8
P
 62
0
370
-1
  6
CONTINUOUS
100
AcDbEntity
100
AcDbPolyline
 90
2
 70
0
 10
264.39999999999998
 20
158.60000000000002
 10
263.93333333333334
 20
158.80000000000001
  0
LWPOLYLINE
  5
11E
  8
P
 62
0
370
-1
  6
CONTINUOUS
100
AcDbEntity
100
AcDbPolyline
 90
2
 70
0
 10
263.93333333333334
 20
158.80000000000001
 10
263.60000000000002
 20
159.19999999999999
  0
LWPOLYLINE
  5
11F
  8
P
 62
0
370
-1
  6
CONTINUOUS
100
AcDbEntity
100
AcDbPolyline
 90
2
 70
0
 10
263.60000000000002
 20
159.19999999999999
 10
263.39999999999998
 20
160.0
  0
LWPOLYLINE
  5
120
  8
P
 62
0
370
-1
  6
CONTINUOUS
100
AcDbEntity
100
AcDbPolyline
 90
2
 70
0
 10
263.39999999999998
 20
160.0
 10
263.39999999999998
 20
161.0
  0
LWPOLYLINE
  5
121
  8
P
 62
0
370
-1
  6
CONTINUOUS
100
AcDbEntity
100
AcDbPolyline
 90
2
 70
0
 10
263.39999999999998
 20
161.0
 10
263.60000000000002
 20
162.0
  0
LWPOLYLINE
  5
122
  8
P
 62
0
370
-1
  6
CONTINUOUS
100
AcDbEntity
100
AcDbPolyline
 90
2
 70
0
 10
263.60000000000002
 20
162.0
 10
263.93333333333334
 20
162.53333333333336
  0
LWPOLYLINE
  5
123
  8
P
 62
0
370
-1
  6
CONTINUOUS
100
AcDbEntity
100
AcDbPolyline
 90
2
 70
0
 10
263.93333333333334
 20
162.53333333333336
 10
264.39999999999998
 20
162.73333333333335
  0
LWPOLYLINE
  5
124
  8
P
 62
0
370
-1
  6
CONTINUOUS
100
AcDbEntity
100
AcDbPolyline
 90
2
 70
0
 10
264.39999999999998
 20
162.73333333333335
 10
264.73333333333335
 20
162.73333333333335
  0
LWPOLYLINE
  5
125
  8
P
 62
0
370
-1
  6
CONTINUOUS
100
AcDbEntity
100
AcDbPolyline
 90
2
 70
0
 10
264.73333333333335
 20
162.73333333333335
 10
265.26666666666665
 20
162.53333333333336
  0
LWPOLYLINE
  5
126
  8
P
 62
0
370
-1
  6
CONTINUOUS
100
AcDbEntity
100
AcDbPolyline
 90
2
 70
0
 10
265.26666666666665
 20
162.53333333333336
 10
265.39999999999998
 20
162.19999999999999
  0
LWPOLYLINE
  5
127
  8
P
 62
0
370
-1
  6
CONTINUOUS
100
AcDbEntity
100
AcDbPolyline
 90
2
 70
0
 10
260.06666666666666
 20
158.60000000000002
 10
261.73333333333335
 20
158.60000000000002
  0
LWPOLYLINE
  5
128
  8
P
 62
0
370
-1
  6
CONTINUOUS
100
AcDbEntity
100
AcDbPolyline
 90
2
 70
0
 10
261.73333333333335
 20
158.60000000000002
 10
261.93333333333334
 20
160.39999999999998
  0
LWPOLYLINE
  5
129
  8
P
 62
0
370
-1
  6
CONTINUOUS
100
AcDbEntity
100
AcDbPolyline
 90
2
 70
0
 10
261.93333333333334
 20
160.39999999999998
 10
261.73333333333335
 20
160.19999999999999
  0
LWPOLYLINE
  5
12A
  8
P
 62
0
370
-1
  6
CONTINUOUS
100
AcDbEntity
100
AcDbPolyline
 90
2
 70
0
 10
261.73333333333335
 20
160.19999999999999
 10
261.26666666666665
 20
160.0
  0
LWPOLYLINE
  5
12B
  8
P
 62
0
370
-1
  6
CONTINUOUS
100
AcDbEntity
100
AcDbPolyline
 90
2
 70
0
 10
261.26666666666665
 20
160.0
 10
260.73333333333335
 20
160.0
  0
LWPOLYLINE
  5
12C
  8
P
 62
0
370
-1
  6
CONTINUOUS
100
AcDbEntity
100
AcDbPolyline
 90
2
 70
0
 10
260.73333333333335
 20
160.0
 10
260.26666666666665
 20
160.19999999999999
  0
LWPOLYLINE
  5
12D
  8
P
 62
0
370
-1
  6
CONTINUOUS
100
AcDbEntity
100
AcDbPolyline
 90
2
 70
0
 10
260.26666666666665
 20
160.19999999999999
 10
259.93333333333334
 20
160.60000000000002
  0
LWPOLYLINE
  5
12E
  8
P
 62
0
370
-1
  6
CONTINUOUS
100
AcDbEntity
100
AcDbPolyline
 90
2
 70
0
 10
259.93333333333334
 20
160.60000000000002
 10
259.73333333333335
 20
161.19999999999999
  0
LWPOLYLINE
  5
12F
  8
P
 62
0
370
-1
  6
CONTINUOUS
100
AcDbEntity
100
AcDbPolyline
 90
2
 70
0
 10
259.73333333333335
 20
161.19999999999999
 10
259.73333333333335
 20
161.53333333333336
  0
LWPOLYLINE
  5
130
  8
P
 62
0
370
-1
  6
CONTINUOUS
100
AcDbEntity
100
AcDbPolyline
 90
2
 70
0
 10
259.73333333333335
 20
161.53333333333336
 10
259.93333333333334
 20
162.19999999999999
  0
LWPOLYLINE
  5
131
  8
P
 62
0
370
-1
  6
CONTINUOUS
100
AcDbEntity
100
AcDbPolyline
 90
2
 70
0
 10
259.93333333333334
 20
162.19999999999999
 10
260.26666666666665
 20
162.53333333333336
  0
LWPOLYLINE
  5
132
  8
P
 62
0
370
-1
  6
CONTINUOUS
100
AcDbEntity
100
AcDbPolyline
 90
2
 70
0
 10
260.26666666666665
 20
162.53333333333336
 10
260.73333333333335
 20
162.73333333333335
  0
LWPOLYLINE
  5
133
  8
P
 62
0
370
-1
  6
CONTINUOUS
100
AcDbEntity
100
AcDbPolyline
 90
2
 70
0
 10
260.73333333333335
 20
162.73333333333335
 10
261.26666666666665
 20
162.73333333333335
  0
LWPOLYLINE
  5
134
  8
P
 62
0
370
-1
  6
CONTINUOUS
100
AcDbEntity
100
AcDbPolyline
 90
2
 70
0
 10
261.26666666666665
 20
162.73333333333335
 10
261.73333333333335
 20
162.53333333333336
  0
LWPOLYLINE
  5
135
  8
P
 62
0
370
-1
  6
CONTINUOUS
100
AcDbEntity
100
AcDbPolyline
 90
2
 70
0
 10
261.73333333333335
 20
162.53333333333336
 10
261.93333333333334
 20
162.33333333333331
  0
LWPOLYLINE
  5
136
  8
P
 62
0
370
-1
  6
CONTINUOUS
100
AcDbEntity
100
AcDbPolyline
 90
2
 70
0
 10
261.93333333333334
 20
162.33333333333331
 10
262.06666666666666
 20
162.0
  0
LWPOLYLINE
  5
137
  8
P
 62
0
370
-1
  6
CONTINUOUS
100
AcDbEntity
100
AcDbPolyline
 90
2
 70
0
 10
251.73333333333332
 20
161.60000000000002
 10
251.73333333333332
 20
181.26666666666665
  0
LWPOLYLINE
  5
138
  8
P
 62
0
370
-1
  6
CONTINUOUS
100
AcDbEntity
100
AcDbPolyline
 90
2
 70
0
 10
252.80000000000001
 20
157.06666666666666
 10
252.40000000000001
 20
156.86666666666667
  0
LWPOLYLINE
  5
139
  8
P
 62
0
370
-1
  6
CONTINUOUS
100
AcDbEntity
100
AcDbPolyline
 90
2
 70
0
 10
252.40000000000001
 20
156.86666666666667
 10
251.93333333333334
 20
156.26666666666665
  0
LWPOLYLINE
  5
13A
  8
P
 62
0
370
-1
  6
CONTINUOUS
100
AcDbEntity
100
AcDbPolyline
 90
2
 70
0
 10
251.93333333333334
 20
156.26666666666665
 10
251.93333333333334
 20
160.46666666666664
  0
LWPOLYLINE
  5
13B
  8
P
 62
0
370
-1
  6
CONTINUOUS
100
AcDbEntity
100
AcDbPolyline
 90
2
 70
0
 10
248.93333333333334
 20
156.26666666666665
 10
249.46666666666667
 20
156.46666666666664
  0
LWPOLYLINE
  5
13C
  8
P
 62
0
370
-1
  6
CONTINUOUS
100
AcDbEntity
100
AcDbPolyline
 90
2
 70
0
 10
249.46666666666667
 20
156.46666666666664
 10
249.80000000000001
 20
157.06666666666666
  0
LWPOLYLINE
  5
13D
  8
P
 62
0
370
-1
  6
CONTINUOUS
100
AcDbEntity
100
AcDbPolyline
 90
2
 70
0
 10
249.80000000000001
 20
157.06666666666666
 10
249.93333333333334
 20
158.06666666666666
  0
LWPOLYLINE
  5
13E
  8
P
 62
0
370
-1
  6
CONTINUOUS
100
AcDbEntity
100
AcDbPolyline
 90
2
 70
0
 10
249.93333333333334
 20
158.06666666666666
 10
249.93333333333334
 20
158.66666666666669
  0
LWPOLYLINE
  5
13F
  8
P
 62
0
370
-1
  6
CONTINUOUS
100
AcDbEntity
100
AcDbPolyline
 90
2
 70
0
 10
249.93333333333334
 20
158.66666666666669
 10
249.80000000000001
 20
159.66666666666669
  0
LWPOLYLINE
  5
140
  8
P
 62
0
370
-1
  6
CONTINUOUS
100
AcDbEntity
100
AcDbPolyline
 90
2
 70
0
 10
249.80000000000001
 20
159.66666666666669
 10
249.46666666666667
 20
160.19999999999999
  0
LWPOLYLINE
  5
141
  8
P
 62
0
370
-1
  6
CONTINUOUS
100
AcDbEntity
100
AcDbPolyline
 90
2
 70
0
 10
249.46666666666667
 20
160.19999999999999
 10
248.93333333333334
 20
160.46666666666664
  0
LWPOLYLINE
  5
142
  8
P
 62
0
370
-1
  6
CONTINUOUS
100
AcDbEntity
100
AcDbPolyline
 90
2
 70
0
 10
248.93333333333334
 20
160.46666666666664
 10
248.59999999999999
 20
160.46666666666664
  0
LWPOLYLINE
  5
143
  8
P
 62
0
370
-1
  6
CONTINUOUS
100
AcDbEntity
100
AcDbPolyline
 90
2
 70
0
 10
248.59999999999999
 20
160.46666666666664
 10
248.13333333333333
 20
160.19999999999999
  0
LWPOLYLINE
  5
144
  8
P
 62
0
370
-1
  6
CONTINUOUS
100
AcDbEntity
100
AcDbPolyline
 90
2
 70
0
 10
248.13333333333333
 20
160.19999999999999
 10
247.80000000000001
 20
159.66666666666669
  0
LWPOLYLINE
  5
145
  8
P
 62
0
370
-1
  6
CONTINUOUS
100
AcDbEntity
100
AcDbPolyline
 90
2
 70
0
 10
247.80000000000001
 20
159.66666666666669
 10
247.59999999999999
 20
158.66666666666669
  0
LWPOLYLINE
  5
146
  8
P
 62
0
370
-1
  6
CONTINUOUS
100
AcDbEntity
100
AcDbPolyline
 90
2
 70
0
 10
247.59999999999999
 20
158.66666666666669
 10
247.59999999999999
 20
158.06666666666666
  0
LWPOLYLINE
  5
147
  8
P
 62
0
370
-1
  6
CONTINUOUS
100
AcDbEntity
100
AcDbPolyline
 90
2
 70
0
 10
247.59999999999999
 20
158.06666666666666
 10
247.80000000000001
 20
157.06666666666666
  0
LWPOLYLINE
  5
148
  8
P
 62
0
370
-1
  6
CONTINUOUS
100
AcDbEntity
100
AcDbPolyline
 90
2
 70
0
 10
247.80000000000001
 20
157.06666666666666
 10
248.13333333333333
 20
156.46666666666664
  0
LWPOLYLINE
  5
149
  8
P
 62
0
370
-1
  6
CONTINUOUS
100
AcDbEntity
100
AcDbPolyline
 90
2
 70
0
 10
248.13333333333333
 20
156.46666666666664
 10
248.59999999999999
 20
156.26666666666665
  0
LWPOLYLINE
  5
14A
  8
P
 62
0
370
-1
  6
CONTINUOUS
100
AcDbEntity
100
AcDbPolyline
 90
2
 70
0
 10
248.59999999999999
 20
156.26666666666665
 10
248.93333333333334
 20
156.26666666666665
  0
LWPOLYLINE
  5
14B
  8
P
 62
0
370
-1
  6
CONTINUOUS
100
AcDbEntity
100
AcDbPolyline
 90
2
 70
0
 10
249.40000000000001
 20
161.60000000000002
 10
249.40000000000001
 20
181.26666666666665
  0
LWPOLYLINE
  5
14C
  8
P
 62
0
370
-1
  6
CONTINUOUS
100
AcDbEntity
100
AcDbPolyline
 90
2
 70
0
 10
239.13333333333333
 20
160.0
 10
239.33333333333334
 20
160.60000000000002
  0
LWPOLYLINE
  5
14D
  8
P
 62
0
370
-1
  6
CONTINUOUS
100
AcDbEntity
100
AcDbPolyline
 90
2
 70
0
 10
239.33333333333334
 20
160.60000000000002
 10
239.66666666666666
 20
161.0
  0
LWPOLYLINE
  5
14E
  8
P
 62
0
370
-1
  6
CONTINUOUS
100
AcDbEntity
100
AcDbPolyline
 90
2
 70
0
 10
239.66666666666666
 20
161.0
 10
240.13333333333333
 20
161.19999999999999
  0
LWPOLYLINE
  5
14F
  8
P
 62
0
370
-1
  6
CONTINUOUS
100
AcDbEntity
100
AcDbPolyline
 90
2
 70
0
 10
240.13333333333333
 20
161.19999999999999
 10
240.33333333333334
 20
161.19999999999999
  0
LWPOLYLINE
  5
150
  8
P
 62
0
370
-1
  6
CONTINUOUS
100
AcDbEntity
100
AcDbPolyline
 90
2
 70
0
 10
240.33333333333334
 20
161.19999999999999
 10
240.80000000000001
 20
161.0
  0
LWPOLYLINE
  5
151
  8
P
 62
0
370
-1
  6
CONTINUOUS
100
AcDbEntity
100
AcDbPolyline
 90
2
 70
0
 10
240.80000000000001
 20
161.0
 10
241.13333333333333
 20
160.60000000000002
  0
LWPOLYLINE
  5
152
  8
P
 62
0
370
-1
  6
CONTINUOUS
100
AcDbEntity
100
AcDbPolyline
 90
2
 70
0
 10
241.13333333333333
 20
160.60000000000002
 10
241.26666666666668
 20
160.0
  0
LWPOLYLINE
  5
153
  8
P
 62
0
370
-1
  6
CONTINUOUS
100
AcDbEntity
100
AcDbPolyline
 90
2
 70
0
 10
241.26666666666668
 20
160.0
 10
241.26666666666668
 20
159.80000000000001
  0
LWPOLYLINE
  5
154
  8
P
 62
0
370
-1
  6
CONTINUOUS
100
AcDbEntity
100
AcDbPolyline
 90
2
 70
0
 10
241.26666666666668
 20
159.80000000000001
 10
241.13333333333333
 20
159.19999999999999
  0
LWPOLYLINE
  5
155
  8
P
 62
0
370
-1
  6
CONTINUOUS
100
AcDbEntity
100
AcDbPolyline
 90
2
 70
0
 10
241.13333333333333
 20
159.19999999999999
 10
240.80000000000001
 20
158.80000000000001
  0
LWPOLYLINE
  5
156
  8
P
 62
0
370
-1
  6
CONTINUOUS
100
AcDbEntity
100
AcDbPolyline
 90
2
 70
0
 10
240.80000000000001
 20
158.80000000000001
 10
240.33333333333334
 20
158.60000000000002
  0
LWPOLYLINE
  5
157
  8
P
 62
0
370
-1
  6
CONTINUOUS
100
AcDbEntity
100
AcDbPolyline
 90
2
 70
0
 10
240.33333333333334
 20
158.60000000000002
 10
240.13333333333333
 20
158.60000000000002
  0
LWPOLYLINE
  5
158
  8
P
 62
0
370
-1
  6
CONTINUOUS
100
AcDbEntity
100
AcDbPolyline
 90
2
 70
0
 10
240.13333333333333
 20
158.60000000000002
 10
239.66666666666666
 20
158.80000000000001
  0
LWPOLYLINE
  5
159
  8
P
 62
0
370
-1
  6
CONTINUOUS
100
AcDbEntity
100
AcDbPolyline
 90
2
 70
0
 10
239.66666666666666
 20
158.80000000000001
 10
239.33333333333334
 20
159.19999999999999
  0
LWPOLYLINE
  5
15A
  8
P
 62
0
370
-1
  6
CONTINUOUS
100
AcDbEntity
100
AcDbPolyline
 90
2
 70
0
 10
239.33333333333334
 20
159.19999999999999
 10
239.13333333333333
 20
160.0
  0
LWPOLYLINE
  5
15B
  8
P
 62
0
370
-1
  6
CONTINUOUS
100
AcDbEntity
100
AcDbPolyline
 90
2
 70
0
 10
239.13333333333333
 20
160.0
 10
239.13333333333333
 20
161.0
  0
LWPOLYLINE
  5
15C
  8
P
 62
0
370
-1
  6
CONTINUOUS
100
AcDbEntity
100
AcDbPolyline
 90
2
 70
0
 10
239.13333333333333
 20
161.0
 10
239.33333333333334
 20
162.0
  0
LWPOLYLINE
  5
15D
  8
P
 62
0
370
-1
  6
CONTINUOUS
100
AcDbEntity
100
AcDbPolyline
 90
2
 70
0
 10
239.33333333333334
 20
162.0
 10
239.66666666666666
 20
162.53333333333336
  0
LWPOLYLINE
  5
15E
  8
P
 62
0
370
-1
  6
CONTINUOUS
100
AcDbEntity
100
AcDbPolyline
 90
2
 70
0
 10
239.66666666666666
 20
162.53333333333336
 10
240.13333333333333
 20
162.73333333333335
  0
LWPOLYLINE
  5
15F
  8
P
 62
0
370
-1
  6
CONTINUOUS
100
AcDbEntity
100
AcDbPolyline
 90
2
 70
0
 10
240.13333333333333
 20
162.73333333333335
 10
240.46666666666667
 20
162.73333333333335
  0
LWPOLYLINE
  5
160
  8
P
 62
0
370
-1
  6
CONTINUOUS
100
AcDbEntity
100
AcDbPolyline
 90
2
 70
0
 10
240.46666666666667
 20
162.73333333333335
 10
240.93333333333334
 20
162.53333333333336
  0
LWPOLYLINE
  5
161
  8
P
 62
0
370
-1
  6
CONTINUOUS
100
AcDbEntity
100
AcDbPolyline
 90
2
 70
0
 10
240.93333333333334
 20
162.53333333333336
 10
241.13333333333333
 20
162.19999999999999
  0
LWPOLYLINE
  5
162
  8
P
 62
0
370
-1
  6
CONTINUOUS
100
AcDbEntity
100
AcDbPolyline
 90
2
 70
0
 10
235.80000000000001
 20
158.60000000000002
 10
237.46666666666667
 20
158.60000000000002
  0
LWPOLYLINE
  5
163
  8
P
 62
0
370
-1
  6
CONTINUOUS
100
AcDbEntity
100
AcDbPolyline
 90
2
 70
0
 10
237.46666666666667
 20
158.60000000000002
 10
237.66666666666666
 20
160.39999999999998
  0
LWPOLYLINE
  5
164
  8
P
 62
0
370
-1
  6
CONTINUOUS
100
AcDbEntity
100
AcDbPolyline
 90
2
 70
0
 10
237.66666666666666
 20
160.39999999999998
 10
237.46666666666667
 20
160.19999999999999
  0
LWPOLYLINE
  5
165
  8
P
 62
0
370
-1
  6
CONTINUOUS
100
AcDbEntity
100
AcDbPolyline
 90
2
 70
0
 10
237.46666666666667
 20
160.19999999999999
 10
237.0
 20
160.0
  0
LWPOLYLINE
  5
166
  8
P
 62
0
370
-1
  6
CONTINUOUS
100
AcDbEntity
100
AcDbPolyline
 90
2
 70
0
 10
237.0
 20
160.0
 10
236.46666666666667
 20
160.0
  0
LWPOLYLINE
  5
167
  8
P
 62
0
370
-1
  6
CONTINUOUS
100
AcDbEntity
100
AcDbPolyline
 90
2
 70
0
 10
236.46666666666667
 20
160.0
 10
236.0
 20
160.19999999999999
  0
LWPOLYLINE
  5
168
  8
P
 62
0
370
-1
  6
CONTINUOUS
100
AcDbEntity
100
AcDbPolyline
 90
2
 70
0
 10
236.0
 20
160.19999999999999
 10
235.66666666666666
 20
160.60000000000002
  0
LWPOLYLINE
  5
169
  8
P
 62
0
370
-1
  6
CONTINUOUS
100
AcDbEntity
100
AcDbPolyline
 90
2
 70
0
 10
235.66666666666666
 20
160.60000000000002
 10
235.46666666666667
 20
161.19999999999999
  0
LWPOLYLINE
  5
16A
  8
P
 62
0
370
-1
  6
CONTINUOUS
100
AcDbEntity
100
AcDbPolyline
 90
2
 70
0
 10
235.46666666666667
 20
161.19999999999999
 10
235.46666666666667
 20
161.53333333333336
  0
LWPOLYLINE
  5
16B
  8
P
 62
0
370
-1
  6
CONTINUOUS
100
AcDbEntity
100
AcDbPolyline
 90
2
 70
0
 10
235.46666666666667
 20
161.53333333333336
 10
235.66666666666666
 20
162.19999999999999
  0
LWPOLYLINE
  5
16C
  8
P
 62
0
370
-1
  6
CONTINUOUS
100
AcDbEntity
100
AcDbPolyline
 90
2
 70
0
 10
235.66666666666666
 20
162.19999999999999
 10
236.0
 20
162.53333333333336
  0
LWPOLYLINE
  5
16D
  8
P
 62
0
370
-1
  6
CONTINUOUS
100
AcDbEntity
100
AcDbPolyline
 90
2
 70
0
 10
236.0
 20
162.53333333333336
 10
236.46666666666667
 20
162.73333333333335
  0
LWPOLYLINE
  5
16E
  8
P
 62
0
370
-1
  6
CONTINUOUS
100
AcDbEntity
100
AcDbPolyline
 90
2
 70
0
 10
236.46666666666667
 20
162.73333333333335
 10
237.0
 20
162.73333333333335
  0
LWPOLYLINE
  5
16F
  8
P
 62
0
370
-1
  6
CONTINUOUS
100
AcDbEntity
100
AcDbPolyline
 90
2
 70
0
 10
237.0
 20
162.73333333333335
 10
237.46666666666667
 20
162.53333333333336
  0
LWPOLYLINE
  5
170
  8
P
 62
0
370
-1
  6
CONTINUOUS
100
AcDbEntity
100
AcDbPolyline
 90
2
 70
0
 10
237.46666666666667
 20
162.53333333333336
 10
237.66666666666666
 20
162.33333333333331
  0
LWPOLYLINE
  5
171
  8
P
 62
0
370
-1
  6
CONTINUOUS
100
AcDbEntity
100
AcDbPolyline
 90
2
 70
0
 10
237.66666666666666
 20
162.33333333333331
 10
237.80000000000001
 20
162.0
  0
LWPOLYLINE
  5
172
  8
P
 62
0
370
-1
  6
CONTINUOUS
100
AcDbEntity
100
AcDbPolyline
 90
2
 70
0
 10
227.46666666666667
 20
144.26666666666665
 10
227.46666666666667
 20
181.26666666666665
  0
LWPOLYLINE
  5
173
  8
P
 62
0
370
-1
  6
CONTINUOUS
100
AcDbEntity
100
AcDbPolyline
 90
2
 70
0
 10
204.73333333333332
 20
249.33333333333334
 10
204.73333333333332
 20
279.39999999999998
  0
LWPOLYLINE
  5
174
  8
P
 62
0
370
-1
  6
CONTINUOUS
100
AcDbEntity
100
AcDbPolyline
 90
2
 70
0
 10
220.93333333333334
 20
252.80000000000001
 10
201.26666666666668
 20
252.80000000000001
  0
LWPOLYLINE
  5
175
  8
P
 62
0
370
-1
  6
CONTINUOUS
100
AcDbEntity
100
AcDbPolyline
 90
2
 70
0
 10
199.06666666666666
 20
260.39999999999998
 10
198.86666666666667
 20
260.73333333333335
  0
LWPOLYLINE
  5
176
  8
P
 62
0
370
-1
  6
CONTINUOUS
100
AcDbEntity
100
AcDbPolyline
 90
2
 70
0
 10
198.86666666666667
 20
260.73333333333335
 10
198.26666666666668
 20
261.19999999999999
  0
LWPOLYLINE
  5
177
  8
P
 62
0
370
-1
  6
CONTINUOUS
100
AcDbEntity
100
AcDbPolyline
 90
2
 70
0
 10
198.26666666666668
 20
261.19999999999999
 10
202.46666666666667
 20
261.19999999999999
  0
LWPOLYLINE
  5
178
  8
P
 62
0
370
-1
  6
CONTINUOUS
100
AcDbEntity
100
AcDbPolyline
 90
2
 70
0
 10
198.26666666666668
 20
264.19999999999999
 10
198.46666666666667
 20
263.73333333333335
  0
LWPOLYLINE
  5
179
  8
P
 62
0
370
-1
  6
CONTINUOUS
100
AcDbEntity
100
AcDbPolyline
 90
2
 70
0
 10
198.46666666666667
 20
263.73333333333335
 10
199.06666666666666
 20
263.39999999999998
  0
LWPOLYLINE
  5
17A
  8
P
 62
0
370
-1
  6
CONTINUOUS
100
AcDbEntity
100
AcDbPolyline
 90
2
 70
0
 10
199.06666666666666
 20
263.39999999999998
 10
200.06666666666666
 20
263.19999999999999
  0
LWPOLYLINE
  5
17B
  8
P
 62
0
370
-1
  6
CONTINUOUS
100
AcDbEntity
100
AcDbPolyline
 90
2
 70
0
 10
200.06666666666666
 20
263.19999999999999
 10
200.66666666666666
 20
263.19999999999999
  0
LWPOLYLINE
  5
17C
  8
P
 62
0
370
-1
  6
CONTINUOUS
100
AcDbEntity
100
AcDbPolyline
 90
2
 70
0
 10
200.66666666666666
 20
263.19999999999999
 10
201.66666666666666
 20
263.39999999999998
  0
LWPOLYLINE
  5
17D
  8
P
 62
0
370
-1
  6
CONTINUOUS
100
AcDbEntity
100
AcDbPolyline
 90
2
 70
0
 10
201.66666666666666
 20
263.39999999999998
 10
202.19999999999999
 20
263.73333333333335
  0
LWPOLYLINE
  5
17E
  8
P
 62
0
370
-1
  6
CONTINUOUS
100
AcDbEntity
100
AcDbPolyline
 90
2
 70
0
 10
202.19999999999999
 20
263.73333333333335
 10
202.46666666666667
 20
264.19999999999999
  0
LWPOLYLINE
  5
17F
  8
P
 62
0
370
-1
  6
CONTINUOUS
100
AcDbEntity
100
AcDbPolyline
 90
2
 70
0
 10
202.46666666666667
 20
264.19999999999999
 10
202.46666666666667
 20
264.5333333333333
  0
LWPOLYLINE
  5
180
  8
P
 62
0
370
-1
  6
CONTINUOUS
100
AcDbEntity
100
AcDbPolyline
 90
2
 70
0
 10
202.46666666666667
 20
264.5333333333333
 10
202.19999999999999
 20
265.06666666666666
  0
LWPOLYLINE
  5
181
  8
P
 62
0
370
-1
  6
CONTINUOUS
100
AcDbEntity
100
AcDbPolyline
 90
2
 70
0
 10
202.19999999999999
 20
265.06666666666666
 10
201.66666666666666
 20
265.39999999999998
  0
LWPOLYLINE
  5
182
  8
P
 62
0
370
-1
  6
CONTINUOUS
100
AcDbEntity
100
AcDbPolyline
 90
2
 70
0
 10
201.66666666666666
 20
265.39999999999998
 10
200.66666666666666
 20
265.5333333333333
  0
LWPOLYLINE
  5
183
  8
P
 62
0
370
-1
  6
CONTINUOUS
100
AcDbEntity
100
AcDbPolyline
 90
2
 70
0
 10
200.66666666666666
 20
265.5333333333333
 10
200.06666666666666
 20
265.5333333333333
  0
LWPOLYLINE
  5
184
  8
P
 62
0
370
-1
  6
CONTINUOUS
100
AcDbEntity
100
AcDbPolyline
 90
2
 70
0
 10
200.06666666666666
 20
265.5333333333333
 10
199.06666666666666
 20
265.39999999999998
  0
LWPOLYLINE
  5
185
  8
P
 62
0
370
-1
  6
CONTINUOUS
100
AcDbEntity
100
AcDbPolyline
 90
2
 70
0
 10
199.06666666666666
 20
265.39999999999998
 10
198.46666666666667
 20
265.06666666666666
  0
LWPOLYLINE
  5
186
  8
P
 62
0
370
-1
  6
CONTINUOUS
100
AcDbEntity
100
AcDbPolyline
 90
2
 70
0
 10
198.46666666666667
 20
265.06666666666666
 10
198.26666666666668
 20
264.5333333333333
  0
LWPOLYLINE
  5
187
  8
P
 62
0
370
-1
  6
CONTINUOUS
100
AcDbEntity
100
AcDbPolyline
 90
2
 70
0
 10
198.26666666666668
 20
264.5333333333333
 10
198.26666666666668
 20
264.19999999999999
  0
LWPOLYLINE
  5
188
  8
P
 62
0
370
-1
  6
CONTINUOUS
100
AcDbEntity
100
AcDbPolyline
 90
2
 70
0
 10
198.26666666666668
 20
267.80000000000001
 10
198.46666666666667
 20
267.26666666666665
  0
LWPOLYLINE
  5
189
  8
P
 62
0
370
-1
  6
CONTINUOUS
100
AcDbEntity
100
AcDbPolyline
 90
2
 70
0
 10
198.46666666666667
 20
267.26666666666665
 10
199.06666666666666
 20
266.93333333333334
  0
LWPOLYLINE
  5
18A
  8
P
 62
0
370
-1
  6
CONTINUOUS
100
AcDbEntity
100
AcDbPolyline
 90
2
 70
0
 10
199.06666666666666
 20
266.93333333333334
 10
200.06666666666666
 20
266.80000000000001
  0
LWPOLYLINE
  5
18B
  8
P
 62
0
370
-1
  6
CONTINUOUS
100
AcDbEntity
100
AcDbPolyline
 90
2
 70
0
 10
200.06666666666666
 20
266.80000000000001
 10
200.66666666666666
 20
266.80000000000001
  0
LWPOLYLINE
  5
18C
  8
P
 62
0
370
-1
  6
CONTINUOUS
100
AcDbEntity
100
AcDbPolyline
 90
2
 70
0
 10
200.66666666666666
 20
266.80000000000001
 10
201.66666666666666
 20
266.93333333333334
  0
LWPOLYLINE
  5
18D
  8
P
 62
0
370
-1
  6
CONTINUOUS
100
AcDbEntity
100
AcDbPolyline
 90
2
 70
0
 10
201.66666666666666
 20
266.93333333333334
 10
202.19999999999999
 20
267.26666666666665
  0
LWPOLYLINE
  5
18E
  8
P
 62
0
370
-1
  6
CONTINUOUS
100
AcDbEntity
100
AcDbPolyline
 90
2
 70
0
 10
202.19999999999999
 20
267.26666666666665
 10
202.46666666666667
 20
267.80000000000001
  0
LWPOLYLINE
  5
18F
  8
P
 62
0
370
-1
  6
CONTINUOUS
100
AcDbEntity
100
AcDbPolyline
 90
2
 70
0
 10
202.46666666666667
 20
267.80000000000001
 10
202.46666666666667
 20
268.13333333333333
  0
LWPOLYLINE
  5
190
  8
P
 62
0
370
-1
  6
CONTINUOUS
100
AcDbEntity
100
AcDbPolyline
 90
2
 70
0
 10
202.46666666666667
 20
268.13333333333333
 10
202.19999999999999
 20
268.60000000000002
  0
LWPOLYLINE
  5
191
  8
P
 62
0
370
-1
  6
CONTINUOUS
100
AcDbEntity
100
AcDbPolyline
 90
2
 70
0
 10
202.19999999999999
 20
268.60000000000002
 10
201.66666666666666
 20
268.93333333333334
  0
LWPOLYLINE
  5
192
  8
P
 62
0
370
-1
  6
CONTINUOUS
100
AcDbEntity
100
AcDbPolyline
 90
2
 70
0
 10
201.66666666666666
 20
268.93333333333334
 10
200.66666666666666
 20
269.06666666666666
  0
LWPOLYLINE
  5
193
  8
P
 62
0
370
-1
  6
CONTINUOUS
100
AcDbEntity
100
AcDbPolyline
 90
2
 70
0
 10
200.66666666666666
 20
269.06666666666666
 10
200.06666666666666
 20
269.06666666666666
  0
LWPOLYLINE
  5
194
  8
P
 62
0
370
-1
  6
CONTINUOUS
100
AcDbEntity
100
AcDbPolyline
 90
2
 70
0
 10
200.06666666666666
 20
269.06666666666666
 10
199.06666666666666
 20
268.93333333333334
  0
LWPOLYLINE
  5
195
  8
P
 62
0
370
-1
  6
CONTINUOUS
100
AcDbEntity
100
AcDbPolyline
 90
2
 70
0
 10
199.06666666666666
 20
268.93333333333334
 10
198.46666666666667
 20
268.60000000000002
  0
LWPOLYLINE
  5
196
  8
P
 62
0
370
-1
  6
CONTINUOUS
100
AcDbEntity
100
AcDbPolyline
 90
2
 70
0
 10
198.46666666666667
 20
268.60000000000002
 10
198.26666666666668
 20
268.13333333333333
  0
LWPOLYLINE
  5
197
  8
P
 62
0
370
-1
  6
CONTINUOUS
100
AcDbEntity
100
AcDbPolyline
 90
2
 70
0
 10
198.26666666666668
 20
268.13333333333333
 10
198.26666666666668
 20
267.80000000000001
  0
LWPOLYLINE
  5
198
  8
P
 62
0
370
-1
  6
CONTINUOUS
100
AcDbEntity
100
AcDbPolyline
 90
2
 70
0
 10
220.93333333333334
 20
275.93333333333334
 10
201.26666666666668
 20
275.93333333333334
  0
LWPOLYLINE
  5
199
  8
P
 62
0
370
-1
  6
CONTINUOUS
100
AcDbEntity
100
AcDbPolyline
 90
2
 70
0
 10
303.86666666666667
 20
205.39999999999998
 10
303.86666666666667
 20
258.60000000000002
  0
LWPOLYLINE
  5
19A
  8
P
 62
0
370
-1
  6
CONTINUOUS
100
AcDbEntity
100
AcDbPolyline
 90
2
 70
0
 10
307.33333333333331
 20
208.86666666666667
 10
287.66666666666669
 20
208.86666666666667
  0
LWPOLYLINE
  5
19B
  8
P
 62
0
370
-1
  6
CONTINUOUS
100
AcDbEntity
100
AcDbPolyline
 90
2
 70
0
 10
298.39999999999998
 20
227.46666666666667
 10
298.13333333333333
 20
227.46666666666667
  0
LWPOLYLINE
  5
19C
  8
P
 62
0
370
-1
  6
CONTINUOUS
100
AcDbEntity
100
AcDbPolyline
 90
2
 70
0
 10
298.13333333333333
 20
227.46666666666667
 10
297.80000000000001
 20
227.59999999999999
  0
LWPOLYLINE
  5
19D
  8
P
 62
0
370
-1
  6
CONTINUOUS
100
AcDbEntity
100
AcDbPolyline
 90
2
 70
0
 10
297.80000000000001
 20
227.59999999999999
 10
297.60000000000002
 20
227.80000000000001
  0
LWPOLYLINE
  5
19E
  8
P
 62
0
370
-1
  6
CONTINUOUS
100
AcDbEntity
100
AcDbPolyline
 90
2
 70
0
 10
297.60000000000002
 20
227.80000000000001
 10
297.33333333333331
 20
228.13333333333333
  0
LWPOLYLINE
  5
19F
  8
P
 62
0
370
-1
  6
CONTINUOUS
100
AcDbEntity
100
AcDbPolyline
 90
2
 70
0
 10
297.33333333333331
 20
228.13333333333333
 10
297.33333333333331
 20
228.80000000000001
  0
LWPOLYLINE
  5
1A0
  8
P
 62
0
370
-1
  6
CONTINUOUS
100
AcDbEntity
100
AcDbPolyline
 90
2
 70
0
 10
297.33333333333331
 20
228.80000000000001
 10
297.60000000000002
 20
229.13333333333333
  0
LWPOLYLINE
  5
1A1
  8
P
 62
0
370
-1
  6
CONTINUOUS
100
AcDbEntity
100
AcDbPolyline
 90
2
 70
0
 10
297.60000000000002
 20
229.13333333333333
 10
297.80000000000001
 20
229.26666666666668
  0
LWPOLYLINE
  5
1A2
  8
P
 62
0
370
-1
  6
CONTINUOUS
100
AcDbEntity
100
AcDbPolyline
 90
2
 70
0
 10
297.80000000000001
 20
229.26666666666668
 10
298.13333333333333
 20
229.46666666666667
  0
LWPOLYLINE
  5
1A3
  8
P
 62
0
370
-1
  6
CONTINUOUS
100
AcDbEntity
100
AcDbPolyline
 90
2
 70
0
 10
298.13333333333333
 20
229.46666666666667
 10
298.60000000000002
 20
229.46666666666667
  0
LWPOLYLINE
  5
1A4
  8
P
 62
0
370
-1
  6
CONTINUOUS
100
AcDbEntity
100
AcDbPolyline
 90
2
 70
0
 10
298.60000000000002
 20
229.46666666666667
 10
298.93333333333334
 20
229.26666666666668
  0
LWPOLYLINE
  5
1A5
  8
P
 62
0
370
-1
  6
CONTINUOUS
100
AcDbEntity
100
AcDbPolyline
 90
2
 70
0
 10
298.93333333333334
 20
229.26666666666668
 10
299.53333333333336
 20
228.93333333333334
  0
LWPOLYLINE
  5
1A6
  8
P
 62
0
370
-1
  6
CONTINUOUS
100
AcDbEntity
100
AcDbPolyline
 90
2
 70
0
 10
299.53333333333336
 20
228.93333333333334
 10
301.53333333333336
 20
227.26666666666668
  0
LWPOLYLINE
  5
1A7
  8
P
 62
0
370
-1
  6
CONTINUOUS
100
AcDbEntity
100
AcDbPolyline
 90
2
 70
0
 10
301.53333333333336
 20
227.26666666666668
 10
301.53333333333336
 20
229.59999999999999
  0
LWPOLYLINE
  5
1A8
  8
P
 62
0
370
-1
  6
CONTINUOUS
100
AcDbEntity
100
AcDbPolyline
 90
2
 70
0
 10
297.33333333333331
 20
231.86666666666667
 10
297.60000000000002
 20
231.33333333333334
  0
LWPOLYLINE
  5
1A9
  8
P
 62
0
370
-1
  6
CONTINUOUS
100
AcDbEntity
100
AcDbPolyline
 90
2
 70
0
 10
297.60000000000002
 20
231.33333333333334
 10
298.13333333333333
 20
231.0
  0
LWPOLYLINE
  5
1AA
  8
P
 62
0
370
-1
  6
CONTINUOUS
100
AcDbEntity
100
AcDbPolyline
 90
2
 70
0
 10
298.13333333333333
 20
231.0
 10
299.13333333333333
 20
230.86666666666667
  0
LWPOLYLINE
  5
1AB
  8
P
 62
0
370
-1
  6
CONTINUOUS
100
AcDbEntity
100
AcDbPolyline
 90
2
 70
0
 10
299.13333333333333
 20
230.86666666666667
 10
299.73333333333335
 20
230.86666666666667
  0
LWPOLYLINE
  5
1AC
  8
P
 62
0
370
-1
  6
CONTINUOUS
100
AcDbEntity
100
AcDbPolyline
 90
2
 70
0
 10
299.73333333333335
 20
230.86666666666667
 10
300.73333333333335
 20
231.0
  0
LWPOLYLINE
  5
1AD
  8
P
 62
0
370
-1
  6
CONTINUOUS
100
AcDbEntity
100
AcDbPolyline
 90
2
 70
0
 10
300.73333333333335
 20
231.0
 10
301.33333333333331
 20
231.33333333333334
  0
LWPOLYLINE
  5
1AE
  8
P
 62
0
370
-1
  6
CONTINUOUS
100
AcDbEntity
100
AcDbPolyline
 90
2
 70
0
 10
301.33333333333331
 20
231.33333333333334
 10
301.53333333333336
 20
231.86666666666667
  0
LWPOLYLINE
  5
1AF
  8
P
 62
0
370
-1
  6
CONTINUOUS
100
AcDbEntity
100
AcDbPolyline
 90
2
 70
0
 10
301.53333333333336
 20
231.86666666666667
 10
301.53333333333336
 20
232.19999999999999
  0
LWPOLYLINE
  5
1B0
  8
P
 62
0
370
-1
  6
CONTINUOUS
100
AcDbEntity
100
AcDbPolyline
 90
2
 70
0
 10
301.53333333333336
 20
232.19999999999999
 10
301.33333333333331
 20
232.66666666666666
  0
LWPOLYLINE
  5
1B1
  8
P
 62
0
370
-1
  6
CONTINUOUS
100
AcDbEntity
100
AcDbPolyline
 90
2
 70
0
 10
301.33333333333331
 20
232.66666666666666
 10
300.73333333333335
 20
233.0
  0
LWPOLYLINE
  5
1B2
  8
P
 62
0
370
-1
  6
CONTINUOUS
100
AcDbEntity
100
AcDbPolyline
 90
2
 70
0
 10
300.73333333333335
 20
233.0
 10
299.73333333333335
 20
233.19999999999999
  0
LWPOLYLINE
  5
1B3
  8
P
 62
0
370
-1
  6
CONTINUOUS
100
AcDbEntity
100
AcDbPolyline
 90
2
 70
0
 10
299.73333333333335
 20
233.19999999999999
 10
299.13333333333333
 20
233.19999999999999
  0
LWPOLYLINE
  5
1B4
  8
P
 62
0
370
-1
  6
CONTINUOUS
100
AcDbEntity
100
AcDbPolyline
 90
2
 70
0
 10
299.13333333333333
 20
233.19999999999999
 10
298.13333333333333
 20
233.0
  0
LWPOLYLINE
  5
1B5
  8
P
 62
0
370
-1
  6
CONTINUOUS
100
AcDbEntity
100
AcDbPolyline
 90
2
 70
0
 10
298.13333333333333
 20
233.0
 10
297.60000000000002
 20
232.66666666666666
  0
LWPOLYLINE
  5
1B6
  8
P
 62
0
370
-1
  6
CONTINUOUS
100
AcDbEntity
100
AcDbPolyline
 90
2
 70
0
 10
297.60000000000002
 20
232.66666666666666
 10
297.33333333333331
 20
232.19999999999999
  0
LWPOLYLINE
  5
1B7
  8
P
 62
0
370
-1
  6
CONTINUOUS
100
AcDbEntity
100
AcDbPolyline
 90
2
 70
0
 10
297.33333333333331
 20
232.19999999999999
 10
297.33333333333331
 20
231.86666666666667
  0
LWPOLYLINE
  5
1B8
  8
P
 62
0
370
-1
  6
CONTINUOUS
100
AcDbEntity
100
AcDbPolyline
 90
2
 70
0
 10
297.33333333333331
 20
235.40000000000001
 10
297.60000000000002
 20
234.93333333333334
  0
LWPOLYLINE
  5
1B9
  8
P
 62
0
370
-1
  6
CONTINUOUS
100
AcDbEntity
100
AcDbPolyline
 90
2
 70
0
 10
297.60000000000002
 20
234.93333333333334
 10
298.13333333333333
 20
234.59999999999999
  0
LWPOLYLINE
  5
1BA
  8
P
 62
0
370
-1
  6
CONTINUOUS
100
AcDbEntity
100
AcDbPolyline
 90
2
 70
0
 10
298.13333333333333
 20
234.59999999999999
 10
299.13333333333333
 20
234.40000000000001
  0
LWPOLYLINE
  5
1BB
  8
P
 62
0
370
-1
  6
CONTINUOUS
100
AcDbEntity
100
AcDbPolyline
 90
2
 70
0
 10
299.13333333333333
 20
234.40000000000001
 10
299.73333333333335
 20
234.40000000000001
  0
LWPOLYLINE
  5
1BC
  8
P
 62
0
370
-1
  6
CONTINUOUS
100
AcDbEntity
100
AcDbPolyline
 90
2
 70
0
 10
299.73333333333335
 20
234.40000000000001
 10
300.73333333333335
 20
234.59999999999999
  0
LWPOLYLINE
  5
1BD
  8
P
 62
0
370
-1
  6
CONTINUOUS
100
AcDbEntity
100
AcDbPolyline
 90
2
 70
0
 10
300.73333333333335
 20
234.59999999999999
 10
301.33333333333331
 20
234.93333333333334
  0
LWPOLYLINE
  5
1BE
  8
P
 62
0
370
-1
  6
CONTINUOUS
100
AcDbEntity
100
AcDbPolyline
 90
2
 70
0
 10
301.33333333333331
 20
234.93333333333334
 10
301.53333333333336
 20
235.40000000000001
  0
LWPOLYLINE
  5
1BF
  8
P
 62
0
370
-1
  6
CONTINUOUS
100
AcDbEntity
100
AcDbPolyline
 90
2
 70
0
 10
301.53333333333336
 20
235.40000000000001
 10
301.53333333333336
 20
235.73333333333332
  0
LWPOLYLINE
  5
1C0
  8
P
 62
0
370
-1
  6
CONTINUOUS
100
AcDbEntity
100
AcDbPolyline
 90
2
 70
0
 10
301.53333333333336
 20
235.73333333333332
 10
301.33333333333331
 20
236.26666666666668
  0
LWPOLYLINE
  5
1C1
  8
P
 62
0
370
-1
  6
CONTINUOUS
100
AcDbEntity
100
AcDbPolyline
 90
2
 70
0
 10
301.33333333333331
 20
236.26666666666668
 10
300.73333333333335
 20
236.59999999999999
  0
LWPOLYLINE
  5
1C2
  8
P
 62
0
370
-1
  6
CONTINUOUS
100
AcDbEntity
100
AcDbPolyline
 90
2
 70
0
 10
300.73333333333335
 20
236.59999999999999
 10
299.73333333333335
 20
236.73333333333332
  0
LWPOLYLINE
  5
1C3
  8
P
 62
0
370
-1
  6
CONTINUOUS
100
AcDbEntity
100
AcDbPolyline
 90
2
 70
0
 10
299.73333333333335
 20
236.73333333333332
 10
299.13333333333333
 20
236.73333333333332
  0
LWPOLYLINE
  5
1C4
  8
P
 62
0
370
-1
  6
CONTINUOUS
100
AcDbEntity
100
AcDbPolyline
 90
2
 70
0
 10
299.13333333333333
 20
236.73333333333332
 10
298.13333333333333
 20
236.59999999999999
  0
LWPOLYLINE
  5
1C5
  8
P
 62
0
370
-1
  6
CONTINUOUS
100
AcDbEntity
100
AcDbPolyline
 90
2
 70
0
 10
298.13333333333333
 20
236.59999999999999
 10
297.60000000000002
 20
236.26666666666668
  0
LWPOLYLINE
  5
1C6
  8
P
 62
0
370
-1
  6
CONTINUOUS
100
AcDbEntity
100
AcDbPolyline
 90
2
 70
0
 10
297.60000000000002
 20
236.26666666666668
 10
297.33333333333331
 20
235.73333333333332
  0
LWPOLYLINE
  5
1C7
  8
P
 62
0
370
-1
  6
CONTINUOUS
100
AcDbEntity
100
AcDbPolyline
 90
2
 70
0
 10
297.33333333333331
 20
235.73333333333332
 10
297.33333333333331
 20
235.40000000000001
  0
LWPOLYLINE
  5
1C8
  8
P
 62
0
370
-1
  6
CONTINUOUS
100
AcDbEntity
100
AcDbPolyline
 90
2
 70
0
 10
307.33333333333331
 20
255.13333333333333
 10
287.66666666666669
 20
255.13333333333333
  0
LWPOLYLINE
  5
1C9
  8
P
 62
0
370
-1
  6
CONTINUOUS
100
AcDbEntity
100
AcDbPolyline
 90
2
 70
0
 10
107.26666666666667
 20
376.39999999999998
 10
98.066666666666663
 20
376.39999999999998
  0
LWPOLYLINE
  5
1CA
  8
P
 62
0
370
-1
  6
CONTINUOUS
100
AcDbEntity
100
AcDbPolyline
 90
2
 70
0
 10
102.66666666666667
 20
371.80000000000001
 10
102.66666666666667
 20
381.0
  0
LWPOLYLINE
  5
1CB
  8
P
 62
0
370
-1
  6
CONTINUOUS
100
AcDbEntity
100
AcDbPolyline
 90
2
 70
0
 10
141.93333333333334
 20
376.39999999999998
 10
132.66666666666666
 20
376.39999999999998
  0
LWPOLYLINE
  5
1CC
  8
P
 62
0
370
-1
  6
CONTINUOUS
100
AcDbEntity
100
AcDbPolyline
 90
2
 70
0
 10
137.33333333333334
 20
371.80000000000001
 10
137.33333333333334
 20
381.0
  0
LWPOLYLINE
  5
1CD
  8
P
 62
0
370
-1
  6
CONTINUOUS
100
AcDbEntity
100
AcDbPolyline
 90
2
 70
0
 10
87.599999999999994
 20
345.86666666666667
 10
173.13333333333333
 20
345.86666666666667
  0
LWPOLYLINE
  5
1CE
  8
P
 62
0
370
-1
  6
CONTINUOUS
100
AcDbEntity
100
AcDbPolyline
 90
2
 70
0
 10
169.66666666666666
 20
342.39999999999998
 10
169.66666666666666
 20
362.06666666666666
  0
LWPOLYLINE
  5
1CF
  8
P
 62
0
370
-1
  6
CONTINUOUS
100
AcDbEntity
100
AcDbPolyline
 90
2
 70
0
 10
157.46666666666667
 20
340.19999999999999
 10
157.13333333333333
 20
340.0
  0
LWPOLYLINE
  5
1D0
  8
P
 62
0
370
-1
  6
CONTINUOUS
100
AcDbEntity
100
AcDbPolyline
 90
2
 70
0
 10
157.13333333333333
 20
340.0
 10
156.66666666666666
 20
339.39999999999998
  0
LWPOLYLINE
  5
1D1
  8
P
 62
0
370
-1
  6
CONTINUOUS
100
AcDbEntity
100
AcDbPolyline
 90
2
 70
0
 10
156.66666666666666
 20
339.39999999999998
 10
156.66666666666666
 20
343.5333333333333
  0
LWPOLYLINE
  5
1D2
  8
P
 62
0
370
-1
  6
CONTINUOUS
100
AcDbEntity
100
AcDbPolyline
 90
2
 70
0
 10
153.06666666666666
 20
339.39999999999998
 10
154.73333333333332
 20
342.19999999999999
  0
LWPOLYLINE
  5
1D3
  8
P
 62
0
370
-1
  6
CONTINUOUS
100
AcDbEntity
100
AcDbPolyline
 90
2
 70
0
 10
154.73333333333332
 20
342.19999999999999
 10
152.26666666666668
 20
342.19999999999999
  0
LWPOLYLINE
  5
1D4
  8
P
 62
0
370
-1
  6
CONTINUOUS
100
AcDbEntity
100
AcDbPolyline
 90
2
 70
0
 10
153.06666666666666
 20
339.39999999999998
 10
153.06666666666666
 20
343.5333333333333
  0
LWPOLYLINE
  5
1D5
  8
P
 62
0
370
-1
  6
CONTINUOUS
100
AcDbEntity
100
AcDbPolyline
 90
2
 70
0
 10
150.06666666666666
 20
339.39999999999998
 10
150.59999999999999
 20
339.60000000000002
  0
LWPOLYLINE
  5
1D6
  8
P
 62
0
370
-1
  6
CONTINUOUS
100
AcDbEntity
100
AcDbPolyline
 90
2
 70
0
 10
150.59999999999999
 20
339.60000000000002
 10
150.93333333333334
 20
340.19999999999999
  0
LWPOLYLINE
  5
1D7
  8
P
 62
0
370
-1
  6
CONTINUOUS
100
AcDbEntity
100
AcDbPolyline
 90
2
 70
0
 10
150.93333333333334
 20
340.19999999999999
 10
151.13333333333333
 20
341.19999999999999
  0
LWPOLYLINE
  5
1D8
  8
P
 62
0
370
-1
  6
CONTINUOUS
100
AcDbEntity
100
AcDbPolyline
 90
2
 70
0
 10
151.13333333333333
 20
341.19999999999999
 10
151.13333333333333
 20
341.80000000000001
  0
LWPOLYLINE
  5
1D9
  8
P
 62
0
370
-1
  6
CONTINUOUS
100
AcDbEntity
100
AcDbPolyline
 90
2
 70
0
 10
151.13333333333333
 20
341.80000000000001
 10
150.93333333333334
 20
342.73333333333335
  0
LWPOLYLINE
  5
1DA
  8
P
 62
0
370
-1
  6
CONTINUOUS
100
AcDbEntity
100
AcDbPolyline
 90
2
 70
0
 10
150.93333333333334
 20
342.73333333333335
 10
150.59999999999999
 20
343.33333333333337
  0
LWPOLYLINE
  5
1DB
  8
P
 62
0
370
-1
  6
CONTINUOUS
100
AcDbEntity
100
AcDbPolyline
 90
2
 70
0
 10
150.59999999999999
 20
343.33333333333337
 10
150.06666666666666
 20
343.5333333333333
  0
LWPOLYLINE
  5
1DC
  8
P
 62
0
370
-1
  6
CONTINUOUS
100
AcDbEntity
100
AcDbPolyline
 90
2
 70
0
 10
150.06666666666666
 20
343.5333333333333
 10
149.73333333333332
 20
343.5333333333333
  0
LWPOLYLINE
  5
1DD
  8
P
 62
0
370
-1
  6
CONTINUOUS
100
AcDbEntity
100
AcDbPolyline
 90
2
 70
0
 10
149.73333333333332
 20
343.5333333333333
 10
149.26666666666668
 20
343.33333333333337
  0
LWPOLYLINE
  5
1DE
  8
P
 62
0
370
-1
  6
CONTINUOUS
100
AcDbEntity
100
AcDbPolyline
 90
2
 70
0
 10
149.26666666666668
 20
343.33333333333337
 10
148.93333333333334
 20
342.73333333333335
  0
LWPOLYLINE
  5
1DF
  8
P
 62
0
370
-1
  6
CONTINUOUS
100
AcDbEntity
100
AcDbPolyline
 90
2
 70
0
 10
148.93333333333334
 20
342.73333333333335
 10
148.73333333333332
 20
341.80000000000001
  0
LWPOLYLINE
  5
1E0
  8
P
 62
0
370
-1
  6
CONTINUOUS
100
AcDbEntity
100
AcDbPolyline
 90
2
 70
0
 10
148.73333333333332
 20
341.80000000000001
 10
148.73333333333332
 20
341.19999999999999
  0
LWPOLYLINE
  5
1E1
  8
P
 62
0
370
-1
  6
CONTINUOUS
100
AcDbEntity
100
AcDbPolyline
 90
2
 70
0
 10
148.73333333333332
 20
341.19999999999999
 10
148.93333333333334
 20
340.19999999999999
  0
LWPOLYLINE
  5
1E2
  8
P
 62
0
370
-1
  6
CONTINUOUS
100
AcDbEntity
100
AcDbPolyline
 90
2
 70
0
 10
148.93333333333334
 20
340.19999999999999
 10
149.26666666666668
 20
339.60000000000002
  0
LWPOLYLINE
  5
1E3
  8
P
 62
0
370
-1
  6
CONTINUOUS
100
AcDbEntity
100
AcDbPolyline
 90
2
 70
0
 10
149.26666666666668
 20
339.60000000000002
 10
149.73333333333332
 20
339.39999999999998
  0
LWPOLYLINE
  5
1E4
  8
P
 62
0
370
-1
  6
CONTINUOUS
100
AcDbEntity
100
AcDbPolyline
 90
2
 70
0
 10
149.73333333333332
 20
339.39999999999998
 10
150.06666666666666
 20
339.39999999999998
  0
LWPOLYLINE
  5
1E5
  8
P
 62
0
370
-1
  6
CONTINUOUS
100
AcDbEntity
100
AcDbPolyline
 90
2
 70
0
 10
137.33333333333334
 20
342.39999999999998
 10
137.33333333333334
 20
362.06666666666666
  0
LWPOLYLINE
  5
1E6
  8
P
 62
0
370
-1
  6
CONTINUOUS
100
AcDbEntity
100
AcDbPolyline
 90
2
 70
0
 10
123.93333333333334
 20
340.19999999999999
 10
123.59999999999999
 20
340.0
  0
LWPOLYLINE
  5
1E7
  8
P
 62
0
370
-1
  6
CONTINUOUS
100
AcDbEntity
100
AcDbPolyline
 90
2
 70
0
 10
123.59999999999999
 20
340.0
 10
123.13333333333334
 20
339.39999999999998
  0
LWPOLYLINE
  5
1E8
  8
P
 62
0
370
-1
  6
CONTINUOUS
100
AcDbEntity
100
AcDbPolyline
 90
2
 70
0
 10
123.13333333333334
 20
339.39999999999998
 10
123.13333333333334
 20
343.5333333333333
  0
LWPOLYLINE
  5
1E9
  8
P
 62
0
370
-1
  6
CONTINUOUS
100
AcDbEntity
100
AcDbPolyline
 90
2
 70
0
 10
119.13333333333334
 20
339.39999999999998
 10
120.8
 20
339.39999999999998
  0
LWPOLYLINE
  5
1EA
  8
P
 62
0
370
-1
  6
CONTINUOUS
100
AcDbEntity
100
AcDbPolyline
 90
2
 70
0
 10
120.8
 20
339.39999999999998
 10
121.0
 20
341.19999999999999
  0
LWPOLYLINE
  5
1EB
  8
P
 62
0
370
-1
  6
CONTINUOUS
100
AcDbEntity
100
AcDbPolyline
 90
2
 70
0
 10
121.0
 20
341.19999999999999
 10
120.8
 20
341.0
  0
LWPOLYLINE
  5
1EC
  8
P
 62
0
370
-1
  6
CONTINUOUS
100
AcDbEntity
100
AcDbPolyline
 90
2
 70
0
 10
120.8
 20
341.0
 10
120.33333333333333
 20
340.73333333333335
  0
LWPOLYLINE
  5
1ED
  8
P
 62
0
370
-1
  6
CONTINUOUS
100
AcDbEntity
100
AcDbPolyline
 90
2
 70
0
 10
120.33333333333333
 20
340.73333333333335
 10
119.8
 20
340.73333333333335
  0
LWPOLYLINE
  5
1EE
  8
P
 62
0
370
-1
  6
CONTINUOUS
100
AcDbEntity
100
AcDbPolyline
 90
2
 70
0
 10
119.8
 20
340.73333333333335
 10
119.33333333333333
 20
341.0
  0
LWPOLYLINE
  5
1EF
  8
P
 62
0
370
-1
  6
CONTINUOUS
100
AcDbEntity
100
AcDbPolyline
 90
2
 70
0
 10
119.33333333333333
 20
341.0
 10
119.0
 20
341.39999999999998
  0
LWPOLYLINE
  5
1F0
  8
P
 62
0
370
-1
  6
CONTINUOUS
100
AcDbEntity
100
AcDbPolyline
 90
2
 70
0
 10
119.0
 20
341.39999999999998
 10
118.8
 20
341.93333333333334
  0
LWPOLYLINE
  5
1F1
  8
P
 62
0
370
-1
  6
CONTINUOUS
100
AcDbEntity
100
AcDbPolyline
 90
2
 70
0
 10
118.8
 20
341.93333333333334
 10
118.8
 20
342.33333333333337
  0
LWPOLYLINE
  5
1F2
  8
P
 62
0
370
-1
  6
CONTINUOUS
100
AcDbEntity
100
AcDbPolyline
 90
2
 70
0
 10
118.8
 20
342.33333333333337
 10
119.0
 20
343.0
  0
LWPOLYLINE
  5
1F3
  8
P
 62
0
370
-1
  6
CONTINUOUS
100
AcDbEntity
100
AcDbPolyline
 90
2
 70
0
 10
119.0
 20
343.0
 10
119.33333333333333
 20
343.33333333333337
  0
LWPOLYLINE
  5
1F4
  8
P
 62
0
370
-1
  6
CONTINUOUS
100
AcDbEntity
100
AcDbPolyline
 90
2
 70
0
 10
119.33333333333333
 20
343.33333333333337
 10
119.8
 20
343.5333333333333
  0
LWPOLYLINE
  5
1F5
  8
P
 62
0
370
-1
  6
CONTINUOUS
100
AcDbEntity
100
AcDbPolyline
 90
2
 70
0
 10
119.8
 20
343.5333333333333
 10
120.33333333333333
 20
343.5333333333333
  0
LWPOLYLINE
  5
1F6
  8
P
 62
0
370
-1
  6
CONTINUOUS
100
AcDbEntity
100
AcDbPolyline
 90
2
 70
0
 10
120.33333333333333
 20
343.5333333333333
 10
120.8
 20
343.33333333333337
  0
LWPOLYLINE
  5
1F7
  8
P
 62
0
370
-1
  6
CONTINUOUS
100
AcDbEntity
100
AcDbPolyline
 90
2
 70
0
 10
120.8
 20
343.33333333333337
 10
121.0
 20
343.13333333333333
  0
LWPOLYLINE
  5
1F8
  8
P
 62
0
370
-1
  6
CONTINUOUS
100
AcDbEntity
100
AcDbPolyline
 90
2
 70
0
 10
121.0
 20
343.13333333333333
 10
121.13333333333334
 20
342.73333333333335
  0
LWPOLYLINE
  5
1F9
  8
P
 62
0
370
-1
  6
CONTINUOUS
100
AcDbEntity
100
AcDbPolyline
 90
2
 70
0
 10
116.59999999999999
 20
339.39999999999998
 10
117.06666666666666
 20
339.60000000000002
  0
LWPOLYLINE
  5
1FA
  8
P
 62
0
370
-1
  6
CONTINUOUS
100
AcDbEntity
100
AcDbPolyline
 90
2
 70
0
 10
117.06666666666666
 20
339.60000000000002
 10
117.40000000000001
 20
340.19999999999999
  0
LWPOLYLINE
  5
1FB
  8
P
 62
0
370
-1
  6
CONTINUOUS
100
AcDbEntity
100
AcDbPolyline
 90
2
 70
0
 10
117.40000000000001
 20
340.19999999999999
 10
117.59999999999999
 20
341.19999999999999
  0
LWPOLYLINE
  5
1FC
  8
P
 62
0
370
-1
  6
CONTINUOUS
100
AcDbEntity
100
AcDbPolyline
 90
2
 70
0
 10
117.59999999999999
 20
341.19999999999999
 10
117.59999999999999
 20
341.80000000000001
  0
LWPOLYLINE
  5
1FD
  8
P
 62
0
370
-1
  6
CONTINUOUS
100
AcDbEntity
100
AcDbPolyline
 90
2
 70
0
 10
117.59999999999999
 20
341.80000000000001
 10
117.40000000000001
 20
342.73333333333335
  0
LWPOLYLINE
  5
1FE
  8
P
 62
0
370
-1
  6
CONTINUOUS
100
AcDbEntity
100
AcDbPolyline
 90
2
 70
0
 10
117.40000000000001
 20
342.73333333333335
 10
117.06666666666666
 20
343.33333333333337
  0
LWPOLYLINE
  5
1FF
  8
P
 62
0
370
-1
  6
CONTINUOUS
100
AcDbEntity
100
AcDbPolyline
 90
2
 70
0
 10
117.06666666666666
 20
343.33333333333337
 10
116.59999999999999
 20
343.5333333333333
  0
LWPOLYLINE
  5
200
  8
P
 62
0
370
-1
  6
CONTINUOUS
100
AcDbEntity
100
AcDbPolyline
 90
2
 70
0
 10
116.59999999999999
 20
343.5333333333333
 10
116.26666666666667
 20
343.5333333333333
  0
LWPOLYLINE
  5
201
  8
P
 62
0
370
-1
  6
CONTINUOUS
100
AcDbEntity
100
AcDbPolyline
 90
2
 70
0
 10
116.26666666666667
 20
343.5333333333333
 10
115.73333333333333
 20
343.33333333333337
  0
LWPOLYLINE
  5
202
  8
P
 62
0
370
-1
  6
CONTINUOUS
100
AcDbEntity
100
AcDbPolyline
 90
2
 70
0
 10
115.73333333333333
 20
343.33333333333337
 10
115.40000000000001
 20
342.73333333333335
  0
LWPOLYLINE
  5
203
  8
P
 62
0
370
-1
  6
CONTINUOUS
100
AcDbEntity
100
AcDbPolyline
 90
2
 70
0
 10
115.40000000000001
 20
342.73333333333335
 10
115.26666666666667
 20
341.80000000000001
  0
LWPOLYLINE
  5
204
  8
P
 62
0
370
-1
  6
CONTINUOUS
100
AcDbEntity
100
AcDbPolyline
 90
2
 70
0
 10
115.26666666666667
 20
341.80000000000001
 10
115.26666666666667
 20
341.19999999999999
  0
LWPOLYLINE
  5
205
  8
P
 62
0
370
-1
  6
CONTINUOUS
100
AcDbEntity
100
AcDbPolyline
 90
2
 70
0
 10
115.26666666666667
 20
341.19999999999999
 10
115.40000000000001
 20
340.19999999999999
  0
LWPOLYLINE
  5
206
  8
P
 62
0
370
-1
  6
CONTINUOUS
100
AcDbEntity
100
AcDbPolyline
 90
2
 70
0
 10
115.40000000000001
 20
340.19999999999999
 10
115.73333333333333
 20
339.60000000000002
  0
LWPOLYLINE
  5
207
  8
P
 62
0
370
-1
  6
CONTINUOUS
100
AcDbEntity
100
AcDbPolyline
 90
2
 70
0
 10
115.73333333333333
 20
339.60000000000002
 10
116.26666666666667
 20
339.39999999999998
  0
LWPOLYLINE
  5
208
  8
P
 62
0
370
-1
  6
CONTINUOUS
100
AcDbEntity
100
AcDbPolyline
 90
2
 70
0
 10
116.26666666666667
 20
339.39999999999998
 10
116.59999999999999
 20
339.39999999999998
  0
LWPOLYLINE
  5
209
  8
P
 62
0
370
-1
  6
CONTINUOUS
100
AcDbEntity
100
AcDbPolyline
 90
2
 70
0
 10
102.66666666666667
 20
342.39999999999998
 10
102.66666666666667
 20
362.06666666666666
  0
LWPOLYLINE
  5
20A
  8
P
 62
0
370
-1
  6
CONTINUOUS
100
AcDbEntity
100
AcDbPolyline
 90
2
 70
0
 10
97.799999999999997
 20
339.39999999999998
 10
99.466666666666669
 20
339.39999999999998
  0
LWPOLYLINE
  5
20B
  8
P
 62
0
370
-1
  6
CONTINUOUS
100
AcDbEntity
100
AcDbPolyline
 90
2
 70
0
 10
99.466666666666669
 20
339.39999999999998
 10
99.666666666666671
 20
341.19999999999999
  0
LWPOLYLINE
  5
20C
  8
P
 62
0
370
-1
  6
CONTINUOUS
100
AcDbEntity
100
AcDbPolyline
 90
2
 70
0
 10
99.666666666666671
 20
341.19999999999999
 10
99.466666666666669
 20
341.0
  0
LWPOLYLINE
  5
20D
  8
P
 62
0
370
-1
  6
CONTINUOUS
100
AcDbEntity
100
AcDbPolyline
 90
2
 70
0
 10
99.466666666666669
 20
341.0
 10
99.0
 20
340.73333333333335
  0
LWPOLYLINE
  5
20E
  8
P
 62
0
370
-1
  6
CONTINUOUS
100
AcDbEntity
100
AcDbPolyline
 90
2
 70
0
 10
99.0
 20
340.73333333333335
 10
98.466666666666669
 20
340.73333333333335
  0
LWPOLYLINE
  5
20F
  8
P
 62
0
370
-1
  6
CONTINUOUS
100
AcDbEntity
100
AcDbPolyline
 90
2
 70
0
 10
98.466666666666669
 20
340.73333333333335
 10
98.0
 20
341.0
  0
LWPOLYLINE
  5
210
  8
P
 62
0
370
-1
  6
CONTINUOUS
100
AcDbEntity
100
AcDbPolyline
 90
2
 70
0
 10
98.0
 20
341.0
 10
97.666666666666671
 20
341.39999999999998
  0
LWPOLYLINE
  5
211
  8
P
 62
0
370
-1
  6
CONTINUOUS
100
AcDbEntity
100
AcDbPolyline
 90
2
 70
0
 10
97.666666666666671
 20
341.39999999999998
 10
97.466666666666669
 20
341.93333333333334
  0
LWPOLYLINE
  5
212
  8
P
 62
0
370
-1
  6
CONTINUOUS
100
AcDbEntity
100
AcDbPolyline
 90
2
 70
0
 10
97.466666666666669
 20
341.93333333333334
 10
97.466666666666669
 20
342.33333333333337
  0
LWPOLYLINE
  5
213
  8
P
 62
0
370
-1
  6
CONTINUOUS
100
AcDbEntity
100
AcDbPolyline
 90
2
 70
0
 10
97.466666666666669
 20
342.33333333333337
 10
97.666666666666671
 20
343.0
  0
LWPOLYLINE
  5
214
  8
P
 62
0
370
-1
  6
CONTINUOUS
100
AcDbEntity
100
AcDbPolyline
 90
2
 70
0
 10
97.666666666666671
 20
343.0
 10
98.0
 20
343.33333333333337
  0
LWPOLYLINE
  5
215
  8
P
 62
0
370
-1
  6
CONTINUOUS
100
AcDbEntity
100
AcDbPolyline
 90
2
 70
0
 10
98.0
 20
343.33333333333337
 10
98.466666666666669
 20
343.5333333333333
  0
LWPOLYLINE
  5
216
  8
P
 62
0
370
-1
  6
CONTINUOUS
100
AcDbEntity
100
AcDbPolyline
 90
2
 70
0
 10
98.466666666666669
 20
343.5333333333333
 10
99.0
 20
343.5333333333333
  0
LWPOLYLINE
  5
217
  8
P
 62
0
370
-1
  6
CONTINUOUS
100
AcDbEntity
100
AcDbPolyline
 90
2
 70
0
 10
99.0
 20
343.5333333333333
 10
99.466666666666669
 20
343.33333333333337
  0
LWPOLYLINE
  5
218
  8
P
 62
0
370
-1
  6
CONTINUOUS
100
AcDbEntity
100
AcDbPolyline
 90
2
 70
0
 10
99.466666666666669
 20
343.33333333333337
 10
99.666666666666671
 20
343.13333333333333
  0
LWPOLYLINE
  5
219
  8
P
 62
0
370
-1
  6
CONTINUOUS
100
AcDbEntity
100
AcDbPolyline
 90
2
 70
0
 10
99.666666666666671
 20
343.13333333333333
 10
99.799999999999997
 20
342.73333333333335
  0
LWPOLYLINE
  5
21A
  8
P
 62
0
370
-1
  6
CONTINUOUS
100
AcDbEntity
100
AcDbPolyline
 90
2
 70
0
 10
95.266666666666666
 20
339.39999999999998
 10
95.733333333333334
 20
339.60000000000002
  0
LWPOLYLINE
  5
21B
  8
P
 62
0
370
-1
  6
CONTINUOUS
100
AcDbEntity
100
AcDbPolyline
 90
2
 70
0
 10
95.733333333333334
 20
339.60000000000002
 10
96.066666666666663
 20
340.19999999999999
  0
LWPOLYLINE
  5
21C
  8
P
 62
0
370
-1
  6
CONTINUOUS
100
AcDbEntity
100
AcDbPolyline
 90
2
 70
0
 10
96.066666666666663
 20
340.19999999999999
 10
96.266666666666666
 20
341.19999999999999
  0
LWPOLYLINE
  5
21D
  8
P
 62
0
370
-1
  6
CONTINUOUS
100
AcDbEntity
100
AcDbPolyline
 90
2
 70
0
 10
96.266666666666666
 20
341.19999999999999
 10
96.266666666666666
 20
341.80000000000001
  0
LWPOLYLINE
  5
21E
  8
P
 62
0
370
-1
  6
CONTINUOUS
100
AcDbEntity
100
AcDbPolyline
 90
2
 70
0
 10
96.266666666666666
 20
341.80000000000001
 10
96.066666666666663
 20
342.73333333333335
  0
LWPOLYLINE
  5
21F
  8
P
 62
0
370
-1
  6
CONTINUOUS
100
AcDbEntity
100
AcDbPolyline
 90
2
 70
0
 10
96.066666666666663
 20
342.73333333333335
 10
95.733333333333334
 20
343.33333333333337
  0
LWPOLYLINE
  5
220
  8
P
 62
0
370
-1
  6
CONTINUOUS
100
AcDbEntity
100
AcDbPolyline
 90
2
 70
0
 10
95.733333333333334
 20
343.33333333333337
 10
95.266666666666666
 20
343.5333333333333
  0
LWPOLYLINE
  5
221
  8
P
 62
0
370
-1
  6
CONTINUOUS
100
AcDbEntity
100
AcDbPolyline
 90
2
 70
0
 10
95.266666666666666
 20
343.5333333333333
 10
94.933333333333337
 20
343.5333333333333
  0
LWPOLYLINE
  5
222
  8
P
 62
0
370
-1
  6
CONTINUOUS
100
AcDbEntity
100
AcDbPolyline
 90
2
 70
0
 10
94.933333333333337
 20
343.5333333333333
 10
94.400000000000006
 20
343.33333333333337
  0
LWPOLYLINE
  5
223
  8
P
 62
0
370
-1
  6
CONTINUOUS
100
AcDbEntity
100
AcDbPolyline
 90
2
 70
0
 10
94.400000000000006
 20
343.33333333333337
 10
94.066666666666663
 20
342.73333333333335
  0
LWPOLYLINE
  5
224
  8
P
 62
0
370
-1
  6
CONTINUOUS
100
AcDbEntity
100
AcDbPolyline
 90
2
 70
0
 10
94.066666666666663
 20
342.73333333333335
 10
93.933333333333337
 20
341.80000000000001
  0
LWPOLYLINE
  5
225
  8
P
 62
0
370
-1
  6
CONTINUOUS
100
AcDbEntity
100
AcDbPolyline
 90
2
 70
0
 10
93.933333333333337
 20
341.80000000000001
 10
93.933333333333337
 20
341.19999999999999
  0
LWPOLYLINE
  5
226
  8
P
 62
0
370
-1
  6
CONTINUOUS
100
AcDbEntity
100
AcDbPolyline
 90
2
 70
0
 10
93.933333333333337
 20
341.19999999999999
 10
94.066666666666663
 20
340.19999999999999
  0
LWPOLYLINE
  5
227
  8
P
 62
0
370
-1
  6
CONTINUOUS
100
AcDbEntity
100
AcDbPolyline
 90
2
 70
0
 10
94.066666666666663
 20
340.19999999999999
 10
94.400000000000006
 20
339.60000000000002
  0
LWPOLYLINE
  5
228
  8
P
 62
0
370
-1
  6
CONTINUOUS
100
AcDbEntity
100
AcDbPolyline
 90
2
 70
0
 10
94.400000000000006
 20
339.60000000000002
 10
94.933333333333337
 20
339.39999999999998
  0
LWPOLYLINE
  5
229
  8
P
 62
0
370
-1
  6
CONTINUOUS
100
AcDbEntity
100
AcDbPolyline
 90
2
 70
0
 10
94.933333333333337
 20
339.39999999999998
 10
95.266666666666666
 20
339.39999999999998
  0
LWPOLYLINE
  5
22A
  8
P
 62
0
370
-1
  6
CONTINUOUS
100
AcDbEntity
100
AcDbPolyline
 90
2
 70
0
 10
91.13333333333334
 20
342.39999999999998
 10
91.13333333333334
 20
362.06666666666666
  0
LWPOLYLINE
  5
22B
  8
P
 62
0
370
-1
  6
CONTINUOUS
100
AcDbEntity
100
AcDbPolyline
 90
2
 70
0
 10
64.599999999999994
 20
363.73333333333335
 10
64.599999999999994
 20
416.86666666666667
  0
LWPOLYLINE
  5
22C
  8
P
 62
0
370
-1
  6
CONTINUOUS
100
AcDbEntity
100
AcDbPolyline
 90
2
 70
0
 10
80.799999999999997
 20
367.13333333333333
 10
61.200000000000003
 20
367.13333333333333
  0
LWPOLYLINE
  5
22D
  8
P
 62
0
370
-1
  6
CONTINUOUS
100
AcDbEntity
100
AcDbPolyline
 90
2
 70
0
 10
58.200000000000003
 20
370.39999999999998
 10
60.93333333333333
 20
368.80000000000001
  0
LWPOLYLINE
  5
22E
  8
P
 62
0
370
-1
  6
CONTINUOUS
100
AcDbEntity
100
AcDbPolyline
 90
2
 70
0
 10
60.93333333333333
 20
368.80000000000001
 10
60.93333333333333
 20
371.26666666666665
  0
LWPOLYLINE
  5
22F
  8
P
 62
0
370
-1
  6
CONTINUOUS
100
AcDbEntity
100
AcDbPolyline
 90
2
 70
0
 10
58.200000000000003
 20
370.39999999999998
 10
62.333333333333336
 20
370.39999999999998
  0
LWPOLYLINE
  5
230
  8
P
 62
0
370
-1
  6
CONTINUOUS
100
AcDbEntity
100
AcDbPolyline
 90
2
 70
0
 10
58.200000000000003
 20
373.39999999999998
 10
58.399999999999999
 20
372.93333333333334
  0
LWPOLYLINE
  5
231
  8
P
 62
0
370
-1
  6
CONTINUOUS
100
AcDbEntity
100
AcDbPolyline
 90
2
 70
0
 10
58.399999999999999
 20
372.93333333333334
 10
59.0
 20
372.60000000000002
  0
LWPOLYLINE
  5
232
  8
P
 62
0
370
-1
  6
CONTINUOUS
100
AcDbEntity
100
AcDbPolyline
 90
2
 70
0
 10
59.0
 20
372.60000000000002
 10
59.93333333333333
 20
372.39999999999998
  0
LWPOLYLINE
  5
233
  8
P
 62
0
370
-1
  6
CONTINUOUS
100
AcDbEntity
100
AcDbPolyline
 90
2
 70
0
 10
59.93333333333333
 20
372.39999999999998
 10
60.533333333333331
 20
372.39999999999998
  0
LWPOLYLINE
  5
234
  8
P
 62
0
370
-1
  6
CONTINUOUS
100
AcDbEntity
100
AcDbPolyline
 90
2
 70
0
 10
60.533333333333331
 20
372.39999999999998
 10
61.533333333333331
 20
372.60000000000002
  0
LWPOLYLINE
  5
235
  8
P
 62
0
370
-1
  6
CONTINUOUS
100
AcDbEntity
100
AcDbPolyline
 90
2
 70
0
 10
61.533333333333331
 20
372.60000000000002
 10
62.133333333333333
 20
372.93333333333334
  0
LWPOLYLINE
  5
236
  8
P
 62
0
370
-1
  6
CONTINUOUS
100
AcDbEntity
100
AcDbPolyline
 90
2
 70
0
 10
62.133333333333333
 20
372.93333333333334
 10
62.333333333333336
 20
373.39999999999998
  0
LWPOLYLINE
  5
237
  8
P
 62
0
370
-1
  6
CONTINUOUS
100
AcDbEntity
100
AcDbPolyline
 90
2
 70
0
 10
62.333333333333336
 20
373.39999999999998
 10
62.333333333333336
 20
373.73333333333335
  0
LWPOLYLINE
  5
238
  8
P
 62
0
370
-1
  6
CONTINUOUS
100
AcDbEntity
100
AcDbPolyline
 90
2
 70
0
 10
62.333333333333336
 20
373.73333333333335
 10
62.133333333333333
 20
374.26666666666665
  0
LWPOLYLINE
  5
239
  8
P
 62
0
370
-1
  6
CONTINUOUS
100
AcDbEntity
100
AcDbPolyline
 90
2
 70
0
 10
62.133333333333333
 20
374.26666666666665
 10
61.533333333333331
 20
374.60000000000002
  0
LWPOLYLINE
  5
23A
  8
P
 62
0
370
-1
  6
CONTINUOUS
100
AcDbEntity
100
AcDbPolyline
 90
2
 70
0
 10
61.533333333333331
 20
374.60000000000002
 10
60.533333333333331
 20
374.73333333333335
  0
LWPOLYLINE
  5
23B
  8
P
 62
0
370
-1
  6
CONTINUOUS
100
AcDbEntity
100
AcDbPolyline
 90
2
 70
0
 10
60.533333333333331
 20
374.73333333333335
 10
59.93333333333333
 20
374.73333333333335
  0
LWPOLYLINE
  5
23C
  8
P
 62
0
370
-1
  6
CONTINUOUS
100
AcDbEntity
100
AcDbPolyline
 90
2
 70
0
 10
59.93333333333333
 20
374.73333333333335
 10
59.0
 20
374.60000000000002
  0
LWPOLYLINE
  5
23D
  8
P
 62
0
370
-1
  6
CONTINUOUS
100
AcDbEntity
100
AcDbPolyline
 90
2
 70
0
 10
59.0
 20
374.60000000000002
 10
58.399999999999999
 20
374.26666666666665
  0
LWPOLYLINE
  5
23E
  8
P
 62
0
370
-1
  6
CONTINUOUS
100
AcDbEntity
100
AcDbPolyline
 90
2
 70
0
 10
58.399999999999999
 20
374.26666666666665
 10
58.200000000000003
 20
373.73333333333335
  0
LWPOLYLINE
  5
23F
  8
P
 62
0
370
-1
  6
CONTINUOUS
100
AcDbEntity
100
AcDbPolyline
 90
2
 70
0
 10
58.200000000000003
 20
373.73333333333335
 10
58.200000000000003
 20
373.39999999999998
  0
LWPOLYLINE
  5
240
  8
P
 62
0
370
-1
  6
CONTINUOUS
100
AcDbEntity
100
AcDbPolyline
 90
2
 70
0
 10
80.799999999999997
 20
376.39999999999998
 10
61.200000000000003
 20
376.39999999999998
  0
LWPOLYLINE
  5
241
  8
P
 62
0
370
-1
  6
CONTINUOUS
100
AcDbEntity
100
AcDbPolyline
 90
2
 70
0
 10
59.0
 20
386.33333333333331
 10
58.733333333333334
 20
386.60000000000002
  0
LWPOLYLINE
  5
242
  8
P
 62
0
370
-1
  6
CONTINUOUS
100
AcDbEntity
100
AcDbPolyline
 90
2
 70
0
 10
58.733333333333334
 20
386.60000000000002
 10
58.200000000000003
 20
387.13333333333333
  0
LWPOLYLINE
  5
243
  8
P
 62
0
370
-1
  6
CONTINUOUS
100
AcDbEntity
100
AcDbPolyline
 90
2
 70
0
 10
58.200000000000003
 20
387.13333333333333
 10
62.333333333333336
 20
387.13333333333333
  0
LWPOLYLINE
  5
244
  8
P
 62
0
370
-1
  6
CONTINUOUS
100
AcDbEntity
100
AcDbPolyline
 90
2
 70
0
 10
59.133333333333333
 20
389.26666666666665
 10
59.0
 20
389.26666666666665
  0
LWPOLYLINE
  5
245
  8
P
 62
0
370
-1
  6
CONTINUOUS
100
AcDbEntity
100
AcDbPolyline
 90
2
 70
0
 10
59.0
 20
389.26666666666665
 10
58.600000000000001
 20
389.4666666666667
  0
LWPOLYLINE
  5
246
  8
P
 62
0
370
-1
  6
CONTINUOUS
100
AcDbEntity
100
AcDbPolyline
 90
2
 70
0
 10
58.600000000000001
 20
389.4666666666667
 10
58.399999999999999
 20
389.60000000000002
  0
LWPOLYLINE
  5
247
  8
P
 62
0
370
-1
  6
CONTINUOUS
100
AcDbEntity
100
AcDbPolyline
 90
2
 70
0
 10
58.399999999999999
 20
389.60000000000002
 10
58.200000000000003
 20
389.93333333333334
  0
LWPOLYLINE
  5
248
  8
P
 62
0
370
-1
  6
CONTINUOUS
100
AcDbEntity
100
AcDbPolyline
 90
2
 70
0
 10
58.200000000000003
 20
389.93333333333334
 10
58.200000000000003
 20
390.60000000000002
  0
LWPOLYLINE
  5
249
  8
P
 62
0
370
-1
  6
CONTINUOUS
100
AcDbEntity
100
AcDbPolyline
 90
2
 70
0
 10
58.200000000000003
 20
390.60000000000002
 10
58.399999999999999
 20
390.93333333333334
  0
LWPOLYLINE
  5
24A
  8
P
 62
0
370
-1
  6
CONTINUOUS
100
AcDbEntity
100
AcDbPolyline
 90
2
 70
0
 10
58.399999999999999
 20
390.93333333333334
 10
58.600000000000001
 20
391.13333333333333
  0
LWPOLYLINE
  5
24B
  8
P
 62
0
370
-1
  6
CONTINUOUS
100
AcDbEntity
100
AcDbPolyline
 90
2
 70
0
 10
58.600000000000001
 20
391.13333333333333
 10
59.0
 20
391.26666666666665
  0
LWPOLYLINE
  5
24C
  8
P
 62
0
370
-1
  6
CONTINUOUS
100
AcDbEntity
100
AcDbPolyline
 90
2
 70
0
 10
59.0
 20
391.26666666666665
 10
59.399999999999999
 20
391.26666666666665
  0
LWPOLYLINE
  5
24D
  8
P
 62
0
370
-1
  6
CONTINUOUS
100
AcDbEntity
100
AcDbPolyline
 90
2
 70
0
 10
59.399999999999999
 20
391.26666666666665
 10
59.733333333333334
 20
391.13333333333333
  0
LWPOLYLINE
  5
24E
  8
P
 62
0
370
-1
  6
CONTINUOUS
100
AcDbEntity
100
AcDbPolyline
 90
2
 70
0
 10
59.733333333333334
 20
391.13333333333333
 10
60.333333333333336
 20
390.80000000000001
  0
LWPOLYLINE
  5
24F
  8
P
 62
0
370
-1
  6
CONTINUOUS
100
AcDbEntity
100
AcDbPolyline
 90
2
 70
0
 10
60.333333333333336
 20
390.80000000000001
 10
62.333333333333336
 20
389.13333333333333
  0
LWPOLYLINE
  5
250
  8
P
 62
0
370
-1
  6
CONTINUOUS
100
AcDbEntity
100
AcDbPolyline
 90
2
 70
0
 10
62.333333333333336
 20
389.13333333333333
 10
62.333333333333336
 20
391.4666666666667
  0
LWPOLYLINE
  5
251
  8
P
 62
0
370
-1
  6
CONTINUOUS
100
AcDbEntity
100
AcDbPolyline
 90
2
 70
0
 10
58.200000000000003
 20
393.66666666666669
 10
58.399999999999999
 20
393.19999999999999
  0
LWPOLYLINE
  5
252
  8
P
 62
0
370
-1
  6
CONTINUOUS
100
AcDbEntity
100
AcDbPolyline
 90
2
 70
0
 10
58.399999999999999
 20
393.19999999999999
 10
59.0
 20
392.86666666666667
  0
LWPOLYLINE
  5
253
  8
P
 62
0
370
-1
  6
CONTINUOUS
100
AcDbEntity
100
AcDbPolyline
 90
2
 70
0
 10
59.0
 20
392.86666666666667
 10
59.93333333333333
 20
392.66666666666669
  0
LWPOLYLINE
  5
254
  8
P
 62
0
370
-1
  6
CONTINUOUS
100
AcDbEntity
100
AcDbPolyline
 90
2
 70
0
 10
59.93333333333333
 20
392.66666666666669
 10
60.533333333333331
 20
392.66666666666669
  0
LWPOLYLINE
  5
255
  8
P
 62
0
370
-1
  6
CONTINUOUS
100
AcDbEntity
100
AcDbPolyline
 90
2
 70
0
 10
60.533333333333331
 20
392.66666666666669
 10
61.533333333333331
 20
392.86666666666667
  0
LWPOLYLINE
  5
256
  8
P
 62
0
370
-1
  6
CONTINUOUS
100
AcDbEntity
100
AcDbPolyline
 90
2
 70
0
 10
61.533333333333331
 20
392.86666666666667
 10
62.133333333333333
 20
393.19999999999999
  0
LWPOLYLINE
  5
257
  8
P
 62
0
370
-1
  6
CONTINUOUS
100
AcDbEntity
100
AcDbPolyline
 90
2
 70
0
 10
62.133333333333333
 20
393.19999999999999
 10
62.333333333333336
 20
393.66666666666669
  0
LWPOLYLINE
  5
258
  8
P
 62
0
370
-1
  6
CONTINUOUS
100
AcDbEntity
100
AcDbPolyline
 90
2
 70
0
 10
62.333333333333336
 20
393.66666666666669
 10
62.333333333333336
 20
394.0
  0
LWPOLYLINE
  5
259
  8
P
 62
0
370
-1
  6
CONTINUOUS
100
AcDbEntity
100
AcDbPolyline
 90
2
 70
0
 10
62.333333333333336
 20
394.0
 10
62.133333333333333
 20
394.5333333333333
  0
LWPOLYLINE
  5
25A
  8
P
 62
0
370
-1
  6
CONTINUOUS
100
AcDbEntity
100
AcDbPolyline
 90
2
 70
0
 10
62.133333333333333
 20
394.5333333333333
 10
61.533333333333331
 20
394.86666666666667
  0
LWPOLYLINE
  5
25B
  8
P
 62
0
370
-1
  6
CONTINUOUS
100
AcDbEntity
100
AcDbPolyline
 90
2
 70
0
 10
61.533333333333331
 20
394.86666666666667
 10
60.533333333333331
 20
395.0
  0
LWPOLYLINE
  5
25C
  8
P
 62
0
370
-1
  6
CONTINUOUS
100
AcDbEntity
100
AcDbPolyline
 90
2
 70
0
 10
60.533333333333331
 20
395.0
 10
59.93333333333333
 20
395.0
  0
LWPOLYLINE
  5
25D
  8
P
 62
0
370
-1
  6
CONTINUOUS
100
AcDbEntity
100
AcDbPolyline
 90
2
 70
0
 10
59.93333333333333
 20
395.0
 10
59.0
 20
394.86666666666667
  0
LWPOLYLINE
  5
25E
  8
P
 62
0
370
-1
  6
CONTINUOUS
100
AcDbEntity
100
AcDbPolyline
 90
2
 70
0
 10
59.0
 20
394.86666666666667
 10
58.399999999999999
 20
394.5333333333333
  0
LWPOLYLINE
  5
25F
  8
P
 62
0
370
-1
  6
CONTINUOUS
100
AcDbEntity
100
AcDbPolyline
 90
2
 70
0
 10
58.399999999999999
 20
394.5333333333333
 10
58.200000000000003
 20
394.0
  0
LWPOLYLINE
  5
260
  8
P
 62
0
370
-1
  6
CONTINUOUS
100
AcDbEntity
100
AcDbPolyline
 90
2
 70
0
 10
58.200000000000003
 20
394.0
 10
58.200000000000003
 20
393.66666666666669
  0
LWPOLYLINE
  5
261
  8
P
 62
0
370
-1
  6
CONTINUOUS
100
AcDbEntity
100
AcDbPolyline
 90
2
 70
0
 10
80.799999999999997
 20
404.13333333333333
 10
61.200000000000003
 20
404.13333333333333
  0
LWPOLYLINE
  5
262
  8
P
 62
0
370
-1
  6
CONTINUOUS
100
AcDbEntity
100
AcDbPolyline
 90
2
 70
0
 10
58.200000000000003
 20
407.39999999999998
 10
60.93333333333333
 20
405.73333333333335
  0
LWPOLYLINE
  5
263
  8
P
 62
0
370
-1
  6
CONTINUOUS
100
AcDbEntity
100
AcDbPolyline
 90
2
 70
0
 10
60.93333333333333
 20
405.73333333333335
 10
60.93333333333333
 20
408.26666666666665
  0
LWPOLYLINE
  5
264
  8
P
 62
0
370
-1
  6
CONTINUOUS
100
AcDbEntity
100
AcDbPolyline
 90
2
 70
0
 10
58.200000000000003
 20
407.39999999999998
 10
62.333333333333336
 20
407.39999999999998
  0
LWPOLYLINE
  5
265
  8
P
 62
0
370
-1
  6
CONTINUOUS
100
AcDbEntity
100
AcDbPolyline
 90
2
 70
0
 10
58.200000000000003
 20
410.39999999999998
 10
58.399999999999999
 20
409.93333333333334
  0
LWPOLYLINE
  5
266
  8
P
 62
0
370
-1
  6
CONTINUOUS
100
AcDbEntity
100
AcDbPolyline
 90
2
 70
0
 10
58.399999999999999
 20
409.93333333333334
 10
59.0
 20
409.60000000000002
  0
LWPOLYLINE
  5
267
  8
P
 62
0
370
-1
  6
CONTINUOUS
100
AcDbEntity
100
AcDbPolyline
 90
2
 70
0
 10
59.0
 20
409.60000000000002
 10
59.93333333333333
 20
409.39999999999998
  0
LWPOLYLINE
  5
268
  8
P
 62
0
370
-1
  6
CONTINUOUS
100
AcDbEntity
100
AcDbPolyline
 90
2
 70
0
 10
59.93333333333333
 20
409.39999999999998
 10
60.533333333333331
 20
409.39999999999998
  0
LWPOLYLINE
  5
269
  8
P
 62
0
370
-1
  6
CONTINUOUS
100
AcDbEntity
100
AcDbPolyline
 90
2
 70
0
 10
60.533333333333331
 20
409.39999999999998
 10
61.533333333333331
 20
409.60000000000002
  0
LWPOLYLINE
  5
26A
  8
P
 62
0
370
-1
  6
CONTINUOUS
100
AcDbEntity
100
AcDbPolyline
 90
2
 70
0
 10
61.533333333333331
 20
409.60000000000002
 10
62.133333333333333
 20
409.93333333333334
  0
LWPOLYLINE
  5
26B
  8
P
 62
0
370
-1
  6
CONTINUOUS
100
AcDbEntity
100
AcDbPolyline
 90
2
 70
0
 10
62.133333333333333
 20
409.93333333333334
 10
62.333333333333336
 20
410.39999999999998
  0
LWPOLYLINE
  5
26C
  8
P
 62
0
370
-1
  6
CONTINUOUS
100
AcDbEntity
100
AcDbPolyline
 90
2
 70
0
 10
62.333333333333336
 20
410.39999999999998
 10
62.333333333333336
 20
410.73333333333335
  0
LWPOLYLINE
  5
26D
  8
P
 62
0
370
-1
  6
CONTINUOUS
100
AcDbEntity
100
AcDbPolyline
 90
2
 70
0
 10
62.333333333333336
 20
410.73333333333335
 10
62.133333333333333
 20
411.19999999999999
  0
LWPOLYLINE
  5
26E
  8
P
 62
0
370
-1
  6
CONTINUOUS
100
AcDbEntity
100
AcDbPolyline
 90
2
 70
0
 10
62.133333333333333
 20
411.19999999999999
 10
61.533333333333331
 20
411.5333333333333
  0
LWPOLYLINE
  5
26F
  8
P
 62
0
370
-1
  6
CONTINUOUS
100
AcDbEntity
100
AcDbPolyline
 90
2
 70
0
 10
61.533333333333331
 20
411.5333333333333
 10
60.533333333333331
 20
411.73333333333335
  0
LWPOLYLINE
  5
270
  8
P
 62
0
370
-1
  6
CONTINUOUS
100
AcDbEntity
100
AcDbPolyline
 90
2
 70
0
 10
60.533333333333331
 20
411.73333333333335
 10
59.93333333333333
 20
411.73333333333335
  0
LWPOLYLINE
  5
271
  8
P
 62
0
370
-1
  6
CONTINUOUS
100
AcDbEntity
100
AcDbPolyline
 90
2
 70
0
 10
59.93333333333333
 20
411.73333333333335
 10
59.0
 20
411.5333333333333
  0
LWPOLYLINE
  5
272
  8
P
 62
0
370
-1
  6
CONTINUOUS
100
AcDbEntity
100
AcDbPolyline
 90
2
 70
0
 10
59.0
 20
411.5333333333333
 10
58.399999999999999
 20
411.19999999999999
  0
LWPOLYLINE
  5
273
  8
P
 62
0
370
-1
  6
CONTINUOUS
100
AcDbEntity
100
AcDbPolyline
 90
2
 70
0
 10
58.399999999999999
 20
411.19999999999999
 10
58.200000000000003
 20
410.73333333333335
  0
LWPOLYLINE
  5
274
  8
P
 62
0
370
-1
  6
CONTINUOUS
100
AcDbEntity
100
AcDbPolyline
 90
2
 70
0
 10
58.200000000000003
 20
410.73333333333335
 10
58.200000000000003
 20
410.39999999999998
  0
LWPOLYLINE
  5
275
  8
P
 62
0
370
-1
  6
CONTINUOUS
100
AcDbEntity
100
AcDbPolyline
 90
2
 70
0
 10
80.799999999999997
 20
413.39999999999998
 10
61.200000000000003
 20
413.39999999999998
  0
LWPOLYLINE
  5
276
  8
P
 62
0
370
-1
  6
CONTINUOUS
100
AcDbEntity
100
AcDbPolyline
 90
2
 70
0
 10
234.40000000000001
 20
248.19999999999999
 10
234.40000000000001
 20
259.73333333333335
  0
LWPOLYLINE
  5
277
  8
P
 62
0
370
-1
  6
CONTINUOUS
100
AcDbEntity
100
AcDbPolyline
 90
2
 70
0
 10
266.73333333333335
 20
248.19999999999999
 10
266.73333333333335
 20
259.73333333333335
  0
LWPOLYLINE
  5
278
  8
P
 62
0
370
-1
  6
CONTINUOUS
100
AcDbEntity
100
AcDbPolyline
 90
2
 70
0
 10
115.40000000000001
 20
308.86666666666667
 10
87.599999999999994
 20
308.86666666666667
  0
LWPOLYLINE
  5
279
  8
P
 62
0
370
-1
  6
CONTINUOUS
100
AcDbEntity
100
AcDbPolyline
 90
2
 70
0
 10
111.93333333333334
 20
292.66666666666663
 10
111.93333333333334
 20
312.26666666666665
  0
LWPOLYLINE
  5
27A
  8
P
 62
0
370
-1
  6
CONTINUOUS
100
AcDbEntity
100
AcDbPolyline
 90
2
 70
0
 10
102.2
 20
303.73333333333335
 10
102.33333333333333
 20
304.33333333333337
  0
LWPOLYLINE
  5
27B
  8
P
 62
0
370
-1
  6
CONTINUOUS
100
AcDbEntity
100
AcDbPolyline
 90
2
 70
0
 10
102.33333333333333
 20
304.33333333333337
 10
102.66666666666667
 20
304.73333333333335
  0
LWPOLYLINE
  5
27C
  8
P
 62
0
370
-1
  6
CONTINUOUS
100
AcDbEntity
100
AcDbPolyline
 90
2
 70
0
 10
102.66666666666667
 20
304.73333333333335
 10
103.2
 20
304.93333333333334
  0
LWPOLYLINE
  5
27D
  8
P
 62
0
370
-1
  6
CONTINUOUS
100
AcDbEntity
100
AcDbPolyline
 90
2
 70
0
 10
103.2
 20
304.93333333333334
 10
103.33333333333333
 20
304.93333333333334
  0
LWPOLYLINE
  5
27E
  8
P
 62
0
370
-1
  6
CONTINUOUS
100
AcDbEntity
100
AcDbPolyline
 90
2
 70
0
 10
103.33333333333333
 20
304.93333333333334
 10
103.86666666666666
 20
304.73333333333335
  0
LWPOLYLINE
  5
27F
  8
P
 62
0
370
-1
  6
CONTINUOUS
100
AcDbEntity
100
AcDbPolyline
 90
2
 70
0
 10
103.86666666666666
 20
304.73333333333335
 10
104.2
 20
304.33333333333337
  0
LWPOLYLINE
  5
280
  8
P
 62
0
370
-1
  6
CONTINUOUS
100
AcDbEntity
100
AcDbPolyline
 90
2
 70
0
 10
104.2
 20
304.33333333333337
 10
104.33333333333333
 20
303.73333333333335
  0
LWPOLYLINE
  5
281
  8
P
 62
0
370
-1
  6
CONTINUOUS
100
AcDbEntity
100
AcDbPolyline
 90
2
 70
0
 10
104.33333333333333
 20
303.73333333333335
 10
104.33333333333333
 20
303.5333333333333
  0
LWPOLYLINE
  5
282
  8
P
 62
0
370
-1
  6
CONTINUOUS
100
AcDbEntity
100
AcDbPolyline
 90
2
 70
0
 10
104.33333333333333
 20
303.5333333333333
 10
104.2
 20
302.93333333333334
  0
LWPOLYLINE
  5
283
  8
P
 62
0
370
-1
  6
CONTINUOUS
100
AcDbEntity
100
AcDbPolyline
 90
2
 70
0
 10
104.2
 20
302.93333333333334
 10
103.86666666666666
 20
302.60000000000002
  0
LWPOLYLINE
  5
284
  8
P
 62
0
370
-1
  6
CONTINUOUS
100
AcDbEntity
100
AcDbPolyline
 90
2
 70
0
 10
103.86666666666666
 20
302.60000000000002
 10
103.33333333333333
 20
302.33333333333337
  0
LWPOLYLINE
  5
285
  8
P
 62
0
370
-1
  6
CONTINUOUS
100
AcDbEntity
100
AcDbPolyline
 90
2
 70
0
 10
103.33333333333333
 20
302.33333333333337
 10
103.2
 20
302.33333333333337
  0
LWPOLYLINE
  5
286
  8
P
 62
0
370
-1
  6
CONTINUOUS
100
AcDbEntity
100
AcDbPolyline
 90
2
 70
0
 10
103.2
 20
302.33333333333337
 10
102.66666666666667
 20
302.60000000000002
  0
LWPOLYLINE
  5
287
  8
P
 62
0
370
-1
  6
CONTINUOUS
100
AcDbEntity
100
AcDbPolyline
 90
2
 70
0
 10
102.66666666666667
 20
302.60000000000002
 10
102.33333333333333
 20
302.93333333333334
  0
LWPOLYLINE
  5
288
  8
P
 62
0
370
-1
  6
CONTINUOUS
100
AcDbEntity
100
AcDbPolyline
 90
2
 70
0
 10
102.33333333333333
 20
302.93333333333334
 10
102.2
 20
303.73333333333335
  0
LWPOLYLINE
  5
289
  8
P
 62
0
370
-1
  6
CONTINUOUS
100
AcDbEntity
100
AcDbPolyline
 90
2
 70
0
 10
102.2
 20
303.73333333333335
 10
102.2
 20
304.73333333333335
  0
LWPOLYLINE
  5
28A
  8
P
 62
0
370
-1
  6
CONTINUOUS
100
AcDbEntity
100
AcDbPolyline
 90
2
 70
0
 10
102.2
 20
304.73333333333335
 10
102.33333333333333
 20
305.73333333333335
  0
LWPOLYLINE
  5
28B
  8
P
 62
0
370
-1
  6
CONTINUOUS
100
AcDbEntity
100
AcDbPolyline
 90
2
 70
0
 10
102.33333333333333
 20
305.73333333333335
 10
102.66666666666667
 20
306.33333333333337
  0
LWPOLYLINE
  5
28C
  8
P
 62
0
370
-1
  6
CONTINUOUS
100
AcDbEntity
100
AcDbPolyline
 90
2
 70
0
 10
102.66666666666667
 20
306.33333333333337
 10
103.2
 20
306.5333333333333
  0
LWPOLYLINE
  5
28D
  8
P
 62
0
370
-1
  6
CONTINUOUS
100
AcDbEntity
100
AcDbPolyline
 90
2
 70
0
 10
103.2
 20
306.5333333333333
 10
103.53333333333333
 20
306.5333333333333
  0
LWPOLYLINE
  5
28E
  8
P
 62
0
370
-1
  6
CONTINUOUS
100
AcDbEntity
100
AcDbPolyline
 90
2
 70
0
 10
103.53333333333333
 20
306.5333333333333
 10
104.0
 20
306.33333333333337
  0
LWPOLYLINE
  5
28F
  8
P
 62
0
370
-1
  6
CONTINUOUS
100
AcDbEntity
100
AcDbPolyline
 90
2
 70
0
 10
104.0
 20
306.33333333333337
 10
104.2
 20
305.93333333333334
  0
LWPOLYLINE
  5
290
  8
P
 62
0
370
-1
  6
CONTINUOUS
100
AcDbEntity
100
AcDbPolyline
 90
2
 70
0
 10
99.86666666666666
 20
302.33333333333337
 10
100.40000000000001
 20
302.60000000000002
  0
LWPOLYLINE
  5
291
  8
P
 62
0
370
-1
  6
CONTINUOUS
100
AcDbEntity
100
AcDbPolyline
 90
2
 70
0
 10
100.40000000000001
 20
302.60000000000002
 10
100.73333333333333
 20
303.13333333333333
  0
LWPOLYLINE
  5
292
  8
P
 62
0
370
-1
  6
CONTINUOUS
100
AcDbEntity
100
AcDbPolyline
 90
2
 70
0
 10
100.73333333333333
 20
303.13333333333333
 10
100.86666666666666
 20
304.13333333333333
  0
LWPOLYLINE
  5
293
  8
P
 62
0
370
-1
  6
CONTINUOUS
100
AcDbEntity
100
AcDbPolyline
 90
2
 70
0
 10
100.86666666666666
 20
304.13333333333333
 10
100.86666666666666
 20
304.73333333333335
  0
LWPOLYLINE
  5
294
  8
P
 62
0
370
-1
  6
CONTINUOUS
100
AcDbEntity
100
AcDbPolyline
 90
2
 70
0
 10
100.86666666666666
 20
304.73333333333335
 10
100.73333333333333
 20
305.73333333333335
  0
LWPOLYLINE
  5
295
  8
P
 62
0
370
-1
  6
CONTINUOUS
100
AcDbEntity
100
AcDbPolyline
 90
2
 70
0
 10
100.73333333333333
 20
305.73333333333335
 10
100.40000000000001
 20
306.33333333333337
  0
LWPOLYLINE
  5
296
  8
P
 62
0
370
-1
  6
CONTINUOUS
100
AcDbEntity
100
AcDbPolyline
 90
2
 70
0
 10
100.40000000000001
 20
306.33333333333337
 10
99.86666666666666
 20
306.5333333333333
  0
LWPOLYLINE
  5
297
  8
P
 62
0
370
-1
  6
CONTINUOUS
100
AcDbEntity
100
AcDbPolyline
 90
2
 70
0
 10
99.86666666666666
 20
306.5333333333333
 10
99.533333333333331
 20
306.5333333333333
  0
LWPOLYLINE
  5
298
  8
P
 62
0
370
-1
  6
CONTINUOUS
100
AcDbEntity
100
AcDbPolyline
 90
2
 70
0
 10
99.533333333333331
 20
306.5333333333333
 10
99.066666666666663
 20
306.33333333333337
  0
LWPOLYLINE
  5
299
  8
P
 62
0
370
-1
  6
CONTINUOUS
100
AcDbEntity
100
AcDbPolyline
 90
2
 70
0
 10
99.066666666666663
 20
306.33333333333337
 10
98.733333333333334
 20
305.73333333333335
  0
LWPOLYLINE
  5
29A
  8
P
 62
0
370
-1
  6
CONTINUOUS
100
AcDbEntity
100
AcDbPolyline
 90
2
 70
0
 10
98.733333333333334
 20
305.73333333333335
 10
98.533333333333331
 20
304.73333333333335
  0
LWPOLYLINE
  5
29B
  8
P
 62
0
370
-1
  6
CONTINUOUS
100
AcDbEntity
100
AcDbPolyline
 90
2
 70
0
 10
98.533333333333331
 20
304.73333333333335
 10
98.533333333333331
 20
304.13333333333333
  0
LWPOLYLINE
  5
29C
  8
P
 62
0
370
-1
  6
CONTINUOUS
100
AcDbEntity
100
AcDbPolyline
 90
2
 70
0
 10
98.533333333333331
 20
304.13333333333333
 10
98.733333333333334
 20
303.13333333333333
  0
LWPOLYLINE
  5
29D
  8
P
 62
0
370
-1
  6
CONTINUOUS
100
AcDbEntity
100
AcDbPolyline
 90
2
 70
0
 10
98.733333333333334
 20
303.13333333333333
 10
99.066666666666663
 20
302.60000000000002
  0
LWPOLYLINE
  5
29E
  8
P
 62
0
370
-1
  6
CONTINUOUS
100
AcDbEntity
100
AcDbPolyline
 90
2
 70
0
 10
99.066666666666663
 20
302.60000000000002
 10
99.533333333333331
 20
302.33333333333337
  0
LWPOLYLINE
  5
29F
  8
P
 62
0
370
-1
  6
CONTINUOUS
100
AcDbEntity
100
AcDbPolyline
 90
2
 70
0
 10
99.533333333333331
 20
302.33333333333337
 10
99.86666666666666
 20
302.33333333333337
  0
LWPOLYLINE
  5
2A0
  8
P
 62
0
370
-1
  6
CONTINUOUS
100
AcDbEntity
100
AcDbPolyline
 90
2
 70
0
 10
91.13333333333334
 20
292.66666666666663
 10
91.13333333333334
 20
312.26666666666665
  0
LWPOLYLINE
  5
2A1
  8
P
 62
0
370
-1
  6
CONTINUOUS
100
AcDbEntity
100
AcDbPolyline
 90
2
 70
0
 10
96.86666666666666
 20
145.73333333333335
 10
173.13333333333333
 20
145.73333333333335
  0
LWPOLYLINE
  5
2A2
  8
P
 62
0
370
-1
  6
CONTINUOUS
100
AcDbEntity
100
AcDbPolyline
 90
2
 70
0
 10
169.66666666666666
 20
142.19999999999999
 10
169.66666666666666
 20
161.86666666666667
  0
LWPOLYLINE
  5
2A3
  8
P
 62
0
370
-1
  6
CONTINUOUS
100
AcDbEntity
100
AcDbPolyline
 90
2
 70
0
 10
162.93333333333334
 20
139.80000000000001
 10
163.13333333333333
 20
139.46666666666664
  0
LWPOLYLINE
  5
2A4
  8
P
 62
0
370
-1
  6
CONTINUOUS
100
AcDbEntity
100
AcDbPolyline
 90
2
 70
0
 10
163.13333333333333
 20
139.46666666666664
 10
163.59999999999999
 20
139.19999999999999
  0
LWPOLYLINE
  5
2A5
  8
P
 62
0
370
-1
  6
CONTINUOUS
100
AcDbEntity
100
AcDbPolyline
 90
2
 70
0
 10
163.59999999999999
 20
139.19999999999999
 10
163.93333333333334
 20
139.19999999999999
  0
LWPOLYLINE
  5
2A6
  8
P
 62
0
370
-1
  6
CONTINUOUS
100
AcDbEntity
100
AcDbPolyline
 90
2
 70
0
 10
163.93333333333334
 20
139.19999999999999
 10
164.40000000000001
 20
139.46666666666664
  0
LWPOLYLINE
  5
2A7
  8
P
 62
0
370
-1
  6
CONTINUOUS
100
AcDbEntity
100
AcDbPolyline
 90
2
 70
0
 10
164.40000000000001
 20
139.46666666666664
 10
164.73333333333332
 20
140.0
  0
LWPOLYLINE
  5
2A8
  8
P
 62
0
370
-1
  6
CONTINUOUS
100
AcDbEntity
100
AcDbPolyline
 90
2
 70
0
 10
164.73333333333332
 20
140.0
 10
164.93333333333334
 20
141.0
  0
LWPOLYLINE
  5
2A9
  8
P
 62
0
370
-1
  6
CONTINUOUS
100
AcDbEntity
100
AcDbPolyline
 90
2
 70
0
 10
164.93333333333334
 20
141.0
 10
164.93333333333334
 20
142.0
  0
LWPOLYLINE
  5
2AA
  8
P
 62
0
370
-1
  6
CONTINUOUS
100
AcDbEntity
100
AcDbPolyline
 90
2
 70
0
 10
164.93333333333334
 20
142.0
 10
164.73333333333332
 20
142.80000000000001
  0
LWPOLYLINE
  5
2AB
  8
P
 62
0
370
-1
  6
CONTINUOUS
100
AcDbEntity
100
AcDbPolyline
 90
2
 70
0
 10
164.73333333333332
 20
142.80000000000001
 10
164.40000000000001
 20
143.19999999999999
  0
LWPOLYLINE
  5
2AC
  8
P
 62
0
370
-1
  6
CONTINUOUS
100
AcDbEntity
100
AcDbPolyline
 90
2
 70
0
 10
164.40000000000001
 20
143.19999999999999
 10
163.93333333333334
 20
143.39999999999998
  0
LWPOLYLINE
  5
2AD
  8
P
 62
0
370
-1
  6
CONTINUOUS
100
AcDbEntity
100
AcDbPolyline
 90
2
 70
0
 10
163.93333333333334
 20
143.39999999999998
 10
163.80000000000001
 20
143.39999999999998
  0
LWPOLYLINE
  5
2AE
  8
P
 62
0
370
-1
  6
CONTINUOUS
100
AcDbEntity
100
AcDbPolyline
 90
2
 70
0
 10
163.80000000000001
 20
143.39999999999998
 10
163.26666666666668
 20
143.19999999999999
  0
LWPOLYLINE
  5
2AF
  8
P
 62
0
370
-1
  6
CONTINUOUS
100
AcDbEntity
100
AcDbPolyline
 90
2
 70
0
 10
163.26666666666668
 20
143.19999999999999
 10
162.93333333333334
 20
142.80000000000001
  0
LWPOLYLINE
  5
2B0
  8
P
 62
0
370
-1
  6
CONTINUOUS
100
AcDbEntity
100
AcDbPolyline
 90
2
 70
0
 10
162.93333333333334
 20
142.80000000000001
 10
162.80000000000001
 20
142.19999999999999
  0
LWPOLYLINE
  5
2B1
  8
P
 62
0
370
-1
  6
CONTINUOUS
100
AcDbEntity
100
AcDbPolyline
 90
2
 70
0
 10
162.80000000000001
 20
142.19999999999999
 10
162.80000000000001
 20
142.0
  0
LWPOLYLINE
  5
2B2
  8
P
 62
0
370
-1
  6
CONTINUOUS
100
AcDbEntity
100
AcDbPolyline
 90
2
 70
0
 10
162.80000000000001
 20
142.0
 10
162.93333333333334
 20
141.39999999999998
  0
LWPOLYLINE
  5
2B3
  8
P
 62
0
370
-1
  6
CONTINUOUS
100
AcDbEntity
100
AcDbPolyline
 90
2
 70
0
 10
162.93333333333334
 20
141.39999999999998
 10
163.26666666666668
 20
141.0
  0
LWPOLYLINE
  5
2B4
  8
P
 62
0
370
-1
  6
CONTINUOUS
100
AcDbEntity
100
AcDbPolyline
 90
2
 70
0
 10
163.26666666666668
 20
141.0
 10
163.80000000000001
 20
140.80000000000001
  0
LWPOLYLINE
  5
2B5
  8
P
 62
0
370
-1
  6
CONTINUOUS
100
AcDbEntity
100
AcDbPolyline
 90
2
 70
0
 10
163.80000000000001
 20
140.80000000000001
 10
163.93333333333334
 20
140.80000000000001
  0
LWPOLYLINE
  5
2B6
  8
P
 62
0
370
-1
  6
CONTINUOUS
100
AcDbEntity
100
AcDbPolyline
 90
2
 70
0
 10
163.93333333333334
 20
140.80000000000001
 10
164.40000000000001
 20
141.0
  0
LWPOLYLINE
  5
2B7
  8
P
 62
0
370
-1
  6
CONTINUOUS
100
AcDbEntity
100
AcDbPolyline
 90
2
 70
0
 10
164.40000000000001
 20
141.0
 10
164.73333333333332
 20
141.39999999999998
  0
LWPOLYLINE
  5
2B8
  8
P
 62
0
370
-1
  6
CONTINUOUS
100
AcDbEntity
100
AcDbPolyline
 90
2
 70
0
 10
164.73333333333332
 20
141.39999999999998
 10
164.93333333333334
 20
142.0
  0
LWPOLYLINE
  5
2B9
  8
P
 62
0
370
-1
  6
CONTINUOUS
100
AcDbEntity
100
AcDbPolyline
 90
2
 70
0
 10
159.33333333333334
 20
139.80000000000001
 10
159.53333333333333
 20
139.46666666666664
  0
LWPOLYLINE
  5
2BA
  8
P
 62
0
370
-1
  6
CONTINUOUS
100
AcDbEntity
100
AcDbPolyline
 90
2
 70
0
 10
159.53333333333333
 20
139.46666666666664
 10
160.0
 20
139.19999999999999
  0
LWPOLYLINE
  5
2BB
  8
P
 62
0
370
-1
  6
CONTINUOUS
100
AcDbEntity
100
AcDbPolyline
 90
2
 70
0
 10
160.0
 20
139.19999999999999
 10
160.40000000000001
 20
139.19999999999999
  0
LWPOLYLINE
  5
2BC
  8
P
 62
0
370
-1
  6
CONTINUOUS
100
AcDbEntity
100
AcDbPolyline
 90
2
 70
0
 10
160.40000000000001
 20
139.19999999999999
 10
160.86666666666667
 20
139.46666666666664
  0
LWPOLYLINE
  5
2BD
  8
P
 62
0
370
-1
  6
CONTINUOUS
100
AcDbEntity
100
AcDbPolyline
 90
2
 70
0
 10
160.86666666666667
 20
139.46666666666664
 10
161.19999999999999
 20
140.0
  0
LWPOLYLINE
  5
2BE
  8
P
 62
0
370
-1
  6
CONTINUOUS
100
AcDbEntity
100
AcDbPolyline
 90
2
 70
0
 10
161.19999999999999
 20
140.0
 10
161.40000000000001
 20
141.0
  0
LWPOLYLINE
  5
2BF
  8
P
 62
0
370
-1
  6
CONTINUOUS
100
AcDbEntity
100
AcDbPolyline
 90
2
 70
0
 10
161.40000000000001
 20
141.0
 10
161.40000000000001
 20
142.0
  0
LWPOLYLINE
  5
2C0
  8
P
 62
0
370
-1
  6
CONTINUOUS
100
AcDbEntity
100
AcDbPolyline
 90
2
 70
0
 10
161.40000000000001
 20
142.0
 10
161.19999999999999
 20
142.80000000000001
  0
LWPOLYLINE
  5
2C1
  8
P
 62
0
370
-1
  6
CONTINUOUS
100
AcDbEntity
100
AcDbPolyline
 90
2
 70
0
 10
161.19999999999999
 20
142.80000000000001
 10
160.86666666666667
 20
143.19999999999999
  0
LWPOLYLINE
  5
2C2
  8
P
 62
0
370
-1
  6
CONTINUOUS
100
AcDbEntity
100
AcDbPolyline
 90
2
 70
0
 10
160.86666666666667
 20
143.19999999999999
 10
160.40000000000001
 20
143.39999999999998
  0
LWPOLYLINE
  5
2C3
  8
P
 62
0
370
-1
  6
CONTINUOUS
100
AcDbEntity
100
AcDbPolyline
 90
2
 70
0
 10
160.40000000000001
 20
143.39999999999998
 10
160.19999999999999
 20
143.39999999999998
  0
LWPOLYLINE
  5
2C4
  8
P
 62
0
370
-1
  6
CONTINUOUS
100
AcDbEntity
100
AcDbPolyline
 90
2
 70
0
 10
160.19999999999999
 20
143.39999999999998
 10
159.66666666666666
 20
143.19999999999999
  0
LWPOLYLINE
  5
2C5
  8
P
 62
0
370
-1
  6
CONTINUOUS
100
AcDbEntity
100
AcDbPolyline
 90
2
 70
0
 10
159.66666666666666
 20
143.19999999999999
 10
159.33333333333334
 20
142.80000000000001
  0
LWPOLYLINE
  5
2C6
  8
P
 62
0
370
-1
  6
CONTINUOUS
100
AcDbEntity
100
AcDbPolyline
 90
2
 70
0
 10
159.33333333333334
 20
142.80000000000001
 10
159.19999999999999
 20
142.19999999999999
  0
LWPOLYLINE
  5
2C7
  8
P
 62
0
370
-1
  6
CONTINUOUS
100
AcDbEntity
100
AcDbPolyline
 90
2
 70
0
 10
159.19999999999999
 20
142.19999999999999
 10
159.19999999999999
 20
142.0
  0
LWPOLYLINE
  5
2C8
  8
P
 62
0
370
-1
  6
CONTINUOUS
100
AcDbEntity
100
AcDbPolyline
 90
2
 70
0
 10
159.19999999999999
 20
142.0
 10
159.33333333333334
 20
141.39999999999998
  0
LWPOLYLINE
  5
2C9
  8
P
 62
0
370
-1
  6
CONTINUOUS
100
AcDbEntity
100
AcDbPolyline
 90
2
 70
0
 10
159.33333333333334
 20
141.39999999999998
 10
159.66666666666666
 20
141.0
  0
LWPOLYLINE
  5
2CA
  8
P
 62
0
370
-1
  6
CONTINUOUS
100
AcDbEntity
100
AcDbPolyline
 90
2
 70
0
 10
159.66666666666666
 20
141.0
 10
160.19999999999999
 20
140.80000000000001
  0
LWPOLYLINE
  5
2CB
  8
P
 62
0
370
-1
  6
CONTINUOUS
100
AcDbEntity
100
AcDbPolyline
 90
2
 70
0
 10
160.19999999999999
 20
140.80000000000001
 10
160.40000000000001
 20
140.80000000000001
  0
LWPOLYLINE
  5
2CC
  8
P
 62
0
370
-1
  6
CONTINUOUS
100
AcDbEntity
100
AcDbPolyline
 90
2
 70
0
 10
160.40000000000001
 20
140.80000000000001
 10
160.86666666666667
 20
141.0
  0
LWPOLYLINE
  5
2CD
  8
P
 62
0
370
-1
  6
CONTINUOUS
100
AcDbEntity
100
AcDbPolyline
 90
2
 70
0
 10
160.86666666666667
 20
141.0
 10
161.19999999999999
 20
141.39999999999998
  0
LWPOLYLINE
  5
2CE
  8
P
 62
0
370
-1
  6
CONTINUOUS
100
AcDbEntity
100
AcDbPolyline
 90
2
 70
0
 10
161.19999999999999
 20
141.39999999999998
 10
161.40000000000001
 20
142.0
  0
LWPOLYLINE
  5
2CF
  8
P
 62
0
370
-1
  6
CONTINUOUS
100
AcDbEntity
100
AcDbPolyline
 90
2
 70
0
 10
154.46666666666667
 20
142.19999999999999
 10
154.46666666666667
 20
161.86666666666667
  0
LWPOLYLINE
  5
2D0
  8
P
 62
0
370
-1
  6
CONTINUOUS
100
AcDbEntity
100
AcDbPolyline
 90
2
 70
0
 10
132.0
 20
140.26666666666665
 10
132.0
 20
140.0
  0
LWPOLYLINE
  5
2D1
  8
P
 62
0
370
-1
  6
CONTINUOUS
100
AcDbEntity
100
AcDbPolyline
 90
2
 70
0
 10
132.0
 20
140.0
 10
131.80000000000001
 20
139.66666666666669
  0
LWPOLYLINE
  5
2D2
  8
P
 62
0
370
-1
  6
CONTINUOUS
100
AcDbEntity
100
AcDbPolyline
 90
2
 70
0
 10
131.80000000000001
 20
139.66666666666669
 10
131.66666666666666
 20
139.46666666666664
  0
LWPOLYLINE
  5
2D3
  8
P
 62
0
370
-1
  6
CONTINUOUS
100
AcDbEntity
100
AcDbPolyline
 90
2
 70
0
 10
131.66666666666666
 20
139.46666666666664
 10
131.33333333333334
 20
139.19999999999999
  0
LWPOLYLINE
  5
2D4
  8
P
 62
0
370
-1
  6
CONTINUOUS
100
AcDbEntity
100
AcDbPolyline
 90
2
 70
0
 10
131.33333333333334
 20
139.19999999999999
 10
130.59999999999999
 20
139.19999999999999
  0
LWPOLYLINE
  5
2D5
  8
P
 62
0
370
-1
  6
CONTINUOUS
100
AcDbEntity
100
AcDbPolyline
 90
2
 70
0
 10
130.59999999999999
 20
139.19999999999999
 10
130.26666666666668
 20
139.46666666666664
  0
LWPOLYLINE
  5
2D6
  8
P
 62
0
370
-1
  6
CONTINUOUS
100
AcDbEntity
100
AcDbPolyline
 90
2
 70
0
 10
130.26666666666668
 20
139.46666666666664
 10
130.13333333333333
 20
139.66666666666669
  0
LWPOLYLINE
  5
2D7
  8
P
 62
0
370
-1
  6
CONTINUOUS
100
AcDbEntity
100
AcDbPolyline
 90
2
 70
0
 10
130.13333333333333
 20
139.66666666666669
 10
129.93333333333334
 20
140.0
  0
LWPOLYLINE
  5
2D8
  8
P
 62
0
370
-1
  6
CONTINUOUS
100
AcDbEntity
100
AcDbPolyline
 90
2
 70
0
 10
129.93333333333334
 20
140.0
 10
129.93333333333334
 20
140.46666666666664
  0
LWPOLYLINE
  5
2D9
  8
P
 62
0
370
-1
  6
CONTINUOUS
100
AcDbEntity
100
AcDbPolyline
 90
2
 70
0
 10
129.93333333333334
 20
140.46666666666664
 10
130.13333333333333
 20
140.80000000000001
  0
LWPOLYLINE
  5
2DA
  8
P
 62
0
370
-1
  6
CONTINUOUS
100
AcDbEntity
100
AcDbPolyline
 90
2
 70
0
 10
130.13333333333333
 20
140.80000000000001
 10
130.46666666666667
 20
141.39999999999998
  0
LWPOLYLINE
  5
2DB
  8
P
 62
0
370
-1
  6
CONTINUOUS
100
AcDbEntity
100
AcDbPolyline
 90
2
 70
0
 10
130.46666666666667
 20
141.39999999999998
 10
132.13333333333333
 20
143.39999999999998
  0
LWPOLYLINE
  5
2DC
  8
P
 62
0
370
-1
  6
CONTINUOUS
100
AcDbEntity
100
AcDbPolyline
 90
2
 70
0
 10
132.13333333333333
 20
143.39999999999998
 10
129.80000000000001
 20
143.39999999999998
  0
LWPOLYLINE
  5
2DD
  8
P
 62
0
370
-1
  6
CONTINUOUS
100
AcDbEntity
100
AcDbPolyline
 90
2
 70
0
 10
128.19999999999999
 20
139.19999999999999
 10
126.40000000000001
 20
139.19999999999999
  0
LWPOLYLINE
  5
2DE
  8
P
 62
0
370
-1
  6
CONTINUOUS
100
AcDbEntity
100
AcDbPolyline
 90
2
 70
0
 10
126.40000000000001
 20
139.19999999999999
 10
127.40000000000001
 20
140.80000000000001
  0
LWPOLYLINE
  5
2DF
  8
P
 62
0
370
-1
  6
CONTINUOUS
100
AcDbEntity
100
AcDbPolyline
 90
2
 70
0
 10
127.40000000000001
 20
140.80000000000001
 10
126.93333333333334
 20
140.80000000000001
  0
LWPOLYLINE
  5
2E0
  8
P
 62
0
370
-1
  6
CONTINUOUS
100
AcDbEntity
100
AcDbPolyline
 90
2
 70
0
 10
126.93333333333334
 20
140.80000000000001
 10
126.59999999999999
 20
141.0
  0
LWPOLYLINE
  5
2E1
  8
P
 62
0
370
-1
  6
CONTINUOUS
100
AcDbEntity
100
AcDbPolyline
 90
2
 70
0
 10
126.59999999999999
 20
141.0
 10
126.40000000000001
 20
141.19999999999999
  0
LWPOLYLINE
  5
2E2
  8
P
 62
0
370
-1
  6
CONTINUOUS
100
AcDbEntity
100
AcDbPolyline
 90
2
 70
0
 10
126.40000000000001
 20
141.19999999999999
 10
126.26666666666667
 20
141.80000000000001
  0
LWPOLYLINE
  5
2E3
  8
P
 62
0
370
-1
  6
CONTINUOUS
100
AcDbEntity
100
AcDbPolyline
 90
2
 70
0
 10
126.26666666666667
 20
141.80000000000001
 10
126.26666666666667
 20
142.19999999999999
  0
LWPOLYLINE
  5
2E4
  8
P
 62
0
370
-1
  6
CONTINUOUS
100
AcDbEntity
100
AcDbPolyline
 90
2
 70
0
 10
126.26666666666667
 20
142.19999999999999
 10
126.40000000000001
 20
142.80000000000001
  0
LWPOLYLINE
  5
2E5
  8
P
 62
0
370
-1
  6
CONTINUOUS
100
AcDbEntity
100
AcDbPolyline
 90
2
 70
0
 10
126.40000000000001
 20
142.80000000000001
 10
126.73333333333333
 20
143.19999999999999
  0
LWPOLYLINE
  5
2E6
  8
P
 62
0
370
-1
  6
CONTINUOUS
100
AcDbEntity
100
AcDbPolyline
 90
2
 70
0
 10
126.73333333333333
 20
143.19999999999999
 10
127.2
 20
143.39999999999998
  0
LWPOLYLINE
  5
2E7
  8
P
 62
0
370
-1
  6
CONTINUOUS
100
AcDbEntity
100
AcDbPolyline
 90
2
 70
0
 10
127.2
 20
143.39999999999998
 10
127.73333333333333
 20
143.39999999999998
  0
LWPOLYLINE
  5
2E8
  8
P
 62
0
370
-1
  6
CONTINUOUS
100
AcDbEntity
100
AcDbPolyline
 90
2
 70
0
 10
127.73333333333333
 20
143.39999999999998
 10
128.19999999999999
 20
143.19999999999999
  0
LWPOLYLINE
  5
2E9
  8
P
 62
0
370
-1
  6
CONTINUOUS
100
AcDbEntity
100
AcDbPolyline
 90
2
 70
0
 10
128.19999999999999
 20
143.19999999999999
 10
128.40000000000001
 20
143.0
  0
LWPOLYLINE
  5
2EA
  8
P
 62
0
370
-1
  6
CONTINUOUS
100
AcDbEntity
100
AcDbPolyline
 90
2
 70
0
 10
128.40000000000001
 20
143.0
 10
128.59999999999999
 20
142.60000000000002
  0
LWPOLYLINE
  5
2EB
  8
P
 62
0
370
-1
  6
CONTINUOUS
100
AcDbEntity
100
AcDbPolyline
 90
2
 70
0
 10
123.40000000000001
 20
139.19999999999999
 10
125.06666666666666
 20
142.0
  0
LWPOLYLINE
  5
2EC
  8
P
 62
0
370
-1
  6
CONTINUOUS
100
AcDbEntity
100
AcDbPolyline
 90
2
 70
0
 10
125.06666666666666
 20
142.0
 10
122.59999999999999
 20
142.0
  0
LWPOLYLINE
  5
2ED
  8
P
 62
0
370
-1
  6
CONTINUOUS
100
AcDbEntity
100
AcDbPolyline
 90
2
 70
0
 10
123.40000000000001
 20
139.19999999999999
 10
123.40000000000001
 20
143.39999999999998
  0
LWPOLYLINE
  5
2EE
  8
P
 62
0
370
-1
  6
CONTINUOUS
100
AcDbEntity
100
AcDbPolyline
 90
2
 70
0
 10
100.33333333333333
 20
142.19999999999999
 10
100.33333333333333
 20
161.86666666666667
  0
LWPOLYLINE
  5
2EF
  8
P
 62
0
370
-1
  6
CONTINUOUS
100
AcDbEntity
100
AcDbPolyline
 90
2
 70
0
 10
96.86666666666666
 20
126.46666666666664
 10
173.13333333333333
 20
126.46666666666664
  0
LWPOLYLINE
  5
2F0
  8
P
 62
0
370
-1
  6
CONTINUOUS
100
AcDbEntity
100
AcDbPolyline
 90
2
 70
0
 10
169.66666666666666
 20
123.0
 10
169.66666666666666
 20
142.66666666666669
  0
LWPOLYLINE
  5
2F1
  8
P
 62
0
370
-1
  6
CONTINUOUS
100
AcDbEntity
100
AcDbPolyline
 90
2
 70
0
 10
139.40000000000001
 20
120.0
 10
137.59999999999999
 20
120.0
  0
LWPOLYLINE
  5
2F2
  8
P
 62
0
370
-1
  6
CONTINUOUS
100
AcDbEntity
100
AcDbPolyline
 90
2
 70
0
 10
137.59999999999999
 20
120.0
 10
138.59999999999999
 20
121.60000000000002
  0
LWPOLYLINE
  5
2F3
  8
P
 62
0
370
-1
  6
CONTINUOUS
100
AcDbEntity
100
AcDbPolyline
 90
2
 70
0
 10
138.59999999999999
 20
121.60000000000002
 10
138.06666666666666
 20
121.60000000000002
  0
LWPOLYLINE
  5
2F4
  8
P
 62
0
370
-1
  6
CONTINUOUS
100
AcDbEntity
100
AcDbPolyline
 90
2
 70
0
 10
138.06666666666666
 20
121.60000000000002
 10
137.73333333333332
 20
121.80000000000001
  0
LWPOLYLINE
  5
2F5
  8
P
 62
0
370
-1
  6
CONTINUOUS
100
AcDbEntity
100
AcDbPolyline
 90
2
 70
0
 10
137.73333333333332
 20
121.80000000000001
 10
137.59999999999999
 20
122.0
  0
LWPOLYLINE
  5
2F6
  8
P
 62
0
370
-1
  6
CONTINUOUS
100
AcDbEntity
100
AcDbPolyline
 90
2
 70
0
 10
137.59999999999999
 20
122.0
 10
137.40000000000001
 20
122.60000000000002
  0
LWPOLYLINE
  5
2F7
  8
P
 62
0
370
-1
  6
CONTINUOUS
100
AcDbEntity
100
AcDbPolyline
 90
2
 70
0
 10
137.40000000000001
 20
122.60000000000002
 10
137.40000000000001
 20
122.93333333333334
  0
LWPOLYLINE
  5
2F8
  8
P
 62
0
370
-1
  6
CONTINUOUS
100
AcDbEntity
100
AcDbPolyline
 90
2
 70
0
 10
137.40000000000001
 20
122.93333333333334
 10
137.59999999999999
 20
123.60000000000002
  0
LWPOLYLINE
  5
2F9
  8
P
 62
0
370
-1
  6
CONTINUOUS
100
AcDbEntity
100
AcDbPolyline
 90
2
 70
0
 10
137.59999999999999
 20
123.60000000000002
 10
137.93333333333334
 20
123.93333333333334
  0
LWPOLYLINE
  5
2FA
  8
P
 62
0
370
-1
  6
CONTINUOUS
100
AcDbEntity
100
AcDbPolyline
 90
2
 70
0
 10
137.93333333333334
 20
123.93333333333334
 10
138.40000000000001
 20
124.13333333333333
  0
LWPOLYLINE
  5
2FB
  8
P
 62
0
370
-1
  6
CONTINUOUS
100
AcDbEntity
100
AcDbPolyline
 90
2
 70
0
 10
138.40000000000001
 20
124.13333333333333
 10
138.93333333333334
 20
124.13333333333333
  0
LWPOLYLINE
  5
2FC
  8
P
 62
0
370
-1
  6
CONTINUOUS
100
AcDbEntity
100
AcDbPolyline
 90
2
 70
0
 10
138.93333333333334
 20
124.13333333333333
 10
139.40000000000001
 20
123.93333333333334
  0
LWPOLYLINE
  5
2FD
  8
P
 62
0
370
-1
  6
CONTINUOUS
100
AcDbEntity
100
AcDbPolyline
 90
2
 70
0
 10
139.40000000000001
 20
123.93333333333334
 10
139.53333333333333
 20
123.73333333333335
  0
LWPOLYLINE
  5
2FE
  8
P
 62
0
370
-1
  6
CONTINUOUS
100
AcDbEntity
100
AcDbPolyline
 90
2
 70
0
 10
139.53333333333333
 20
123.73333333333335
 10
139.73333333333332
 20
123.39999999999998
  0
LWPOLYLINE
  5
2FF
  8
P
 62
0
370
-1
  6
CONTINUOUS
100
AcDbEntity
100
AcDbPolyline
 90
2
 70
0
 10
135.19999999999999
 20
120.0
 10
135.66666666666666
 20
120.19999999999999
  0
LWPOLYLINE
  5
300
  8
P
 62
0
370
-1
  6
CONTINUOUS
100
AcDbEntity
100
AcDbPolyline
 90
2
 70
0
 10
135.66666666666666
 20
120.19999999999999
 10
136.0
 20
120.80000000000001
  0
LWPOLYLINE
  5
301
  8
P
 62
0
370
-1
  6
CONTINUOUS
100
AcDbEntity
100
AcDbPolyline
 90
2
 70
0
 10
136.0
 20
120.80000000000001
 10
136.19999999999999
 20
121.80000000000001
  0
LWPOLYLINE
  5
302
  8
P
 62
0
370
-1
  6
CONTINUOUS
100
AcDbEntity
100
AcDbPolyline
 90
2
 70
0
 10
136.19999999999999
 20
121.80000000000001
 10
136.19999999999999
 20
122.33333333333331
  0
LWPOLYLINE
  5
303
  8
P
 62
0
370
-1
  6
CONTINUOUS
100
AcDbEntity
100
AcDbPolyline
 90
2
 70
0
 10
136.19999999999999
 20
122.33333333333331
 10
136.0
 20
123.39999999999998
  0
LWPOLYLINE
  5
304
  8
P
 62
0
370
-1
  6
CONTINUOUS
100
AcDbEntity
100
AcDbPolyline
 90
2
 70
0
 10
136.0
 20
123.39999999999998
 10
135.66666666666666
 20
123.93333333333334
  0
LWPOLYLINE
  5
305
  8
P
 62
0
370
-1
  6
CONTINUOUS
100
AcDbEntity
100
AcDbPolyline
 90
2
 70
0
 10
135.66666666666666
 20
123.93333333333334
 10
135.19999999999999
 20
124.13333333333333
  0
LWPOLYLINE
  5
306
  8
P
 62
0
370
-1
  6
CONTINUOUS
100
AcDbEntity
100
AcDbPolyline
 90
2
 70
0
 10
135.19999999999999
 20
124.13333333333333
 10
134.80000000000001
 20
124.13333333333333
  0
LWPOLYLINE
  5
307
  8
P
 62
0
370
-1
  6
CONTINUOUS
100
AcDbEntity
100
AcDbPolyline
 90
2
 70
0
 10
134.80000000000001
 20
124.13333333333333
 10
134.33333333333334
 20
123.93333333333334
  0
LWPOLYLINE
  5
308
  8
P
 62
0
370
-1
  6
CONTINUOUS
100
AcDbEntity
100
AcDbPolyline
 90
2
 70
0
 10
134.33333333333334
 20
123.93333333333334
 10
134.0
 20
123.39999999999998
  0
LWPOLYLINE
  5
309
  8
P
 62
0
370
-1
  6
CONTINUOUS
100
AcDbEntity
100
AcDbPolyline
 90
2
 70
0
 10
134.0
 20
123.39999999999998
 10
133.86666666666667
 20
122.33333333333331
  0
LWPOLYLINE
  5
30A
  8
P
 62
0
370
-1
  6
CONTINUOUS
100
AcDbEntity
100
AcDbPolyline
 90
2
 70
0
 10
133.86666666666667
 20
122.33333333333331
 10
133.86666666666667
 20
121.80000000000001
  0
LWPOLYLINE
  5
30B
  8
P
 62
0
370
-1
  6
CONTINUOUS
100
AcDbEntity
100
AcDbPolyline
 90
2
 70
0
 10
133.86666666666667
 20
121.80000000000001
 10
134.0
 20
120.80000000000001
  0
LWPOLYLINE
  5
30C
  8
P
 62
0
370
-1
  6
CONTINUOUS
100
AcDbEntity
100
AcDbPolyline
 90
2
 70
0
 10
134.0
 20
120.80000000000001
 10
134.33333333333334
 20
120.19999999999999
  0
LWPOLYLINE
  5
30D
  8
P
 62
0
370
-1
  6
CONTINUOUS
100
AcDbEntity
100
AcDbPolyline
 90
2
 70
0
 10
134.33333333333334
 20
120.19999999999999
 10
134.80000000000001
 20
120.0
  0
LWPOLYLINE
  5
30E
  8
P
 62
0
370
-1
  6
CONTINUOUS
100
AcDbEntity
100
AcDbPolyline
 90
2
 70
0
 10
134.80000000000001
 20
120.0
 10
135.19999999999999
 20
120.0
  0
LWPOLYLINE
  5
30F
  8
P
 62
0
370
-1
  6
CONTINUOUS
100
AcDbEntity
100
AcDbPolyline
 90
2
 70
0
 10
131.59999999999999
 20
120.0
 10
132.06666666666666
 20
120.19999999999999
  0
LWPOLYLINE
  5
310
  8
P
 62
0
370
-1
  6
CONTINUOUS
100
AcDbEntity
100
AcDbPolyline
 90
2
 70
0
 10
132.06666666666666
 20
120.19999999999999
 10
132.40000000000001
 20
120.80000000000001
  0
LWPOLYLINE
  5
311
  8
P
 62
0
370
-1
  6
CONTINUOUS
100
AcDbEntity
100
AcDbPolyline
 90
2
 70
0
 10
132.40000000000001
 20
120.80000000000001
 10
132.59999999999999
 20
121.80000000000001
  0
LWPOLYLINE
  5
312
  8
P
 62
0
370
-1
  6
CONTINUOUS
100
AcDbEntity
100
AcDbPolyline
 90
2
 70
0
 10
132.59999999999999
 20
121.80000000000001
 10
132.59999999999999
 20
122.33333333333331
  0
LWPOLYLINE
  5
313
  8
P
 62
0
370
-1
  6
CONTINUOUS
100
AcDbEntity
100
AcDbPolyline
 90
2
 70
0
 10
132.59999999999999
 20
122.33333333333331
 10
132.40000000000001
 20
123.39999999999998
  0
LWPOLYLINE
  5
314
  8
P
 62
0
370
-1
  6
CONTINUOUS
100
AcDbEntity
100
AcDbPolyline
 90
2
 70
0
 10
132.40000000000001
 20
123.39999999999998
 10
132.06666666666666
 20
123.93333333333334
  0
LWPOLYLINE
  5
315
  8
P
 62
0
370
-1
  6
CONTINUOUS
100
AcDbEntity
100
AcDbPolyline
 90
2
 70
0
 10
132.06666666666666
 20
123.93333333333334
 10
131.59999999999999
 20
124.13333333333333
  0
LWPOLYLINE
  5
316
  8
P
 62
0
370
-1
  6
CONTINUOUS
100
AcDbEntity
100
AcDbPolyline
 90
2
 70
0
 10
131.59999999999999
 20
124.13333333333333
 10
131.26666666666668
 20
124.13333333333333
  0
LWPOLYLINE
  5
317
  8
P
 62
0
370
-1
  6
CONTINUOUS
100
AcDbEntity
100
AcDbPolyline
 90
2
 70
0
 10
131.26666666666668
 20
124.13333333333333
 10
130.80000000000001
 20
123.93333333333334
  0
LWPOLYLINE
  5
318
  8
P
 62
0
370
-1
  6
CONTINUOUS
100
AcDbEntity
100
AcDbPolyline
 90
2
 70
0
 10
130.80000000000001
 20
123.93333333333334
 10
130.46666666666667
 20
123.39999999999998
  0
LWPOLYLINE
  5
319
  8
P
 62
0
370
-1
  6
CONTINUOUS
100
AcDbEntity
100
AcDbPolyline
 90
2
 70
0
 10
130.46666666666667
 20
123.39999999999998
 10
130.26666666666668
 20
122.33333333333331
  0
LWPOLYLINE
  5
31A
  8
P
 62
0
370
-1
  6
CONTINUOUS
100
AcDbEntity
100
AcDbPolyline
 90
2
 70
0
 10
130.26666666666668
 20
122.33333333333331
 10
130.26666666666668
 20
121.80000000000001
  0
LWPOLYLINE
  5
31B
  8
P
 62
0
370
-1
  6
CONTINUOUS
100
AcDbEntity
100
AcDbPolyline
 90
2
 70
0
 10
130.26666666666668
 20
121.80000000000001
 10
130.46666666666667
 20
120.80000000000001
  0
LWPOLYLINE
  5
31C
  8
P
 62
0
370
-1
  6
CONTINUOUS
100
AcDbEntity
100
AcDbPolyline
 90
2
 70
0
 10
130.46666666666667
 20
120.80000000000001
 10
130.80000000000001
 20
120.19999999999999
  0
LWPOLYLINE
  5
31D
  8
P
 62
0
370
-1
  6
CONTINUOUS
100
AcDbEntity
100
AcDbPolyline
 90
2
 70
0
 10
130.80000000000001
 20
120.19999999999999
 10
131.26666666666668
 20
120.0
  0
LWPOLYLINE
  5
31E
  8
P
 62
0
370
-1
  6
CONTINUOUS
100
AcDbEntity
100
AcDbPolyline
 90
2
 70
0
 10
131.26666666666668
 20
120.0
 10
131.59999999999999
 20
120.0
  0
LWPOLYLINE
  5
31F
  8
P
 62
0
370
-1
  6
CONTINUOUS
100
AcDbEntity
100
AcDbPolyline
 90
2
 70
0
 10
100.33333333333333
 20
123.0
 10
100.33333333333333
 20
142.66666666666669
  0
LWPOLYLINE
  5
320
  8
P
 62
0
370
-1
  6
CONTINUOUS
100
AcDbEntity
100
AcDbPolyline
 90
2
 70
0
 10
100.33333333333333
 20
246.73333333333332
 10
98.333333333333329
 20
247.80000000000001
  0
LWPOLYLINE
  5
321
  8
P
 62
0
370
-1
  6
CONTINUOUS
100
AcDbEntity
100
AcDbPolyline
 90
2
 70
0
 10
97.266666666666666
 20
248.33333333333334
 10
95.200000000000003
 20
249.40000000000001
  0
LWPOLYLINE
  5
322
  8
P
 62
0
370
-1
  6
CONTINUOUS
100
AcDbEntity
100
AcDbPolyline
 90
2
 70
0
 10
94.200000000000003
 20
249.93333333333334
 10
92.13333333333334
 20
251.0
  0
LWPOLYLINE
  5
323
  8
P
 62
0
370
-1
  6
CONTINUOUS
100
AcDbEntity
100
AcDbPolyline
 90
2
 70
0
 10
91.13333333333334
 20
251.53333333333333
 10
89.13333333333334
 20
252.59999999999999
  0
LWPOLYLINE
  5
324
  8
P
 62
0
370
-1
  6
CONTINUOUS
100
AcDbEntity
100
AcDbPolyline
 90
2
 70
0
 10
172.0
 20
208.86666666666667
 10
169.93333333333334
 20
209.93333333333334
  0
LWPOLYLINE
  5
325
  8
P
 62
0
370
-1
  6
CONTINUOUS
100
AcDbEntity
100
AcDbPolyline
 90
2
 70
0
 10
168.93333333333334
 20
210.53333333333336
 10
166.86666666666667
 20
211.60000000000002
  0
LWPOLYLINE
  5
326
  8
P
 62
0
370
-1
  6
CONTINUOUS
100
AcDbEntity
100
AcDbPolyline
 90
2
 70
0
 10
165.86666666666667
 20
212.13333333333333
 10
163.80000000000001
 20
213.19999999999999
  0
LWPOLYLINE
  5
327
  8
P
 62
0
370
-1
  6
CONTINUOUS
100
AcDbEntity
100
AcDbPolyline
 90
2
 70
0
 10
162.80000000000001
 20
213.73333333333335
 10
160.73333333333332
 20
214.80000000000001
  0
LWPOLYLINE
  5
328
  8
P
 62
0
370
-1
  6
CONTINUOUS
100
AcDbEntity
100
AcDbPolyline
 90
2
 70
0
 10
159.73333333333332
 20
215.33333333333331
 10
157.66666666666666
 20
216.46666666666664
  0
LWPOLYLINE
  5
329
  8
P
 62
0
370
-1
  6
CONTINUOUS
100
AcDbEntity
100
AcDbPolyline
 90
2
 70
0
 10
156.66666666666666
 20
217.0
 10
154.59999999999999
 20
218.06666666666666
  0
LWPOLYLINE
  5
32A
  8
P
 62
0
370
-1
  6
CONTINUOUS
100
AcDbEntity
100
AcDbPolyline
 90
2
 70
0
 10
157.0
 20
384.4666666666667
 10
157.0
 20
396.06666666666666
  0
LWPOLYLINE
  5
32B
  8
P
 62
0
370
-1
  6
CONTINUOUS
100
AcDbEntity
100
AcDbPolyline
 90
2
 70
0
 10
88.799999999999997
 20
168.33333333333331
 10
88.799999999999997
 20
252.80000000000001
  0
LWPOLYLINE
  5
32C
  8
P
 62
0
370
-1
  6
CONTINUOUS
100
AcDbEntity
100
AcDbPolyline
 90
2
 70
0
 10
172.0
 20
168.33333333333331
 10
172.0
 20
208.86666666666667
  0
LWPOLYLINE
  5
32D
  8
P
 62
0
370
-1
  6
CONTINUOUS
100
AcDbEntity
100
AcDbPolyline
 90
2
 70
0
 10
176.59999999999999
 20
168.33333333333331
 10
173.13333333333333
 20
168.33333333333331
  0
LWPOLYLINE
  5
32E
  8
P
 62
0
370
-1
  6
CONTINUOUS
100
AcDbEntity
100
AcDbPolyline
 90
2
 70
0
 10
170.80000000000001
 20
168.33333333333331
 10
167.40000000000001
 20
168.33333333333331
  0
LWPOLYLINE
  5
32F
  8
P
 62
0
370
-1
  6
CONTINUOUS
100
AcDbEntity
100
AcDbPolyline
 90
2
 70
0
 10
165.06666666666666
 20
168.33333333333331
 10
161.59999999999999
 20
168.33333333333331
  0
LWPOLYLINE
  5
330
  8
P
 62
0
370
-1
  6
CONTINUOUS
100
AcDbEntity
100
AcDbPolyline
 90
2
 70
0
 10
159.26666666666668
 20
168.33333333333331
 10
155.80000000000001
 20
168.33333333333331
  0
LWPOLYLINE
  5
331
  8
P
 62
0
370
-1
  6
CONTINUOUS
100
AcDbEntity
100
AcDbPolyline
 90
2
 70
0
 10
153.53333333333333
 20
168.33333333333331
 10
150.06666666666666
 20
168.33333333333331
  0
LWPOLYLINE
  5
332
  8
P
 62
0
370
-1
  6
CONTINUOUS
100
AcDbEntity
100
AcDbPolyline
 90
2
 70
0
 10
147.73333333333332
 20
168.33333333333331
 10
144.26666666666668
 20
168.33333333333331
  0
LWPOLYLINE
  5
333
  8
P
 62
0
370
-1
  6
CONTINUOUS
100
AcDbEntity
100
AcDbPolyline
 90
2
 70
0
 10
141.93333333333334
 20
168.33333333333331
 10
138.46666666666667
 20
168.33333333333331
  0
LWPOLYLINE
  5
334
  8
P
 62
0
370
-1
  6
CONTINUOUS
100
AcDbEntity
100
AcDbPolyline
 90
2
 70
0
 10
136.19999999999999
 20
168.33333333333331
 10
132.66666666666666
 20
168.33333333333331
  0
LWPOLYLINE
  5
335
  8
P
 62
0
370
-1
  6
CONTINUOUS
100
AcDbEntity
100
AcDbPolyline
 90
2
 70
0
 10
130.40000000000001
 20
168.33333333333331
 10
126.93333333333334
 20
168.33333333333331
  0
LWPOLYLINE
  5
336
  8
P
 62
0
370
-1
  6
CONTINUOUS
100
AcDbEntity
100
AcDbPolyline
 90
2
 70
0
 10
124.59999999999999
 20
168.33333333333331
 10
121.13333333333334
 20
168.33333333333331
  0
LWPOLYLINE
  5
337
  8
P
 62
0
370
-1
  6
CONTINUOUS
100
AcDbEntity
100
AcDbPolyline
 90
2
 70
0
 10
118.8
 20
168.33333333333331
 10
115.40000000000001
 20
168.33333333333331
  0
LWPOLYLINE
  5
338
  8
P
 62
0
370
-1
  6
CONTINUOUS
100
AcDbEntity
100
AcDbPolyline
 90
2
 70
0
 10
113.06666666666666
 20
168.33333333333331
 10
109.59999999999999
 20
168.33333333333331
  0
LWPOLYLINE
  5
339
  8
P
 62
0
370
-1
  6
CONTINUOUS
100
AcDbEntity
100
AcDbPolyline
 90
2
 70
0
 10
107.26666666666667
 20
168.33333333333331
 10
103.8
 20
168.33333333333331
  0
LWPOLYLINE
  5
33A
  8
P
 62
0
370
-1
  6
CONTINUOUS
100
AcDbEntity
100
AcDbPolyline
 90
2
 70
0
 10
101.46666666666667
 20
168.33333333333331
 10
98.066666666666663
 20
168.33333333333331
  0
LWPOLYLINE
  5
33B
  8
P
 62
0
370
-1
  6
CONTINUOUS
100
AcDbEntity
100
AcDbPolyline
 90
2
 70
0
 10
95.733333333333334
 20
168.33333333333331
 10
92.266666666666666
 20
168.33333333333331
  0
LWPOLYLINE
  5
33C
  8
P
 62
0
370
-1
  6
CONTINUOUS
100
AcDbEntity
100
AcDbPolyline
 90
2
 70
0
 10
89.933333333333337
 20
168.33333333333331
 10
86.466666666666669
 20
168.33333333333331
  0
LWPOLYLINE
  5
33D
  8
P
 62
0
370
-1
  6
CONTINUOUS
100
AcDbEntity
100
AcDbPolyline
 90
2
 70
0
 10
184.93333333333334
 20
173.06666666666666
 10
179.13333333333333
 20
173.06666666666666
  0
LWPOLYLINE
  5
33E
  8
P
 62
0
370
-1
  6
CONTINUOUS
100
AcDbEntity
100
AcDbPolyline
 90
2
 70
0
 10
179.13333333333333
 20
173.06666666666666
 10
182.46666666666667
 20
174.93333333333334
  0
LWPOLYLINE
  5
33F
  8
P
 62
0
370
-1
  6
CONTINUOUS
100
AcDbEntity
100
AcDbPolyline
 90
2
 70
0
 10
182.46666666666667
 20
174.93333333333334
 10
179.13333333333333
 20
176.80000000000001
  0
LWPOLYLINE
  5
340
  8
P
 62
0
370
-1
  6
CONTINUOUS
100
AcDbEntity
100
AcDbPolyline
 90
2
 70
0
 10
179.13333333333333
 20
176.80000000000001
 10
184.93333333333334
 20
176.80000000000001
  0
LWPOLYLINE
  5
341
  8
P
 62
0
370
-1
  6
CONTINUOUS
100
AcDbEntity
100
AcDbPolyline
 90
2
 70
0
 10
184.93333333333334
 20
179.39999999999998
 10
184.53333333333333
 20
179.39999999999998
  0
LWPOLYLINE
  5
342
  8
P
 62
0
370
-1
  6
CONTINUOUS
100
AcDbEntity
100
AcDbPolyline
 90
2
 70
0
 10
184.93333333333334
 20
189.13333333333333
 10
179.13333333333333
 20
189.13333333333333
  0
LWPOLYLINE
  5
343
  8
P
 62
0
370
-1
  6
CONTINUOUS
100
AcDbEntity
100
AcDbPolyline
 90
2
 70
0
 10
179.13333333333333
 20
189.13333333333333
 10
180.86666666666667
 20
187.46666666666664
  0
LWPOLYLINE
  5
344
  8
P
 62
0
370
-1
  6
CONTINUOUS
100
AcDbEntity
100
AcDbPolyline
 90
2
 70
0
 10
184.93333333333334
 20
192.80000000000001
 10
184.53333333333333
 20
192.80000000000001
  0
LWPOLYLINE
  5
345
  8
P
 62
0
370
-1
  6
CONTINUOUS
100
AcDbEntity
100
AcDbPolyline
 90
2
 70
0
 10
182.46666666666667
 20
192.80000000000001
 10
182.06666666666666
 20
192.80000000000001
  0
LWPOLYLINE
  5
346
  8
P
 62
0
370
-1
  6
CONTINUOUS
100
AcDbEntity
100
AcDbPolyline
 90
2
 70
0
 10
184.93333333333334
 20
198.06666666666666
 10
179.13333333333333
 20
198.06666666666666
  0
LWPOLYLINE
  5
347
  8
P
 62
0
370
-1
  6
CONTINUOUS
100
AcDbEntity
100
AcDbPolyline
 90
2
 70
0
 10
179.13333333333333
 20
198.06666666666666
 10
180.86666666666667
 20
196.39999999999998
  0
LWPOLYLINE
  5
348
  8
P
 62
0
370
-1
  6
CONTINUOUS
100
AcDbEntity
100
AcDbPolyline
 90
2
 70
0
 10
184.93333333333334
 20
201.93333333333334
 10
184.73333333333332
 20
202.33333333333331
  0
LWPOLYLINE
  5
349
  8
P
 62
0
370
-1
  6
CONTINUOUS
100
AcDbEntity
100
AcDbPolyline
 90
2
 70
0
 10
184.73333333333332
 20
202.33333333333331
 10
183.73333333333332
 20
202.93333333333334
  0
LWPOLYLINE
  5
34A
  8
P
 62
0
370
-1
  6
CONTINUOUS
100
AcDbEntity
100
AcDbPolyline
 90
2
 70
0
 10
183.73333333333332
 20
202.93333333333334
 10
182.46666666666667
 20
203.19999999999999
  0
LWPOLYLINE
  5
34B
  8
P
 62
0
370
-1
  6
CONTINUOUS
100
AcDbEntity
100
AcDbPolyline
 90
2
 70
0
 10
182.46666666666667
 20
203.19999999999999
 10
181.66666666666666
 20
203.19999999999999
  0
LWPOLYLINE
  5
34C
  8
P
 62
0
370
-1
  6
CONTINUOUS
100
AcDbEntity
100
AcDbPolyline
 90
2
 70
0
 10
181.66666666666666
 20
203.19999999999999
 10
180.40000000000001
 20
202.93333333333334
  0
LWPOLYLINE
  5
34D
  8
P
 62
0
370
-1
  6
CONTINUOUS
100
AcDbEntity
100
AcDbPolyline
 90
2
 70
0
 10
180.40000000000001
 20
202.93333333333334
 10
179.40000000000001
 20
202.33333333333331
  0
LWPOLYLINE
  5
34E
  8
P
 62
0
370
-1
  6
CONTINUOUS
100
AcDbEntity
100
AcDbPolyline
 90
2
 70
0
 10
179.40000000000001
 20
202.33333333333331
 10
179.13333333333333
 20
201.93333333333334
  0
LWPOLYLINE
  5
34F
  8
P
 62
0
370
-1
  6
CONTINUOUS
100
AcDbEntity
100
AcDbPolyline
 90
2
 70
0
 10
179.13333333333333
 20
201.93333333333334
 10
179.13333333333333
 20
201.46666666666664
  0
LWPOLYLINE
  5
350
  8
P
 62
0
370
-1
  6
CONTINUOUS
100
AcDbEntity
100
AcDbPolyline
 90
2
 70
0
 10
179.13333333333333
 20
201.46666666666664
 10
179.40000000000001
 20
201.06666666666666
  0
LWPOLYLINE
  5
351
  8
P
 62
0
370
-1
  6
CONTINUOUS
100
AcDbEntity
100
AcDbPolyline
 90
2
 70
0
 10
179.40000000000001
 20
201.06666666666666
 10
180.40000000000001
 20
200.46666666666664
  0
LWPOLYLINE
  5
352
  8
P
 62
0
370
-1
  6
CONTINUOUS
100
AcDbEntity
100
AcDbPolyline
 90
2
 70
0
 10
180.40000000000001
 20
200.46666666666664
 10
181.66666666666666
 20
200.26666666666665
  0
LWPOLYLINE
  5
353
  8
P
 62
0
370
-1
  6
CONTINUOUS
100
AcDbEntity
100
AcDbPolyline
 90
2
 70
0
 10
181.66666666666666
 20
200.26666666666665
 10
182.46666666666667
 20
200.26666666666665
  0
LWPOLYLINE
  5
354
  8
P
 62
0
370
-1
  6
CONTINUOUS
100
AcDbEntity
100
AcDbPolyline
 90
2
 70
0
 10
182.46666666666667
 20
200.26666666666665
 10
183.73333333333332
 20
200.46666666666664
  0
LWPOLYLINE
  5
355
  8
P
 62
0
370
-1
  6
CONTINUOUS
100
AcDbEntity
100
AcDbPolyline
 90
2
 70
0
 10
183.73333333333332
 20
200.46666666666664
 10
184.73333333333332
 20
201.06666666666666
  0
LWPOLYLINE
  5
356
  8
P
 62
0
370
-1
  6
CONTINUOUS
100
AcDbEntity
100
AcDbPolyline
 90
2
 70
0
 10
184.73333333333332
 20
201.06666666666666
 10
184.93333333333334
 20
201.46666666666664
  0
LWPOLYLINE
  5
357
  8
P
 62
0
370
-1
  6
CONTINUOUS
100
AcDbEntity
100
AcDbPolyline
 90
2
 70
0
 10
184.93333333333334
 20
201.46666666666664
 10
184.93333333333334
 20
201.93333333333334
  0
LWPOLYLINE
  5
358
  8
P
 62
0
370
-1
  6
CONTINUOUS
100
AcDbEntity
100
AcDbPolyline
 90
2
 70
0
 10
273.66666666666669
 20
255.13333333333333
 10
270.26666666666665
 20
255.13333333333333
  0
LWPOLYLINE
  5
359
  8
P
 62
0
370
-1
  6
CONTINUOUS
100
AcDbEntity
100
AcDbPolyline
 90
2
 70
0
 10
267.93333333333334
 20
255.13333333333333
 10
264.46666666666664
 20
255.13333333333333
  0
LWPOLYLINE
  5
35A
  8
P
 62
0
370
-1
  6
CONTINUOUS
100
AcDbEntity
100
AcDbPolyline
 90
2
 70
0
 10
262.13333333333333
 20
255.13333333333333
 10
258.66666666666669
 20
255.13333333333333
  0
LWPOLYLINE
  5
35B
  8
P
 62
0
370
-1
  6
CONTINUOUS
100
AcDbEntity
100
AcDbPolyline
 90
2
 70
0
 10
256.39999999999998
 20
255.13333333333333
 10
252.86666666666667
 20
255.13333333333333
  0
LWPOLYLINE
  5
35C
  8
P
 62
0
370
-1
  6
CONTINUOUS
100
AcDbEntity
100
AcDbPolyline
 90
2
 70
0
 10
250.59999999999999
 20
255.13333333333333
 10
247.13333333333333
 20
255.13333333333333
  0
LWPOLYLINE
  5
35D
  8
P
 62
0
370
-1
  6
CONTINUOUS
100
AcDbEntity
100
AcDbPolyline
 90
2
 70
0
 10
244.80000000000001
 20
255.13333333333333
 10
241.33333333333334
 20
255.13333333333333
  0
LWPOLYLINE
  5
35E
  8
P
 62
0
370
-1
  6
CONTINUOUS
100
AcDbEntity
100
AcDbPolyline
 90
2
 70
0
 10
239.0
 20
255.13333333333333
 10
235.53333333333333
 20
255.13333333333333
  0
LWPOLYLINE
  5
35F
  8
P
 62
0
370
-1
  6
CONTINUOUS
100
AcDbEntity
100
AcDbPolyline
 90
2
 70
0
 10
233.26666666666668
 20
255.13333333333333
 10
229.80000000000001
 20
255.13333333333333
  0
LWPOLYLINE
  5
360
  8
P
 62
0
370
-1
  6
CONTINUOUS
100
AcDbEntity
100
AcDbPolyline
 90
2
 70
0
 10
249.40000000000001
 20
255.13333333333333
 10
249.40000000000001
 20
258.60000000000002
  0
LWPOLYLINE
  5
361
  8
P
 62
0
370
-1
  6
CONTINUOUS
100
AcDbEntity
100
AcDbPolyline
 90
2
 70
0
 10
249.40000000000001
 20
260.86666666666667
 10
249.40000000000001
 20
264.39999999999998
  0
LWPOLYLINE
  5
362
  8
P
 62
0
370
-1
  6
CONTINUOUS
100
AcDbEntity
100
AcDbPolyline
 90
2
 70
0
 10
249.40000000000001
 20
266.66666666666663
 10
249.40000000000001
 20
270.13333333333333
  0
LWPOLYLINE
  5
363
  8
P
 62
0
370
-1
  6
CONTINUOUS
100
AcDbEntity
100
AcDbPolyline
 90
2
 70
0
 10
249.40000000000001
 20
272.4666666666667
 10
249.40000000000001
 20
275.93333333333334
  0
LWPOLYLINE
  5
364
  8
P
 62
0
370
-1
  6
CONTINUOUS
100
AcDbEntity
100
AcDbPolyline
 90
2
 70
0
 10
251.73333333333332
 20
255.13333333333333
 10
251.73333333333332
 20
258.60000000000002
  0
LWPOLYLINE
  5
365
  8
P
 62
0
370
-1
  6
CONTINUOUS
100
AcDbEntity
100
AcDbPolyline
 90
2
 70
0
 10
251.73333333333332
 20
260.86666666666667
 10
251.73333333333332
 20
264.39999999999998
  0
LWPOLYLINE
  5
366
  8
P
 62
0
370
-1
  6
CONTINUOUS
100
AcDbEntity
100
AcDbPolyline
 90
2
 70
0
 10
251.73333333333332
 20
266.66666666666663
 10
251.73333333333332
 20
270.13333333333333
  0
LWPOLYLINE
  5
367
  8
P
 62
0
370
-1
  6
CONTINUOUS
100
AcDbEntity
100
AcDbPolyline
 90
2
 70
0
 10
251.73333333333332
 20
272.4666666666667
 10
251.73333333333332
 20
275.93333333333334
  0
LWPOLYLINE
  5
368
  8
P
 62
0
370
-1
  6
CONTINUOUS
100
AcDbEntity
100
AcDbPolyline
 90
2
 70
0
 10
172.0
 20
215.80000000000001
 10
168.53333333333333
 20
215.80000000000001
  0
LWPOLYLINE
  5
369
  8
P
 62
0
370
-1
  6
CONTINUOUS
100
AcDbEntity
100
AcDbPolyline
 90
2
 70
0
 10
166.19999999999999
 20
215.80000000000001
 10
162.73333333333332
 20
215.80000000000001
  0
LWPOLYLINE
  5
36A
  8
P
 62
0
370
-1
  6
CONTINUOUS
100
AcDbEntity
100
AcDbPolyline
 90
2
 70
0
 10
160.46666666666667
 20
215.80000000000001
 10
157.0
 20
215.80000000000001
  0
LWPOLYLINE
  5
36B
  8
P
 62
0
370
-1
  6
CONTINUOUS
100
AcDbEntity
100
AcDbPolyline
 90
2
 70
0
 10
154.66666666666666
 20
215.80000000000001
 10
151.19999999999999
 20
215.80000000000001
  0
LWPOLYLINE
  5
36C
  8
P
 62
0
370
-1
  6
CONTINUOUS
100
AcDbEntity
100
AcDbPolyline
 90
2
 70
0
 10
148.86666666666667
 20
215.80000000000001
 10
145.40000000000001
 20
215.80000000000001
  0
LWPOLYLINE
  5
36D
  8
P
 62
0
370
-1
  6
CONTINUOUS
100
AcDbEntity
100
AcDbPolyline
 90
2
 70
0
 10
143.13333333333333
 20
215.80000000000001
 10
139.59999999999999
 20
215.80000000000001
  0
LWPOLYLINE
  5
36E
  8
P
 62
0
370
-1
  6
CONTINUOUS
100
AcDbEntity
100
AcDbPolyline
 90
2
 70
0
 10
100.33333333333333
 20
246.73333333333332
 10
100.33333333333333
 20
250.19999999999999
  0
LWPOLYLINE
  5
36F
  8
P
 62
0
370
-1
  6
CONTINUOUS
100
AcDbEntity
100
AcDbPolyline
 90
2
 70
0
 10
100.33333333333333
 20
252.46666666666667
 10
100.33333333333333
 20
252.80000000000001
  0
LWPOLYLINE
  5
370
  8
P
 62
0
370
-1
  6
CONTINUOUS
100
AcDbEntity
100
AcDbPolyline
 90
2
 70
0
 10
100.33333333333333
 20
391.39999999999998
 10
96.86666666666666
 20
391.39999999999998
  0
LWPOLYLINE
  5
371
  8
P
 62
0
370
-1
  6
CONTINUOUS
100
AcDbEntity
100
AcDbPolyline
 90
2
 70
0
 10
94.533333333333331
 20
391.39999999999998
 10
91.13333333333334
 20
391.39999999999998
  0
LWPOLYLINE
  5
372
  8
P
 62
0
370
-1
  6
CONTINUOUS
100
AcDbEntity
100
AcDbPolyline
 90
2
 70
0
 10
100.33333333333333
 20
389.13333333333333
 10
96.86666666666666
 20
389.13333333333333
  0
LWPOLYLINE
  5
373
  8
P
 62
0
370
-1
  6
CONTINUOUS
100
AcDbEntity
100
AcDbPolyline
 90
2
 70
0
 10
94.533333333333331
 20
389.13333333333333
 10
91.13333333333334
 20
389.13333333333333
  0
LWPOLYLINE
  5
374
  8
P
 62
0
370
-1
  6
CONTINUOUS
100
AcDbEntity
100
AcDbPolyline
 90
2
 70
0
 10
65.733333333333334
 20
252.13333333333333
 10
65.733333333333334
 20
255.59999999999999
  0
LWPOLYLINE
  5
375
  8
P
 62
0
370
-1
  6
CONTINUOUS
100
AcDbEntity
100
AcDbPolyline
 90
2
 70
0
 10
65.733333333333334
 20
257.93333333333334
 10
65.733333333333334
 20
261.39999999999998
  0
LWPOLYLINE
  5
376
  8
P
 62
0
370
-1
  6
CONTINUOUS
100
AcDbEntity
100
AcDbPolyline
 90
2
 70
0
 10
65.733333333333334
 20
263.66666666666663
 10
65.733333333333334
 20
267.19999999999999
  0
LWPOLYLINE
  5
377
  8
P
 62
0
370
-1
  6
CONTINUOUS
100
AcDbEntity
100
AcDbPolyline
 90
2
 70
0
 10
65.733333333333334
 20
269.4666666666667
 10
65.733333333333334
 20
272.93333333333334
  0
LWPOLYLINE
  5
378
  8
P
 62
0
370
-1
  6
CONTINUOUS
100
AcDbEntity
100
AcDbPolyline
 90
2
 70
0
 10
65.733333333333334
 20
275.26666666666665
 10
65.733333333333334
 20
278.73333333333335
  0
LWPOLYLINE
  5
379
  8
P
 62
0
370
-1
  6
CONTINUOUS
100
AcDbEntity
100
AcDbPolyline
 90
2
 70
0
 10
65.733333333333334
 20
281.06666666666666
 10
65.733333333333334
 20
284.5333333333333
  0
LWPOLYLINE
  5
37A
  8
P
 62
0
370
-1
  6
CONTINUOUS
100
AcDbEntity
100
AcDbPolyline
 90
2
 70
0
 10
65.733333333333334
 20
286.80000000000001
 10
65.733333333333334
 20
289.93333333333334
  0
LWPOLYLINE
  5
37B
  8
P
 62
0
370
-1
  6
CONTINUOUS
100
AcDbEntity
100
AcDbPolyline
 90
2
 70
0
 10
186.86666666666667
 20
252.13333333333333
 10
186.86666666666667
 20
255.59999999999999
  0
LWPOLYLINE
  5
37C
  8
P
 62
0
370
-1
  6
CONTINUOUS
100
AcDbEntity
100
AcDbPolyline
 90
2
 70
0
 10
186.86666666666667
 20
257.93333333333334
 10
186.86666666666667
 20
261.39999999999998
  0
LWPOLYLINE
  5
37D
  8
P
 62
0
370
-1
  6
CONTINUOUS
100
AcDbEntity
100
AcDbPolyline
 90
2
 70
0
 10
186.86666666666667
 20
263.66666666666663
 10
186.86666666666667
 20
267.19999999999999
  0
LWPOLYLINE
  5
37E
  8
P
 62
0
370
-1
  6
CONTINUOUS
100
AcDbEntity
100
AcDbPolyline
 90
2
 70
0
 10
186.86666666666667
 20
269.4666666666667
 10
186.86666666666667
 20
272.93333333333334
  0
LWPOLYLINE
  5
37F
  8
P
 62
0
370
-1
  6
CONTINUOUS
100
AcDbEntity
100
AcDbPolyline
 90
2
 70
0
 10
186.86666666666667
 20
275.26666666666665
 10
186.86666666666667
 20
278.73333333333335
  0
LWPOLYLINE
  5
380
  8
P
 62
0
370
-1
  6
CONTINUOUS
100
AcDbEntity
100
AcDbPolyline
 90
2
 70
0
 10
186.86666666666667
 20
281.06666666666666
 10
186.86666666666667
 20
284.5333333333333
  0
LWPOLYLINE
  5
381
  8
P
 62
0
370
-1
  6
CONTINUOUS
100
AcDbEntity
100
AcDbPolyline
 90
2
 70
0
 10
186.86666666666667
 20
286.80000000000001
 10
186.86666666666667
 20
289.93333333333334
  0
LWPOLYLINE
  5
382
  8
P
 62
0
370
-1
  6
CONTINUOUS
100
AcDbEntity
100
AcDbPolyline
 90
2
 70
0
 10
189.93333333333334
 20
286.80000000000001
 10
186.53333333333333
 20
286.80000000000001
  0
LWPOLYLINE
  5
383
  8
P
 62
0
370
-1
  6
CONTINUOUS
100
AcDbEntity
100
AcDbPolyline
 90
2
 70
0
 10
184.19999999999999
 20
286.80000000000001
 10
180.73333333333332
 20
286.80000000000001
  0
LWPOLYLINE
  5
384
  8
P
 62
0
370
-1
  6
CONTINUOUS
100
AcDbEntity
100
AcDbPolyline
 90
2
 70
0
 10
178.40000000000001
 20
286.80000000000001
 10
174.93333333333334
 20
286.80000000000001
  0
LWPOLYLINE
  5
385
  8
P
 62
0
370
-1
  6
CONTINUOUS
100
AcDbEntity
100
AcDbPolyline
 90
2
 70
0
 10
172.59999999999999
 20
286.80000000000001
 10
169.13333333333333
 20
286.80000000000001
  0
LWPOLYLINE
  5
386
  8
P
 62
0
370
-1
  6
CONTINUOUS
100
AcDbEntity
100
AcDbPolyline
 90
2
 70
0
 10
166.86666666666667
 20
286.80000000000001
 10
163.40000000000001
 20
286.80000000000001
  0
LWPOLYLINE
  5
387
  8
P
 62
0
370
-1
  6
CONTINUOUS
100
AcDbEntity
100
AcDbPolyline
 90
2
 70
0
 10
161.06666666666666
 20
286.80000000000001
 10
157.59999999999999
 20
286.80000000000001
  0
LWPOLYLINE
  5
388
  8
P
 62
0
370
-1
  6
CONTINUOUS
100
AcDbEntity
100
AcDbPolyline
 90
2
 70
0
 10
155.26666666666668
 20
286.80000000000001
 10
151.80000000000001
 20
286.80000000000001
  0
LWPOLYLINE
  5
389
  8
P
 62
0
370
-1
  6
CONTINUOUS
100
AcDbEntity
100
AcDbPolyline
 90
2
 70
0
 10
149.53333333333333
 20
286.80000000000001
 10
146.06666666666666
 20
286.80000000000001
  0
LWPOLYLINE
  5
38A
  8
P
 62
0
370
-1
  6
CONTINUOUS
100
AcDbEntity
100
AcDbPolyline
 90
2
 70
0
 10
143.73333333333332
 20
286.80000000000001
 10
140.26666666666668
 20
286.80000000000001
  0
LWPOLYLINE
  5
38B
  8
P
 62
0
370
-1
  6
CONTINUOUS
100
AcDbEntity
100
AcDbPolyline
 90
2
 70
0
 10
137.93333333333334
 20
286.80000000000001
 10
134.46666666666667
 20
286.80000000000001
  0
LWPOLYLINE
  5
38C
  8
P
 62
0
370
-1
  6
CONTINUOUS
100
AcDbEntity
100
AcDbPolyline
 90
2
 70
0
 10
132.19999999999999
 20
286.80000000000001
 10
128.73333333333332
 20
286.80000000000001
  0
LWPOLYLINE
  5
38D
  8
P
 62
0
370
-1
  6
CONTINUOUS
100
AcDbEntity
100
AcDbPolyline
 90
2
 70
0
 10
126.40000000000001
 20
286.80000000000001
 10
122.93333333333334
 20
286.80000000000001
  0
LWPOLYLINE
  5
38E
  8
P
 62
0
370
-1
  6
CONTINUOUS
100
AcDbEntity
100
AcDbPolyline
 90
2
 70
0
 10
120.59999999999999
 20
286.80000000000001
 10
117.13333333333334
 20
286.80000000000001
  0
LWPOLYLINE
  5
38F
  8
P
 62
0
370
-1
  6
CONTINUOUS
100
AcDbEntity
100
AcDbPolyline
 90
2
 70
0
 10
114.86666666666666
 20
286.80000000000001
 10
111.40000000000001
 20
286.80000000000001
  0
LWPOLYLINE
  5
390
  8
P
 62
0
370
-1
  6
CONTINUOUS
100
AcDbEntity
100
AcDbPolyline
 90
2
 70
0
 10
109.06666666666666
 20
286.80000000000001
 10
105.59999999999999
 20
286.80000000000001
  0
LWPOLYLINE
  5
391
  8
P
 62
0
370
-1
  6
CONTINUOUS
100
AcDbEntity
100
AcDbPolyline
 90
2
 70
0
 10
103.26666666666667
 20
286.80000000000001
 10
99.799999999999997
 20
286.80000000000001
  0
LWPOLYLINE
  5
392
  8
P
 62
0
370
-1
  6
CONTINUOUS
100
AcDbEntity
100
AcDbPolyline
 90
2
 70
0
 10
97.533333333333331
 20
286.80000000000001
 10
94.0
 20
286.80000000000001
  0
LWPOLYLINE
  5
393
  8
P
 62
0
370
-1
  6
CONTINUOUS
100
AcDbEntity
100
AcDbPolyline
 90
2
 70
0
 10
91.733333333333334
 20
286.80000000000001
 10
88.266666666666666
 20
286.80000000000001
  0
LWPOLYLINE
  5
394
  8
P
 62
0
370
-1
  6
CONTINUOUS
100
AcDbEntity
100
AcDbPolyline
 90
2
 70
0
 10
85.933333333333337
 20
286.80000000000001
 10
82.466666666666669
 20
286.80000000000001
  0
LWPOLYLINE
  5
395
  8
P
 62
0
370
-1
  6
CONTINUOUS
100
AcDbEntity
100
AcDbPolyline
 90
2
 70
0
 10
80.13333333333334
 20
286.80000000000001
 10
76.733333333333334
 20
286.80000000000001
  0
LWPOLYLINE
  5
396
  8
P
 62
0
370
-1
  6
CONTINUOUS
100
AcDbEntity
100
AcDbPolyline
 90
2
 70
0
 10
74.400000000000006
 20
286.80000000000001
 10
70.933333333333337
 20
286.80000000000001
  0
LWPOLYLINE
  5
397
  8
P
 62
0
370
-1
  6
CONTINUOUS
100
AcDbEntity
100
AcDbPolyline
 90
2
 70
0
 10
68.599999999999994
 20
286.80000000000001
 10
65.13333333333334
 20
286.80000000000001
  0
LWPOLYLINE
  5
398
  8
P
 62
0
370
-1
  6
CONTINUOUS
100
AcDbEntity
100
AcDbPolyline
 90
2
 70
0
 10
88.799999999999997
 20
255.13333333333333
 10
65.733333333333334
 20
255.13333333333333
  0
LWPOLYLINE
  5
399
  8
P
 62
0
370
-1
  6
CONTINUOUS
100
AcDbEntity
100
AcDbPolyline
 90
2
 70
0
 10
186.86666666666667
 20
255.13333333333333
 10
172.0
 20
255.13333333333333
  0
LWPOLYLINE
  5
39A
  8
P
 62
0
370
-1
  6
CONTINUOUS
100
AcDbEntity
100
AcDbPolyline
 90
2
 70
0
 10
111.93333333333334
 20
255.13333333333333
 10
109.46666666666667
 20
257.60000000000002
  0
LWPOLYLINE
  5
39B
  8
P
 62
0
370
-1
  6
CONTINUOUS
100
AcDbEntity
100
AcDbPolyline
 90
2
 70
0
 10
107.8
 20
259.19999999999999
 10
105.33333333333333
 20
261.66666666666663
  0
LWPOLYLINE
  5
39C
  8
P
 62
0
370
-1
  6
CONTINUOUS
100
AcDbEntity
100
AcDbPolyline
 90
2
 70
0
 10
103.73333333333333
 20
263.26666666666665
 10
101.26666666666667
 20
265.73333333333335
  0
LWPOLYLINE
  5
39D
  8
P
 62
0
370
-1
  6
CONTINUOUS
100
AcDbEntity
100
AcDbPolyline
 90
2
 70
0
 10
99.666666666666671
 20
267.39999999999998
 10
97.200000000000003
 20
269.80000000000001
  0
LWPOLYLINE
  5
39E
  8
P
 62
0
370
-1
  6
CONTINUOUS
100
AcDbEntity
100
AcDbPolyline
 90
2
 70
0
 10
95.599999999999994
 20
271.4666666666667
 10
93.066666666666663
 20
273.93333333333334
  0
LWPOLYLINE
  5
39F
  8
P
 62
0
370
-1
  6
CONTINUOUS
100
AcDbEntity
100
AcDbPolyline
 90
2
 70
0
 10
91.466666666666669
 20
275.5333333333333
 10
91.13333333333334
 20
275.93333333333334
  0
LWPOLYLINE
  5
3A0
  8
P
 62
0
370
-1
  6
CONTINUOUS
100
AcDbEntity
100
AcDbPolyline
 90
2
 70
0
 10
102.66666666666667
 20
252.80000000000001
 10
102.66666666666667
 20
256.26666666666665
  0
LWPOLYLINE
  5
3A1
  8
P
 62
0
370
-1
  6
CONTINUOUS
100
AcDbEntity
100
AcDbPolyline
 90
2
 70
0
 10
102.66666666666667
 20
258.60000000000002
 10
102.66666666666667
 20
262.06666666666666
  0
LWPOLYLINE
  5
3A2
  8
P
 62
0
370
-1
  6
CONTINUOUS
100
AcDbEntity
100
AcDbPolyline
 90
2
 70
0
 10
102.66666666666667
 20
264.39999999999998
 10
102.66666666666667
 20
267.80000000000001
  0
LWPOLYLINE
  5
3A3
  8
P
 62
0
370
-1
  6
CONTINUOUS
100
AcDbEntity
100
AcDbPolyline
 90
2
 70
0
 10
102.66666666666667
 20
270.13333333333333
 10
102.66666666666667
 20
273.60000000000002
  0
LWPOLYLINE
  5
3A4
  8
P
 62
0
370
-1
  6
CONTINUOUS
100
AcDbEntity
100
AcDbPolyline
 90
2
 70
0
 10
137.33333333333334
 20
252.80000000000001
 10
137.33333333333334
 20
256.26666666666665
  0
LWPOLYLINE
  5
3A5
  8
P
 62
0
370
-1
  6
CONTINUOUS
100
AcDbEntity
100
AcDbPolyline
 90
2
 70
0
 10
137.33333333333334
 20
258.60000000000002
 10
137.33333333333334
 20
262.06666666666666
  0
LWPOLYLINE
  5
3A6
  8
P
 62
0
370
-1
  6
CONTINUOUS
100
AcDbEntity
100
AcDbPolyline
 90
2
 70
0
 10
137.33333333333334
 20
264.39999999999998
 10
137.33333333333334
 20
267.80000000000001
  0
LWPOLYLINE
  5
3A7
  8
P
 62
0
370
-1
  6
CONTINUOUS
100
AcDbEntity
100
AcDbPolyline
 90
2
 70
0
 10
137.33333333333334
 20
270.13333333333333
 10
137.33333333333334
 20
273.60000000000002
  0
LWPOLYLINE
  5
3A8
  8
P
 62
0
370
-1
  6
CONTINUOUS
100
AcDbEntity
100
AcDbPolyline
 90
2
 70
0
 10
256.86666666666667
 20
141.0
 10
256.86666666666667
 20
140.73333333333335
  0
LWPOLYLINE
  5
3A9
  8
P
 62
0
370
-1
  6
CONTINUOUS
100
AcDbEntity
100
AcDbPolyline
 90
2
 70
0
 10
256.86666666666667
 20
140.73333333333335
 10
256.66666666666669
 20
140.19999999999999
  0
LWPOLYLINE
  5
3AA
  8
P
 62
0
370
-1
  6
CONTINUOUS
100
AcDbEntity
100
AcDbPolyline
 90
2
 70
0
 10
256.66666666666669
 20
140.19999999999999
 10
256.46666666666664
 20
139.93333333333334
  0
LWPOLYLINE
  5
3AB
  8
P
 62
0
370
-1
  6
CONTINUOUS
100
AcDbEntity
100
AcDbPolyline
 90
2
 70
0
 10
256.46666666666664
 20
139.93333333333334
 10
256.0
 20
139.66666666666669
  0
LWPOLYLINE
  5
3AC
  8
P
 62
0
370
-1
  6
CONTINUOUS
100
AcDbEntity
100
AcDbPolyline
 90
2
 70
0
 10
256.0
 20
139.66666666666669
 10
255.06666666666666
 20
139.66666666666669
  0
LWPOLYLINE
  5
3AD
  8
P
 62
0
370
-1
  6
CONTINUOUS
100
AcDbEntity
100
AcDbPolyline
 90
2
 70
0
 10
255.06666666666666
 20
139.66666666666669
 10
254.59999999999999
 20
139.93333333333334
  0
LWPOLYLINE
  5
3AE
  8
P
 62
0
370
-1
  6
CONTINUOUS
100
AcDbEntity
100
AcDbPolyline
 90
2
 70
0
 10
254.59999999999999
 20
139.93333333333334
 10
254.33333333333334
 20
140.19999999999999
  0
LWPOLYLINE
  5
3AF
  8
P
 62
0
370
-1
  6
CONTINUOUS
100
AcDbEntity
100
AcDbPolyline
 90
2
 70
0
 10
254.33333333333334
 20
140.19999999999999
 10
254.13333333333333
 20
140.73333333333335
  0
LWPOLYLINE
  5
3B0
  8
P
 62
0
370
-1
  6
CONTINUOUS
100
AcDbEntity
100
AcDbPolyline
 90
2
 70
0
 10
254.13333333333333
 20
140.73333333333335
 10
254.13333333333333
 20
141.33333333333331
  0
LWPOLYLINE
  5
3B1
  8
P
 62
0
370
-1
  6
CONTINUOUS
100
AcDbEntity
100
AcDbPolyline
 90
2
 70
0
 10
254.13333333333333
 20
141.33333333333331
 10
254.33333333333334
 20
141.86666666666667
  0
LWPOLYLINE
  5
3B2
  8
P
 62
0
370
-1
  6
CONTINUOUS
100
AcDbEntity
100
AcDbPolyline
 90
2
 70
0
 10
254.33333333333334
 20
141.86666666666667
 10
254.80000000000001
 20
142.66666666666669
  0
LWPOLYLINE
  5
3B3
  8
P
 62
0
370
-1
  6
CONTINUOUS
100
AcDbEntity
100
AcDbPolyline
 90
2
 70
0
 10
254.80000000000001
 20
142.66666666666669
 10
257.13333333333333
 20
145.39999999999998
  0
LWPOLYLINE
  5
3B4
  8
P
 62
0
370
-1
  6
CONTINUOUS
100
AcDbEntity
100
AcDbPolyline
 90
2
 70
0
 10
257.13333333333333
 20
145.39999999999998
 10
253.86666666666667
 20
145.39999999999998
  0
LWPOLYLINE
  5
3B5
  8
P
 62
0
370
-1
  6
CONTINUOUS
100
AcDbEntity
100
AcDbPolyline
 90
2
 70
0
 10
250.80000000000001
 20
139.66666666666669
 10
251.46666666666667
 20
139.93333333333334
  0
LWPOLYLINE
  5
3B6
  8
P
 62
0
370
-1
  6
CONTINUOUS
100
AcDbEntity
100
AcDbPolyline
 90
2
 70
0
 10
251.46666666666667
 20
139.93333333333334
 10
251.93333333333334
 20
140.73333333333335
  0
LWPOLYLINE
  5
3B7
  8
P
 62
0
370
-1
  6
CONTINUOUS
100
AcDbEntity
100
AcDbPolyline
 90
2
 70
0
 10
251.93333333333334
 20
140.73333333333335
 10
252.19999999999999
 20
142.13333333333333
  0
LWPOLYLINE
  5
3B8
  8
P
 62
0
370
-1
  6
CONTINUOUS
100
AcDbEntity
100
AcDbPolyline
 90
2
 70
0
 10
252.19999999999999
 20
142.13333333333333
 10
252.19999999999999
 20
142.93333333333334
  0
LWPOLYLINE
  5
3B9
  8
P
 62
0
370
-1
  6
CONTINUOUS
100
AcDbEntity
100
AcDbPolyline
 90
2
 70
0
 10
252.19999999999999
 20
142.93333333333334
 10
251.93333333333334
 20
144.33333333333331
  0
LWPOLYLINE
  5
3BA
  8
P
 62
0
370
-1
  6
CONTINUOUS
100
AcDbEntity
100
AcDbPolyline
 90
2
 70
0
 10
251.93333333333334
 20
144.33333333333331
 10
251.46666666666667
 20
145.13333333333333
  0
LWPOLYLINE
  5
3BB
  8
P
 62
0
370
-1
  6
CONTINUOUS
100
AcDbEntity
100
AcDbPolyline
 90
2
 70
0
 10
251.46666666666667
 20
145.13333333333333
 10
250.80000000000001
 20
145.39999999999998
  0
LWPOLYLINE
  5
3BC
  8
P
 62
0
370
-1
  6
CONTINUOUS
100
AcDbEntity
100
AcDbPolyline
 90
2
 70
0
 10
250.80000000000001
 20
145.39999999999998
 10
250.33333333333334
 20
145.39999999999998
  0
LWPOLYLINE
  5
3BD
  8
P
 62
0
370
-1
  6
CONTINUOUS
100
AcDbEntity
100
AcDbPolyline
 90
2
 70
0
 10
250.33333333333334
 20
145.39999999999998
 10
249.66666666666666
 20
145.13333333333333
  0
LWPOLYLINE
  5
3BE
  8
P
 62
0
370
-1
  6
CONTINUOUS
100
AcDbEntity
100
AcDbPolyline
 90
2
 70
0
 10
249.66666666666666
 20
145.13333333333333
 10
249.19999999999999
 20
144.33333333333331
  0
LWPOLYLINE
  5
3BF
  8
P
 62
0
370
-1
  6
CONTINUOUS
100
AcDbEntity
100
AcDbPolyline
 90
2
 70
0
 10
249.19999999999999
 20
144.33333333333331
 10
248.93333333333334
 20
142.93333333333334
  0
LWPOLYLINE
  5
3C0
  8
P
 62
0
370
-1
  6
CONTINUOUS
100
AcDbEntity
100
AcDbPolyline
 90
2
 70
0
 10
248.93333333333334
 20
142.93333333333334
 10
248.93333333333334
 20
142.13333333333333
  0
LWPOLYLINE
  5
3C1
  8
P
 62
0
370
-1
  6
CONTINUOUS
100
AcDbEntity
100
AcDbPolyline
 90
2
 70
0
 10
248.93333333333334
 20
142.13333333333333
 10
249.19999999999999
 20
140.73333333333335
  0
LWPOLYLINE
  5
3C2
  8
P
 62
0
370
-1
  6
CONTINUOUS
100
AcDbEntity
100
AcDbPolyline
 90
2
 70
0
 10
249.19999999999999
 20
140.73333333333335
 10
249.66666666666666
 20
139.93333333333334
  0
LWPOLYLINE
  5
3C3
  8
P
 62
0
370
-1
  6
CONTINUOUS
100
AcDbEntity
100
AcDbPolyline
 90
2
 70
0
 10
249.66666666666666
 20
139.93333333333334
 10
250.33333333333334
 20
139.66666666666669
  0
LWPOLYLINE
  5
3C4
  8
P
 62
0
370
-1
  6
CONTINUOUS
100
AcDbEntity
100
AcDbPolyline
 90
2
 70
0
 10
250.33333333333334
 20
139.66666666666669
 10
250.80000000000001
 20
139.66666666666669
  0
LWPOLYLINE
  5
3C5
  8
P
 62
0
370
-1
  6
CONTINUOUS
100
AcDbEntity
100
AcDbPolyline
 90
2
 70
0
 10
245.80000000000001
 20
139.66666666666669
 10
246.53333333333333
 20
139.93333333333334
  0
LWPOLYLINE
  5
3C6
  8
P
 62
0
370
-1
  6
CONTINUOUS
100
AcDbEntity
100
AcDbPolyline
 90
2
 70
0
 10
246.53333333333333
 20
139.93333333333334
 10
247.0
 20
140.73333333333335
  0
LWPOLYLINE
  5
3C7
  8
P
 62
0
370
-1
  6
CONTINUOUS
100
AcDbEntity
100
AcDbPolyline
 90
2
 70
0
 10
247.0
 20
140.73333333333335
 10
247.19999999999999
 20
142.13333333333333
  0
LWPOLYLINE
  5
3C8
  8
P
 62
0
370
-1
  6
CONTINUOUS
100
AcDbEntity
100
AcDbPolyline
 90
2
 70
0
 10
247.19999999999999
 20
142.13333333333333
 10
247.19999999999999
 20
142.93333333333334
  0
LWPOLYLINE
  5
3C9
  8
P
 62
0
370
-1
  6
CONTINUOUS
100
AcDbEntity
100
AcDbPolyline
 90
2
 70
0
 10
247.19999999999999
 20
142.93333333333334
 10
247.0
 20
144.33333333333331
  0
LWPOLYLINE
  5
3CA
  8
P
 62
0
370
-1
  6
CONTINUOUS
100
AcDbEntity
100
AcDbPolyline
 90
2
 70
0
 10
247.0
 20
144.33333333333331
 10
246.53333333333333
 20
145.13333333333333
  0
LWPOLYLINE
  5
3CB
  8
P
 62
0
370
-1
  6
CONTINUOUS
100
AcDbEntity
100
AcDbPolyline
 90
2
 70
0
 10
246.53333333333333
 20
145.13333333333333
 10
245.80000000000001
 20
145.39999999999998
  0
LWPOLYLINE
  5
3CC
  8
P
 62
0
370
-1
  6
CONTINUOUS
100
AcDbEntity
100
AcDbPolyline
 90
2
 70
0
 10
245.80000000000001
 20
145.39999999999998
 10
245.40000000000001
 20
145.39999999999998
  0
LWPOLYLINE
  5
3CD
  8
P
 62
0
370
-1
  6
CONTINUOUS
100
AcDbEntity
100
AcDbPolyline
 90
2
 70
0
 10
245.40000000000001
 20
145.39999999999998
 10
244.66666666666666
 20
145.13333333333333
  0
LWPOLYLINE
  5
3CE
  8
P
 62
0
370
-1
  6
CONTINUOUS
100
AcDbEntity
100
AcDbPolyline
 90
2
 70
0
 10
244.66666666666666
 20
145.13333333333333
 10
244.19999999999999
 20
144.33333333333331
  0
LWPOLYLINE
  5
3CF
  8
P
 62
0
370
-1
  6
CONTINUOUS
100
AcDbEntity
100
AcDbPolyline
 90
2
 70
0
 10
244.19999999999999
 20
144.33333333333331
 10
244.0
 20
142.93333333333334
  0
LWPOLYLINE
  5
3D0
  8
P
 62
0
370
-1
  6
CONTINUOUS
100
AcDbEntity
100
AcDbPolyline
 90
2
 70
0
 10
244.0
 20
142.93333333333334
 10
244.0
 20
142.13333333333333
  0
LWPOLYLINE
  5
3D1
  8
P
 62
0
370
-1
  6
CONTINUOUS
100
AcDbEntity
100
AcDbPolyline
 90
2
 70
0
 10
244.0
 20
142.13333333333333
 10
244.19999999999999
 20
140.73333333333335
  0
LWPOLYLINE
  5
3D2
  8
P
 62
0
370
-1
  6
CONTINUOUS
100
AcDbEntity
100
AcDbPolyline
 90
2
 70
0
 10
244.19999999999999
 20
140.73333333333335
 10
244.66666666666666
 20
139.93333333333334
  0
LWPOLYLINE
  5
3D3
  8
P
 62
0
370
-1
  6
CONTINUOUS
100
AcDbEntity
100
AcDbPolyline
 90
2
 70
0
 10
244.66666666666666
 20
139.93333333333334
 10
245.40000000000001
 20
139.66666666666669
  0
LWPOLYLINE
  5
3D4
  8
P
 62
0
370
-1
  6
CONTINUOUS
100
AcDbEntity
100
AcDbPolyline
 90
2
 70
0
 10
245.40000000000001
 20
139.66666666666669
 10
245.80000000000001
 20
139.66666666666669
  0
LWPOLYLINE
  5
3D5
  8
P
 62
0
370
-1
  6
CONTINUOUS
100
AcDbEntity
100
AcDbPolyline
 90
2
 70
0
 10
154.46666666666667
 20
218.13333333333333
 10
151.40000000000001
 20
219.73333333333335
  0
LWPOLYLINE
  5
3D6
  8
P
 62
0
370
-1
  6
CONTINUOUS
100
AcDbEntity
100
AcDbPolyline
 90
2
 70
0
 10
149.40000000000001
 20
220.80000000000001
 10
146.33333333333334
 20
222.46666666666667
  0
LWPOLYLINE
  5
3D7
  8
P
 62
0
370
-1
  6
CONTINUOUS
100
AcDbEntity
100
AcDbPolyline
 90
2
 70
0
 10
144.26666666666668
 20
223.53333333333333
 10
141.19999999999999
 20
225.13333333333333
  0
LWPOLYLINE
  5
3D8
  8
P
 62
0
370
-1
  6
CONTINUOUS
100
AcDbEntity
100
AcDbPolyline
 90
2
 70
0
 10
139.13333333333333
 20
226.19999999999999
 10
136.06666666666666
 20
227.86666666666667
  0
LWPOLYLINE
  5
3D9
  8
P
 62
0
370
-1
  6
CONTINUOUS
100
AcDbEntity
100
AcDbPolyline
 90
2
 70
0
 10
134.06666666666666
 20
228.93333333333334
 10
131.0
 20
230.53333333333333
  0
LWPOLYLINE
  5
3DA
  8
P
 62
0
370
-1
  6
CONTINUOUS
100
AcDbEntity
100
AcDbPolyline
 90
2
 70
0
 10
128.93333333333334
 20
231.59999999999999
 10
125.86666666666666
 20
233.26666666666668
  0
LWPOLYLINE
  5
3DB
  8
P
 62
0
370
-1
  6
CONTINUOUS
100
AcDbEntity
100
AcDbPolyline
 90
2
 70
0
 10
123.8
 20
234.33333333333334
 10
120.73333333333333
 20
235.93333333333334
  0
LWPOLYLINE
  5
3DC
  8
P
 62
0
370
-1
  6
CONTINUOUS
100
AcDbEntity
100
AcDbPolyline
 90
2
 70
0
 10
118.73333333333333
 20
237.0
 10
115.59999999999999
 20
238.66666666666666
  0
LWPOLYLINE
  5
3DD
  8
P
 62
0
370
-1
  6
CONTINUOUS
100
AcDbEntity
100
AcDbPolyline
 90
2
 70
0
 10
113.59999999999999
 20
239.73333333333332
 10
110.53333333333333
 20
241.33333333333334
  0
LWPOLYLINE
  5
3DE
  8
P
 62
0
370
-1
  6
CONTINUOUS
100
AcDbEntity
100
AcDbPolyline
 90
2
 70
0
 10
108.46666666666667
 20
242.40000000000001
 10
105.40000000000001
 20
244.06666666666666
  0
LWPOLYLINE
  5
3DF
  8
P
 62
0
370
-1
  6
CONTINUOUS
100
AcDbEntity
100
AcDbPolyline
 90
2
 70
0
 10
103.40000000000001
 20
245.06666666666666
 10
100.33333333333333
 20
246.73333333333332
  0
LWPOLYLINE
  5
3E0
  8
P
 62
0
370
-1
  6
CONTINUOUS
100
AcDbEntity
100
AcDbPolyline
 90
2
 70
0
 10
169.66666666666666
 20
218.13333333333333
 10
166.19999999999999
 20
218.13333333333333
  0
LWPOLYLINE
  5
3E1
  8
P
 62
0
370
-1
  6
CONTINUOUS
100
AcDbEntity
100
AcDbPolyline
 90
2
 70
0
 10
163.86666666666667
 20
218.13333333333333
 10
160.46666666666667
 20
218.13333333333333
  0
LWPOLYLINE
  5
3E2
  8
P
 62
0
370
-1
  6
CONTINUOUS
100
AcDbEntity
100
AcDbPolyline
 90
2
 70
0
 10
158.13333333333333
 20
218.13333333333333
 10
154.66666666666666
 20
218.13333333333333
  0
LWPOLYLINE
  5
3E3
  8
P
 62
0
370
-1
  6
CONTINUOUS
100
AcDbEntity
100
AcDbPolyline
 90
2
 70
0
 10
172.0
 20
208.86666666666667
 10
172.0
 20
255.13333333333333
  0
LWPOLYLINE
  5
3E4
  8
P
 62
0
370
-1
  6
CONTINUOUS
100
AcDbEntity
100
AcDbPolyline
 90
2
 70
0
 10
169.66666666666666
 20
252.80000000000001
 10
88.799999999999997
 20
252.80000000000001
  0
LWPOLYLINE
  5
3E5
  8
P
 62
0
370
-1
  6
CONTINUOUS
100
AcDbEntity
100
AcDbPolyline
 90
2
 70
0
 10
172.0
 20
255.13333333333333
 10
91.13333333333334
 20
255.13333333333333
  0
LWPOLYLINE
  5
3E6
  8
P
 62
0
370
-1
  6
CONTINUOUS
100
AcDbEntity
100
AcDbPolyline
 90
2
 70
0
 10
169.66666666666666
 20
208.86666666666667
 10
169.66666666666666
 20
255.13333333333333
  0
LWPOLYLINE
  5
3E7
  8
P
 62
0
370
-1
  6
CONTINUOUS
100
AcDbEntity
100
AcDbPolyline
 90
2
 70
0
 10
172.0
 20
208.86666666666667
 10
169.66666666666666
 20
208.86666666666667
  0
LWPOLYLINE
  5
3E8
  8
P
 62
0
370
-1
  6
CONTINUOUS
100
AcDbEntity
100
AcDbPolyline
 90
2
 70
0
 10
88.799999999999997
 20
252.80000000000001
 10
88.799999999999997
 20
275.93333333333334
  0
LWPOLYLINE
  5
3E9
  8
P
 62
0
370
-1
  6
CONTINUOUS
100
AcDbEntity
100
AcDbPolyline
 90
2
 70
0
 10
91.13333333333334
 20
252.80000000000001
 10
91.13333333333334
 20
275.93333333333334
  0
LWPOLYLINE
  5
3EA
  8
P
 62
0
370
-1
  6
CONTINUOUS
100
AcDbEntity
100
AcDbPolyline
 90
2
 70
0
 10
91.13333333333334
 20
275.93333333333334
 10
88.799999999999997
 20
275.93333333333334
  0
LWPOLYLINE
  5
3EB
  8
P
 62
0
370
-1
  6
CONTINUOUS
100
AcDbEntity
100
AcDbPolyline
 90
2
 70
0
 10
172.0
 20
367.13333333333333
 10
91.13333333333334
 20
367.13333333333333
  0
LWPOLYLINE
  5
3EC
  8
P
 62
0
370
-1
  6
CONTINUOUS
100
AcDbEntity
100
AcDbPolyline
 90
2
 70
0
 10
172.0
 20
413.39999999999998
 10
91.13333333333334
 20
413.39999999999998
  0
LWPOLYLINE
  5
3ED
  8
P
 62
0
370
-1
  6
CONTINUOUS
100
AcDbEntity
100
AcDbPolyline
 90
2
 70
0
 10
91.13333333333334
 20
413.39999999999998
 10
91.13333333333334
 20
367.13333333333333
  0
LWPOLYLINE
  5
3EE
  8
P
 62
0
370
-1
  6
CONTINUOUS
100
AcDbEntity
100
AcDbPolyline
 90
2
 70
0
 10
88.799999999999997
 20
367.13333333333333
 10
88.799999999999997
 20
413.39999999999998
  0
LWPOLYLINE
  5
3EF
  8
P
 62
0
370
-1
  6
CONTINUOUS
100
AcDbEntity
100
AcDbPolyline
 90
2
 70
0
 10
88.799999999999997
 20
413.39999999999998
 10
91.13333333333334
 20
413.39999999999998
  0
LWPOLYLINE
  5
3F0
  8
P
 62
0
370
-1
  6
CONTINUOUS
100
AcDbEntity
100
AcDbPolyline
 90
2
 70
0
 10
91.13333333333334
 20
367.13333333333333
 10
88.799999999999997
 20
367.13333333333333
  0
LWPOLYLINE
  5
3F1
  8
P
 62
0
370
-1
  6
CONTINUOUS
100
AcDbEntity
100
AcDbPolyline
 90
2
 70
0
 10
169.66666666666666
 20
391.39999999999998
 10
100.33333333333333
 20
391.39999999999998
  0
LWPOLYLINE
  5
3F2
  8
P
 62
0
370
-1
  6
CONTINUOUS
100
AcDbEntity
100
AcDbPolyline
 90
2
 70
0
 10
169.66666666666666
 20
389.13333333333333
 10
100.33333333333333
 20
389.13333333333333
  0
LWPOLYLINE
  5
3F3
  8
P
 62
0
370
-1
  6
CONTINUOUS
100
AcDbEntity
100
AcDbPolyline
 90
2
 70
0
 10
100.33333333333333
 20
389.13333333333333
 10
100.33333333333333
 20
391.39999999999998
  0
LWPOLYLINE
  5
3F4
  8
P
 62
0
370
-1
  6
CONTINUOUS
100
AcDbEntity
100
AcDbPolyline
 90
2
 70
0
 10
273.66666666666669
 20
252.80000000000001
 10
273.66666666666669
 20
275.93333333333334
  0
LWPOLYLINE
  5
3F5
  8
P
 62
0
370
-1
  6
CONTINUOUS
100
AcDbEntity
100
AcDbPolyline
 90
2
 70
0
 10
227.46666666666667
 20
252.80000000000001
 10
227.46666666666667
 20
275.93333333333334
  0
LWPOLYLINE
  5
3F6
  8
P
 62
0
370
-1
  6
CONTINUOUS
100
AcDbEntity
100
AcDbPolyline
 90
2
 70
0
 10
227.46666666666667
 20
275.93333333333334
 10
273.66666666666669
 20
275.93333333333334
  0
LWPOLYLINE
  5
3F7
  8
P
 62
0
370
-1
  6
CONTINUOUS
100
AcDbEntity
100
AcDbPolyline
 90
2
 70
0
 10
273.66666666666669
 20
252.80000000000001
 10
227.46666666666667
 20
252.80000000000001
  0
LWPOLYLINE
  5
3F8
  8
P
 62
0
370
-1
  6
CONTINUOUS
100
AcDbEntity
100
AcDbPolyline
 90
2
 70
0
 10
273.66666666666669
 20
208.86666666666667
 10
227.46666666666667
 20
208.86666666666667
  0
LWPOLYLINE
  5
3F9
  8
P
 62
0
370
-1
  6
CONTINUOUS
100
AcDbEntity
100
AcDbPolyline
 90
2
 70
0
 10
102.66666666666667
 20
406.4666666666667
 10
101.33333333333333
 20
406.0
  0
LWPOLYLINE
  5
3FA
  8
P
 62
0
370
-1
  6
CONTINUOUS
100
AcDbEntity
100
AcDbPolyline
 90
2
 70
0
 10
101.33333333333333
 20
406.0
 10
100.46666666666667
 20
404.86666666666667
  0
LWPOLYLINE
  5
3FB
  8
P
 62
0
370
-1
  6
CONTINUOUS
100
AcDbEntity
100
AcDbPolyline
 90
2
 70
0
 10
100.46666666666667
 20
404.86666666666667
 10
100.46666666666667
 20
403.39999999999998
  0
LWPOLYLINE
  5
3FC
  8
P
 62
0
370
-1
  6
CONTINUOUS
100
AcDbEntity
100
AcDbPolyline
 90
2
 70
0
 10
100.46666666666667
 20
403.39999999999998
 10
101.33333333333333
 20
402.26666666666665
  0
LWPOLYLINE
  5
3FD
  8
P
 62
0
370
-1
  6
CONTINUOUS
100
AcDbEntity
100
AcDbPolyline
 90
2
 70
0
 10
101.33333333333333
 20
402.26666666666665
 10
102.66666666666667
 20
401.86666666666667
  0
LWPOLYLINE
  5
3FE
  8
P
 62
0
370
-1
  6
CONTINUOUS
100
AcDbEntity
100
AcDbPolyline
 90
2
 70
0
 10
102.66666666666667
 20
401.86666666666667
 10
104.0
 20
402.26666666666665
  0
LWPOLYLINE
  5
3FF
  8
P
 62
0
370
-1
  6
CONTINUOUS
100
AcDbEntity
100
AcDbPolyline
 90
2
 70
0
 10
104.0
 20
402.26666666666665
 10
104.86666666666666
 20
403.39999999999998
  0
LWPOLYLINE
  5
400
  8
P
 62
0
370
-1
  6
CONTINUOUS
100
AcDbEntity
100
AcDbPolyline
 90
2
 70
0
 10
104.86666666666666
 20
403.39999999999998
 10
104.86666666666666
 20
404.86666666666667
  0
LWPOLYLINE
  5
401
  8
P
 62
0
370
-1
  6
CONTINUOUS
100
AcDbEntity
100
AcDbPolyline
 90
2
 70
0
 10
104.86666666666666
 20
404.86666666666667
 10
104.0
 20
406.0
  0
LWPOLYLINE
  5
402
  8
P
 62
0
370
-1
  6
CONTINUOUS
100
AcDbEntity
100
AcDbPolyline
 90
2
 70
0
 10
104.0
 20
406.0
 10
102.66666666666667
 20
406.4666666666667
  0
LWPOLYLINE
  5
403
  8
P
 62
0
370
-1
  6
CONTINUOUS
100
AcDbEntity
100
AcDbPolyline
 90
2
 70
0
 10
172.0
 20
367.13333333333333
 10
172.0
 20
413.39999999999998
  0
LWPOLYLINE
  5
404
  8
P
 62
0
370
-1
  6
CONTINUOUS
100
AcDbEntity
100
AcDbPolyline
 90
2
 70
0
 10
169.66666666666666
 20
367.13333333333333
 10
169.66666666666666
 20
413.39999999999998
  0
LWPOLYLINE
  5
405
  8
P
 62
0
370
-1
  6
CONTINUOUS
100
AcDbEntity
100
AcDbPolyline
 90
2
 70
0
 10
137.33333333333334
 20
406.4666666666667
 10
135.93333333333334
 20
406.0
  0
LWPOLYLINE
  5
406
  8
P
 62
0
370
-1
  6
CONTINUOUS
100
AcDbEntity
100
AcDbPolyline
 90
2
 70
0
 10
135.93333333333334
 20
406.0
 10
135.13333333333333
 20
404.86666666666667
  0
LWPOLYLINE
  5
407
  8
P
 62
0
370
-1
  6
CONTINUOUS
100
AcDbEntity
100
AcDbPolyline
 90
2
 70
0
 10
135.13333333333333
 20
404.86666666666667
 10
135.13333333333333
 20
403.39999999999998
  0
LWPOLYLINE
  5
408
  8
P
 62
0
370
-1
  6
CONTINUOUS
100
AcDbEntity
100
AcDbPolyline
 90
2
 70
0
 10
135.13333333333333
 20
403.39999999999998
 10
135.93333333333334
 20
402.26666666666665
  0
LWPOLYLINE
  5
409
  8
P
 62
0
370
-1
  6
CONTINUOUS
100
AcDbEntity
100
AcDbPolyline
 90
2
 70
0
 10
135.93333333333334
 20
402.26666666666665
 10
137.33333333333334
 20
401.86666666666667
  0
LWPOLYLINE
  5
40A
  8
P
 62
0
370
-1
  6
CONTINUOUS
100
AcDbEntity
100
AcDbPolyline
 90
2
 70
0
 10
137.33333333333334
 20
401.86666666666667
 10
138.66666666666666
 20
402.26666666666665
  0
LWPOLYLINE
  5
40B
  8
P
 62
0
370
-1
  6
CONTINUOUS
100
AcDbEntity
100
AcDbPolyline
 90
2
 70
0
 10
138.66666666666666
 20
402.26666666666665
 10
139.53333333333333
 20
403.39999999999998
  0
LWPOLYLINE
  5
40C
  8
P
 62
0
370
-1
  6
CONTINUOUS
100
AcDbEntity
100
AcDbPolyline
 90
2
 70
0
 10
139.53333333333333
 20
403.39999999999998
 10
139.53333333333333
 20
404.86666666666667
  0
LWPOLYLINE
  5
40D
  8
P
 62
0
370
-1
  6
CONTINUOUS
100
AcDbEntity
100
AcDbPolyline
 90
2
 70
0
 10
139.53333333333333
 20
404.86666666666667
 10
138.66666666666666
 20
406.0
  0
LWPOLYLINE
  5
40E
  8
P
 62
0
370
-1
  6
CONTINUOUS
100
AcDbEntity
100
AcDbPolyline
 90
2
 70
0
 10
138.66666666666666
 20
406.0
 10
137.33333333333334
 20
406.4666666666667
  0
LWPOLYLINE
  5
40F
  8
P
 62
0
370
-1
  6
CONTINUOUS
100
AcDbEntity
100
AcDbPolyline
 90
2
 70
0
 10
227.46666666666667
 20
208.86666666666667
 10
227.46666666666667
 20
252.80000000000001
  0
LWPOLYLINE
  5
410
  8
P
 62
0
370
-1
  6
CONTINUOUS
100
AcDbEntity
100
AcDbPolyline
 90
2
 70
0
 10
273.66666666666669
 20
208.86666666666667
 10
273.66666666666669
 20
252.80000000000001
  0
LWPOLYLINE
  5
411
  8
P
 62
0
370
-1
  6
CONTINUOUS
100
AcDbEntity
100
AcDbPolyline
 90
2
 70
0
 10
249.40000000000001
 20
218.13333333333333
 10
249.40000000000001
 20
252.80000000000001
  0
LWPOLYLINE
  5
412
  8
P
 62
0
370
-1
  6
CONTINUOUS
100
AcDbEntity
100
AcDbPolyline
 90
2
 70
0
 10
251.73333333333332
 20
218.13333333333333
 10
251.73333333333332
 20
252.80000000000001
  0
LWPOLYLINE
  5
413
  8
P
 62
0
370
-1
  6
CONTINUOUS
100
AcDbEntity
100
AcDbPolyline
 90
2
 70
0
 10
251.73333333333332
 20
241.26666666666668
 10
249.40000000000001
 20
241.26666666666668
  0
LWPOLYLINE
  5
414
  8
P
 62
0
370
-1
  6
CONTINUOUS
100
AcDbEntity
100
AcDbPolyline
 90
2
 70
0
 10
170.26666666666668
 20
437.60000000000002
 10
173.73333333333332
 20
441.13333333333333
  0
LWPOLYLINE
  5
415
  8
P
 62
0
370
-1
  6
CONTINUOUS
100
AcDbEntity
100
AcDbPolyline
 90
2
 70
0
 10
167.93333333333334
 20
437.60000000000002
 10
171.40000000000001
 20
441.13333333333333
  0
LWPOLYLINE
  5
416
  8
P
 62
0
370
-1
  6
CONTINUOUS
100
AcDbEntity
100
AcDbPolyline
 90
2
 70
0
 10
89.400000000000006
 20
437.60000000000002
 10
92.799999999999997
 20
441.13333333333333
  0
LWPOLYLINE
  5
417
  8
P
 62
0
370
-1
  6
CONTINUOUS
100
AcDbEntity
100
AcDbPolyline
 90
2
 70
0
 10
87.066666666666663
 20
437.60000000000002
 10
90.533333333333331
 20
441.13333333333333
  0
LWPOLYLINE
  5
418
  8
P
 62
0
370
-1
  6
CONTINUOUS
100
AcDbEntity
100
AcDbPolyline
 90
2
 70
0
 10
272.0
 20
163.33333333333331
 10
275.39999999999998
 20
166.80000000000001
  0
LWPOLYLINE
  5
419
  8
P
 62
0
370
-1
  6
CONTINUOUS
100
AcDbEntity
100
AcDbPolyline
 90
2
 70
0
 10
272.0
 20
146.0
 10
275.39999999999998
 20
149.46666666666664
  0
LWPOLYLINE
  5
41A
  8
P
 62
0
370
-1
  6
CONTINUOUS
100
AcDbEntity
100
AcDbPolyline
 90
2
 70
0
 10
250.0
 20
163.33333333333331
 10
253.46666666666667
 20
166.80000000000001
  0
LWPOLYLINE
  5
41B
  8
P
 62
0
370
-1
  6
CONTINUOUS
100
AcDbEntity
100
AcDbPolyline
 90
2
 70
0
 10
247.73333333333332
 20
163.33333333333331
 10
251.13333333333333
 20
166.80000000000001
  0
LWPOLYLINE
  5
41C
  8
P
 62
0
370
-1
  6
CONTINUOUS
100
AcDbEntity
100
AcDbPolyline
 90
2
 70
0
 10
225.73333333333332
 20
163.33333333333331
 10
229.19999999999999
 20
166.80000000000001
  0
LWPOLYLINE
  5
41D
  8
P
 62
0
370
-1
  6
CONTINUOUS
100
AcDbEntity
100
AcDbPolyline
 90
2
 70
0
 10
225.73333333333332
 20
146.0
 10
229.19999999999999
 20
149.46666666666664
  0
LWPOLYLINE
  5
41E
  8
P
 62
0
370
-1
  6
CONTINUOUS
100
AcDbEntity
100
AcDbPolyline
 90
2
 70
0
 10
206.46666666666667
 20
251.06666666666666
 10
203.0
 20
254.53333333333333
  0
LWPOLYLINE
  5
41F
  8
P
 62
0
370
-1
  6
CONTINUOUS
100
AcDbEntity
100
AcDbPolyline
 90
2
 70
0
 10
206.46666666666667
 20
274.19999999999999
 10
203.0
 20
277.66666666666663
  0
LWPOLYLINE
  5
420
  8
P
 62
0
370
-1
  6
CONTINUOUS
100
AcDbEntity
100
AcDbPolyline
 90
2
 70
0
 10
305.60000000000002
 20
207.13333333333333
 10
302.13333333333333
 20
210.60000000000002
  0
LWPOLYLINE
  5
421
  8
P
 62
0
370
-1
  6
CONTINUOUS
100
AcDbEntity
100
AcDbPolyline
 90
2
 70
0
 10
305.60000000000002
 20
253.40000000000001
 10
302.13333333333333
 20
256.86666666666667
  0
LWPOLYLINE
  5
422
  8
P
 62
0
370
-1
  6
CONTINUOUS
100
AcDbEntity
100
AcDbPolyline
 90
2
 70
0
 10
251.73333333333332
 20
218.13333333333333
 10
249.40000000000001
 20
218.13333333333333
  0
LWPOLYLINE
  5
423
  8
P
 62
0
370
-1
  6
CONTINUOUS
100
AcDbEntity
100
AcDbPolyline
 90
2
 70
0
 10
102.66666666666667
 20
378.73333333333335
 10
101.33333333333333
 20
378.26666666666665
  0
LWPOLYLINE
  5
424
  8
P
 62
0
370
-1
  6
CONTINUOUS
100
AcDbEntity
100
AcDbPolyline
 90
2
 70
0
 10
101.33333333333333
 20
378.26666666666665
 10
100.46666666666667
 20
377.13333333333333
  0
LWPOLYLINE
  5
425
  8
P
 62
0
370
-1
  6
CONTINUOUS
100
AcDbEntity
100
AcDbPolyline
 90
2
 70
0
 10
100.46666666666667
 20
377.13333333333333
 10
100.46666666666667
 20
375.66666666666669
  0
LWPOLYLINE
  5
426
  8
P
 62
0
370
-1
  6
CONTINUOUS
100
AcDbEntity
100
AcDbPolyline
 90
2
 70
0
 10
100.46666666666667
 20
375.66666666666669
 10
101.33333333333333
 20
374.5333333333333
  0
LWPOLYLINE
  5
427
  8
P
 62
0
370
-1
  6
CONTINUOUS
100
AcDbEntity
100
AcDbPolyline
 90
2
 70
0
 10
101.33333333333333
 20
374.5333333333333
 10
102.66666666666667
 20
374.06666666666666
  0
LWPOLYLINE
  5
428
  8
P
 62
0
370
-1
  6
CONTINUOUS
100
AcDbEntity
100
AcDbPolyline
 90
2
 70
0
 10
102.66666666666667
 20
374.06666666666666
 10
104.0
 20
374.5333333333333
  0
LWPOLYLINE
  5
429
  8
P
 62
0
370
-1
  6
CONTINUOUS
100
AcDbEntity
100
AcDbPolyline
 90
2
 70
0
 10
104.0
 20
374.5333333333333
 10
104.86666666666666
 20
375.66666666666669
  0
LWPOLYLINE
  5
42A
  8
P
 62
0
370
-1
  6
CONTINUOUS
100
AcDbEntity
100
AcDbPolyline
 90
2
 70
0
 10
104.86666666666666
 20
375.66666666666669
 10
104.86666666666666
 20
377.13333333333333
  0
LWPOLYLINE
  5
42B
  8
P
 62
0
370
-1
  6
CONTINUOUS
100
AcDbEntity
100
AcDbPolyline
 90
2
 70
0
 10
104.86666666666666
 20
377.13333333333333
 10
104.0
 20
378.26666666666665
  0
LWPOLYLINE
  5
42C
  8
P
 62
0
370
-1
  6
CONTINUOUS
100
AcDbEntity
100
AcDbPolyline
 90
2
 70
0
 10
104.0
 20
378.26666666666665
 10
102.66666666666667
 20
378.73333333333335
  0
LWPOLYLINE
  5
42D
  8
P
 62
0
370
-1
  6
CONTINUOUS
100
AcDbEntity
100
AcDbPolyline
 90
2
 70
0
 10
137.33333333333334
 20
378.73333333333335
 10
135.93333333333334
 20
378.26666666666665
  0
LWPOLYLINE
  5
42E
  8
P
 62
0
370
-1
  6
CONTINUOUS
100
AcDbEntity
100
AcDbPolyline
 90
2
 70
0
 10
135.93333333333334
 20
378.26666666666665
 10
135.13333333333333
 20
377.13333333333333
  0
LWPOLYLINE
  5
42F
  8
P
 62
0
370
-1
  6
CONTINUOUS
100
AcDbEntity
100
AcDbPolyline
 90
2
 70
0
 10
135.13333333333333
 20
377.13333333333333
 10
135.13333333333333
 20
375.66666666666669
  0
LWPOLYLINE
  5
430
  8
P
 62
0
370
-1
  6
CONTINUOUS
100
AcDbEntity
100
AcDbPolyline
 90
2
 70
0
 10
135.13333333333333
 20
375.66666666666669
 10
135.93333333333334
 20
374.5333333333333
  0
LWPOLYLINE
  5
431
  8
P
 62
0
370
-1
  6
CONTINUOUS
100
AcDbEntity
100
AcDbPolyline
 90
2
 70
0
 10
135.93333333333334
 20
374.5333333333333
 10
137.33333333333334
 20
374.06666666666666
  0
LWPOLYLINE
  5
432
  8
P
 62
0
370
-1
  6
CONTINUOUS
100
AcDbEntity
100
AcDbPolyline
 90
2
 70
0
 10
137.33333333333334
 20
374.06666666666666
 10
138.66666666666666
 20
374.5333333333333
  0
LWPOLYLINE
  5
433
  8
P
 62
0
370
-1
  6
CONTINUOUS
100
AcDbEntity
100
AcDbPolyline
 90
2
 70
0
 10
138.66666666666666
 20
374.5333333333333
 10
139.53333333333333
 20
375.66666666666669
  0
LWPOLYLINE
  5
434
  8
P
 62
0
370
-1
  6
CONTINUOUS
100
AcDbEntity
100
AcDbPolyline
 90
2
 70
0
 10
139.53333333333333
 20
375.66666666666669
 10
139.53333333333333
 20
377.13333333333333
  0
LWPOLYLINE
  5
435
  8
P
 62
0
370
-1
  6
CONTINUOUS
100
AcDbEntity
100
AcDbPolyline
 90
2
 70
0
 10
139.53333333333333
 20
377.13333333333333
 10
138.66666666666666
 20
378.26666666666665
  0
LWPOLYLINE
  5
436
  8
P
 62
0
370
-1
  6
CONTINUOUS
100
AcDbEntity
100
AcDbPolyline
 90
2
 70
0
 10
138.66666666666666
 20
378.26666666666665
 10
137.33333333333334
 20
378.73333333333335
  0
LWPOLYLINE
  5
437
  8
P
 62
0
370
-1
  6
CONTINUOUS
100
AcDbEntity
100
AcDbPolyline
 90
2
 70
0
 10
167.93333333333334
 20
344.13333333333333
 10
171.40000000000001
 20
347.60000000000002
  0
LWPOLYLINE
  5
438
  8
P
 62
0
370
-1
  6
CONTINUOUS
100
AcDbEntity
100
AcDbPolyline
 90
2
 70
0
 10
135.59999999999999
 20
344.13333333333333
 10
139.06666666666666
 20
347.60000000000002
  0
LWPOLYLINE
  5
439
  8
P
 62
0
370
-1
  6
CONTINUOUS
100
AcDbEntity
100
AcDbPolyline
 90
2
 70
0
 10
100.93333333333334
 20
344.13333333333333
 10
104.40000000000001
 20
347.60000000000002
  0
LWPOLYLINE
  5
43A
  8
P
 62
0
370
-1
  6
CONTINUOUS
100
AcDbEntity
100
AcDbPolyline
 90
2
 70
0
 10
89.400000000000006
 20
344.13333333333333
 10
92.799999999999997
 20
347.60000000000002
  0
LWPOLYLINE
  5
43B
  8
P
 62
0
370
-1
  6
CONTINUOUS
100
AcDbEntity
100
AcDbPolyline
 90
2
 70
0
 10
66.400000000000006
 20
365.39999999999998
 10
62.93333333333333
 20
368.86666666666667
  0
LWPOLYLINE
  5
43C
  8
P
 62
0
370
-1
  6
CONTINUOUS
100
AcDbEntity
100
AcDbPolyline
 90
2
 70
0
 10
66.400000000000006
 20
374.66666666666669
 10
62.93333333333333
 20
378.13333333333333
  0
LWPOLYLINE
  5
43D
  8
P
 62
0
370
-1
  6
CONTINUOUS
100
AcDbEntity
100
AcDbPolyline
 90
2
 70
0
 10
66.400000000000006
 20
402.39999999999998
 10
62.93333333333333
 20
405.86666666666667
  0
LWPOLYLINE
  5
43E
  8
P
 62
0
370
-1
  6
CONTINUOUS
100
AcDbEntity
100
AcDbPolyline
 90
2
 70
0
 10
66.400000000000006
 20
411.66666666666669
 10
62.93333333333333
 20
415.13333333333333
  0
LWPOLYLINE
  5
43F
  8
P
 62
0
370
-1
  6
CONTINUOUS
100
AcDbEntity
100
AcDbPolyline
 90
2
 70
0
 10
110.13333333333334
 20
307.13333333333333
 10
113.66666666666667
 20
310.60000000000002
  0
LWPOLYLINE
  5
440
  8
P
 62
0
370
-1
  6
CONTINUOUS
100
AcDbEntity
100
AcDbPolyline
 90
2
 70
0
 10
89.400000000000006
 20
307.13333333333333
 10
92.799999999999997
 20
310.60000000000002
  0
LWPOLYLINE
  5
441
  8
P
 62
0
370
-1
  6
CONTINUOUS
100
AcDbEntity
100
AcDbPolyline
 90
2
 70
0
 10
167.93333333333334
 20
144.0
 10
171.40000000000001
 20
147.46666666666664
  0
LWPOLYLINE
  5
442
  8
P
 62
0
370
-1
  6
CONTINUOUS
100
AcDbEntity
100
AcDbPolyline
 90
2
 70
0
 10
152.73333333333332
 20
144.0
 10
156.19999999999999
 20
147.46666666666664
  0
LWPOLYLINE
  5
443
  8
P
 62
0
370
-1
  6
CONTINUOUS
100
AcDbEntity
100
AcDbPolyline
 90
2
 70
0
 10
98.599999999999994
 20
144.0
 10
102.06666666666666
 20
147.46666666666664
  0
LWPOLYLINE
  5
444
  8
P
 62
0
370
-1
  6
CONTINUOUS
100
AcDbEntity
100
AcDbPolyline
 90
2
 70
0
 10
167.93333333333334
 20
124.73333333333335
 10
171.40000000000001
 20
128.19999999999999
  0
LWPOLYLINE
  5
445
  8
P
 62
0
370
-1
  6
CONTINUOUS
100
AcDbEntity
100
AcDbPolyline
 90
2
 70
0
 10
98.599999999999994
 20
124.73333333333335
 10
102.06666666666666
 20
128.19999999999999
  0
ENDSEC
  0
SECTION
  2
OBJECTS
  0
DICTIONARY
  5
C
100
AcDbDictionary
280
0
281
1
  3
ACAD_GROUP
350
D
  3
ACAD_LAYOUT
350
1A
  3
ACAD_MLINESTYLE
350
17
  3
ACAD_PLOTSETTINGS
350
19
  3
ACAD_PLOTSTYLENAME
350
E
  3
AcDbVariableDictionary
350
446
  0
DICTIONARY
  5
D
100
AcDbDictionary
280
0
281
1
  0
ACDBDICTIONARYWDFLT
  5
E
100
AcDbDictionary
281
1
  3
Normal
350
F
100
AcDbDictionaryWithDefault
340
F
  0
ACDBPLACEHOLDER
  5
F
  0
DICTIONARY
  5
17
100
AcDbDictionary
280
0
281
1
  3
Standard
350
18
  0
MLINESTYLE
  5
18
100
AcDbMlineStyle
  2
STANDARD
 70
0
  3

 62
256
 51
90.0
 52
90.0
 71
2
 49
0.5
 62
256
  6
BYLAYER
 49
-0.5
 62
256
  6
BYLAYER
  0
DICTIONARY
  5
19
100
AcDbDictionary
280
0
281
1
  0
DICTIONARY
  5
1A
100
AcDbDictionary
281
1
  3
Layout1
350
1E
  3
Layout2
350
26
  3
Model
350
22
  0
LAYOUT
  5
1E
100
AcDbPlotSettings
  1

  2
C:\Program Files\AutoCAD 2002\plotters\DWF ePlot (optimized for plotting).pc3
  4

  6

 40
0.0
 41
0.0
 42
0.0
 43
0.0
 44
0.0
 45
0.0
 46
0.0
 47
0.0
 48
0.0
 49
0.0
140
0.0
141
0.0
142
1.0
143
1.0
 70
688
 72
0
 73
0
 74
5
  7

 75
16
147
1.0
148
0.0
149
0.0
100
AcDbLayout
  1
Layout1
 70
1
 71
1
 10
0.0
 20
0.0
 11
420.0
 21
297.0
 12
0.0
 22
0.0
 32
0.0
 14
100000000000000000000.0
 24
100000000000000000000.0
 34
100000000000000000000.0
 15
-100000000000000000000.0
 25
-100000000000000000000.0
 35
-100000000000000000000.0
146
0.0
 13
0.0
 23
0.0
 33
0.0
 16
1.0
 26
0.0
 36
0.0
 17
0.0
 27
1.0
 37
0.0
 76
0
330
1B
  0
LAYOUT
  5
22
100
AcDbPlotSettings
  1

  2
C:\Program Files\AutoCAD 2002\plotters\DWF ePlot (optimized for plotting).pc3
  4

  6

 40
0.0
 41
0.0
 42
0.0
 43
0.0
 44
0.0
 45
0.0
 46
0.0
 47
0.0
 48
0.0
 49
0.0
140
0.0
141
0.0
142
1.0
143
1.0
 70
1712
 72
0
 73
0
 74
0
  7

 75
0
147
1.0
148
0.0
149
0.0
100
AcDbLayout
  1
Model
 70
1
 71
0
 10
0.0
 20
0.0
 11
12.0
 21
9.0
 12
0.0
 22
0.0
 32
0.0
 14
0.0
 24
0.0
 34
0.0
 15
0.0
 25
0.0
 35
0.0
146
0.0
 13
0.0
 23
0.0
 33
0.0
 16
1.0
 26
0.0
 36
0.0
 17
0.0
 27
1.0
 37
0.0
 76
0
330
1F
  0
LAYOUT
  5
26
100
AcDbPlotSettings
  1

  2
C:\Program Files\AutoCAD 2002\plotters\DWF ePlot (optimized for plotting).pc3
  4

  6

 40
0.0
 41
0.0
 42
0.0
 43
0.0
 44
0.0
 45
0.0
 46
0.0
 47
0.0
 48
0.0
 49
0.0
140
0.0
141
0.0
142
1.0
143
1.0
 70
688
 72
0
 73
0
 74
5
  7

 75
16
147
1.0
148
0.0
149
0.0
100
AcDbLayout
  1
Layout2
 70
1
 71
2
 10
0.0
 20
0.0
 11
12.0
 21
9.0
 12
0.0
 22
0.0
 32
0.0
 14
0.0
 24
0.0
 34
0.0
 15
0.0
 25
0.0
 35
0.0
146
0.0
 13
0.0
 23
0.0
 33
0.0
 16
1.0
 26
0.0
 36
0.0
 17
0.0
 27
1.0
 37
0.0
 76
0
330
23
  0
DICTIONARY
  5
446
100
AcDbDictionary
281
1
  3
DIMASSOC
350
448
  3
HIDETEXT
350
447
  0
DICTIONARYVAR
  5
447
100
DictionaryVariables
280
0
  1
2
  0
DICTIONARYVAR
  5
448
100
DictionaryVariables
280
0
  1
1
  0
ENDSEC
  0
EOF
