  0
SECTION
  2
HEADER
  9
$ACADVER
  1
AC1009
  9
$INSBASE
 10
0.0
 20
0.0
 30
0.0
  9
$EXTMIN
 10
96.726380485024379
 20
66.813217932373732
 30
-0.0000610304997082
  9
$EXTMAX
 10
322.8570565288619
 20
230.14146484707189
 30
0.000091555062788
  9
$LIMMIN
 10
0.0
 20
0.0
  9
$LIMMAX
 10
420.0
 20
297.0
  9
$ORTHOMODE
 70
     0
  9
$REGENMODE
 70
     1
  9
$FILLMODE
 70
     1
  9
$QTEXTMODE
 70
     0
  9
$MIRRTEXT
 70
     1
  9
$DRAGMODE
 70
     2
  9
$LTSCALE
 40
1.0
  9
$OSMODE
 70
    37
  9
$ATTMODE
 70
     1
  9
$TEXTSIZE
 40
0.0
  9
$TRACEWID
 40
1.0
  9
$TEXTSTYLE
  7
STANDARD
  9
$CLAYER
  8
0
  9
$CELTYPE
  6
BYLAYER
  9
$CECOLOR
 62
   256
  9
$DIMSCALE
 40
1.0
  9
$DIMASZ
 40
2.5
  9
$DIMEXO
 40
0.625
  9
$DIMDLI
 40
3.75
  9
$DIMRND
 40
0.0
  9
$DIMDLE
 40
0.0
  9
$DIMEXE
 40
1.25
  9
$DIMTP
 40
0.0
  9
$DIMTM
 40
0.0
  9
$DIMTXT
 40
2.5
  9
$DIMCEN
 40
2.5
  9
$DIMTSZ
 40
0.0
  9
$DIMTOL
 70
     0
  9
$DIMLIM
 70
     0
  9
$DIMTIH
 70
     0
  9
$DIMTOH
 70
     0
  9
$DIMSE1
 70
     0
  9
$DIMSE2
 70
     0
  9
$DIMTAD
 70
     1
  9
$DIMZIN
 70
     8
  9
$DIMBLK
  1

  9
$DIMASO
 70
     1
  9
$DIMSHO
 70
     1
  9
$DIMPOST
  1

  9
$DIMAPOST
  1

  9
$DIMALT
 70
     0
  9
$DIMALTD
 70
     3
  9
$DIMALTF
 40
0.03937
  9
$DIMLFAC
 40
1.0
  9
$DIMTOFL
 70
     1
  9
$DIMTVP
 40
0.0
  9
$DIMTIX
 70
     0
  9
$DIMSOXD
 70
     0
  9
$DIMSAH
 70
     0
  9
$DIMBLK1
  1

  9
$DIMBLK2
  1

  9
$DIMSTYLE
  2
STANDARD
  9
$DIMCLRD
 70
     0
  9
$DIMCLRE
 70
     0
  9
$DIMCLRT
 70
     0
  9
$DIMTFAC
 40
1.0
  9
$DIMGAP
 40
0.625
  9
$LUNITS
 70
     2
  9
$LUPREC
 70
     4
  9
$SKETCHINC
 40
1.0
  9
$FILLETRAD
 40
2.5
  9
$AUNITS
 70
     0
  9
$AUPREC
 70
     0
  9
$MENU
  1
.
  9
$ELEVATION
 40
0.0
  9
$PELEVATION
 40
0.0
  9
$THICKNESS
 40
0.0
  9
$LIMCHECK
 70
     0
  9
$BLIPMODE
 70
     0
  9
$CHAMFERA
 40
2.5
  9
$CHAMFERB
 40
2.5
  9
$SKPOLY
 70
     0
  9
$TDCREATE
 40
2305824.1751953238
  9
$TDUPDATE
 40
2457033.4958982291
  9
$TDINDWG
 40
0.005261169
  9
$TDUSRTIMER
 40
0.0052600694
  9
$USRTIMER
 70
     1
  9
$ANGBASE
 50
0.0
  9
$ANGDIR
 70
     0
  9
$PDMODE
 70
     0
  9
$PDSIZE
 40
0.0
  9
$PLINEWID
 40
0.0
  9
$COORDS
 70
     1
  9
$SPLFRAME
 70
     0
  9
$SPLINETYPE
 70
     6
  9
$SPLINESEGS
 70
     8
  9
$ATTDIA
 70
     1
  9
$ATTREQ
 70
     1
  9
$HANDLING
 70
     1
  9
$HANDSEED
  5
FFC
  9
$SURFTAB1
 70
     6
  9
$SURFTAB2
 70
     6
  9
$SURFTYPE
 70
     6
  9
$SURFU
 70
     6
  9
$SURFV
 70
     6
  9
$UCSNAME
  2

  9
$UCSORG
 10
0.0
 20
0.0
 30
0.0
  9
$UCSXDIR
 10
1.0
 20
0.0
 30
0.0
  9
$UCSYDIR
 10
0.0
 20
1.0
 30
0.0
  9
$PUCSNAME
  2

  9
$PUCSORG
 10
0.0
 20
0.0
 30
0.0
  9
$PUCSXDIR
 10
1.0
 20
0.0
 30
0.0
  9
$PUCSYDIR
 10
0.0
 20
1.0
 30
0.0
  9
$USERI1
 70
     0
  9
$USERI2
 70
     0
  9
$USERI3
 70
     0
  9
$USERI4
 70
     0
  9
$USERI5
 70
     0
  9
$USERR1
 40
0.0
  9
$USERR2
 40
0.0
  9
$USERR3
 40
0.0
  9
$USERR4
 40
0.0
  9
$USERR5
 40
0.0
  9
$WORLDVIEW
 70
     1
  9
$SHADEDGE
 70
     3
  9
$SHADEDIF
 70
    70
  9
$TILEMODE
 70
     1
  9
$MAXACTVP
 70
    48
  9
$PLIMCHECK
 70
     0
  9
$PEXTMIN
 10
0.0
 20
0.0
 30
0.0
  9
$PEXTMAX
 10
322.852936
 20
230.12080399999999
 30
2.0
  9
$PLIMMIN
 10
0.0
 20
0.0
  9
$PLIMMAX
 10
420.0
 20
297.0
  9
$UNITMODE
 70
     0
  9
$VISRETAIN
 70
     0
  9
$PLINEGEN
 70
     0
  9
$PSLTSCALE
 70
     1
  0
ENDSEC
  0
SECTION
  2
TABLES
  0
TABLE
  2
VPORT
 70
     1
  0
VPORT
  2
*ACTIVE
 70
     0
 10
0.0
 20
0.0
 11
1.0
 21
1.0
 12
133.4748939269829
 22
181.0434647446944
 13
0.0
 23
0.0
 14
1.0
 24
1.0
 15
0.0
 25
0.0
 16
0.0
 26
0.0
 36
1.0
 17
0.0
 27
0.0
 37
0.0
 40
412.53860114275739
 41
2.664556962025316
 42
50.0
 43
0.0
 44
0.0
 50
0.0
 51
0.0
 71
     0
 72
   100
 73
     1
 74
     1
 75
     0
 76
     0
 77
     0
 78
     0
  0
ENDTAB
  0
TABLE
  2
LTYPE
 70
     2
  0
LTYPE
  2
CONTINUOUS
 70
     0
  3
Solid line
 72
    65
 73
     0
 40
0.0
  0
ENDTAB
  0
TABLE
  2
LAYER
 70
     1
  0
LAYER
  2
0
 70
     0
 62
     7
  6
CONTINUOUS
  0
ENDTAB
  0
TABLE
  2
STYLE
 70
     1
  0
STYLE
  2
STANDARD
 70
     0
 40
0.0
 41
1.0
 50
0.0
 71
     0
 42
0.0
  3
txt
  4

  0
ENDTAB
  0
TABLE
  2
VIEW
 70
     0
  0
ENDTAB
  0
TABLE
  2
UCS
 70
     0
  0
ENDTAB
  0
TABLE
  2
APPID
 70
     4
  0
APPID
  2
ACAD
 70
     0
  0
APPID
  2
DCO15
 70
     0
  0
APPID
  2
ACAD_NAV_VCDISPLAY
 70
     0
  0
APPID
  2
ACAD_MLEADERVER
 70
     0
  0
ENDTAB
  0
TABLE
  2
DIMSTYLE
 70
     2
  0
DIMSTYLE
  2
STANDARD
 70
     0
  3

  4

  5

  6

  7

 40
1.0
 41
0.18
 42
0.0625
 43
0.38
 44
0.18
 45
0.0
 46
0.0
 47
0.0
 48
0.0
140
0.18
141
0.09
142
0.0
143
25.399999999999999
144
1.0
145
0.0
146
1.0
147
0.09
 71
     0
 72
     0
 73
     1
 74
     1
 75
     0
 76
     0
 77
     0
 78
     0
170
     0
171
     2
172
     0
173
     0
174
     0
175
     0
176
     0
177
     0
178
     0
  0
ENDTAB
  0
ENDSEC
  0
SECTION
  2
BLOCKS
  0
BLOCK
  8
0
  2
$MODEL_SPACE
 70
     0
 10
0.0
 20
0.0
 30
0.0
  3
$MODEL_SPACE
  1

  0
ENDBLK
  5
E
  8
0
  0
BLOCK
 67
     1
  8
0
  2
$PAPER_SPACE
 70
     0
 10
0.0
 20
0.0
 30
0.0
  3
$PAPER_SPACE
  1

  0
ENDBLK
  5
10
 67
     1
  8
0
  0
ENDSEC
  0
SECTION
  2
ENTITIES
  0
POLYLINE
  5
37
  8
0
 62
     7
 66
     1
 10
0.0
 20
0.0
 30
0.0
 70
     1
  0
VERTEX
  5
7D7
  8
0
 62
     7
 10
195.83062699999999
 20
220.65048200000001
 30
0.0
  0
VERTEX
  5
7D8
  8
0
 62
     7
 10
195.791809
 20
220.695267
 30
0.0
  0
VERTEX
  5
7D9
  8
0
 62
     7
 10
194.97039799999999
 20
221.52207899999999
 30
0.0
  0
VERTEX
  5
7DA
  8
0
 62
     7
 10
194.102722
 20
222.17926
 30
0.0
  0
VERTEX
  5
7DB
  8
0
 62
     7
 10
193.64218099999999
 20
222.452652
 30
0.0
  0
VERTEX
  5
7DC
  8
0
 62
     7
 10
193.16767899999999
 20
222.687073
 30
0.0
  0
VERTEX
  5
7DD
  8
0
 62
     7
 10
192.166077
 20
223.047394
 30
0.0
  0
VERTEX
  5
7DE
  8
0
 62
     7
 10
191.11625699999999
 20
223.267044
 30
0.0
  0
VERTEX
  5
7DF
  8
0
 62
     7
 10
190.028336
 20
223.367493
 30
0.0
  0
VERTEX
  5
7E0
  8
0
 62
     7
 10
188.91449
 20
223.37481700000001
 30
0.0
  0
VERTEX
  5
7E1
  8
0
 62
     7
 10
187.78741500000001
 20
223.316498
 30
0.0
  0
VERTEX
  5
7E2
  8
0
 62
     7
 10
186.65881300000001
 20
223.21838399999999
 30
0.0
  0
VERTEX
  5
7E3
  8
0
 62
     7
 10
185.537781
 20
223.10144
 30
0.0
  0
VERTEX
  5
7E4
  8
0
 62
     7
 10
184.429474
 20
222.97886700000001
 30
0.0
  0
VERTEX
  5
7E5
  8
0
 62
     7
 10
183.33457899999999
 20
222.85524000000001
 30
0.0
  0
VERTEX
  5
7E6
  8
0
 62
     7
 10
182.25065599999999
 20
222.72872899999999
 30
0.0
  0
VERTEX
  5
7E7
  8
0
 62
     7
 10
181.1736149999999
 20
222.59391800000009
 30
0.0
  0
VERTEX
  5
7E8
  8
0
 62
     7
 10
180.09921299999999
 20
222.44468699999999
 30
0.0
  0
VERTEX
  5
7E9
  8
0
 62
     7
 10
179.02420000000001
 20
222.27616900000001
 30
0.0
  0
VERTEX
  5
7EA
  8
0
 62
     7
 10
177.94635
 20
222.08512899999999
 30
0.0
  0
VERTEX
  5
7EB
  8
0
 62
     7
 10
176.864304
 20
221.86953700000001
 30
0.0
  0
VERTEX
  5
7EC
  8
0
 62
     7
 10
175.77739
 20
221.628387
 30
0.0
  0
VERTEX
  5
7ED
  8
0
 62
     7
 10
174.68533300000001
 20
221.36128199999999
 30
0.0
  0
VERTEX
  5
7EE
  8
0
 62
     7
 10
174.68533300000001
 20
216.91879299999999
 30
0.0
  0
VERTEX
  5
7EF
  8
0
 62
     7
 10
175.78372200000001
 20
216.99191300000001
 30
0.0
  0
VERTEX
  5
7F0
  8
0
 62
     7
 10
176.872162
 20
217.10501099999999
 30
0.0
  0
VERTEX
  5
7F1
  8
0
 62
     7
 10
177.950806
 20
217.25720200000001
 30
0.0
  0
VERTEX
  5
7F2
  8
0
 62
     7
 10
179.02024800000001
 20
217.446136
 30
0.0
  0
VERTEX
  5
7F3
  8
0
 62
     7
 10
180.08154300000001
 20
217.66735800000001
 30
0.0
  0
VERTEX
  5
7F4
  8
0
 62
     7
 10
181.13642899999999
 20
217.91348300000001
 30
0.0
  0
VERTEX
  5
7F5
  8
0
 62
     7
 10
182.18753100000001
 20
218.17358400000001
 30
0.0
  0
VERTEX
  5
7F6
  8
0
 62
     7
 10
183.23843400000001
 20
218.432388
 30
0.0
  0
VERTEX
  5
7F7
  8
0
 62
     7
 10
184.293915
 20
218.66989100000001
 30
0.0
  0
VERTEX
  5
7F8
  8
0
 62
     7
 10
185.359283
 20
218.863541
 30
0.0
  0
VERTEX
  5
7F9
  8
0
 62
     7
 10
186.438965
 20
218.99385100000001
 30
0.0
  0
VERTEX
  5
7FA
  8
0
 62
     7
 10
187.53491199999999
 20
219.05070499999999
 30
0.0
  0
VERTEX
  5
7FB
  8
0
 62
     7
 10
188.64497399999999
 20
219.03964199999999
 30
0.0
  0
VERTEX
  5
7FC
  8
0
 62
     7
 10
189.7615659999999
 20
218.987335
 30
0.0
  0
VERTEX
  5
7FD
  8
0
 62
     7
 10
190.87188699999999
 20
218.94061300000001
 30
0.0
  0
VERTEX
  5
7FE
  8
0
 62
     7
 10
191.96032700000001
 20
218.957413
 30
0.0
  0
VERTEX
  5
7FF
  8
0
 62
     7
 10
193.011154
 20
219.09655799999999
 30
0.0
  0
VERTEX
  5
800
  8
0
 62
     7
 10
193.48988299999999
 20
219.21945199999999
 30
0.0
  0
VERTEX
  5
801
  8
0
 62
     7
 10
193.95620700000001
 20
219.38476600000001
 30
0.0
  0
VERTEX
  5
802
  8
0
 62
     7
 10
194.37603799999999
 20
219.57794200000001
 30
0.0
  0
VERTEX
  5
803
  8
0
 62
     7
 10
194.78422499999999
 20
219.811218
 30
0.0
  0
VERTEX
  5
804
  8
0
 62
     7
 10
195.55693099999999
 20
220.394012
 30
0.0
  0
SEQEND
  5
805
  8
0
 62
     7
  0
POLYLINE
  5
51
  8
0
 62
     7
 66
     1
 10
0.0
 20
0.0
 30
0.0
  0
VERTEX
  5
806
  8
0
 62
     7
 10
218.57176200000001
 20
118.089592
 30
0.0
  0
VERTEX
  5
807
  8
0
 62
     7
 10
217.77233899999999
 20
118.20302599999999
 30
0.0
  0
VERTEX
  5
808
  8
0
 62
     7
 10
217.00427199999999
 20
118.3526379999999
 30
0.0
  0
VERTEX
  5
809
  8
0
 62
     7
 10
216.028763
 20
118.608215
 30
0.0
  0
VERTEX
  5
80A
  8
0
 62
     7
 10
215.108002
 20
118.92731499999999
 30
0.0
  0
VERTEX
  5
80B
  8
0
 62
     7
 10
214.24028000000001
 20
119.308556
 30
0.0
  0
VERTEX
  5
80C
  8
0
 62
     7
 10
213.62252799999999
 20
119.633881
 30
0.0
  0
VERTEX
  5
80D
  8
0
 62
     7
 10
213.031082
 20
119.99134100000001
 30
0.0
  0
VERTEX
  5
80E
  8
0
 62
     7
 10
211.916382
 20
120.794212
 30
0.0
  0
VERTEX
  5
80F
  8
0
 62
     7
 10
211.110535
 20
121.47508999999999
 30
0.0
  0
VERTEX
  5
810
  8
0
 62
     7
 10
210.58622700000001
 20
121.95384199999999
 30
0.0
  0
VERTEX
  5
811
  8
0
 62
     7
 10
209.542328
 20
122.94961499999999
 30
0.0
  0
VERTEX
  5
812
  8
0
 62
     7
 10
208.466431
 20
123.964043
 30
0.0
  0
VERTEX
  5
813
  8
0
 62
     7
 10
207.021683
 20
125.207016
 30
0.0
  0
VERTEX
  5
814
  8
0
 62
     7
 10
205.40502900000001
 20
126.413803
 30
0.0
  0
VERTEX
  5
815
  8
0
 62
     7
 10
204.03939800000001
 20
127.33277099999999
 30
0.0
  0
VERTEX
  5
816
  8
0
 62
     7
 10
202.66520700000001
 20
128.23230000000001
 30
0.0
  0
VERTEX
  5
817
  8
0
 62
     7
 10
201.99636799999999
 20
128.68467699999999
 30
0.0
  0
VERTEX
  5
818
  8
0
 62
     7
 10
201.04312100000001
 20
129.37988300000001
 30
0.0
  0
VERTEX
  5
819
  8
0
 62
     7
 10
200.544342
 20
129.78530900000001
 30
0.0
  0
VERTEX
  5
81A
  8
0
 62
     7
 10
200.08004800000001
 20
130.20498699999999
 30
0.0
  0
VERTEX
  5
81B
  8
0
 62
     7
 10
199.65602100000001
 20
130.64193700000001
 30
0.0
  0
VERTEX
  5
81C
  8
0
 62
     7
 10
199.277725
 20
131.09903
 30
0.0
  0
VERTEX
  5
81D
  8
0
 62
     7
 10
198.853195
 20
131.74447599999999
 30
0.0
  0
VERTEX
  5
81E
  8
0
 62
     7
 10
198.529404
 20
132.43615700000001
 30
0.0
  0
VERTEX
  5
81F
  8
0
 62
     7
 10
198.314697
 20
133.178528
 30
0.0
  0
VERTEX
  5
820
  8
0
 62
     7
 10
198.219559
 20
133.89123499999999
 30
0.0
  0
VERTEX
  5
821
  8
0
 62
     7
 10
198.21928399999999
 20
134.64857499999999
 30
0.0
  0
VERTEX
  5
822
  8
0
 62
     7
 10
198.314697
 20
135.45098899999999
 30
0.0
  0
SEQEND
  5
823
  8
0
 62
     7
  0
POLYLINE
  5
70
  8
0
 62
     7
 66
     1
 10
0.0
 20
0.0
 30
0.0
  0
VERTEX
  5
824
  8
0
 62
     7
 10
140.05841100000001
 20
105.309814
 30
0.0
  0
VERTEX
  5
825
  8
0
 62
     7
 10
140.537598
 20
106.173698
 30
0.0
  0
VERTEX
  5
826
  8
0
 62
     7
 10
141.03495799999999
 20
106.828323
 30
0.0
  0
VERTEX
  5
827
  8
0
 62
     7
 10
141.29040499999999
 20
107.077797
 30
0.0
  0
VERTEX
  5
828
  8
0
 62
     7
 10
141.550354
 20
107.27613100000001
 30
0.0
  0
VERTEX
  5
829
  8
0
 62
     7
 10
141.903839
 20
107.462677
 30
0.0
  0
VERTEX
  5
82A
  8
0
 62
     7
 10
142.26507599999999
 20
107.56323999999999
 30
0.0
  0
VERTEX
  5
82B
  8
0
 62
     7
 10
142.63378900000001
 20
107.582489
 30
0.0
  0
VERTEX
  5
82C
  8
0
 62
     7
 10
143.01800499999999
 20
107.524734
 30
0.0
  0
VERTEX
  5
82D
  8
0
 62
     7
 10
143.40933200000001
 20
107.39735400000001
 30
0.0
  0
VERTEX
  5
82E
  8
0
 62
     7
 10
143.94122300000001
 20
107.13737500000001
 30
0.0
  0
VERTEX
  5
82F
  8
0
 62
     7
 10
144.301636
 20
106.91944100000001
 30
0.0
  0
VERTEX
  5
830
  8
0
 62
     7
 10
145.034424
 20
106.4175639999999
 30
0.0
  0
VERTEX
  5
831
  8
0
 62
     7
 10
145.78005999999999
 20
105.890884
 30
0.0
  0
VERTEX
  5
832
  8
0
 62
     7
 10
146.156586
 20
105.641617
 30
0.0
  0
VERTEX
  5
833
  8
0
 62
     7
 10
146.72474700000001
 20
105.309814
 30
0.0
  0
VERTEX
  5
834
  8
0
 62
     7
 10
147.164581
 20
105.10301200000001
 30
0.0
  0
VERTEX
  5
835
  8
0
 62
     7
 10
147.605682
 20
104.949898
 30
0.0
  0
VERTEX
  5
836
  8
0
 62
     7
 10
148.195099
 20
104.843491
 30
0.0
  0
VERTEX
  5
837
  8
0
 62
     7
 10
148.78527800000001
 20
104.86293000000001
 30
0.0
  0
VERTEX
  5
838
  8
0
 62
     7
 10
149.3756709999999
 20
105.01979799999999
 30
0.0
  0
VERTEX
  5
839
  8
0
 62
     7
 10
149.70768699999999
 20
105.17158499999999
 30
0.0
  0
VERTEX
  5
83A
  8
0
 62
     7
 10
150.03961200000001
 20
105.37046100000001
 30
0.0
  0
VERTEX
  5
83B
  8
0
 62
     7
 10
150.70294200000001
 20
105.91235399999999
 30
0.0
  0
VERTEX
  5
83C
  8
0
 62
     7
 10
151.36552399999999
 20
106.649216
 30
0.0
  0
VERTEX
  5
83D
  8
0
 62
     7
 10
152.027252
 20
107.582489
 30
0.0
  0
SEQEND
  5
83E
  8
0
 62
     7
  0
POLYLINE
  5
8C
  8
0
 62
     7
 66
     1
 10
0.0
 20
0.0
 30
0.0
  0
VERTEX
  5
83F
  8
0
 62
     7
 10
144.90664699999999
 20
88.037491000000003
 30
0.0
  0
VERTEX
  5
840
  8
0
 62
     7
 10
145.449265
 20
89.097922999999994
 30
0.0
  0
VERTEX
  5
841
  8
0
 62
     7
 10
145.96528599999999
 20
90.013405000000006
 30
0.0
  0
VERTEX
  5
842
  8
0
 62
     7
 10
146.375381
 20
90.666297999999983
 30
0.0
  0
VERTEX
  5
843
  8
0
 62
     7
 10
146.76702900000001
 20
91.218879999999999
 30
0.0
  0
VERTEX
  5
844
  8
0
 62
     7
 10
147.17639199999999
 20
91.711394999999996
 30
0.0
  0
VERTEX
  5
845
  8
0
 62
     7
 10
147.56366
 20
92.084746999999993
 30
0.0
  0
VERTEX
  5
846
  8
0
 62
     7
 10
147.99946600000001
 20
92.378356999999994
 30
0.0
  0
VERTEX
  5
847
  8
0
 62
     7
 10
148.40417500000001
 20
92.508255000000005
 30
0.0
  0
VERTEX
  5
848
  8
0
 62
     7
 10
148.778412
 20
92.481360999999993
 30
0.0
  0
VERTEX
  5
849
  8
0
 62
     7
 10
149.12301599999989
 20
92.306884999999994
 30
0.0
  0
VERTEX
  5
84A
  8
0
 62
     7
 10
149.33685299999999
 20
92.114281000000005
 30
0.0
  0
VERTEX
  5
84B
  8
0
 62
     7
 10
149.538376
 20
91.865478999999993
 30
0.0
  0
VERTEX
  5
84C
  8
0
 62
     7
 10
149.90640300000001
 20
91.219231000000008
 30
0.0
  0
VERTEX
  5
84D
  8
0
 62
     7
 10
150.15396100000001
 20
90.627777000000009
 30
0.0
  0
VERTEX
  5
84E
  8
0
 62
     7
 10
150.37951699999999
 20
89.970984999999985
 30
0.0
  0
VERTEX
  5
84F
  8
0
 62
     7
 10
150.64392100000001
 20
89.063659999999999
 30
0.0
  0
VERTEX
  5
850
  8
0
 62
     7
 10
151.09909099999999
 20
87.302216000000001
 30
0.0
  0
VERTEX
  5
851
  8
0
 62
     7
 10
151.36998
 20
86.363174000000015
 30
0.0
  0
VERTEX
  5
852
  8
0
 62
     7
 10
151.502014
 20
86.012138000000007
 30
0.0
  0
VERTEX
  5
853
  8
0
 62
     7
 10
151.601257
 20
85.811058000000017
 30
0.0
  0
VERTEX
  5
854
  8
0
 62
     7
 10
151.701706
 20
85.667755
 30
0.0
  0
VERTEX
  5
855
  8
0
 62
     7
 10
151.78033400000001
 20
85.598670999999996
 30
0.0
  0
VERTEX
  5
856
  8
0
 62
     7
 10
151.86056500000001
 20
85.566383000000016
 30
0.0
  0
VERTEX
  5
857
  8
0
 62
     7
 10
151.94274899999999
 20
85.571288999999993
 30
0.0
  0
VERTEX
  5
858
  8
0
 62
     7
 10
152.027252
 20
85.613311999999993
 30
0.0
  0
VERTEX
  5
859
  8
0
 62
     7
 10
152.15898100000001
 20
85.744346999999991
 30
0.0
  0
VERTEX
  5
85A
  8
0
 62
     7
 10
152.29779099999999
 20
85.953132999999994
 30
0.0
  0
VERTEX
  5
85B
  8
0
 62
     7
 10
152.60064700000001
 20
86.575737000000004
 30
0.0
  0
VERTEX
  5
85C
  8
0
 62
     7
 10
152.94281000000001
 20
87.406211999999996
 30
0.0
  0
VERTEX
  5
85D
  8
0
 62
     7
 10
153.54083299999999
 20
88.827049000000002
 30
0.0
  0
VERTEX
  5
85E
  8
0
 62
     7
 10
154.01985199999999
 20
89.768523999999999
 30
0.0
  0
VERTEX
  5
85F
  8
0
 62
     7
 10
154.279236
 20
90.182273999999978
 30
0.0
  0
VERTEX
  5
860
  8
0
 62
     7
 10
154.65905799999999
 20
90.660599000000005
 30
0.0
  0
VERTEX
  5
861
  8
0
 62
     7
 10
155.06213399999999
 20
91.005095999999995
 30
0.0
  0
VERTEX
  5
862
  8
0
 62
     7
 10
155.28568999999999
 20
91.126823000000016
 30
0.0
  0
VERTEX
  5
863
  8
0
 62
     7
 10
155.51483200000001
 20
91.202956999999984
 30
0.0
  0
VERTEX
  5
864
  8
0
 62
     7
 10
155.73869300000001
 20
91.232292000000001
 30
0.0
  0
VERTEX
  5
865
  8
0
 62
     7
 10
155.96670499999999
 20
91.219231000000008
 30
0.0
  0
VERTEX
  5
866
  8
0
 62
     7
 10
156.33479299999999
 20
91.114784000000014
 30
0.0
  0
VERTEX
  5
867
  8
0
 62
     7
 10
156.70938100000001
 20
90.916022999999996
 30
0.0
  0
VERTEX
  5
868
  8
0
 62
     7
 10
157.214066
 20
90.529555999999999
 30
0.0
  0
VERTEX
  5
869
  8
0
 62
     7
 10
157.55075099999999
 20
90.214766999999995
 30
0.0
  0
VERTEX
  5
86A
  8
0
 62
     7
 10
158.21517900000001
 20
89.518089000000003
 30
0.0
  0
VERTEX
  5
86B
  8
0
 62
     7
 10
158.85476700000001
 20
88.843567000000007
 30
0.0
  0
VERTEX
  5
86C
  8
0
 62
     7
 10
159.16104100000001
 20
88.555709999999991
 30
0.0
  0
VERTEX
  5
86D
  8
0
 62
     7
 10
159.600098
 20
88.226783999999995
 30
0.0
  0
VERTEX
  5
86E
  8
0
 62
     7
 10
159.912048
 20
88.081955000000008
 30
0.0
  0
VERTEX
  5
86F
  8
0
 62
     7
 10
160.20890800000001
 20
88.037491000000003
 30
0.0
  0
VERTEX
  5
870
  8
0
 62
     7
 10
160.53417999999999
 20
88.118010999999996
 30
0.0
  0
VERTEX
  5
871
  8
0
 62
     7
 10
160.84271200000001
 20
88.337395000000001
 30
0.0
  0
VERTEX
  5
872
  8
0
 62
     7
 10
161.0410159999999
 20
88.554847999999993
 30
0.0
  0
VERTEX
  5
873
  8
0
 62
     7
 10
161.235062
 20
88.822533000000007
 30
0.0
  0
VERTEX
  5
874
  8
0
 62
     7
 10
161.48997499999999
 20
89.244652000000002
 30
0.0
  0
VERTEX
  5
875
  8
0
 62
     7
 10
162.00262499999999
 20
90.232245999999975
 30
0.0
  0
VERTEX
  5
876
  8
0
 62
     7
 10
162.548157
 20
91.251052999999985
 30
0.0
  0
VERTEX
  5
877
  8
0
 62
     7
 10
162.843658
 20
91.711051999999995
 30
0.0
  0
VERTEX
  5
878
  8
0
 62
     7
 10
163.07818599999999
 20
92.015784999999994
 30
0.0
  0
VERTEX
  5
879
  8
0
 62
     7
 10
163.32510400000001
 20
92.276748999999995
 30
0.0
  0
VERTEX
  5
87A
  8
0
 62
     7
 10
163.72071800000001
 20
92.571135999999996
 30
0.0
  0
VERTEX
  5
87B
  8
0
 62
     7
 10
164.14810199999999
 20
92.734351999999987
 30
0.0
  0
VERTEX
  5
87C
  8
0
 62
     7
 10
164.45004299999999
 20
92.766044999999991
 30
0.0
  0
VERTEX
  5
87D
  8
0
 62
     7
 10
164.765533
 20
92.736435
 30
0.0
  0
VERTEX
  5
87E
  8
0
 62
     7
 10
165.20568800000001
 20
92.605964999999998
 30
0.0
  0
VERTEX
  5
87F
  8
0
 62
     7
 10
165.66523699999999
 20
92.381454000000005
 30
0.0
  0
VERTEX
  5
880
  8
0
 62
     7
 10
166.14025899999999
 20
92.078147999999985
 30
0.0
  0
VERTEX
  5
881
  8
0
 62
     7
 10
166.481064
 20
91.827781999999985
 30
0.0
  0
VERTEX
  5
882
  8
0
 62
     7
 10
167.17150899999999
 20
91.268539000000004
 30
0.0
  0
VERTEX
  5
883
  8
0
 62
     7
 10
168.33422899999999
 20
90.301445000000001
 30
0.0
  0
VERTEX
  5
884
  8
0
 62
     7
 10
169.07029700000001
 20
89.782783999999978
 30
0.0
  0
VERTEX
  5
885
  8
0
 62
     7
 10
169.41877700000001
 20
89.595305999999994
 30
0.0
  0
VERTEX
  5
886
  8
0
 62
     7
 10
169.72543300000001
 20
89.476189000000005
 30
0.0
  0
VERTEX
  5
887
  8
0
 62
     7
 10
170.01705899999999
 20
89.414635000000004
 30
0.0
  0
VERTEX
  5
888
  8
0
 62
     7
 10
170.33715799999999
 20
89.421967000000009
 30
0.0
  0
VERTEX
  5
889
  8
0
 62
     7
 10
170.63369800000001
 20
89.519356000000002
 30
0.0
  0
VERTEX
  5
88A
  8
0
 62
     7
 10
170.905914
 20
89.708495999999997
 30
0.0
  0
VERTEX
  5
88B
  8
0
 62
     7
 10
171.09411600000001
 20
89.909492000000014
 30
0.0
  0
VERTEX
  5
88C
  8
0
 62
     7
 10
171.26895099999999
 20
90.158660999999995
 30
0.0
  0
VERTEX
  5
88D
  8
0
 62
     7
 10
171.48400899999999
 20
90.562613999999996
 30
0.0
  0
VERTEX
  5
88E
  8
0
 62
     7
 10
171.678314
 20
91.033271999999997
 30
0.0
  0
VERTEX
  5
88F
  8
0
 62
     7
 10
171.91047699999999
 20
91.734328999999988
 30
0.0
  0
VERTEX
  5
890
  8
0
 62
     7
 10
172.318207
 20
93.200370999999976
 30
0.0
  0
VERTEX
  5
891
  8
0
 62
     7
 10
172.5849
 20
94.060364000000007
 30
0.0
  0
VERTEX
  5
892
  8
0
 62
     7
 10
172.72583
 20
94.406441000000001
 30
0.0
  0
VERTEX
  5
893
  8
0
 62
     7
 10
172.955139
 20
94.785872999999995
 30
0.0
  0
VERTEX
  5
894
  8
0
 62
     7
 10
173.17480499999999
 20
94.958442999999988
 30
0.0
  0
VERTEX
  5
895
  8
0
 62
     7
 10
173.41996800000001
 20
94.980514999999997
 30
0.0
  0
VERTEX
  5
896
  8
0
 62
     7
 10
173.69306900000001
 20
94.855514999999997
 30
0.0
  0
VERTEX
  5
897
  8
0
 62
     7
 10
173.928955
 20
94.663573999999997
 30
0.0
  0
VERTEX
  5
898
  8
0
 62
     7
 10
174.45060699999999
 20
94.097954000000001
 30
0.0
  0
VERTEX
  5
899
  8
0
 62
     7
 10
175.01950099999999
 20
93.424216999999999
 30
0.0
  0
VERTEX
  5
89A
  8
0
 62
     7
 10
175.321564
 20
93.084152000000003
 30
0.0
  0
VERTEX
  5
89B
  8
0
 62
     7
 10
175.79373200000001
 20
92.607483000000016
 30
0.0
  0
VERTEX
  5
89C
  8
0
 62
     7
 10
176.244293
 20
92.233795000000001
 30
0.0
  0
VERTEX
  5
89D
  8
0
 62
     7
 10
176.71006800000001
 20
91.944664000000003
 30
0.0
  0
VERTEX
  5
89E
  8
0
 62
     7
 10
177.130798
 20
91.775238000000016
 30
0.0
  0
VERTEX
  5
89F
  8
0
 62
     7
 10
177.56134
 20
91.695602000000008
 30
0.0
  0
VERTEX
  5
8A0
  8
0
 62
     7
 10
178.00103799999999
 20
91.713538999999983
 30
0.0
  0
VERTEX
  5
8A1
  8
0
 62
     7
 10
178.44944799999999
 20
91.834914999999995
 30
0.0
  0
VERTEX
  5
8A2
  8
0
 62
     7
 10
178.90625
 20
92.063918999999984
 30
0.0
  0
VERTEX
  5
8A3
  8
0
 62
     7
 10
179.371185
 20
92.403389000000004
 30
0.0
  0
VERTEX
  5
8A4
  8
0
 62
     7
 10
179.72517400000001
 20
92.731552000000008
 30
0.0
  0
VERTEX
  5
8A5
  8
0
 62
     7
 10
180.08363299999999
 20
93.123253000000005
 30
0.0
  0
VERTEX
  5
8A6
  8
0
 62
     7
 10
180.813919
 20
94.097954000000001
 30
0.0
  0
SEQEND
  5
8A7
  8
0
 62
     7
  0
POLYLINE
  5
F6
  8
0
 62
     7
 66
     1
 10
0.0
 20
0.0
 30
0.0
  0
VERTEX
  5
8A8
  8
0
 62
     7
 10
154.30010999999999
 20
73.037856999999974
 30
0.0
  0
VERTEX
  5
8A9
  8
0
 62
     7
 10
154.674622
 20
72.087890999999999
 30
0.0
  0
VERTEX
  5
8AA
  8
0
 62
     7
 10
155.05239900000001
 20
71.243911999999995
 30
0.0
  0
VERTEX
  5
8AB
  8
0
 62
     7
 10
155.38241600000001
 20
70.598106000000001
 30
0.0
  0
VERTEX
  5
8AC
  8
0
 62
     7
 10
155.71487400000001
 20
70.031609000000003
 30
0.0
  0
VERTEX
  5
8AD
  8
0
 62
     7
 10
156.19653299999999
 20
69.356064000000003
 30
0.0
  0
VERTEX
  5
8AE
  8
0
 62
     7
 10
156.68310500000001
 20
68.841339000000005
 30
0.0
  0
VERTEX
  5
8AF
  8
0
 62
     7
 10
157.17448400000001
 20
68.484321999999992
 30
0.0
  0
VERTEX
  5
8B0
  8
0
 62
     7
 10
157.67051699999999
 20
68.280372999999997
 30
0.0
  0
VERTEX
  5
8B1
  8
0
 62
     7
 10
158.17095900000001
 20
68.223038000000003
 30
0.0
  0
VERTEX
  5
8B2
  8
0
 62
     7
 10
158.675476
 20
68.303748999999996
 30
0.0
  0
VERTEX
  5
8B3
  8
0
 62
     7
 10
159.00801100000001
 20
68.426284999999993
 30
0.0
  0
VERTEX
  5
8B4
  8
0
 62
     7
 10
159.34198000000001
 20
68.599677999999983
 30
0.0
  0
VERTEX
  5
8B5
  8
0
 62
     7
 10
159.77458200000001
 20
68.891425999999996
 30
0.0
  0
VERTEX
  5
8B6
  8
0
 62
     7
 10
160.20890800000001
 20
69.250061000000002
 30
0.0
  0
VERTEX
  5
8B7
  8
0
 62
     7
 10
160.743469
 20
69.763244999999998
 30
0.0
  0
VERTEX
  5
8B8
  8
0
 62
     7
 10
161.81431599999999
 20
70.928443999999999
 30
0.0
  0
VERTEX
  5
8B9
  8
0
 62
     7
 10
162.525757
 20
71.712372000000002
 30
0.0
  0
VERTEX
  5
8BA
  8
0
 62
     7
 10
162.87962300000001
 20
72.079277000000005
 30
0.0
  0
VERTEX
  5
8BB
  8
0
 62
     7
 10
163.40704299999999
 20
72.573853
 30
0.0
  0
VERTEX
  5
8BC
  8
0
 62
     7
 10
163.81568899999999
 20
72.898499000000001
 30
0.0
  0
VERTEX
  5
8BD
  8
0
 62
     7
 10
164.220551
 20
73.156349000000006
 30
0.0
  0
VERTEX
  5
8BE
  8
0
 62
     7
 10
164.58883700000001
 20
73.32629399999999
 30
0.0
  0
VERTEX
  5
8BF
  8
0
 62
     7
 10
164.953003
 20
73.426070999999993
 30
0.0
  0
VERTEX
  5
8C0
  8
0
 62
     7
 10
165.452271
 20
73.441283999999996
 30
0.0
  0
VERTEX
  5
8C1
  8
0
 62
     7
 10
165.94177199999999
 20
73.309951999999996
 30
0.0
  0
VERTEX
  5
8C2
  8
0
 62
     7
 10
166.420715
 20
73.037856999999974
 30
0.0
  0
VERTEX
  5
8C3
  8
0
 62
     7
 10
166.76618999999999
 20
72.756644999999992
 30
0.0
  0
VERTEX
  5
8C4
  8
0
 62
     7
 10
167.10540800000001
 20
72.418129000000008
 30
0.0
  0
VERTEX
  5
8C5
  8
0
 62
     7
 10
167.54785200000001
 20
71.900688000000002
 30
0.0
  0
VERTEX
  5
8C6
  8
0
 62
     7
 10
168.399857
 20
70.781288000000004
 30
0.0
  0
VERTEX
  5
8C7
  8
0
 62
     7
 10
168.946381
 20
70.102508999999984
 30
0.0
  0
VERTEX
  5
8C8
  8
0
 62
     7
 10
169.214676
 20
69.817879000000005
 30
0.0
  0
VERTEX
  5
8C9
  8
0
 62
     7
 10
169.61303699999999
 20
69.486626000000001
 30
0.0
  0
VERTEX
  5
8CA
  8
0
 62
     7
 10
169.91037
 20
69.326660000000004
 30
0.0
  0
VERTEX
  5
8CB
  8
0
 62
     7
 10
170.208405
 20
69.250061000000002
 30
0.0
  0
VERTEX
  5
8CC
  8
0
 62
     7
 10
170.49620100000001
 20
69.256912
 30
0.0
  0
VERTEX
  5
8CD
  8
0
 62
     7
 10
170.788635
 20
69.340110999999993
 30
0.0
  0
VERTEX
  5
8CE
  8
0
 62
     7
 10
171.1896669999999
 20
69.559616000000005
 30
0.0
  0
VERTEX
  5
8CF
  8
0
 62
     7
 10
171.46667500000001
 20
69.765366
 30
0.0
  0
VERTEX
  5
8D0
  8
0
 62
     7
 10
172.05126999999999
 20
70.282379000000006
 30
0.0
  0
VERTEX
  5
8D1
  8
0
 62
     7
 10
172.68695099999999
 20
70.875869999999992
 30
0.0
  0
VERTEX
  5
8D2
  8
0
 62
     7
 10
173.02719099999999
 20
71.175857999999991
 30
0.0
  0
VERTEX
  5
8D3
  8
0
 62
     7
 10
173.568085
 20
71.601883000000001
 30
0.0
  0
VERTEX
  5
8D4
  8
0
 62
     7
 10
173.99865700000001
 20
71.886436000000003
 30
0.0
  0
VERTEX
  5
8D5
  8
0
 62
     7
 10
174.45060699999999
 20
72.128776999999985
 30
0.0
  0
VERTEX
  5
8D6
  8
0
 62
     7
 10
174.8529659999999
 20
72.295897999999994
 30
0.0
  0
VERTEX
  5
8D7
  8
0
 62
     7
 10
175.269485
 20
72.422440000000009
 30
0.0
  0
VERTEX
  5
8D8
  8
0
 62
     7
 10
175.687836
 20
72.504683999999983
 30
0.0
  0
VERTEX
  5
8D9
  8
0
 62
     7
 10
176.116928
 20
72.545670000000001
 30
0.0
  0
VERTEX
  5
8DA
  8
0
 62
     7
 10
176.56075999999999
 20
72.545578000000006
 30
0.0
  0
VERTEX
  5
8DB
  8
0
 62
     7
 10
177.01168799999999
 20
72.505134999999996
 30
0.0
  0
VERTEX
  5
8DC
  8
0
 62
     7
 10
177.55706799999999
 20
72.407387
 30
0.0
  0
VERTEX
  5
8DD
  8
0
 62
     7
 10
178.10502600000001
 20
72.261535999999992
 30
0.0
  0
VERTEX
  5
8DE
  8
0
 62
     7
 10
178.92636100000001
 20
71.967392000000004
 30
0.0
  0
VERTEX
  5
8DF
  8
0
 62
     7
 10
179.72697400000001
 20
71.611785999999995
 30
0.0
  0
VERTEX
  5
8E0
  8
0
 62
     7
 10
181.201187
 20
70.858688000000001
 30
0.0
  0
VERTEX
  5
8E1
  8
0
 62
     7
 10
181.995361
 20
70.466301000000001
 30
0.0
  0
VERTEX
  5
8E2
  8
0
 62
     7
 10
182.34515400000001
 20
70.320533999999995
 30
0.0
  0
VERTEX
  5
8E3
  8
0
 62
     7
 10
182.66961699999999
 20
70.216483999999994
 30
0.0
  0
VERTEX
  5
8E4
  8
0
 62
     7
 10
182.955017
 20
70.166916000000001
 30
0.0
  0
VERTEX
  5
8E5
  8
0
 62
     7
 10
183.27276599999999
 20
70.19609100000001
 30
0.0
  0
VERTEX
  5
8E6
  8
0
 62
     7
 10
183.51799
 20
70.343429999999984
 30
0.0
  0
VERTEX
  5
8E7
  8
0
 62
     7
 10
183.692566
 20
70.613663000000003
 30
0.0
  0
VERTEX
  5
8E8
  8
0
 62
     7
 10
183.80465699999999
 20
71.023651000000001
 30
0.0
  0
VERTEX
  5
8E9
  8
0
 62
     7
 10
183.85479699999999
 20
71.554198999999997
 30
0.0
  0
VERTEX
  5
8EA
  8
0
 62
     7
 10
183.85020399999999
 20
72.345604000000009
 30
0.0
  0
VERTEX
  5
8EB
  8
0
 62
     7
 10
183.81947299999999
 20
72.937042000000005
 30
0.0
  0
VERTEX
  5
8EC
  8
0
 62
     7
 10
183.73365799999999
 20
74.200417000000002
 30
0.0
  0
VERTEX
  5
8ED
  8
0
 62
     7
 10
183.67987099999999
 20
75.453178000000008
 30
0.0
  0
VERTEX
  5
8EE
  8
0
 62
     7
 10
183.6882169999999
 20
76.031113000000005
 30
0.0
  0
VERTEX
  5
8EF
  8
0
 62
     7
 10
183.76776100000001
 20
76.791161000000002
 30
0.0
  0
VERTEX
  5
8F0
  8
0
 62
     7
 10
183.91296399999999
 20
77.305214000000007
 30
0.0
  0
VERTEX
  5
8F1
  8
0
 62
     7
 10
184.01556400000001
 20
77.509040999999996
 30
0.0
  0
VERTEX
  5
8F2
  8
0
 62
     7
 10
184.13916
 20
77.674599000000001
 30
0.0
  0
VERTEX
  5
8F3
  8
0
 62
     7
 10
184.28402700000001
 20
77.800551999999996
 30
0.0
  0
VERTEX
  5
8F4
  8
0
 62
     7
 10
184.45010400000001
 20
77.886223000000001
 30
0.0
  0
VERTEX
  5
8F5
  8
0
 62
     7
 10
184.722351
 20
77.938971999999993
 30
0.0
  0
VERTEX
  5
8F6
  8
0
 62
     7
 10
185.033478
 20
77.912918000000005
 30
0.0
  0
VERTEX
  5
8F7
  8
0
 62
     7
 10
185.50079299999999
 20
77.765609999999995
 30
0.0
  0
VERTEX
  5
8F8
  8
0
 62
     7
 10
186.015198
 20
77.507912000000005
 30
0.0
  0
VERTEX
  5
8F9
  8
0
 62
     7
 10
186.56075999999999
 20
77.164543000000009
 30
0.0
  0
VERTEX
  5
8FA
  8
0
 62
     7
 10
186.94101000000001
 20
76.89631700000001
 30
0.0
  0
VERTEX
  5
8FB
  8
0
 62
     7
 10
187.701874
 20
76.316306999999995
 30
0.0
  0
VERTEX
  5
8FC
  8
0
 62
     7
 10
188.58145099999999
 20
75.623420999999993
 30
0.0
  0
VERTEX
  5
8FD
  8
0
 62
     7
 10
188.99533099999999
 20
75.310516000000007
 30
0.0
  0
VERTEX
  5
8FE
  8
0
 62
     7
 10
189.582886
 20
74.909225000000006
 30
0.0
  0
VERTEX
  5
8FF
  8
0
 62
     7
 10
190.14350899999999
 20
74.602783000000002
 30
0.0
  0
VERTEX
  5
900
  8
0
 62
     7
 10
190.69497699999999
 20
74.394759999999991
 30
0.0
  0
VERTEX
  5
901
  8
0
 62
     7
 10
191.27610799999999
 20
74.270882
 30
0.0
  0
VERTEX
  5
902
  8
0
 62
     7
 10
192.22096300000001
 20
74.205703999999983
 30
0.0
  0
VERTEX
  5
903
  8
0
 62
     7
 10
192.96066300000001
 20
74.208641
 30
0.0
  0
VERTEX
  5
904
  8
0
 62
     7
 10
194.75260900000001
 20
74.249938999999998
 30
0.0
  0
VERTEX
  5
905
  8
0
 62
     7
 10
197.79986600000001
 20
74.286911000000003
 30
0.0
  0
VERTEX
  5
906
  8
0
 62
     7
 10
199.25147999999999
 20
74.324364000000003
 30
0.0
  0
VERTEX
  5
907
  8
0
 62
     7
 10
199.88267500000001
 20
74.363831000000005
 30
0.0
  0
VERTEX
  5
908
  8
0
 62
     7
 10
200.421997
 20
74.424331999999993
 30
0.0
  0
VERTEX
  5
909
  8
0
 62
     7
 10
200.85055500000001
 20
74.510925
 30
0.0
  0
VERTEX
  5
90A
  8
0
 62
     7
 10
201.089844
 20
74.595656999999974
 30
0.0
  0
VERTEX
  5
90B
  8
0
 62
     7
 10
201.253174
 20
74.698996999999991
 30
0.0
  0
VERTEX
  5
90C
  8
0
 62
     7
 10
201.33587600000001
 20
74.817344999999989
 30
0.0
  0
VERTEX
  5
90D
  8
0
 62
     7
 10
201.34382600000001
 20
74.954436999999999
 30
0.0
  0
VERTEX
  5
90E
  8
0
 62
     7
 10
201.270386
 20
75.122169
 30
0.0
  0
VERTEX
  5
90F
  8
0
 62
     7
 10
201.11592099999999
 20
75.310516000000007
 30
0.0
  0
VERTEX
  5
910
  8
0
 62
     7
 10
200.612122
 20
75.728995999999995
 30
0.0
  0
VERTEX
  5
911
  8
0
 62
     7
 10
200.162476
 20
76.036613000000003
 30
0.0
  0
VERTEX
  5
912
  8
0
 62
     7
 10
199.14326500000001
 20
76.679168999999973
 30
0.0
  0
VERTEX
  5
913
  8
0
 62
     7
 10
198.22009299999999
 20
77.288414000000003
 30
0.0
  0
VERTEX
  5
914
  8
0
 62
     7
 10
197.88699299999999
 20
77.555343999999991
 30
0.0
  0
VERTEX
  5
915
  8
0
 62
     7
 10
197.68029799999999
 20
77.786170999999996
 30
0.0
  0
VERTEX
  5
916
  8
0
 62
     7
 10
197.63125600000001
 20
77.886223000000001
 30
0.0
  0
VERTEX
  5
917
  8
0
 62
     7
 10
197.62484699999999
 20
77.997467
 30
0.0
  0
VERTEX
  5
918
  8
0
 62
     7
 10
197.68240399999999
 20
78.090857999999997
 30
0.0
  0
VERTEX
  5
919
  8
0
 62
     7
 10
197.80401599999999
 20
78.166504000000003
 30
0.0
  0
VERTEX
  5
91A
  8
0
 62
     7
 10
197.98809800000001
 20
78.224968000000004
 30
0.0
  0
VERTEX
  5
91B
  8
0
 62
     7
 10
198.32543899999999
 20
78.277946
 30
0.0
  0
VERTEX
  5
91C
  8
0
 62
     7
 10
198.757904
 20
78.305481
 30
0.0
  0
VERTEX
  5
91D
  8
0
 62
     7
 10
199.45796200000001
 20
78.310135000000002
 30
0.0
  0
VERTEX
  5
91E
  8
0
 62
     7
 10
201.122681
 20
78.257407999999998
 30
0.0
  0
VERTEX
  5
91F
  8
0
 62
     7
 10
202.81849700000001
 20
78.218178000000009
 30
0.0
  0
VERTEX
  5
920
  8
0
 62
     7
 10
203.55590799999999
 20
78.240013000000005
 30
0.0
  0
VERTEX
  5
921
  8
0
 62
     7
 10
204.024429
 20
78.285293999999993
 30
0.0
  0
VERTEX
  5
922
  8
0
 62
     7
 10
204.40347299999999
 20
78.360443000000004
 30
0.0
  0
VERTEX
  5
923
  8
0
 62
     7
 10
204.638992
 20
78.446899000000002
 30
0.0
  0
VERTEX
  5
924
  8
0
 62
     7
 10
204.801514
 20
78.557311999999996
 30
0.0
  0
VERTEX
  5
925
  8
0
 62
     7
 10
204.87884500000001
 20
78.667679000000007
 30
0.0
  0
VERTEX
  5
926
  8
0
 62
     7
 10
204.90360999999999
 20
78.795287999999999
 30
0.0
  0
VERTEX
  5
927
  8
0
 62
     7
 10
204.858002
 20
78.987717000000004
 30
0.0
  0
VERTEX
  5
928
  8
0
 62
     7
 10
204.72848500000001
 20
79.208022999999997
 30
0.0
  0
VERTEX
  5
929
  8
0
 62
     7
 10
204.52271999999999
 20
79.454063000000005
 30
0.0
  0
VERTEX
  5
92A
  8
0
 62
     7
 10
204.037476
 20
79.914672999999993
 30
0.0
  0
VERTEX
  5
92B
  8
0
 62
     7
 10
203.64151000000001
 20
80.248549999999994
 30
0.0
  0
VERTEX
  5
92C
  8
0
 62
     7
 10
202.77001999999999
 20
80.953277999999983
 30
0.0
  0
VERTEX
  5
92D
  8
0
 62
     7
 10
201.94151299999999
 20
81.663406000000009
 30
0.0
  0
VERTEX
  5
92E
  8
0
 62
     7
 10
201.59790000000001
 20
82.004195999999993
 30
0.0
  0
VERTEX
  5
92F
  8
0
 62
     7
 10
201.22477699999999
 20
82.480926999999994
 30
0.0
  0
VERTEX
  5
930
  8
0
 62
     7
 10
201.124954
 20
82.677459999999996
 30
0.0
  0
VERTEX
  5
931
  8
0
 62
     7
 10
201.07208299999999
 20
82.861564999999999
 30
0.0
  0
VERTEX
  5
932
  8
0
 62
     7
 10
201.06860399999999
 20
83.032332999999994
 30
0.0
  0
VERTEX
  5
933
  8
0
 62
     7
 10
201.11592099999999
 20
83.189125000000004
 30
0.0
  0
VERTEX
  5
934
  8
0
 62
     7
 10
201.216049
 20
83.333618000000001
 30
0.0
  0
VERTEX
  5
935
  8
0
 62
     7
 10
201.36759900000001
 20
83.463431999999983
 30
0.0
  0
VERTEX
  5
936
  8
0
 62
     7
 10
201.81463600000001
 20
83.680695
 30
0.0
  0
VERTEX
  5
937
  8
0
 62
     7
 10
202.206512
 20
83.796738000000005
 30
0.0
  0
VERTEX
  5
938
  8
0
 62
     7
 10
202.65905799999999
 20
83.892905999999996
 30
0.0
  0
VERTEX
  5
939
  8
0
 62
     7
 10
203.33109999999999
 20
83.996155000000016
 30
0.0
  0
VERTEX
  5
93A
  8
0
 62
     7
 10
204.76083399999999
 20
84.152664000000001
 30
0.0
  0
VERTEX
  5
93B
  8
0
 62
     7
 10
205.86952199999999
 20
84.284583999999995
 30
0.0
  0
VERTEX
  5
93C
  8
0
 62
     7
 10
206.317871
 20
84.366180000000014
 30
0.0
  0
VERTEX
  5
93D
  8
0
 62
     7
 10
206.59075899999999
 20
84.438575999999983
 30
0.0
  0
VERTEX
  5
93E
  8
0
 62
     7
 10
206.80169699999999
 20
84.522582999999997
 30
0.0
  0
VERTEX
  5
93F
  8
0
 62
     7
 10
206.991333
 20
84.673255999999995
 30
0.0
  0
VERTEX
  5
940
  8
0
 62
     7
 10
207.021683
 20
84.855750999999998
 30
0.0
  0
VERTEX
  5
941
  8
0
 62
     7
 10
206.95297199999999
 20
84.99691
 30
0.0
  0
VERTEX
  5
942
  8
0
 62
     7
 10
206.816757
 20
85.151756000000006
 30
0.0
  0
VERTEX
  5
943
  8
0
 62
     7
 10
206.54153400000001
 20
85.376991000000004
 30
0.0
  0
VERTEX
  5
944
  8
0
 62
     7
 10
205.753387
 20
85.873031999999995
 30
0.0
  0
VERTEX
  5
945
  8
0
 62
     7
 10
204.39297500000001
 20
86.635597000000004
 30
0.0
  0
VERTEX
  5
946
  8
0
 62
     7
 10
203.84304800000001
 20
86.976905999999985
 30
0.0
  0
VERTEX
  5
947
  8
0
 62
     7
 10
203.484283
 20
87.271072000000004
 30
0.0
  0
VERTEX
  5
948
  8
0
 62
     7
 10
203.39724699999999
 20
87.394767999999999
 30
0.0
  0
VERTEX
  5
949
  8
0
 62
     7
 10
203.37634299999999
 20
87.493774000000002
 30
0.0
  0
VERTEX
  5
94A
  8
0
 62
     7
 10
203.41369599999999
 20
87.578484000000003
 30
0.0
  0
VERTEX
  5
94B
  8
0
 62
     7
 10
203.50979599999999
 20
87.648917999999995
 30
0.0
  0
VERTEX
  5
94C
  8
0
 62
     7
 10
203.75619499999999
 20
87.727218999999977
 30
0.0
  0
VERTEX
  5
94D
  8
0
 62
     7
 10
204.12264999999999
 20
87.777198999999996
 30
0.0
  0
VERTEX
  5
94E
  8
0
 62
     7
 10
204.59979200000001
 20
87.801604999999995
 30
0.0
  0
VERTEX
  5
94F
  8
0
 62
     7
 10
205.723602
 20
87.791968999999995
 30
0.0
  0
VERTEX
  5
950
  8
0
 62
     7
 10
206.606964
 20
87.757614000000004
 30
0.0
  0
VERTEX
  5
951
  8
0
 62
     7
 10
208.53360000000001
 20
87.664245999999977
 30
0.0
  0
VERTEX
  5
952
  8
0
 62
     7
 10
210.41378800000001
 20
87.604340000000008
 30
0.0
  0
VERTEX
  5
953
  8
0
 62
     7
 10
211.24096700000001
 20
87.610846999999993
 30
0.0
  0
VERTEX
  5
954
  8
0
 62
     7
 10
212.245789
 20
87.689278000000002
 30
0.0
  0
VERTEX
  5
955
  8
0
 62
     7
 10
212.64471399999999
 20
87.772980000000004
 30
0.0
  0
VERTEX
  5
956
  8
0
 62
     7
 10
212.92654400000001
 20
87.888664000000006
 30
0.0
  0
VERTEX
  5
957
  8
0
 62
     7
 10
213.08500699999999
 20
88.037491000000003
 30
0.0
  0
VERTEX
  5
958
  8
0
 62
     7
 10
213.12033099999999
 20
88.147452999999999
 30
0.0
  0
VERTEX
  5
959
  8
0
 62
     7
 10
213.10701
 20
88.270148999999989
 30
0.0
  0
VERTEX
  5
95A
  8
0
 62
     7
 10
213.01480100000001
 20
88.454009999999997
 30
0.0
  0
VERTEX
  5
95B
  8
0
 62
     7
 10
212.841644
 20
88.658523999999986
 30
0.0
  0
VERTEX
  5
95C
  8
0
 62
     7
 10
212.54679899999999
 20
88.919852999999989
 30
0.0
  0
VERTEX
  5
95D
  8
0
 62
     7
 10
212.16366600000001
 20
89.202720999999997
 30
0.0
  0
VERTEX
  5
95E
  8
0
 62
     7
 10
211.54174800000001
 20
89.605804000000006
 30
0.0
  0
VERTEX
  5
95F
  8
0
 62
     7
 10
210.07415800000001
 20
90.457237000000006
 30
0.0
  0
VERTEX
  5
960
  8
0
 62
     7
 10
208.61012299999999
 20
91.288498000000004
 30
0.0
  0
VERTEX
  5
961
  8
0
 62
     7
 10
207.990723
 20
91.668441999999985
 30
0.0
  0
VERTEX
  5
962
  8
0
 62
     7
 10
207.60789500000001
 20
91.930221999999986
 30
0.0
  0
VERTEX
  5
963
  8
0
 62
     7
 10
207.31042500000001
 20
92.168991000000005
 30
0.0
  0
VERTEX
  5
964
  8
0
 62
     7
 10
207.109116
 20
92.382895999999988
 30
0.0
  0
VERTEX
  5
965
  8
0
 62
     7
 10
207.01156599999999
 20
92.571197999999995
 30
0.0
  0
VERTEX
  5
966
  8
0
 62
     7
 10
207.021683
 20
92.734351999999987
 30
0.0
  0
VERTEX
  5
967
  8
0
 62
     7
 10
207.095001
 20
92.836699999999979
 30
0.0
  0
VERTEX
  5
968
  8
0
 62
     7
 10
207.22186300000001
 20
92.928200000000004
 30
0.0
  0
VERTEX
  5
969
  8
0
 62
     7
 10
207.46946700000001
 20
93.035942000000006
 30
0.0
  0
VERTEX
  5
96A
  8
0
 62
     7
 10
208.19674699999999
 20
93.219666000000004
 30
0.0
  0
VERTEX
  5
96B
  8
0
 62
     7
 10
209.274857
 20
93.421149999999983
 30
0.0
  0
VERTEX
  5
96C
  8
0
 62
     7
 10
210.45784
 20
93.681351000000006
 30
0.0
  0
VERTEX
  5
96D
  8
0
 62
     7
 10
211.09277299999999
 20
93.874588000000003
 30
0.0
  0
VERTEX
  5
96E
  8
0
 62
     7
 10
211.67491100000001
 20
94.114006000000003
 30
0.0
  0
VERTEX
  5
96F
  8
0
 62
     7
 10
212.17981
 20
94.406006000000005
 30
0.0
  0
VERTEX
  5
970
  8
0
 62
     7
 10
212.58892800000001
 20
94.754012999999986
 30
0.0
  0
VERTEX
  5
971
  8
0
 62
     7
 10
212.89123499999999
 20
95.15786700000001
 30
0.0
  0
VERTEX
  5
972
  8
0
 62
     7
 10
213.08500699999999
 20
95.613129000000001
 30
0.0
  0
VERTEX
  5
973
  8
0
 62
     7
 10
213.17639199999999
 20
96.081496999999999
 30
0.0
  0
VERTEX
  5
974
  8
0
 62
     7
 10
213.196136
 20
96.408821000000003
 30
0.0
  0
VERTEX
  5
975
  8
0
 62
     7
 10
213.16830400000001
 20
97.079964000000004
 30
0.0
  0
VERTEX
  5
976
  8
0
 62
     7
 10
213.084045
 20
98.054367000000013
 30
0.0
  0
VERTEX
  5
977
  8
0
 62
     7
 10
213.08500699999999
 20
98.491844
 30
0.0
  0
VERTEX
  5
978
  8
0
 62
     7
 10
213.122894
 20
98.777031000000008
 30
0.0
  0
VERTEX
  5
979
  8
0
 62
     7
 10
213.19979900000001
 20
99.031456000000006
 30
0.0
  0
VERTEX
  5
97A
  8
0
 62
     7
 10
213.371094
 20
99.318230000000014
 30
0.0
  0
VERTEX
  5
97B
  8
0
 62
     7
 10
213.62666300000001
 20
99.541634000000002
 30
0.0
  0
VERTEX
  5
97C
  8
0
 62
     7
 10
213.96804800000001
 20
99.700485
 30
0.0
  0
VERTEX
  5
97D
  8
0
 62
     7
 10
214.43789699999999
 20
99.802086000000003
 30
0.0
  0
VERTEX
  5
97E
  8
0
 62
     7
 10
214.99830600000001
 20
99.832115000000016
 30
0.0
  0
VERTEX
  5
97F
  8
0
 62
     7
 10
215.66894500000001
 20
99.794585999999995
 30
0.0
  0
VERTEX
  5
980
  8
0
 62
     7
 10
216.40332000000001
 20
99.697143999999994
 30
0.0
  0
VERTEX
  5
981
  8
0
 62
     7
 10
217.41438299999999
 20
99.502312000000003
 30
0.0
  0
VERTEX
  5
982
  8
0
 62
     7
 10
218.096588
 20
99.344238000000004
 30
0.0
  0
VERTEX
  5
983
  8
0
 62
     7
 10
219.398956
 20
99.006011999999998
 30
0.0
  0
VERTEX
  5
984
  8
0
 62
     7
 10
220.939301
 20
98.592453000000006
 30
0.0
  0
VERTEX
  5
985
  8
0
 62
     7
 10
221.418533
 20
98.491844
 30
0.0
  0
VERTEX
  5
986
  8
0
 62
     7
 10
221.62692300000001
 20
98.481499000000014
 30
0.0
  0
VERTEX
  5
987
  8
0
 62
     7
 10
221.66450499999999
 20
98.492142000000001
 30
0.0
  0
VERTEX
  5
988
  8
0
 62
     7
 10
221.67726099999999
 20
98.500206000000006
 30
0.0
  0
VERTEX
  5
989
  8
0
 62
     7
 10
221.69158899999999
 20
98.528427000000008
 30
0.0
  0
VERTEX
  5
98A
  8
0
 62
     7
 10
221.68502799999999
 20
98.559402000000006
 30
0.0
  0
VERTEX
  5
98B
  8
0
 62
     7
 10
221.64553799999999
 20
98.619972000000004
 30
0.0
  0
VERTEX
  5
98C
  8
0
 62
     7
 10
221.46284499999999
 20
98.791779000000005
 30
0.0
  0
VERTEX
  5
98D
  8
0
 62
     7
 10
221.15016199999999
 20
99.029708999999997
 30
0.0
  0
VERTEX
  5
98E
  8
0
 62
     7
 10
220.19244399999999
 20
99.688011000000003
 30
0.0
  0
VERTEX
  5
98F
  8
0
 62
     7
 10
218.21838399999999
 20
101.030907
 30
0.0
  0
VERTEX
  5
990
  8
0
 62
     7
 10
217.157578
 20
101.79845400000001
 30
0.0
  0
VERTEX
  5
991
  8
0
 62
     7
 10
216.27297999999999
 20
102.48967
 30
0.0
  0
VERTEX
  5
992
  8
0
 62
     7
 10
215.48783900000001
 20
103.173248
 30
0.0
  0
VERTEX
  5
993
  8
0
 62
     7
 10
214.90707399999999
 20
103.76306200000001
 30
0.0
  0
VERTEX
  5
994
  8
0
 62
     7
 10
214.475143
 20
104.315376
 30
0.0
  0
VERTEX
  5
995
  8
0
 62
     7
 10
214.30102500000001
 20
104.616302
 30
0.0
  0
VERTEX
  5
996
  8
0
 62
     7
 10
214.18931599999999
 20
104.898399
 30
0.0
  0
VERTEX
  5
997
  8
0
 62
     7
 10
214.14634699999999
 20
105.111031
 30
0.0
  0
VERTEX
  5
998
  8
0
 62
     7
 10
214.14617899999999
 20
105.309814
 30
0.0
  0
VERTEX
  5
999
  8
0
 62
     7
 10
214.187546
 20
105.49034899999999
 30
0.0
  0
VERTEX
  5
99A
  8
0
 62
     7
 10
214.26965300000001
 20
105.65707399999999
 30
0.0
  0
VERTEX
  5
99B
  8
0
 62
     7
 10
214.39166299999999
 20
105.809967
 30
0.0
  0
VERTEX
  5
99C
  8
0
 62
     7
 10
214.552322
 20
105.949196
 30
0.0
  0
VERTEX
  5
99D
  8
0
 62
     7
 10
214.982574
 20
106.188042
 30
0.0
  0
VERTEX
  5
99E
  8
0
 62
     7
 10
215.43575999999999
 20
106.347702
 30
0.0
  0
VERTEX
  5
99F
  8
0
 62
     7
 10
215.96490499999999
 20
106.47732499999999
 30
0.0
  0
VERTEX
  5
9A0
  8
0
 62
     7
 10
216.76367200000001
 20
106.61058800000001
 30
0.0
  0
VERTEX
  5
9A1
  8
0
 62
     7
 10
217.33857699999999
 20
106.679382
 30
0.0
  0
VERTEX
  5
9A2
  8
0
 62
     7
 10
218.53637699999999
 20
106.785599
 30
0.0
  0
VERTEX
  5
9A3
  8
0
 62
     7
 10
220.16778600000001
 20
106.91609200000001
 30
0.0
  0
VERTEX
  5
9A4
  8
0
 62
     7
 10
220.887405
 20
106.997292
 30
0.0
  0
VERTEX
  5
9A5
  8
0
 62
     7
 10
221.360443
 20
107.07357
 30
0.0
  0
VERTEX
  5
9A6
  8
0
 62
     7
 10
221.764252
 20
107.167252
 30
0.0
  0
VERTEX
  5
9A7
  8
0
 62
     7
 10
222.08972199999999
 20
107.28162399999999
 30
0.0
  0
VERTEX
  5
9A8
  8
0
 62
     7
 10
222.32965100000001
 20
107.41937299999999
 30
0.0
  0
VERTEX
  5
9A9
  8
0
 62
     7
 10
222.47908000000001
 20
107.582489
 30
0.0
  0
VERTEX
  5
9AA
  8
0
 62
     7
 10
222.530136
 20
107.72184799999999
 30
0.0
  0
VERTEX
  5
9AB
  8
0
 62
     7
 10
222.52908300000001
 20
107.876259
 30
0.0
  0
VERTEX
  5
9AC
  8
0
 62
     7
 10
222.46369899999999
 20
108.07405900000001
 30
0.0
  0
VERTEX
  5
9AD
  8
0
 62
     7
 10
222.33183299999999
 20
108.29143500000001
 30
0.0
  0
VERTEX
  5
9AE
  8
0
 62
     7
 10
222.08131399999999
 20
108.587097
 30
0.0
  0
VERTEX
  5
9AF
  8
0
 62
     7
 10
221.743652
 20
108.90889
 30
0.0
  0
VERTEX
  5
9B0
  8
0
 62
     7
 10
221.178436
 20
109.37275699999999
 30
0.0
  0
VERTEX
  5
9B1
  8
0
 62
     7
 10
219.78166200000001
 20
110.38258399999999
 30
0.0
  0
VERTEX
  5
9B2
  8
0
 62
     7
 10
218.28723099999999
 20
111.425079
 30
0.0
  0
VERTEX
  5
9B3
  8
0
 62
     7
 10
217.603363
 20
111.928276
 30
0.0
  0
VERTEX
  5
9B4
  8
0
 62
     7
 10
216.76211499999999
 20
112.628113
 30
0.0
  0
VERTEX
  5
9B5
  8
0
 62
     7
 10
216.454071
 20
112.944092
 30
0.0
  0
VERTEX
  5
9B6
  8
0
 62
     7
 10
216.23588599999999
 20
113.232765
 30
0.0
  0
VERTEX
  5
9B7
  8
0
 62
     7
 10
216.115768
 20
113.49148599999999
 30
0.0
  0
VERTEX
  5
9B8
  8
0
 62
     7
 10
216.105774
 20
113.750252
 30
0.0
  0
VERTEX
  5
9B9
  8
0
 62
     7
 10
216.23616000000001
 20
113.965637
 30
0.0
  0
VERTEX
  5
9BA
  8
0
 62
     7
 10
216.50494399999999
 20
114.137947
 30
0.0
  0
VERTEX
  5
9BB
  8
0
 62
     7
 10
216.90593000000001
 20
114.26902
 30
0.0
  0
VERTEX
  5
9BC
  8
0
 62
     7
 10
217.428101
 20
114.361603
 30
0.0
  0
VERTEX
  5
9BD
  8
0
 62
     7
 10
218.28582800000001
 20
114.432236
 30
0.0
  0
VERTEX
  5
9BE
  8
0
 62
     7
 10
218.941956
 20
114.451324
 30
0.0
  0
VERTEX
  5
9BF
  8
0
 62
     7
 10
220.39099100000001
 20
114.441208
 30
0.0
  0
VERTEX
  5
9C0
  8
0
 62
     7
 10
222.102631
 20
114.392357
 30
0.0
  0
VERTEX
  5
9C1
  8
0
 62
     7
 10
223.71125799999999
 20
114.358925
 30
0.0
  0
VERTEX
  5
9C2
  8
0
 62
     7
 10
224.63104200000001
 20
114.37354999999999
 30
0.0
  0
VERTEX
  5
9C3
  8
0
 62
     7
 10
225.023819
 20
114.398026
 30
0.0
  0
VERTEX
  5
9C4
  8
0
 62
     7
 10
225.63511700000001
 20
114.488388
 30
0.0
  0
VERTEX
  5
9C5
  8
0
 62
     7
 10
225.85015899999999
 20
114.557709
 30
0.0
  0
VERTEX
  5
9C6
  8
0
 62
     7
 10
225.972702
 20
114.624802
 30
0.0
  0
VERTEX
  5
9C7
  8
0
 62
     7
 10
226.051987
 20
114.70358299999999
 30
0.0
  0
VERTEX
  5
9C8
  8
0
 62
     7
 10
226.08625799999999
 20
114.794327
 30
0.0
  0
VERTEX
  5
9C9
  8
0
 62
     7
 10
226.07431
 20
114.89762899999999
 30
0.0
  0
VERTEX
  5
9CA
  8
0
 62
     7
 10
226.01490799999999
 20
115.013847
 30
0.0
  0
VERTEX
  5
9CB
  8
0
 62
     7
 10
225.90708900000001
 20
115.14328
 30
0.0
  0
VERTEX
  5
9CC
  8
0
 62
     7
 10
225.57815600000001
 20
115.417725
 30
0.0
  0
VERTEX
  5
9CD
  8
0
 62
     7
 10
225.07797199999999
 20
115.739014
 30
0.0
  0
VERTEX
  5
9CE
  8
0
 62
     7
 10
224.27572599999999
 20
116.17366800000001
 30
0.0
  0
VERTEX
  5
9CF
  8
0
 62
     7
 10
223.23661799999999
 20
116.67318
 30
0.0
  0
SEQEND
  5
9D0
  8
0
 62
     7
  0
POLYLINE
  5
220
  8
0
 62
     7
 66
     1
 10
0.0
 20
0.0
 30
0.0
  0
VERTEX
  5
9D1
  8
0
 62
     7
 10
135.05867000000001
 20
116.67318
 30
0.0
  0
VERTEX
  5
9D2
  8
0
 62
     7
 10
135.495453
 20
116.20534499999999
 30
0.0
  0
VERTEX
  5
9D3
  8
0
 62
     7
 10
135.87548799999999
 20
115.739952
 30
0.0
  0
VERTEX
  5
9D4
  8
0
 62
     7
 10
136.29409799999999
 20
115.123222
 30
0.0
  0
VERTEX
  5
9D5
  8
0
 62
     7
 10
136.61273199999999
 20
114.51082599999999
 30
0.0
  0
VERTEX
  5
9D6
  8
0
 62
     7
 10
136.83303799999999
 20
113.90273999999999
 30
0.0
  0
VERTEX
  5
9D7
  8
0
 62
     7
 10
136.957855
 20
113.29895
 30
0.0
  0
VERTEX
  5
9D8
  8
0
 62
     7
 10
136.991592
 20
112.699417
 30
0.0
  0
VERTEX
  5
9D9
  8
0
 62
     7
 10
136.94064299999999
 20
112.10408
 30
0.0
  0
VERTEX
  5
9DA
  8
0
 62
     7
 10
136.85192900000001
 20
111.66027800000001
 30
0.0
  0
VERTEX
  5
9DB
  8
0
 62
     7
 10
136.72500600000001
 20
111.218765
 30
0.0
  0
VERTEX
  5
9DC
  8
0
 62
     7
 10
136.493256
 20
110.60321
 30
0.0
  0
VERTEX
  5
9DD
  8
0
 62
     7
 10
136.31191999999999
 20
110.19519
 30
0.0
  0
VERTEX
  5
9DE
  8
0
 62
     7
 10
135.91197199999999
 20
109.384514
 30
0.0
  0
VERTEX
  5
9DF
  8
0
 62
     7
 10
135.31367499999999
 20
108.18034400000001
 30
0.0
  0
VERTEX
  5
9E0
  8
0
 62
     7
 10
135.05867000000001
 20
107.582489
 30
0.0
  0
VERTEX
  5
9E1
  8
0
 62
     7
 10
134.88681
 20
107.09229999999999
 30
0.0
  0
VERTEX
  5
9E2
  8
0
 62
     7
 10
134.756012
 20
106.602844
 30
0.0
  0
VERTEX
  5
9E3
  8
0
 62
     7
 10
134.67056299999999
 20
106.11350299999999
 30
0.0
  0
VERTEX
  5
9E4
  8
0
 62
     7
 10
134.63284300000001
 20
105.623611
 30
0.0
  0
VERTEX
  5
9E5
  8
0
 62
     7
 10
134.641617
 20
105.160843
 30
0.0
  0
VERTEX
  5
9E6
  8
0
 62
     7
 10
134.692688
 20
104.696335
 30
0.0
  0
VERTEX
  5
9E7
  8
0
 62
     7
 10
134.913681
 20
103.75959
 30
0.0
  0
VERTEX
  5
9E8
  8
0
 62
     7
 10
135.17010500000001
 20
103.049477
 30
0.0
  0
VERTEX
  5
9E9
  8
0
 62
     7
 10
135.37652600000001
 20
102.57064099999999
 30
0.0
  0
VERTEX
  5
9EA
  8
0
 62
     7
 10
135.852081
 20
101.59766399999999
 30
0.0
  0
VERTEX
  5
9EB
  8
0
 62
     7
 10
136.441498
 20
100.475418
 30
0.0
  0
VERTEX
  5
9EC
  8
0
 62
     7
 10
137.02792400000001
 20
99.321404000000015
 30
0.0
  0
VERTEX
  5
9ED
  8
0
 62
     7
 10
137.50097700000001
 20
98.266639999999995
 30
0.0
  0
VERTEX
  5
9EE
  8
0
 62
     7
 10
137.893631
 20
97.189316000000005
 30
0.0
  0
VERTEX
  5
9EF
  8
0
 62
     7
 10
138.20056199999999
 20
96.027191000000016
 30
0.0
  0
VERTEX
  5
9F0
  8
0
 62
     7
 10
138.39183
 20
94.855514999999997
 30
0.0
  0
VERTEX
  5
9F1
  8
0
 62
     7
 10
138.50741600000001
 20
93.393173000000004
 30
0.0
  0
VERTEX
  5
9F2
  8
0
 62
     7
 10
138.58531199999999
 20
91.974968000000004
 30
0.0
  0
VERTEX
  5
9F3
  8
0
 62
     7
 10
138.716858
 20
90.866462999999996
 30
0.0
  0
VERTEX
  5
9F4
  8
0
 62
     7
 10
138.82955899999999
 20
90.337303000000006
 30
0.0
  0
VERTEX
  5
9F5
  8
0
 62
     7
 10
138.970428
 20
89.861358999999979
 30
0.0
  0
VERTEX
  5
9F6
  8
0
 62
     7
 10
139.149384
 20
89.4011
 30
0.0
  0
VERTEX
  5
9F7
  8
0
 62
     7
 10
139.388306
 20
88.917800999999997
 30
0.0
  0
VERTEX
  5
9F8
  8
0
 62
     7
 10
139.67169200000001
 20
88.450339999999997
 30
0.0
  0
VERTEX
  5
9F9
  8
0
 62
     7
 10
140.11013800000001
 20
87.846725000000006
 30
0.0
  0
VERTEX
  5
9FA
  8
0
 62
     7
 10
140.43310500000001
 20
87.453011000000004
 30
0.0
  0
VERTEX
  5
9FB
  8
0
 62
     7
 10
141.12335200000001
 20
86.673621999999995
 30
0.0
  0
VERTEX
  5
9FC
  8
0
 62
     7
 10
141.82467700000001
 20
85.885353000000009
 30
0.0
  0
VERTEX
  5
9FD
  8
0
 62
     7
 10
142.16186500000001
 20
85.481063999999989
 30
0.0
  0
VERTEX
  5
9FE
  8
0
 62
     7
 10
142.63378900000001
 20
84.855750999999998
 30
0.0
  0
VERTEX
  5
9FF
  8
0
 62
     7
 10
142.973297
 20
84.336287999999996
 30
0.0
  0
VERTEX
  5
A00
  8
0
 62
     7
 10
143.27420000000001
 20
83.798523000000003
 30
0.0
  0
VERTEX
  5
A01
  8
0
 62
     7
 10
143.53530900000001
 20
83.242676000000003
 30
0.0
  0
VERTEX
  5
A02
  8
0
 62
     7
 10
143.75813299999999
 20
82.670128000000005
 30
0.0
  0
VERTEX
  5
A03
  8
0
 62
     7
 10
144.105728
 20
81.484961999999996
 30
0.0
  0
VERTEX
  5
A04
  8
0
 62
     7
 10
144.367142
 20
80.269843999999992
 30
0.0
  0
VERTEX
  5
A05
  8
0
 62
     7
 10
144.69940199999999
 20
78.661773999999994
 30
0.0
  0
VERTEX
  5
A06
  8
0
 62
     7
 10
144.90664699999999
 20
77.886223000000001
 30
0.0
  0
VERTEX
  5
A07
  8
0
 62
     7
 10
145.085815
 20
77.352264000000005
 30
0.0
  0
VERTEX
  5
A08
  8
0
 62
     7
 10
145.297729
 20
76.836967000000001
 30
0.0
  0
VERTEX
  5
A09
  8
0
 62
     7
 10
145.63931299999999
 20
76.182761999999997
 30
0.0
  0
VERTEX
  5
A0A
  8
0
 62
     7
 10
146.05642700000001
 20
75.569962000000004
 30
0.0
  0
VERTEX
  5
A0B
  8
0
 62
     7
 10
146.55561800000001
 20
75.001694000000001
 30
0.0
  0
VERTEX
  5
A0C
  8
0
 62
     7
 10
147.220947
 20
74.418304000000006
 30
0.0
  0
VERTEX
  5
A0D
  8
0
 62
     7
 10
148.0
 20
73.895966000000001
 30
0.0
  0
VERTEX
  5
A0E
  8
0
 62
     7
 10
148.894867
 20
73.435683999999995
 30
0.0
  0
VERTEX
  5
A0F
  8
0
 62
     7
 10
149.90640300000001
 20
73.037856999999974
 30
0.0
  0
VERTEX
  5
A10
  8
0
 62
     7
 10
148.85751300000001
 20
66.818611000000004
 30
0.0
  0
SEQEND
  5
A11
  8
0
 62
     7
  0
POLYLINE
  5
532
  8
0
 62
     7
 66
     1
 10
0.0
 20
0.0
 30
0.0
  0
VERTEX
  5
A12
  8
0
 62
     7
 10
176.01519162445581
 20
179.47657920847411
 30
0.0
 42
0.0578894763048717
  0
VERTEX
  5
A13
  8
0
 62
     7
 10
185.78834718097511
 20
183.402498944249
 30
0.0
  0
VERTEX
  5
A14
  8
0
 62
     7
 10
185.7884054308461
 20
183.4025305869327
 30
0.0
  0
VERTEX
  5
A15
  8
0
 62
     7
 10
185.62780799999999
 20
184.92025799999999
 30
0.0
  0
VERTEX
  5
A16
  8
0
 62
     7
 10
185.57461499999999
 20
186.436218
 30
0.0
  0
VERTEX
  5
A17
  8
0
 62
     7
 10
185.62851000000001
 20
187.94940199999999
 30
0.0
  0
VERTEX
  5
A18
  8
0
 62
     7
 10
185.788422
 20
189.45748900000001
 30
0.0
  0
VERTEX
  5
A19
  8
0
 62
     7
 10
186.04367099999999
 20
190.91447400000001
 30
0.0
  0
VERTEX
  5
A1A
  8
0
 62
     7
 10
186.39444
 20
192.35644500000001
 30
0.0
  0
VERTEX
  5
A1B
  8
0
 62
     7
 10
186.836975
 20
193.775848
 30
0.0
  0
VERTEX
  5
A1C
  8
0
 62
     7
 10
187.36672999999999
 20
195.16468800000001
 30
0.0
  0
VERTEX
  5
A1D
  8
0
 62
     7
 10
187.76577800000001
 20
196.06987000000001
 30
0.0
  0
VERTEX
  5
A1E
  8
0
 62
     7
 10
188.19961499999999
 20
196.956299
 30
0.0
  0
VERTEX
  5
A1F
  8
0
 62
     7
 10
189.16461200000001
 20
198.668015
 30
0.0
  0
VERTEX
  5
A20
  8
0
 62
     7
 10
190.264771
 20
200.32101399999999
 30
0.0
  0
VERTEX
  5
A21
  8
0
 62
     7
 10
191.470856
 20
201.896805
 30
0.0
  0
VERTEX
  5
A22
  8
0
 62
     7
 10
192.76765399999999
 20
203.41095000000001
 30
0.0
  0
VERTEX
  5
A23
  8
0
 62
     7
 10
193.790863
 20
204.51556400000001
 30
0.0
  0
VERTEX
  5
A24
  8
0
 62
     7
 10
194.85084499999999
 20
205.598297
 30
0.0
  0
VERTEX
  5
A25
  8
0
 62
     7
 10
195.98202499999999
 20
206.69693000000001
 30
0.0
  0
VERTEX
  5
A26
  8
0
 62
     7
 10
197.14112900000001
 20
207.76585399999999
 30
0.0
  0
VERTEX
  5
A27
  8
0
 62
     7
 10
198.304947
 20
208.77818300000001
 30
0.0
  0
VERTEX
  5
A28
  8
0
 62
     7
 10
199.490433
 20
209.738449
 30
0.0
  0
VERTEX
  5
A29
  8
0
 62
     7
 10
200.70941199999999
 20
210.64007599999999
 30
0.0
  0
VERTEX
  5
A2A
  8
0
 62
     7
 10
201.958618
 20
211.46237199999999
 30
0.0
  0
VERTEX
  5
A2B
  8
0
 62
     7
 10
203.07461499999999
 20
212.103455
 30
0.0
  0
VERTEX
  5
A2C
  8
0
 62
     7
 10
204.23245199999999
 20
212.67449999999999
 30
0.0
  0
VERTEX
  5
A2D
  8
0
 62
     7
 10
205.442657
 20
213.175354
 30
0.0
  0
VERTEX
  5
A2E
  8
0
 62
     7
 10
206.389252
 20
213.50668300000001
 30
0.0
  0
VERTEX
  5
A2F
  8
0
 62
     7
 10
207.37017800000001
 20
213.80282600000001
 30
0.0
  0
VERTEX
  5
A30
  8
0
 62
     7
 10
209.42179899999999
 20
214.30557300000001
 30
0.0
  0
VERTEX
  5
A31
  8
0
 62
     7
 10
211.846405
 20
214.78787199999999
 30
0.0
  0
VERTEX
  5
A32
  8
0
 62
     7
 10
216.17385899999999
 20
215.727158
 30
0.0
  0
VERTEX
  5
A33
  8
0
 62
     7
 10
217.31585699999999
 20
216.01866100000001
 30
0.0
  0
VERTEX
  5
A34
  8
0
 62
     7
 10
217.87893700000001
 20
216.147919
 30
0.0
  0
VERTEX
  5
A35
  8
0
 62
     7
 10
218.750732
 20
216.30249000000001
 30
0.0
  0
VERTEX
  5
A36
  8
0
 62
     7
 10
219.45034799999999
 20
216.37458799999999
 30
0.0
  0
VERTEX
  5
A37
  8
0
 62
     7
 10
220.208405
 20
216.39797999999999
 30
0.0
  0
VERTEX
  5
A38
  8
0
 62
     7
 10
221.26101700000001
 20
216.34504699999999
 30
0.0
  0
VERTEX
  5
A39
  8
0
 62
     7
 10
222.43450899999999
 20
216.18852200000001
 30
0.0
  0
VERTEX
  5
A3A
  8
0
 62
     7
 10
223.71508800000001
 20
215.92227199999999
 30
0.0
  0
VERTEX
  5
A3B
  8
0
 62
     7
 10
225.05892900000001
 20
215.549454
 30
0.0
  0
VERTEX
  5
A3C
  8
0
 62
     7
 10
225.93895000000001
 20
215.25320400000001
 30
0.0
  0
VERTEX
  5
A3D
  8
0
 62
     7
 10
226.78054800000001
 20
214.92430100000001
 30
0.0
  0
VERTEX
  5
A3E
  8
0
 62
     7
 10
227.40116900000001
 20
214.64389
 30
0.0
  0
VERTEX
  5
A3F
  8
0
 62
     7
 10
227.95434599999999
 20
214.3535
 30
0.0
  0
VERTEX
  5
A40
  8
0
 62
     7
 10
228.61648600000001
 20
213.91066000000001
 30
0.0
  0
VERTEX
  5
A41
  8
0
 62
     7
 10
228.85629299999999
 20
213.69085699999999
 30
0.0
  0
VERTEX
  5
A42
  8
0
 62
     7
 10
229.02719099999999
 20
213.47491500000001
 30
0.0
  0
VERTEX
  5
A43
  8
0
 62
     7
 10
229.124619
 20
213.26464799999999
 30
0.0
  0
VERTEX
  5
A44
  8
0
 62
     7
 10
229.145554
 20
213.06167600000001
 30
0.0
  0
VERTEX
  5
A45
  8
0
 62
     7
 10
229.10140999999999
 20
212.894012
 30
0.0
  0
VERTEX
  5
A46
  8
0
 62
     7
 10
229.00010700000001
 20
212.733307
 30
0.0
  0
VERTEX
  5
A47
  8
0
 62
     7
 10
228.817657
 20
212.55990600000001
 30
0.0
  0
VERTEX
  5
A48
  8
0
 62
     7
 10
228.56663499999999
 20
212.396332
 30
0.0
  0
VERTEX
  5
A49
  8
0
 62
     7
 10
228.04669200000001
 20
212.16009500000001
 30
0.0
  0
VERTEX
  5
A4A
  8
0
 62
     7
 10
227.391617
 20
211.94760099999999
 30
0.0
  0
VERTEX
  5
A4B
  8
0
 62
     7
 10
226.67953499999999
 20
211.76898199999999
 30
0.0
  0
VERTEX
  5
A4C
  8
0
 62
     7
 10
225.05892900000001
 20
211.46237199999999
 30
0.0
  0
VERTEX
  5
A4D
  8
0
 62
     7
 10
222.932434
 20
211.158661
 30
0.0
  0
VERTEX
  5
A4E
  8
0
 62
     7
 10
220.86454800000001
 20
210.90557899999999
 30
0.0
  0
VERTEX
  5
A4F
  8
0
 62
     7
 10
219.00448600000001
 20
210.67877200000001
 30
0.0
  0
VERTEX
  5
A50
  8
0
 62
     7
 10
216.74560500000001
 20
210.34468100000001
 30
0.0
  0
VERTEX
  5
A51
  8
0
 62
     7
 10
215.784302
 20
210.14932300000001
 30
0.0
  0
VERTEX
  5
A52
  8
0
 62
     7
 10
214.98164399999999
 20
209.935822
 30
0.0
  0
VERTEX
  5
A53
  8
0
 62
     7
 10
214.19042999999999
 20
209.656036
 30
0.0
  0
VERTEX
  5
A54
  8
0
 62
     7
 10
213.716599
 20
209.448273
 30
0.0
  0
VERTEX
  5
A55
  8
0
 62
     7
 10
212.797653
 20
208.97457900000001
 30
0.0
  0
VERTEX
  5
A56
  8
0
 62
     7
 10
210.54853800000001
 20
207.72912600000001
 30
0.0
  0
VERTEX
  5
A57
  8
0
 62
     7
 10
207.468658
 20
206.074219
 30
0.0
  0
VERTEX
  5
A58
  8
0
 62
     7
 10
205.48107899999999
 20
204.96946700000001
 30
0.0
  0
VERTEX
  5
A59
  8
0
 62
     7
 10
204.45713799999999
 20
204.36819499999999
 30
0.0
  0
VERTEX
  5
A5A
  8
0
 62
     7
 10
202.92836
 20
203.40661600000001
 30
0.0
  0
VERTEX
  5
A5B
  8
0
 62
     7
 10
201.603928
 20
202.48559599999999
 30
0.0
  0
VERTEX
  5
A5C
  8
0
 62
     7
 10
200.359039
 20
201.5112
 30
0.0
  0
VERTEX
  5
A5D
  8
0
 62
     7
 10
199.07894899999999
 20
200.346405
 30
0.0
  0
VERTEX
  5
A5E
  8
0
 62
     7
 10
198.49864199999999
 20
199.74108899999999
 30
0.0
  0
VERTEX
  5
A5F
  8
0
 62
     7
 10
197.96075400000001
 20
199.12136799999999
 30
0.0
  0
VERTEX
  5
A60
  8
0
 62
     7
 10
197.311035
 20
198.27371199999999
 30
0.0
  0
VERTEX
  5
A61
  8
0
 62
     7
 10
196.738586
 20
197.40310700000001
 30
0.0
  0
VERTEX
  5
A62
  8
0
 62
     7
 10
196.24189799999999
 20
196.51110800000001
 30
0.0
  0
VERTEX
  5
A63
  8
0
 62
     7
 10
195.917419
 20
195.828979
 30
0.0
  0
VERTEX
  5
A64
  8
0
 62
     7
 10
195.63241600000001
 20
195.13627600000001
 30
0.0
  0
VERTEX
  5
A65
  8
0
 62
     7
 10
195.17361500000001
 20
193.72146599999999
 30
0.0
  0
VERTEX
  5
A66
  8
0
 62
     7
 10
194.85084499999999
 20
192.27084400000001
 30
0.0
  0
VERTEX
  5
A67
  8
0
 62
     7
 10
194.72103899999999
 20
191.417114
 30
0.0
  0
VERTEX
  5
A68
  8
0
 62
     7
 10
194.63034099999999
 20
190.55296300000001
 30
0.0
  0
VERTEX
  5
A69
  8
0
 62
     7
 10
194.56085200000001
 20
188.79470800000001
 30
0.0
  0
VERTEX
  5
A6A
  8
0
 62
     7
 10
194.63526899999999
 20
186.997803
 30
0.0
  0
VERTEX
  5
A6B
  8
0
 62
     7
 10
194.85084499999999
 20
185.16287199999999
 30
0.0
  0
VERTEX
  5
A6C
  8
0
 62
     7
 10
200.71476699999999
 20
186.22906499999999
 30
0.0
  0
VERTEX
  5
A6D
  8
0
 62
     7
 10
201.91392500000001
 20
186.332764
 30
0.0
  0
VERTEX
  5
A6E
  8
0
 62
     7
 10
203.098557
 20
186.332764
 30
0.0
  0
VERTEX
  5
A6F
  8
0
 62
     7
 10
204.26866100000001
 20
186.22906499999999
 30
0.0
  0
VERTEX
  5
A70
  8
0
 62
     7
 10
205.52984599999999
 20
185.997345
 30
0.0
  0
VERTEX
  5
A71
  8
0
 62
     7
 10
206.77371199999999
 20
185.64193700000001
 30
0.0
  0
VERTEX
  5
A72
  8
0
 62
     7
 10
208.00024400000001
 20
185.16287199999999
 30
0.0
  0
VERTEX
  5
A73
  8
0
 62
     7
 10
208.00058869597879
 20
185.1625111944569
 30
0.0
 42
-0.099107993582514
  0
VERTEX
  5
A74
  8
0
 62
     7
 10
214.3974214920982
 20
189.45708275597411
 30
0.0
  0
VERTEX
  5
A75
  8
0
 62
     7
 10
214.39724699999999
 20
189.45748900000001
 30
0.0
  0
VERTEX
  5
A76
  8
0
 62
     7
 10
216.11376999999999
 20
190.505844
 30
0.0
  0
VERTEX
  5
A77
  8
0
 62
     7
 10
217.85446200000001
 20
191.41717499999999
 30
0.0
  0
VERTEX
  5
A78
  8
0
 62
     7
 10
219.61932400000001
 20
192.19151299999999
 30
0.0
  0
VERTEX
  5
A79
  8
0
 62
     7
 10
221.408356
 20
192.82882699999999
 30
0.0
  0
VERTEX
  5
A7A
  8
0
 62
     7
 10
223.22155799999999
 20
193.32913199999999
 30
0.0
  0
VERTEX
  5
A7B
  8
0
 62
     7
 10
225.05892900000001
 20
193.692429
 30
0.0
  0
VERTEX
  5
A7C
  8
0
 62
     7
 10
226.961365
 20
193.9221189999999
 30
0.0
  0
VERTEX
  5
A7D
  8
0
 62
     7
 10
228.889038
 20
194.008759
 30
0.0
  0
VERTEX
  5
A7E
  8
0
 62
     7
 10
230.841949
 20
193.952347
 30
0.0
  0
VERTEX
  5
A7F
  8
0
 62
     7
 10
232.820099
 20
193.752869
 30
0.0
  0
VERTEX
  5
A80
  8
0
 62
     7
 10
234.823486
 20
193.41033899999999
 30
0.0
  0
VERTEX
  5
A81
  8
0
 62
     7
 10
228.35566700000001
 20
190.786224
 30
0.0
  0
VERTEX
  5
A82
  8
0
 62
     7
 10
225.05892900000001
 20
189.45748900000001
 30
0.0
  0
VERTEX
  5
A83
  8
0
 62
     7
 10
223.176727
 20
188.65884399999999
 30
0.0
  0
VERTEX
  5
A84
  8
0
 62
     7
 10
222.24563599999999
 20
188.24105800000001
 30
0.0
  0
VERTEX
  5
A85
  8
0
 62
     7
 10
220.86947599999999
 20
187.582367
 30
0.0
  0
VERTEX
  5
A86
  8
0
 62
     7
 10
219.69644199999999
 20
186.96931499999999
 30
0.0
  0
VERTEX
  5
A87
  8
0
 62
     7
 10
218.554642
 20
186.31326299999989
 30
0.0
  0
VERTEX
  5
A88
  8
0
 62
     7
 10
217.06040999999999
 20
185.34243799999999
 30
0.0
  0
VERTEX
  5
A89
  8
0
 62
     7
 10
215.64111299999999
 20
184.27435299999999
 30
0.0
  0
VERTEX
  5
A8A
  8
0
 62
     7
 10
214.505188
 20
183.299927
 30
0.0
  0
VERTEX
  5
A8B
  8
0
 62
     7
 10
213.41915900000001
 20
182.26272599999999
 30
0.0
  0
VERTEX
  5
A8C
  8
0
 62
     7
 10
212.03623999999999
 20
180.79925499999999
 30
0.0
  0
VERTEX
  5
A8D
  8
0
 62
     7
 10
211.14666700000001
 20
179.78500399999999
 30
0.0
  0
VERTEX
  5
A8E
  8
0
 62
     7
 10
209.42179899999999
 20
177.69949299999999
 30
0.0
  0
VERTEX
  5
A8F
  8
0
 62
     7
 10
208.18351699999999
 20
176.12887599999999
 30
0.0
  0
VERTEX
  5
A90
  8
0
 62
     7
 10
206.98303200000001
 20
174.53883400000001
 30
0.0
  0
VERTEX
  5
A91
  8
0
 62
     7
 10
205.83734100000001
 20
172.921448
 30
0.0
  0
VERTEX
  5
A92
  8
0
 62
     7
 10
205.02702300000001
 20
171.68229700000001
 30
0.0
  0
VERTEX
  5
A93
  8
0
 62
     7
 10
204.26866100000001
 20
170.41381799999999
 30
0.0
  0
VERTEX
  5
A94
  8
0
 62
     7
 10
203.39430200000001
 20
168.75834699999999
 30
0.0
  0
VERTEX
  5
A95
  8
0
 62
     7
 10
202.62316899999999
 20
167.04141200000001
 30
0.0
  0
VERTEX
  5
A96
  8
0
 62
     7
 10
201.958618
 20
165.26052899999999
 30
0.0
  0
VERTEX
  5
A97
  8
0
 62
     7
 10
204.972443
 20
164.42288199999999
 30
0.0
  0
VERTEX
  5
A98
  8
0
 62
     7
 10
208.00024400000001
 20
163.661224
 30
0.0
  0
VERTEX
  5
A99
  8
0
 62
     7
 10
210.02114900000001
 20
163.203766
 30
0.0
  0
VERTEX
  5
A9A
  8
0
 62
     7
 10
212.05424500000001
 20
162.79480000000001
 30
0.0
  0
VERTEX
  5
A9B
  8
0
 62
     7
 10
213.84139999999999
 20
162.48788500000001
 30
0.0
  0
VERTEX
  5
A9C
  8
0
 62
     7
 10
215.64111299999999
 20
162.23962399999999
 30
0.0
  0
VERTEX
  5
A9D
  8
0
 62
     7
 10
217.68469200000001
 20
162.04740899999999
 30
0.0
  0
VERTEX
  5
A9E
  8
0
 62
     7
 10
219.73519899999999
 20
161.96997099999999
 30
0.0
  0
VERTEX
  5
A9F
  8
0
 62
     7
 10
221.78242499999999
 20
162.02874800000001
 30
0.0
  0
VERTEX
  5
AA0
  8
0
 62
     7
 10
222.8013
 20
162.114532
 30
0.0
  0
VERTEX
  5
AA1
  8
0
 62
     7
 10
223.81527700000001
 20
162.23962399999999
 30
0.0
  0
VERTEX
  5
AA2
  8
0
 62
     7
 10
225.437927
 20
162.52494799999999
 30
0.0
  0
VERTEX
  5
AA3
  8
0
 62
     7
 10
227.04135099999999
 20
162.91026299999999
 30
0.0
  0
VERTEX
  5
AA4
  8
0
 62
     7
 10
228.62333699999999
 20
163.387924
 30
0.0
  0
VERTEX
  5
AA5
  8
0
 62
     7
 10
229.79505900000001
 20
163.80033899999989
 30
0.0
  0
VERTEX
  5
AA6
  8
0
 62
     7
 10
230.953903
 20
164.253433
 30
0.0
  0
VERTEX
  5
AA7
  8
0
 62
     7
 10
233.23307800000001
 20
165.26052899999999
 30
0.0
  0
VERTEX
  5
AA8
  8
0
 62
     7
 10
234.743134
 20
166.00093100000001
 30
0.0
  0
VERTEX
  5
AA9
  8
0
 62
     7
 10
236.23048399999999
 20
166.77973900000001
 30
0.0
  0
VERTEX
  5
AAA
  8
0
 62
     7
 10
237.81414799999999
 20
167.65870699999999
 30
0.0
  0
VERTEX
  5
AAB
  8
0
 62
     7
 10
239.371658
 20
168.571136
 30
0.0
  0
VERTEX
  5
AAC
  8
0
 62
     7
 10
242.295502
 20
170.41381799999999
 30
0.0
  0
VERTEX
  5
AAD
  8
0
 62
     7
 10
241.54299900000001
 20
168.88452100000001
 30
0.0
  0
VERTEX
  5
AAE
  8
0
 62
     7
 10
240.685486
 20
167.44442699999999
 30
0.0
  0
VERTEX
  5
AAF
  8
0
 62
     7
 10
239.72373999999999
 20
166.093613
 30
0.0
  0
VERTEX
  5
AB0
  8
0
 62
     7
 10
238.65983600000001
 20
164.832367
 30
0.0
  0
VERTEX
  5
AB1
  8
0
 62
     7
 10
237.49775700000001
 20
163.661224
 30
0.0
  0
VERTEX
  5
AB2
  8
0
 62
     7
 10
236.25212099999999
 20
162.587524
 30
0.0
  0
VERTEX
  5
AB3
  8
0
 62
     7
 10
234.92507900000001
 20
161.604904
 30
0.0
  0
VERTEX
  5
AB4
  8
0
 62
     7
 10
233.52758800000001
 20
160.71485899999999
 30
0.0
  0
VERTEX
  5
AB5
  8
0
 62
     7
 10
232.07136499999999
 20
159.918961
 30
0.0
  0
VERTEX
  5
AB6
  8
0
 62
     7
 10
230.567657
 20
159.21873500000001
 30
0.0
  0
VERTEX
  5
AB7
  8
0
 62
     7
 10
228.75595100000001
 20
158.52101099999999
 30
0.0
  0
VERTEX
  5
AB8
  8
0
 62
     7
 10
226.90304599999999
 20
157.958191
 30
0.0
  0
VERTEX
  5
AB9
  8
0
 62
     7
 10
225.01573200000001
 20
157.531204
 30
0.0
  0
VERTEX
  5
ABA
  8
0
 62
     7
 10
223.09754899999999
 20
157.24052399999999
 30
0.0
  0
VERTEX
  5
ABB
  8
0
 62
     7
 10
221.149857
 20
157.08633399999999
 30
0.0
  0
VERTEX
  5
ABC
  8
0
 62
     7
 10
223.04621900000001
 20
156.81997699999999
 30
0.0
  0
VERTEX
  5
ABD
  8
0
 62
     7
 10
224.93798799999999
 20
156.68630999999999
 30
0.0
  0
VERTEX
  5
ABE
  8
0
 62
     7
 10
226.824219
 20
156.68562299999999
 30
0.0
  0
VERTEX
  5
ABF
  8
0
 62
     7
 10
228.70237700000001
 20
156.81854200000001
 30
0.0
  0
VERTEX
  5
AC0
  8
0
 62
     7
 10
230.567657
 20
157.08633399999999
 30
0.0
  0
VERTEX
  5
AC1
  8
0
 62
     7
 10
232.18519599999999
 20
157.43341100000001
 30
0.0
  0
VERTEX
  5
AC2
  8
0
 62
     7
 10
233.77954099999999
 20
157.887238
 30
0.0
  0
VERTEX
  5
AC3
  8
0
 62
     7
 10
235.34245300000001
 20
158.44876099999999
 30
0.0
  0
VERTEX
  5
AC4
  8
0
 62
     7
 10
236.86610400000001
 20
159.116882
 30
0.0
  0
VERTEX
  5
AC5
  8
0
 62
     7
 10
237.78312700000001
 20
159.580139
 30
0.0
  0
VERTEX
  5
AC6
  8
0
 62
     7
 10
238.68194600000001
 20
160.08041399999999
 30
0.0
  0
VERTEX
  5
AC7
  8
0
 62
     7
 10
239.70375100000001
 20
160.70507799999999
 30
0.0
  0
VERTEX
  5
AC8
  8
0
 62
     7
 10
240.70120199999999
 20
161.37042199999999
 30
0.0
  0
VERTEX
  5
AC9
  8
0
 62
     7
 10
241.97563199999999
 20
162.29110700000001
 30
0.0
  0
VERTEX
  5
ACA
  8
0
 62
     7
 10
242.80836500000001
 20
162.92558299999999
 30
0.0
  0
VERTEX
  5
ACB
  8
0
 62
     7
 10
244.44955400000001
 20
164.210342
 30
0.0
  0
VERTEX
  5
ACC
  8
0
 62
     7
 10
246.08647199999999
 20
165.464752
 30
0.0
  0
VERTEX
  5
ACD
  8
0
 62
     7
 10
246.91404700000001
 20
166.062927
 30
0.0
  0
VERTEX
  5
ACE
  8
0
 62
     7
 10
248.177673
 20
166.908691
 30
0.0
  0
VERTEX
  5
ACF
  8
0
 62
     7
 10
249.66476399999999
 20
167.787903
 30
0.0
  0
VERTEX
  5
AD0
  8
0
 62
     7
 10
251.206512
 20
168.574005
 30
0.0
  0
VERTEX
  5
AD1
  8
0
 62
     7
 10
252.804733
 20
169.27960200000001
 30
0.0
  0
VERTEX
  5
AD2
  8
0
 62
     7
 10
254.762665
 20
170.03985599999999
 30
0.0
  0
VERTEX
  5
AD3
  8
0
 62
     7
 10
256.10232500000001
 20
170.52160599999999
 30
0.0
  0
VERTEX
  5
AD4
  8
0
 62
     7
 10
258.838593
 20
171.47778299999999
 30
0.0
  0
VERTEX
  5
AD5
  8
0
 62
     7
 10
264.17190599999998
 20
173.4400179999999
 30
0.0
  0
VERTEX
  5
AD6
  8
0
 62
     7
 10
269.27255200000002
 20
175.41885400000001
 30
0.0
  0
VERTEX
  5
AD7
  8
0
 62
     7
 10
272.4516910000001
 20
176.63479599999999
 30
0.0
  0
VERTEX
  5
AD8
  8
0
 62
     7
 10
273.98251299999998
 20
177.23760999999999
 30
0.0
  0
VERTEX
  5
AD9
  8
0
 62
     7
 10
275.59646600000002
 20
177.93356299999999
 30
0.0
  0
VERTEX
  5
ADA
  8
0
 62
     7
 10
276.40154999999999
 20
178.32247899999999
 30
0.0
  0
VERTEX
  5
ADB
  8
0
 62
     7
 10
277.61648600000001
 20
178.98230000000001
 30
0.0
  0
VERTEX
  5
ADC
  8
0
 62
     7
 10
278.93301400000001
 20
179.809662
 30
0.0
  0
VERTEX
  5
ADD
  8
0
 62
     7
 10
279.82748400000003
 20
180.437073
 30
0.0
  0
VERTEX
  5
ADE
  8
0
 62
     7
 10
281.66366599999998
 20
181.84643600000001
 30
0.0
  0
VERTEX
  5
ADF
  8
0
 62
     7
 10
282.92028800000003
 20
182.84172100000001
 30
0.0
  0
VERTEX
  5
AE0
  8
0
 62
     7
 10
283.55560300000002
 20
183.32916299999999
 30
0.0
  0
VERTEX
  5
AE1
  8
0
 62
     7
 10
284.51318400000002
 20
184.014084
 30
0.0
  0
VERTEX
  5
AE2
  8
0
 62
     7
 10
285.23181199999999
 20
184.467941
 30
0.0
  0
VERTEX
  5
AE3
  8
0
 62
     7
 10
285.94778400000001
 20
184.84918200000001
 30
0.0
  0
VERTEX
  5
AE4
  8
0
 62
     7
 10
286.77099600000003
 20
185.17544599999999
 30
0.0
  0
VERTEX
  5
AE5
  8
0
 62
     7
 10
287.17861900000003
 20
185.28381300000001
 30
0.0
  0
VERTEX
  5
AE6
  8
0
 62
     7
 10
287.58297700000003
 20
185.35140999999999
 30
0.0
  0
VERTEX
  5
AE7
  8
0
 62
     7
 10
288.11627199999998
 20
185.373322
 30
0.0
  0
VERTEX
  5
AE8
  8
0
 62
     7
 10
288.6421509999999
 20
185.31199599999999
 30
0.0
  0
VERTEX
  5
AE9
  8
0
 62
     7
 10
289.159851
 20
185.16287199999999
 30
0.0
  0
VERTEX
  5
AEA
  8
0
 62
     7
 10
289.51232900000002
 20
185.006958
 30
0.0
  0
VERTEX
  5
AEB
  8
0
 62
     7
 10
289.86059599999999
 20
184.80706799999999
 30
0.0
  0
VERTEX
  5
AEC
  8
0
 62
     7
 10
290.54437300000001
 20
184.27435299999999
 30
0.0
  0
VERTEX
  5
AED
  8
0
 62
     7
 10
290.33203099999997
 20
183.220642
 30
0.0
  0
VERTEX
  5
AEE
  8
0
 62
     7
 10
290.029785
 20
182.21343999999999
 30
0.0
  0
VERTEX
  5
AEF
  8
0
 62
     7
 10
289.63842799999998
 20
181.25285299999999
 30
0.0
  0
VERTEX
  5
AF0
  8
0
 62
     7
 10
289.159851
 20
180.33902
 30
0.0
  0
VERTEX
  5
AF1
  8
0
 62
     7
 10
288.60183699999999
 20
179.477936
 30
0.0
  0
VERTEX
  5
AF2
  8
0
 62
     7
 10
287.96716300000003
 20
178.6637879999999
 30
0.0
  0
VERTEX
  5
AF3
  8
0
 62
     7
 10
287.26333599999998
 20
177.897064
 30
0.0
  0
VERTEX
  5
AF4
  8
0
 62
     7
 10
286.69528200000002
 20
177.35339400000001
 30
0.0
  0
VERTEX
  5
AF5
  8
0
 62
     7
 10
286.09713700000009
 20
176.836624
 30
0.0
  0
VERTEX
  5
AF6
  8
0
 62
     7
 10
284.82678199999998
 20
175.883331
 30
0.0
  0
VERTEX
  5
AF7
  8
0
 62
     7
 10
283.48327599999999
 20
175.033997
 30
0.0
  0
VERTEX
  5
AF8
  8
0
 62
     7
 10
282.11697400000003
 20
174.29342700000001
 30
0.0
  0
VERTEX
  5
AF9
  8
0
 62
     7
 10
280.72317500000003
 20
173.63462799999999
 30
0.0
  0
VERTEX
  5
AFA
  8
0
 62
     7
 10
278.84079000000003
 20
172.85640000000001
 30
0.0
  0
VERTEX
  5
AFB
  8
0
 62
     7
 10
277.57699600000001
 20
172.38183599999999
 30
0.0
  0
VERTEX
  5
AFC
  8
0
 62
     7
 10
275.037598
 20
171.47778299999999
 30
0.0
  0
VERTEX
  5
AFD
  8
0
 62
     7
 10
272.24774200000002
 20
170.4530639999999
 30
0.0
  0
VERTEX
  5
AFE
  8
0
 62
     7
 10
270.86239599999999
 20
169.8966979999999
 30
0.0
  0
VERTEX
  5
AFF
  8
0
 62
     7
 10
268.80721999999997
 20
168.99221800000001
 30
0.0
  0
VERTEX
  5
B00
  8
0
 62
     7
 10
266.05789199999998
 20
167.66824299999999
 30
0.0
  0
VERTEX
  5
B01
  8
0
 62
     7
 10
263.61712599999998
 20
166.50973500000001
 30
0.0
  0
VERTEX
  5
B02
  8
0
 62
     7
 10
262.382294
 20
165.976654
 30
0.0
  0
VERTEX
  5
B03
  8
0
 62
     7
 10
260.50003099999998
 20
165.26052899999999
 30
0.0
  0
VERTEX
  5
B04
  8
0
 62
     7
 10
258.47052000000002
 20
164.60199
 30
0.0
  0
VERTEX
  5
B05
  8
0
 62
     7
 10
256.421539
 20
163.979736
 30
0.0
  0
VERTEX
  5
B06
  8
0
 62
     7
 10
255.02600100000001
 20
163.522583
 30
0.0
  0
VERTEX
  5
B07
  8
0
 62
     7
 10
254.33538799999999
 20
163.27188100000001
 30
0.0
  0
VERTEX
  5
B08
  8
0
 62
     7
 10
253.31298799999999
 20
162.857697
 30
0.0
  0
VERTEX
  5
B09
  8
0
 62
     7
 10
251.89640800000001
 20
162.174316
 30
0.0
  0
VERTEX
  5
B0A
  8
0
 62
     7
 10
250.531372
 20
161.37042199999999
 30
0.0
  0
VERTEX
  5
B0B
  8
0
 62
     7
 10
249.54753099999999
 20
160.698395
 30
0.0
  0
VERTEX
  5
B0C
  8
0
 62
     7
 10
248.593277
 20
159.98272700000001
 30
0.0
  0
VERTEX
  5
B0D
  8
0
 62
     7
 10
247.360962
 20
158.99825999999999
 30
0.0
  0
VERTEX
  5
B0E
  8
0
 62
     7
 10
244.993256
 20
157.08633399999999
 30
0.0
  0
VERTEX
  5
B0F
  8
0
 62
     7
 10
243.799408
 20
156.13485700000001
 30
0.0
  0
VERTEX
  5
B10
  8
0
 62
     7
 10
243.210419
 20
155.64428699999999
 30
0.0
  0
VERTEX
  5
B11
  8
0
 62
     7
 10
242.343231
 20
154.85405
 30
0.0
  0
VERTEX
  5
B12
  8
0
 62
     7
 10
241.71487400000001
 20
154.19627399999999
 30
0.0
  0
VERTEX
  5
B13
  8
0
 62
     7
 10
241.11866800000001
 20
153.46748400000001
 30
0.0
  0
VERTEX
  5
B14
  8
0
 62
     7
 10
240.57229599999999
 20
152.66156000000001
 30
0.0
  0
VERTEX
  5
B15
  8
0
 62
     7
 10
240.099716
 20
151.78254699999999
 30
0.0
  0
VERTEX
  5
B16
  8
0
 62
     7
 10
239.73202499999999
 20
150.84768700000001
 30
0.0
  0
VERTEX
  5
B17
  8
0
 62
     7
 10
239.53909300000001
 20
150.079758
 30
0.0
  0
VERTEX
  5
B18
  8
0
 62
     7
 10
239.46151699999999
 20
149.32141100000001
 30
0.0
  0
VERTEX
  5
B19
  8
0
 62
     7
 10
239.47290000000001
 20
148.954376
 30
0.0
  0
VERTEX
  5
B1A
  8
0
 62
     7
 10
239.520813
 20
148.599884
 30
0.0
  0
VERTEX
  5
B1B
  8
0
 62
     7
 10
239.606888
 20
148.260941
 30
0.0
  0
VERTEX
  5
B1C
  8
0
 62
     7
 10
239.73202499999999
 20
147.940079
 30
0.0
  0
VERTEX
  5
B1D
  8
0
 62
     7
 10
239.98747299999999
 20
147.50408899999999
 30
0.0
  0
VERTEX
  5
B1E
  8
0
 62
     7
 10
240.323914
 20
147.11476099999999
 30
0.0
  0
VERTEX
  5
B1F
  8
0
 62
     7
 10
240.73191800000001
 20
146.773911
 30
0.0
  0
VERTEX
  5
B20
  8
0
 62
     7
 10
241.20268200000001
 20
146.47782900000001
 30
0.0
  0
VERTEX
  5
B21
  8
0
 62
     7
 10
241.72936999999999
 20
146.220978
 30
0.0
  0
VERTEX
  5
B22
  8
0
 62
     7
 10
242.295502
 20
146.001678
 30
0.0
  0
VERTEX
  5
B23
  8
0
 62
     7
 10
242.98176599999999
 20
145.78935200000001
 30
0.0
  0
VERTEX
  5
B24
  8
0
 62
     7
 10
243.68869000000001
 20
145.61407500000001
 30
0.0
  0
VERTEX
  5
B25
  8
0
 62
     7
 10
244.88455200000001
 20
145.38763399999999
 30
0.0
  0
VERTEX
  5
B26
  8
0
 62
     7
 10
246.05650299999999
 20
145.22598300000001
 30
0.0
  0
VERTEX
  5
B27
  8
0
 62
     7
 10
246.965225
 20
145.13043200000001
 30
0.0
  0
VERTEX
  5
B28
  8
0
 62
     7
 10
248.65362500000001
 20
145.00384500000001
 30
0.0
  0
VERTEX
  5
B29
  8
0
 62
     7
 10
250.501328
 20
144.922943
 30
0.0
  0
VERTEX
  5
B2A
  8
0
 62
     7
 10
252.19281000000001
 20
144.89402799999999
 30
0.0
  0
VERTEX
  5
B2B
  8
0
 62
     7
 10
253.986221
 20
144.90782200000001
 30
0.0
  0
VERTEX
  5
B2C
  8
0
 62
     7
 10
257.896637
 20
145.04795799999999
 30
0.0
  0
VERTEX
  5
B2D
  8
0
 62
     7
 10
261.239349
 20
145.229263
 30
0.0
  0
VERTEX
  5
B2E
  8
0
 62
     7
 10
264.84667999999999
 20
145.45803799999999
 30
0.0
  0
VERTEX
  5
B2F
  8
0
 62
     7
 10
272.13009599999998
 20
146.001678
 30
0.0
  0
VERTEX
  5
B30
  8
0
 62
     7
 10
276.37069700000001
 20
146.35943599999999
 30
0.0
  0
VERTEX
  5
B31
  8
0
 62
     7
 10
280.43728599999997
 20
146.69397000000001
 30
0.0
  0
VERTEX
  5
B32
  8
0
 62
     7
 10
285.74804699999999
 20
147.04724100000001
 30
0.0
  0
VERTEX
  5
B33
  8
0
 62
     7
 10
291.18829299999999
 20
147.28028900000001
 30
0.0
  0
VERTEX
  5
B34
  8
0
 62
     7
 10
295.37701400000009
 20
147.37762499999999
 30
0.0
  0
VERTEX
  5
B35
  8
0
 62
     7
 10
298.14471400000002
 20
147.410934
 30
0.0
  0
VERTEX
  5
B36
  8
0
 62
     7
 10
303.631775
 20
147.43392900000001
 30
0.0
  0
VERTEX
  5
B37
  8
0
 62
     7
 10
311.68804899999998
 20
147.45700099999999
 30
0.0
  0
VERTEX
  5
B38
  8
0
 62
     7
 10
321.91290299999997
 20
147.58755500000001
 30
0.0
  0
VERTEX
  5
B39
  8
0
 62
     7
 10
322.283569
 20
147.34175099999999
 30
0.0
  0
VERTEX
  5
B3A
  8
0
 62
     7
 10
322.5619200000001
 20
147.10475199999999
 30
0.0
  0
VERTEX
  5
B3B
  8
0
 62
     7
 10
322.736176
 20
146.89567600000001
 30
0.0
  0
VERTEX
  5
B3C
  8
0
 62
     7
 10
322.834656
 20
146.69397000000001
 30
0.0
  0
VERTEX
  5
B3D
  8
0
 62
     7
 10
322.852936
 20
146.44461100000001
 30
0.0
  0
VERTEX
  5
B3E
  8
0
 62
     7
 10
322.75476099999997
 20
146.20756499999999
 30
0.0
  0
VERTEX
  5
B3F
  8
0
 62
     7
 10
322.54922499999998
 20
145.98284899999999
 30
0.0
  0
VERTEX
  5
B40
  8
0
 62
     7
 10
322.107483
 20
145.69163499999999
 30
0.0
  0
VERTEX
  5
B41
  8
0
 62
     7
 10
321.51504499999999
 20
145.42425499999999
 30
0.0
  0
VERTEX
  5
B42
  8
0
 62
     7
 10
320.68615699999998
 20
145.14324999999999
 30
0.0
  0
VERTEX
  5
B43
  8
0
 62
     7
 10
319.76220699999999
 20
144.89402799999999
 30
0.0
  0
VERTEX
  5
B44
  8
0
 62
     7
 10
318.30023199999999
 20
144.575897
 30
0.0
  0
VERTEX
  5
B45
  8
0
 62
     7
 10
316.87951700000002
 20
144.324127
 30
0.0
  0
VERTEX
  5
B46
  8
0
 62
     7
 10
315.58944700000001
 20
144.132294
 30
0.0
  0
VERTEX
  5
B47
  8
0
 62
     7
 10
313.55120799999997
 20
143.895599
 30
0.0
  0
VERTEX
  5
B48
  8
0
 62
     7
 10
312.578979
 20
143.81669600000001
 30
0.0
  0
VERTEX
  5
B49
  8
0
 62
     7
 10
311.15930200000003
 20
143.746872
 30
0.0
  0
VERTEX
  5
B4A
  8
0
 62
     7
 10
308.762451
 20
143.60142500000001
 30
0.0
  0
VERTEX
  5
B4B
  8
0
 62
     7
 10
307.03741500000001
 20
143.44564800000001
 30
0.0
  0
VERTEX
  5
B4C
  8
0
 62
     7
 10
303.80578600000001
 20
143.10507200000001
 30
0.0
  0
VERTEX
  5
B4D
  8
0
 62
     7
 10
300.18240400000002
 20
142.68714900000001
 30
0.0
  0
VERTEX
  5
B4E
  8
0
 62
     7
 10
293.79989599999999
 20
141.903336
 30
0.0
  0
VERTEX
  5
B4F
  8
0
 62
     7
 10
290.84283399999998
 20
141.510223
 30
0.0
  0
VERTEX
  5
B50
  8
0
 62
     7
 10
289.36264
 20
141.28787199999999
 30
0.0
  0
VERTEX
  5
B51
  8
0
 62
     7
 10
287.66519199999999
 20
140.99142499999999
 30
0.0
  0
VERTEX
  5
B52
  8
0
 62
     7
 10
286.70291099999997
 20
140.79789700000001
 30
0.0
  0
VERTEX
  5
B53
  8
0
 62
     7
 10
284.84500100000002
 20
140.35820000000001
 30
0.0
  0
VERTEX
  5
B54
  8
0
 62
     7
 10
283.848907
 20
140.07730100000001
 30
0.0
  0
VERTEX
  5
B55
  8
0
 62
     7
 10
282.748535
 20
139.71743799999999
 30
0.0
  0
VERTEX
  5
B56
  8
0
 62
     7
 10
281.66366599999998
 20
139.29167200000001
 30
0.0
  0
VERTEX
  5
B57
  8
0
 62
     7
 10
280.99078400000002
 20
138.97554
 30
0.0
  0
VERTEX
  5
B58
  8
0
 62
     7
 10
280.36322000000001
 20
138.625641
 30
0.0
  0
VERTEX
  5
B59
  8
0
 62
     7
 10
279.93661500000002
 20
138.34223899999989
 30
0.0
  0
VERTEX
  5
B5A
  8
0
 62
     7
 10
279.55310100000003
 20
138.03881799999999
 30
0.0
  0
VERTEX
  5
B5B
  8
0
 62
     7
 10
279.16842700000001
 20
137.65801999999999
 30
0.0
  0
VERTEX
  5
B5C
  8
0
 62
     7
 10
278.86404399999998
 20
137.25131200000001
 30
0.0
  0
VERTEX
  5
B5D
  8
0
 62
     7
 10
278.71029700000003
 20
136.96710200000001
 30
0.0
  0
VERTEX
  5
B5E
  8
0
 62
     7
 10
278.59845000000001
 20
136.67390399999999
 30
0.0
  0
VERTEX
  5
B5F
  8
0
 62
     7
 10
278.51711999999998
 20
136.271896
 30
0.0
  0
VERTEX
  5
B60
  8
0
 62
     7
 10
278.51489299999997
 20
135.86203
 30
0.0
  0
VERTEX
  5
B61
  8
0
 62
     7
 10
278.59118699999999
 20
135.45098899999999
 30
0.0
  0
VERTEX
  5
B62
  8
0
 62
     7
 10
278.69970699999999
 20
135.143021
 30
0.0
  0
VERTEX
  5
B63
  8
0
 62
     7
 10
278.84906000000001
 20
134.84350599999999
 30
0.0
  0
VERTEX
  5
B64
  8
0
 62
     7
 10
279.04541
 20
134.544083
 30
0.0
  0
VERTEX
  5
B65
  8
0
 62
     7
 10
279.278076
 20
134.264557
 30
0.0
  0
VERTEX
  5
B66
  8
0
 62
     7
 10
279.817993
 20
133.79522700000001
 30
0.0
  0
VERTEX
  5
B67
  8
0
 62
     7
 10
280.43728599999997
 20
133.45384200000001
 30
0.0
  0
VERTEX
  5
B68
  8
0
 62
     7
 10
280.775665
 20
133.33380099999999
 30
0.0
  0
VERTEX
  5
B69
  8
0
 62
     7
 10
281.12188700000002
 20
133.25198399999999
 30
0.0
  0
VERTEX
  5
B6A
  8
0
 62
     7
 10
281.82672100000002
 20
133.19473300000001
 30
0.0
  0
VERTEX
  5
B6B
  8
0
 62
     7
 10
282.38131700000002
 20
133.233475
 30
0.0
  0
VERTEX
  5
B6C
  8
0
 62
     7
 10
282.75021400000003
 20
133.29046600000001
 30
0.0
  0
VERTEX
  5
B6D
  8
0
 62
     7
 10
283.48327599999999
 20
133.45384200000001
 30
0.0
  0
VERTEX
  5
B6E
  8
0
 62
     7
 10
284.89038099999999
 20
133.83532700000001
 30
0.0
  0
VERTEX
  5
B6F
  8
0
 62
     7
 10
286.27560399999999
 20
134.160065
 30
0.0
  0
VERTEX
  5
B70
  8
0
 62
     7
 10
287.654968
 20
134.37560999999999
 30
0.0
  0
VERTEX
  5
B71
  8
0
 62
     7
 10
288.43539399999997
 20
134.45455899999999
 30
0.0
  0
VERTEX
  5
B72
  8
0
 62
     7
 10
290.01232900000002
 20
134.55023199999999
 30
0.0
  0
VERTEX
  5
B73
  8
0
 62
     7
 10
291.57672100000002
 20
134.603455
 30
0.0
  0
VERTEX
  5
B74
  8
0
 62
     7
 10
293.15652499999999
 20
134.66029399999999
 30
0.0
  0
VERTEX
  5
B75
  8
0
 62
     7
 10
295.02142300000003
 20
134.77967799999999
 30
0.0
  0
VERTEX
  5
B76
  8
0
 62
     7
 10
296.872345
 20
134.99011200000001
 30
0.0
  0
VERTEX
  5
B77
  8
0
 62
     7
 10
298.679688
 20
135.29414399999999
 30
0.0
  0
VERTEX
  5
B78
  8
0
 62
     7
 10
299.87304699999999
 20
135.53793300000001
 30
0.0
  0
VERTEX
  5
B79
  8
0
 62
     7
 10
302.249146
 20
136.065506
 30
0.0
  0
VERTEX
  5
B7A
  8
0
 62
     7
 10
304.49093599999998
 20
136.531769
 30
0.0
  0
VERTEX
  5
B7B
  8
0
 62
     7
 10
305.61877399999997
 20
136.73417699999999
 30
0.0
  0
VERTEX
  5
B7C
  8
0
 62
     7
 10
307.31872600000003
 20
136.98727400000001
 30
0.0
  0
VERTEX
  5
B7D
  8
0
 62
     7
 10
309.80258199999997
 20
137.23237599999999
 30
0.0
  0
VERTEX
  5
B7E
  8
0
 62
     7
 10
311.04858400000001
 20
137.29603599999999
 30
0.0
  0
VERTEX
  5
B7F
  8
0
 62
     7
 10
312.29663099999999
 20
137.31866500000001
 30
0.0
  0
VERTEX
  5
B80
  8
0
 62
     7
 10
313.963257
 20
137.28372200000001
 30
0.0
  0
VERTEX
  5
B81
  8
0
 62
     7
 10
315.63253800000001
 20
137.17338599999999
 30
0.0
  0
VERTEX
  5
B82
  8
0
 62
     7
 10
317.30423000000002
 20
136.98727400000001
 30
0.0
  0
VERTEX
  5
B83
  8
0
 62
     7
 10
317.42370599999998
 20
136.58685299999999
 30
0.0
  0
VERTEX
  5
B84
  8
0
 62
     7
 10
317.49487299999998
 20
136.21371500000001
 30
0.0
  0
VERTEX
  5
B85
  8
0
 62
     7
 10
317.51486199999999
 20
135.75842299999999
 30
0.0
  0
VERTEX
  5
B86
  8
0
 62
     7
 10
317.45043900000002
 20
135.350922
 30
0.0
  0
VERTEX
  5
B87
  8
0
 62
     7
 10
317.30423000000002
 20
134.99011200000001
 30
0.0
  0
VERTEX
  5
B88
  8
0
 62
     7
 10
317.01672400000001
 20
134.604874
 30
0.0
  0
VERTEX
  5
B89
  8
0
 62
     7
 10
316.62423699999999
 20
134.28237899999999
 30
0.0
  0
VERTEX
  5
B8A
  8
0
 62
     7
 10
316.31289700000002
 20
134.098557
 30
0.0
  0
VERTEX
  5
B8B
  8
0
 62
     7
 10
315.96859699999999
 20
133.93666099999999
 30
0.0
  0
VERTEX
  5
B8C
  8
0
 62
     7
 10
315.46905500000003
 20
133.750214
 30
0.0
  0
VERTEX
  5
B8D
  8
0
 62
     7
 10
314.38540599999999
 20
133.45384200000001
 30
0.0
  0
VERTEX
  5
B8E
  8
0
 62
     7
 10
313.58670000000001
 20
133.282669
 30
0.0
  0
VERTEX
  5
B8F
  8
0
 62
     7
 10
312.04495200000002
 20
132.98547400000001
 30
0.0
  0
VERTEX
  5
B90
  8
0
 62
     7
 10
309.807861
 20
132.49580399999999
 30
0.0
  0
VERTEX
  5
B91
  8
0
 62
     7
 10
308.24044800000001
 20
132.07119800000001
 30
0.0
  0
VERTEX
  5
B92
  8
0
 62
     7
 10
306.55682400000001
 20
131.60791
 30
0.0
  0
VERTEX
  5
B93
  8
0
 62
     7
 10
304.25238000000002
 20
131.06457499999999
 30
0.0
  0
VERTEX
  5
B94
  8
0
 62
     7
 10
301.94775399999997
 20
130.62948600000001
 30
0.0
  0
VERTEX
  5
B95
  8
0
 62
     7
 10
300.11764499999998
 20
130.338257
 30
0.0
  0
VERTEX
  5
B96
  8
0
 62
     7
 10
298.254974
 20
130.07403600000001
 30
0.0
  0
VERTEX
  5
B97
  8
0
 62
     7
 10
294.97061200000002
 20
129.655655
 30
0.0
  0
VERTEX
  5
B98
  8
0
 62
     7
 10
289.159851
 20
128.99865700000001
 30
0.0
  0
VERTEX
  5
B99
  8
0
 62
     7
 10
291.26199300000002
 20
128.05371099999999
 30
0.0
  0
VERTEX
  5
B9A
  8
0
 62
     7
 10
293.42761200000001
 20
127.25057200000001
 30
0.0
  0
VERTEX
  5
B9B
  8
0
 62
     7
 10
294.533478
 20
126.90329
 30
0.0
  0
VERTEX
  5
B9C
  8
0
 62
     7
 10
295.65386999999998
 20
126.593529
 30
0.0
  0
VERTEX
  5
B9D
  8
0
 62
     7
 10
297.16836499999999
 20
126.241776
 30
0.0
  0
VERTEX
  5
B9E
  8
0
 62
     7
 10
298.70288099999999
 20
125.965363
 30
0.0
  0
VERTEX
  5
B9F
  8
0
 62
     7
 10
300.25207499999999
 20
125.772476
 30
0.0
  0
VERTEX
  5
BA0
  8
0
 62
     7
 10
301.87408399999998
 20
125.67229500000001
 30
0.0
  0
VERTEX
  5
BA1
  8
0
 62
     7
 10
303.49371300000001
 20
125.68982699999999
 30
0.0
  0
VERTEX
  5
BA2
  8
0
 62
     7
 10
305.10015900000002
 20
125.838409
 30
0.0
  0
VERTEX
  5
BA3
  8
0
 62
     7
 10
306.684235
 20
126.124207
 30
0.0
  0
VERTEX
  5
BA4
  8
0
 62
     7
 10
308.24044800000001
 20
126.540611
 30
0.0
  0
VERTEX
  5
BA5
  8
0
 62
     7
 10
309.40737899999999
 20
126.930969
 30
0.0
  0
VERTEX
  5
BA6
  8
0
 62
     7
 10
310.17767300000003
 20
127.21637
 30
0.0
  0
VERTEX
  5
BA7
  8
0
 62
     7
 10
311.70626800000002
 20
127.81510900000001
 30
0.0
  0
VERTEX
  5
BA8
  8
0
 62
     7
 10
313.23065200000002
 20
128.39648399999999
 30
0.0
  0
VERTEX
  5
BA9
  8
0
 62
     7
 10
313.99609400000003
 20
128.659775
 30
0.0
  0
VERTEX
  5
BAA
  8
0
 62
     7
 10
315.153503
 20
128.99865700000001
 30
0.0
  0
VERTEX
  5
BAB
  8
0
 62
     7
 10
316.45163000000002
 20
129.27198799999999
 30
0.0
  0
VERTEX
  5
BAC
  8
0
 62
     7
 10
317.77417000000003
 20
129.41867099999999
 30
0.0
  0
VERTEX
  5
BAD
  8
0
 62
     7
 10
319.12429800000001
 20
129.42581200000001
 30
0.0
  0
VERTEX
  5
BAE
  8
0
 62
     7
 10
320.50366200000002
 20
129.28666699999999
 30
0.0
  0
VERTEX
  5
BAF
  8
0
 62
     7
 10
321.91290299999997
 20
128.99865700000001
 30
0.0
  0
VERTEX
  5
BB0
  8
0
 62
     7
 10
319.63510100000002
 20
127.342957
 30
0.0
  0
VERTEX
  5
BB1
  8
0
 62
     7
 10
317.30423000000002
 20
125.772476
 30
0.0
  0
VERTEX
  5
BB2
  8
0
 62
     7
 10
315.33416699999998
 20
124.566025
 30
0.0
  0
VERTEX
  5
BB3
  8
0
 62
     7
 10
314.32409699999999
 20
124.003418
 30
0.0
  0
VERTEX
  5
BB4
  8
0
 62
     7
 10
313.293182
 20
123.475433
 30
0.0
  0
VERTEX
  5
BB5
  8
0
 62
     7
 10
312.238831
 20
122.98792299999999
 30
0.0
  0
VERTEX
  5
BB6
  8
0
 62
     7
 10
311.15930200000003
 20
122.546295
 30
0.0
  0
VERTEX
  5
BB7
  8
0
 62
     7
 10
309.85827599999999
 20
122.092049
 30
0.0
  0
VERTEX
  5
BB8
  8
0
 62
     7
 10
308.524384
 20
121.712402
 30
0.0
  0
VERTEX
  5
BB9
  8
0
 62
     7
 10
307.162598
 20
121.409988
 30
0.0
  0
VERTEX
  5
BBA
  8
0
 62
     7
 10
306.15936299999998
 20
121.238953
 30
0.0
  0
VERTEX
  5
BBB
  8
0
 62
     7
 10
305.14819299999999
 20
121.108383
 30
0.0
  0
VERTEX
  5
BBC
  8
0
 62
     7
 10
304.06753500000002
 20
121.012657
 30
0.0
  0
VERTEX
  5
BBD
  8
0
 62
     7
 10
302.985748
 20
120.959534
 30
0.0
  0
VERTEX
  5
BBE
  8
0
 62
     7
 10
301.422729
 20
120.952873
 30
0.0
  0
VERTEX
  5
BBF
  8
0
 62
     7
 10
299.87603799999999
 20
121.020645
 30
0.0
  0
VERTEX
  5
BC0
  8
0
 62
     7
 10
298.17724600000003
 20
121.16976200000001
 30
0.0
  0
VERTEX
  5
BC1
  8
0
 62
     7
 10
297.06350700000002
 20
121.303307
 30
0.0
  0
VERTEX
  5
BC2
  8
0
 62
     7
 10
294.87588499999998
 20
121.62453499999999
 30
0.0
  0
VERTEX
  5
BC3
  8
0
 62
     7
 10
292.71002199999998
 20
121.973495
 30
0.0
  0
VERTEX
  5
BC4
  8
0
 62
     7
 10
291.61621100000002
 20
122.14052599999999
 30
0.0
  0
VERTEX
  5
BC5
  8
0
 62
     7
 10
289.93984999999998
 20
122.358902
 30
0.0
  0
VERTEX
  5
BC6
  8
0
 62
     7
 10
288.69103999999999
 20
122.476921
 30
0.0
  0
VERTEX
  5
BC7
  8
0
 62
     7
 10
287.41403200000002
 20
122.545044
 30
0.0
  0
VERTEX
  5
BC8
  8
0
 62
     7
 10
286.11935399999999
 20
122.546295
 30
0.0
  0
VERTEX
  5
BC9
  8
0
 62
     7
 10
285.23937999999998
 20
122.49896200000001
 30
0.0
  0
VERTEX
  5
BCA
  8
0
 62
     7
 10
284.371399
 20
122.40461000000001
 30
0.0
  0
VERTEX
  5
BCB
  8
0
 62
     7
 10
283.68658399999998
 20
122.288895
 30
0.0
  0
VERTEX
  5
BCC
  8
0
 62
     7
 10
283.02465799999999
 20
122.133698
 30
0.0
  0
VERTEX
  5
BCD
  8
0
 62
     7
 10
282.32046500000001
 20
121.908699
 30
0.0
  0
VERTEX
  5
BCE
  8
0
 62
     7
 10
281.66366599999998
 20
121.62453499999999
 30
0.0
  0
VERTEX
  5
BCF
  8
0
 62
     7
 10
280.98666400000002
 20
121.224541
 30
0.0
  0
VERTEX
  5
BD0
  8
0
 62
     7
 10
280.39312699999999
 20
120.73699999999999
 30
0.0
  0
VERTEX
  5
BD1
  8
0
 62
     7
 10
279.891907
 20
120.157501
 30
0.0
  0
VERTEX
  5
BD2
  8
0
 62
     7
 10
279.48983800000002
 20
119.48259
 30
0.0
  0
VERTEX
  5
BD3
  8
0
 62
     7
 10
279.192047
 20
118.709671
 30
0.0
  0
VERTEX
  5
BD4
  8
0
 62
     7
 10
279.02630599999998
 20
117.98934199999999
 30
0.0
  0
VERTEX
  5
BD5
  8
0
 62
     7
 10
278.937073
 20
117.19890599999999
 30
0.0
  0
VERTEX
  5
BD6
  8
0
 62
     7
 10
278.92532299999999
 20
116.33786000000001
 30
0.0
  0
VERTEX
  5
BD7
  8
0
 62
     7
 10
278.96777300000002
 20
115.645538
 30
0.0
  0
VERTEX
  5
BD8
  8
0
 62
     7
 10
279.05432100000002
 20
114.91326100000001
 30
0.0
  0
VERTEX
  5
BD9
  8
0
 62
     7
 10
279.35995500000001
 20
113.328659
 30
0.0
  0
VERTEX
  5
BDA
  8
0
 62
     7
 10
275.037598
 20
117.630234
 30
0.0
  0
VERTEX
  5
BDB
  8
0
 62
     7
 10
271.88067599999999
 20
120.649475
 30
0.0
  0
VERTEX
  5
BDC
  8
0
 62
     7
 10
270.269836
 20
122.11966700000001
 30
0.0
  0
VERTEX
  5
BDD
  8
0
 62
     7
 10
268.08612099999999
 20
124.001846
 30
0.0
  0
VERTEX
  5
BDE
  8
0
 62
     7
 10
265.84112499999998
 20
125.772476
 30
0.0
  0
VERTEX
  5
BDF
  8
0
 62
     7
 10
263.67340100000001
 20
127.30296300000001
 30
0.0
  0
VERTEX
  5
BE0
  8
0
 62
     7
 10
262.5614930000001
 20
128.01738
 30
0.0
  0
VERTEX
  5
BE1
  8
0
 62
     7
 10
261.42926
 20
128.69636499999999
 30
0.0
  0
VERTEX
  5
BE2
  8
0
 62
     7
 10
260.27560399999999
 20
129.339539
 30
0.0
  0
VERTEX
  5
BE3
  8
0
 62
     7
 10
259.09982300000001
 20
129.94709800000001
 30
0.0
  0
VERTEX
  5
BE4
  8
0
 62
     7
 10
257.90136699999999
 20
130.519882
 30
0.0
  0
VERTEX
  5
BE5
  8
0
 62
     7
 10
256.680115
 20
131.05938699999999
 30
0.0
  0
VERTEX
  5
BE6
  8
0
 62
     7
 10
254.17095900000001
 20
132.04791299999999
 30
0.0
  0
VERTEX
  5
BE7
  8
0
 62
     7
 10
251.28874200000001
 20
133.03259299999999
 30
0.0
  0
VERTEX
  5
BE8
  8
0
 62
     7
 10
248.92791700000001
 20
133.76741000000001
 30
0.0
  0
VERTEX
  5
BE9
  8
0
 62
     7
 10
245.346161
 20
134.864395
 30
0.0
  0
VERTEX
  5
BEA
  8
0
 62
     7
 10
243.56578099999999
 20
135.45098899999999
 30
0.0
  0
VERTEX
  5
BEB
  8
0
 62
     7
 10
242.149689
 20
135.963348
 30
0.0
  0
VERTEX
  5
BEC
  8
0
 62
     7
 10
240.763992
 20
136.524338
 30
0.0
  0
VERTEX
  5
BED
  8
0
 62
     7
 10
239.84777800000001
 20
136.93884299999999
 30
0.0
  0
VERTEX
  5
BEE
  8
0
 62
     7
 10
238.95408599999999
 20
137.38537600000001
 30
0.0
  0
VERTEX
  5
BEF
  8
0
 62
     7
 10
238.11895799999999
 20
137.847992
 30
0.0
  0
VERTEX
  5
BF0
  8
0
 62
     7
 10
237.30990600000001
 20
138.345688
 30
0.0
  0
VERTEX
  5
BF1
  8
0
 62
     7
 10
236.58184800000001
 20
138.84208699999999
 30
0.0
  0
VERTEX
  5
BF2
  8
0
 62
     7
 10
235.87905900000001
 20
139.371216
 30
0.0
  0
VERTEX
  5
BF3
  8
0
 62
     7
 10
235.17746
 20
139.95462000000001
 30
0.0
  0
VERTEX
  5
BF4
  8
0
 62
     7
 10
234.50340299999999
 20
140.57254
 30
0.0
  0
VERTEX
  5
BF5
  8
0
 62
     7
 10
233.85592700000001
 20
141.22311400000001
 30
0.0
  0
VERTEX
  5
BF6
  8
0
 62
     7
 10
233.23307800000001
 20
141.903336
 30
0.0
  0
VERTEX
  5
BF7
  8
0
 62
     7
 10
232.44326799999999
 20
142.839462
 30
0.0
  0
VERTEX
  5
BF8
  8
0
 62
     7
 10
231.932999
 20
143.48168899999999
 30
0.0
  0
VERTEX
  5
BF9
  8
0
 62
     7
 10
230.93562299999999
 20
144.78843699999999
 30
0.0
  0
VERTEX
  5
BFA
  8
0
 62
     7
 10
229.81677199999999
 20
146.250168
 30
0.0
  0
VERTEX
  5
BFB
  8
0
 62
     7
 10
229.05036899999999
 20
147.19111599999999
 30
0.0
  0
VERTEX
  5
BFC
  8
0
 62
     7
 10
228.25216699999999
 20
148.08609000000001
 30
0.0
  0
VERTEX
  5
BFD
  8
0
 62
     7
 10
227.41104100000001
 20
148.92176799999999
 30
0.0
  0
VERTEX
  5
BFE
  8
0
 62
     7
 10
226.74696399999999
 20
149.50392199999999
 30
0.0
  0
VERTEX
  5
BFF
  8
0
 62
     7
 10
226.051987
 20
150.04556299999999
 30
0.0
  0
VERTEX
  5
C00
  8
0
 62
     7
 10
225.079803
 20
150.70323200000001
 30
0.0
  0
VERTEX
  5
C01
  8
0
 62
     7
 10
224.055038
 20
151.2959139999999
 30
0.0
  0
VERTEX
  5
C02
  8
0
 62
     7
 10
222.61906400000001
 20
152.004807
 30
0.0
  0
VERTEX
  5
C03
  8
0
 62
     7
 10
221.62797499999999
 20
152.440979
 30
0.0
  0
VERTEX
  5
C04
  8
0
 62
     7
 10
219.59982299999999
 20
153.27172899999999
 30
0.0
  0
VERTEX
  5
C05
  8
0
 62
     7
 10
215.33450300000001
 20
155.02230800000001
 30
0.0
  0
VERTEX
  5
C06
  8
0
 62
     7
 10
213.26461800000001
 20
155.89550800000001
 30
0.0
  0
VERTEX
  5
C07
  8
0
 62
     7
 10
211.23597699999999
 20
156.71313499999999
 30
0.0
  0
VERTEX
  5
C08
  8
0
 62
     7
 10
210.22880599999999
 20
157.08633399999999
 30
0.0
  0
VERTEX
  5
C09
  8
0
 62
     7
 10
208.767212
 20
157.57330300000001
 30
0.0
  0
VERTEX
  5
C0A
  8
0
 62
     7
 10
207.28033400000001
 20
157.99516299999999
 30
0.0
  0
VERTEX
  5
C0B
  8
0
 62
     7
 10
205.22160299999999
 20
158.46504200000001
 30
0.0
  0
VERTEX
  5
C0C
  8
0
 62
     7
 10
203.78169299999999
 20
158.73268100000001
 30
0.0
  0
VERTEX
  5
C0D
  8
0
 62
     7
 10
200.71476699999999
 20
159.21873500000001
 30
0.0
  0
VERTEX
  5
C0E
  8
0
 62
     7
 10
198.57409699999999
 20
159.55586199999999
 30
0.0
  0
VERTEX
  5
C0F
  8
0
 62
     7
 10
197.484802
 20
159.74511699999999
 30
0.0
  0
VERTEX
  5
C10
  8
0
 62
     7
 10
195.85159300000001
 20
160.07012900000001
 30
0.0
  0
VERTEX
  5
C11
  8
0
 62
     7
 10
194.64613299999999
 20
160.35601800000001
 30
0.0
  0
VERTEX
  5
C12
  8
0
 62
     7
 10
193.47575399999999
 20
160.68646200000001
 30
0.0
  0
VERTEX
  5
C13
  8
0
 62
     7
 10
192.595428
 20
160.98107899999999
 30
0.0
  0
VERTEX
  5
C14
  8
0
 62
     7
 10
191.75607299999999
 20
161.31097399999999
 30
0.0
  0
VERTEX
  5
C15
  8
0
 62
     7
 10
191.03042600000001
 20
161.64692700000001
 30
0.0
  0
VERTEX
  5
C16
  8
0
 62
     7
 10
190.352936
 20
162.01760899999999
 30
0.0
  0
VERTEX
  5
C17
  8
0
 62
     7
 10
189.83848599999999
 20
162.34852599999999
 30
0.0
  0
VERTEX
  5
C18
  8
0
 62
     7
 10
189.36386100000001
 20
162.705353
 30
0.0
  0
VERTEX
  5
C19
  8
0
 62
     7
 10
188.96682699999999
 20
163.05578600000001
 30
0.0
  0
VERTEX
  5
C1A
  8
0
 62
     7
 10
188.608093
 20
163.429565
 30
0.0
  0
VERTEX
  5
C1B
  8
0
 62
     7
 10
188.175659
 20
163.991119
 30
0.0
  0
VERTEX
  5
C1C
  8
0
 62
     7
 10
187.826706
 20
164.60101299999999
 30
0.0
  0
VERTEX
  5
C1D
  8
0
 62
     7
 10
187.565369
 20
165.26052899999999
 30
0.0
  0
VERTEX
  5
C1E
  8
0
 62
     7
 10
187.37600699999999
 20
166.08933999999999
 30
0.0
  0
VERTEX
  5
C1F
  8
0
 62
     7
 10
187.31195099999999
 20
166.98727400000001
 30
0.0
  0
VERTEX
  5
C20
  8
0
 62
     7
 10
187.37486299999989
 20
167.95483400000001
 30
0.0
  0
VERTEX
  5
C21
  8
0
 62
     7
 10
187.565369
 20
168.99221800000001
 30
0.0
  0
VERTEX
  5
C22
  8
0
 62
     7
 10
187.565369
 20
176.27789300000001
 30
0.0
  0
VERTEX
  5
C23
  8
0
 62
     7
 10
181.87913499999999
 20
175.033997
 30
0.0
  0
VERTEX
  5
C24
  8
0
 62
     7
 10
178.50292999999999
 20
173.7901
 30
0.0
  0
VERTEX
  5
C25
  8
0
 62
     7
 10
176.559326
 20
174.68069499999999
 30
0.0
  0
VERTEX
  5
C26
  8
0
 62
     7
 10
175.29225199999999
 20
175.32858300000001
 30
0.0
  0
VERTEX
  5
C27
  8
0
 62
     7
 10
174.046097
 20
176.0158999999999
 30
0.0
  0
VERTEX
  5
C28
  8
0
 62
     7
 10
172.816711
 20
176.73468
 30
0.0
  0
VERTEX
  5
C29
  8
0
 62
     7
 10
171.25704999999999
 20
177.67678799999999
 30
0.0
  0
VERTEX
  5
C2A
  8
0
 62
     7
 10
169.69079600000001
 20
178.604874
 30
0.0
  0
VERTEX
  5
C2B
  8
0
 62
     7
 10
168.09591699999999
 20
179.476471
 30
0.0
  0
VERTEX
  5
C2C
  8
0
 62
     7
 10
166.211975
 20
180.38021900000001
 30
0.0
  0
VERTEX
  5
C2D
  8
0
 62
     7
 10
164.92941300000001
 20
180.93002300000001
 30
0.0
  0
VERTEX
  5
C2E
  8
0
 62
     7
 10
162.33273299999999
 20
181.96426399999999
 30
0.0
  0
VERTEX
  5
C2F
  8
0
 62
     7
 10
158.76458700000001
 20
183.40237400000001
 30
0.0
  0
VERTEX
  5
C30
  8
0
 62
     7
 10
158.48109400000001
 20
184.987595
 30
0.0
  0
VERTEX
  5
C31
  8
0
 62
     7
 10
158.07482899999999
 20
186.52371199999999
 30
0.0
  0
VERTEX
  5
C32
  8
0
 62
     7
 10
157.55007900000001
 20
188.012283
 30
0.0
  0
VERTEX
  5
C33
  8
0
 62
     7
 10
156.91802999999999
 20
189.45748900000001
 30
0.0
  0
VERTEX
  5
C34
  8
0
 62
     7
 10
156.37908899999999
 20
190.53076200000001
 30
0.0
  0
VERTEX
  5
C35
  8
0
 62
     7
 10
155.21047999999999
 20
192.637756
 30
0.0
  0
VERTEX
  5
C36
  8
0
 62
     7
 10
154.03656000000001
 20
194.73703
 30
0.0
  0
VERTEX
  5
C37
  8
0
 62
     7
 10
153.488754
 20
195.80091899999999
 30
0.0
  0
VERTEX
  5
C38
  8
0
 62
     7
 10
152.719604
 20
197.49896200000001
 30
0.0
  0
VERTEX
  5
C39
  8
0
 62
     7
 10
152.07055700000001
 20
199.25271599999999
 30
0.0
  0
VERTEX
  5
C3A
  8
0
 62
     7
 10
151.54310599999999
 20
201.06622300000001
 30
0.0
  0
VERTEX
  5
C3B
  8
0
 62
     7
 10
151.13763399999999
 20
202.93279999999999
 30
0.0
  0
VERTEX
  5
C3C
  8
0
 62
     7
 10
150.975067
 20
203.94841
 30
0.0
  0
VERTEX
  5
C3D
  8
0
 62
     7
 10
150.85690299999999
 20
204.97013899999999
 30
0.0
  0
VERTEX
  5
C3E
  8
0
 62
     7
 10
150.79637099999999
 20
205.84631300000001
 30
0.0
  0
VERTEX
  5
C3F
  8
0
 62
     7
 10
150.77874800000001
 20
206.72006200000001
 30
0.0
  0
VERTEX
  5
C40
  8
0
 62
     7
 10
150.83947800000001
 20
207.971405
 30
0.0
  0
VERTEX
  5
C41
  8
0
 62
     7
 10
151.014847
 20
209.20001199999999
 30
0.0
  0
VERTEX
  5
C42
  8
0
 62
     7
 10
151.315338
 20
210.39617899999999
 30
0.0
  0
VERTEX
  5
C43
  8
0
 62
     7
 10
151.63601700000001
 20
211.292404
 30
0.0
  0
VERTEX
  5
C44
  8
0
 62
     7
 10
152.03286700000001
 20
212.16134600000001
 30
0.0
  0
VERTEX
  5
C45
  8
0
 62
     7
 10
152.502228
 20
213.000732
 30
0.0
  0
VERTEX
  5
C46
  8
0
 62
     7
 10
152.89849899999999
 20
213.60981799999999
 30
0.0
  0
VERTEX
  5
C47
  8
0
 62
     7
 10
153.329498
 20
214.20079000000001
 30
0.0
  0
VERTEX
  5
C48
  8
0
 62
     7
 10
154.28274500000001
 20
215.32695000000001
 30
0.0
  0
VERTEX
  5
C49
  8
0
 62
     7
 10
155.335297
 20
216.37724299999999
 30
0.0
  0
VERTEX
  5
C4A
  8
0
 62
     7
 10
156.698669
 20
217.53909300000001
 30
0.0
  0
VERTEX
  5
C4B
  8
0
 62
     7
 10
158.13677999999999
 20
218.58862300000001
 30
0.0
  0
VERTEX
  5
C4C
  8
0
 62
     7
 10
159.62704500000001
 20
219.525116
 30
0.0
  0
VERTEX
  5
C4D
  8
0
 62
     7
 10
161.155731
 20
220.348175
 30
0.0
  0
VERTEX
  5
C4E
  8
0
 62
     7
 10
162.71571399999999
 20
221.057571
 30
0.0
  0
VERTEX
  5
C4F
  8
0
 62
     7
 10
164.304214
 20
221.65322900000001
 30
0.0
  0
VERTEX
  5
C50
  8
0
 62
     7
 10
164.78826900000001
 20
220.46597299999999
 30
0.0
  0
VERTEX
  5
C51
  8
0
 62
     7
 10
164.96109000000001
 20
219.89892599999999
 30
0.0
  0
VERTEX
  5
C52
  8
0
 62
     7
 10
165.07983400000001
 20
219.36682099999999
 30
0.0
  0
VERTEX
  5
C53
  8
0
 62
     7
 10
165.141571
 20
218.90789799999999
 30
0.0
  0
VERTEX
  5
C54
  8
0
 62
     7
 10
165.15829500000001
 20
218.477814
 30
0.0
  0
VERTEX
  5
C55
  8
0
 62
     7
 10
165.10794100000001
 20
217.926117
 30
0.0
  0
VERTEX
  5
C56
  8
0
 62
     7
 10
164.97436500000001
 20
217.42640700000001
 30
0.0
  0
VERTEX
  5
C57
  8
0
 62
     7
 10
164.761292
 20
216.975021
 30
0.0
  0
VERTEX
  5
C58
  8
0
 62
     7
 10
164.55233799999999
 20
216.66525300000001
 30
0.0
  0
VERTEX
  5
C59
  8
0
 62
     7
 10
164.304214
 20
216.37724299999999
 30
0.0
  0
VERTEX
  5
C5A
  8
0
 62
     7
 10
163.899292
 20
216.006012
 30
0.0
  0
VERTEX
  5
C5B
  8
0
 62
     7
 10
163.435318
 20
215.66055299999999
 30
0.0
  0
VERTEX
  5
C5C
  8
0
 62
     7
 10
162.382507
 20
215.00054900000001
 30
0.0
  0
VERTEX
  5
C5D
  8
0
 62
     7
 10
161.266571
 20
214.30557300000001
 30
0.0
  0
VERTEX
  5
C5E
  8
0
 62
     7
 10
160.67984000000001
 20
213.883881
 30
0.0
  0
VERTEX
  5
C5F
  8
0
 62
     7
 10
160.14089999999999
 20
213.42352299999999
 30
0.0
  0
VERTEX
  5
C60
  8
0
 62
     7
 10
159.77998400000001
 20
213.04894999999999
 30
0.0
  0
VERTEX
  5
C61
  8
0
 62
     7
 10
159.467499
 20
212.650848
 30
0.0
  0
VERTEX
  5
C62
  8
0
 62
     7
 10
159.17288199999999
 20
212.15953099999999
 30
0.0
  0
VERTEX
  5
C63
  8
0
 62
     7
 10
158.95620700000001
 20
211.64007599999999
 30
0.0
  0
VERTEX
  5
C64
  8
0
 62
     7
 10
158.79428100000001
 20
210.9785
 30
0.0
  0
VERTEX
  5
C65
  8
0
 62
     7
 10
158.72444200000001
 20
210.28736900000001
 30
0.0
  0
VERTEX
  5
C66
  8
0
 62
     7
 10
158.71508800000001
 20
209.91452000000001
 30
0.0
  0
VERTEX
  5
C67
  8
0
 62
     7
 10
158.72936999999999
 20
209.15484599999999
 30
0.0
  0
VERTEX
  5
C68
  8
0
 62
     7
 10
158.765503
 20
207.96920800000001
 30
0.0
  0
VERTEX
  5
C69
  8
0
 62
     7
 10
158.733429
 20
206.491333
 30
0.0
  0
VERTEX
  5
C6A
  8
0
 62
     7
 10
158.69555700000001
 20
205.62185700000001
 30
0.0
  0
VERTEX
  5
C6B
  8
0
 62
     7
 10
158.71121199999999
 20
204.65219099999999
 30
0.0
  0
VERTEX
  5
C6C
  8
0
 62
     7
 10
158.76458700000001
 20
204.17669699999999
 30
0.0
  0
VERTEX
  5
C6D
  8
0
 62
     7
 10
158.946808
 20
203.36257900000001
 30
0.0
  0
VERTEX
  5
C6E
  8
0
 62
     7
 10
159.23165900000001
 20
202.560913
 30
0.0
  0
VERTEX
  5
C6F
  8
0
 62
     7
 10
159.62022400000001
 20
201.681183
 30
0.0
  0
VERTEX
  5
C70
  8
0
 62
     7
 10
160.022705
 20
200.80041499999999
 30
0.0
  0
VERTEX
  5
C71
  8
0
 62
     7
 10
160.514511
 20
199.567993
 30
0.0
  0
VERTEX
  5
C72
  8
0
 62
     7
 10
160.78689600000001
 20
198.738113
 30
0.0
  0
VERTEX
  5
C73
  8
0
 62
     7
 10
161.266571
 20
197.068726
 30
0.0
  0
VERTEX
  5
C74
  8
0
 62
     7
 10
161.78093000000001
 20
195.38020299999999
 30
0.0
  0
VERTEX
  5
C75
  8
0
 62
     7
 10
162.33273299999999
 20
193.692429
 30
0.0
  0
VERTEX
  5
C76
  8
0
 62
     7
 10
162.884827
 20
191.82699600000001
 30
0.0
  0
VERTEX
  5
C77
  8
0
 62
     7
 10
163.11657700000001
 20
190.88464399999989
 30
0.0
  0
VERTEX
  5
C78
  8
0
 62
     7
 10
163.3988949999999
 20
189.45748900000001
 30
0.0
  0
VERTEX
  5
C79
  8
0
 62
     7
 10
164.12669399999999
 20
190.270309
 30
0.0
  0
VERTEX
  5
C7A
  8
0
 62
     7
 10
164.68083200000001
 20
191.10054
 30
0.0
  0
VERTEX
  5
C7B
  8
0
 62
     7
 10
164.893494
 20
191.52212499999999
 30
0.0
  0
VERTEX
  5
C7C
  8
0
 62
     7
 10
165.064087
 20
191.94799800000001
 30
0.0
  0
VERTEX
  5
C7D
  8
0
 62
     7
 10
165.19366500000001
 20
192.37808200000001
 30
0.0
  0
VERTEX
  5
C7E
  8
0
 62
     7
 10
165.283691
 20
192.81225599999999
 30
0.0
  0
VERTEX
  5
C7F
  8
0
 62
     7
 10
165.35354599999999
 20
193.692429
 30
0.0
  0
VERTEX
  5
C80
  8
0
 62
     7
 10
165.32983400000001
 20
194.26220699999999
 30
0.0
  0
VERTEX
  5
C81
  8
0
 62
     7
 10
165.262146
 20
194.837402
 30
0.0
  0
VERTEX
  5
C82
  8
0
 62
     7
 10
165.119812
 20
195.611694
 30
0.0
  0
VERTEX
  5
C83
  8
0
 62
     7
 10
164.74823000000001
 20
197.179642
 30
0.0
  0
VERTEX
  5
C84
  8
0
 62
     7
 10
164.511719
 20
198.23407
 30
0.0
  0
VERTEX
  5
C85
  8
0
 62
     7
 10
164.304214
 20
199.55651899999989
 30
0.0
  0
VERTEX
  5
C86
  8
0
 62
     7
 10
164.23017899999999
 20
200.61526499999999
 30
0.0
  0
VERTEX
  5
C87
  8
0
 62
     7
 10
164.225662
 20
201.673889
 30
0.0
  0
VERTEX
  5
C88
  8
0
 62
     7
 10
164.26670799999999
 20
202.92475899999999
 30
0.0
  0
VERTEX
  5
C89
  8
0
 62
     7
 10
164.30607599999999
 20
205.42984000000001
 30
0.0
  0
VERTEX
  5
C8A
  8
0
 62
     7
 10
164.28428600000001
 20
206.68267800000001
 30
0.0
  0
VERTEX
  5
C8B
  8
0
 62
     7
 10
164.28179900000001
 20
207.97503699999999
 30
0.0
  0
VERTEX
  5
C8C
  8
0
 62
     7
 10
164.379211
 20
209.57583600000001
 30
0.0
  0
VERTEX
  5
C8D
  8
0
 62
     7
 10
164.506744
 20
210.52847299999999
 30
0.0
  0
VERTEX
  5
C8E
  8
0
 62
     7
 10
164.74739099999999
 20
211.79272499999999
 30
0.0
  0
VERTEX
  5
C8F
  8
0
 62
     7
 10
164.939255
 20
212.63232400000001
 30
0.0
  0
VERTEX
  5
C90
  8
0
 62
     7
 10
165.35354599999999
 20
214.30557300000001
 30
0.0
  0
VERTEX
  5
C91
  8
0
 62
     7
 10
165.98947100000001
 20
216.85672
 30
0.0
  0
VERTEX
  5
C92
  8
0
 62
     7
 10
166.32989499999999
 20
218.12283300000001
 30
0.0
  0
VERTEX
  5
C93
  8
0
 62
     7
 10
166.61911000000001
 20
219.06366
 30
0.0
  0
VERTEX
  5
C94
  8
0
 62
     7
 10
166.952789
 20
219.99194299999999
 30
0.0
  0
VERTEX
  5
C95
  8
0
 62
     7
 10
167.263519
 20
220.730301
 30
0.0
  0
VERTEX
  5
C96
  8
0
 62
     7
 10
167.61468500000001
 20
221.45193499999999
 30
0.0
  0
VERTEX
  5
C97
  8
0
 62
     7
 10
168.14894100000001
 20
222.37988300000001
 30
0.0
  0
VERTEX
  5
C98
  8
0
 62
     7
 10
168.75869800000001
 20
223.25860599999999
 30
0.0
  0
VERTEX
  5
C99
  8
0
 62
     7
 10
169.44052099999999
 20
224.079025
 30
0.0
  0
VERTEX
  5
C9A
  8
0
 62
     7
 10
170.27783199999999
 20
224.91816700000001
 30
0.0
  0
VERTEX
  5
C9B
  8
0
 62
     7
 10
171.18734699999999
 20
225.67837499999999
 30
0.0
  0
VERTEX
  5
C9C
  8
0
 62
     7
 10
172.158142
 20
226.36537200000001
 30
0.0
  0
VERTEX
  5
C9D
  8
0
 62
     7
 10
172.91980000000001
 20
226.83775299999999
 30
0.0
  0
VERTEX
  5
C9E
  8
0
 62
     7
 10
173.70519999999999
 20
227.27761799999999
 30
0.0
  0
VERTEX
  5
C9F
  8
0
 62
     7
 10
175.229828
 20
228.02534499999999
 30
0.0
  0
VERTEX
  5
CA0
  8
0
 62
     7
 10
176.801727
 20
228.67716999999999
 30
0.0
  0
VERTEX
  5
CA1
  8
0
 62
     7
 10
178.40437299999999
 20
229.22851600000001
 30
0.0
  0
VERTEX
  5
CA2
  8
0
 62
     7
 10
180.026276
 20
229.665604
 30
0.0
  0
VERTEX
  5
CA3
  8
0
 62
     7
 10
181.65991199999999
 20
229.96958900000001
 30
0.0
  0
VERTEX
  5
CA4
  8
0
 62
     7
 10
182.47959900000001
 20
230.06544500000001
 30
0.0
  0
VERTEX
  5
CA5
  8
0
 62
     7
 10
183.30069
 20
230.12080399999999
 30
0.0
  0
VERTEX
  5
CA6
  8
0
 62
     7
 10
184.76315299999999
 20
230.113617
 30
0.0
  0
VERTEX
  5
CA7
  8
0
 62
     7
 10
186.22825599999999
 20
229.965317
 30
0.0
  0
VERTEX
  5
CA8
  8
0
 62
     7
 10
187.69546500000001
 20
229.672043
 30
0.0
  0
VERTEX
  5
CA9
  8
0
 62
     7
 10
189.16461200000001
 20
229.232315
 30
0.0
  0
VERTEX
  5
CAA
  8
0
 62
     7
 10
188.71404999999999
 20
228.456726
 30
0.0
  0
VERTEX
  5
CAB
  8
0
 62
     7
 10
188.18026699999999
 20
227.80604600000001
 30
0.0
  0
VERTEX
  5
CAC
  8
0
 62
     7
 10
187.565369
 20
227.27761799999999
 30
0.0
  0
VERTEX
  5
CAD
  8
0
 62
     7
 10
187.17337000000001
 20
227.024551
 30
0.0
  0
VERTEX
  5
CAE
  8
0
 62
     7
 10
186.757507
 20
226.80818199999999
 30
0.0
  0
VERTEX
  5
CAF
  8
0
 62
     7
 10
185.863373
 20
226.47357199999999
 30
0.0
  0
VERTEX
  5
CB0
  8
0
 62
     7
 10
185.33776900000001
 20
226.33586099999999
 30
0.0
  0
VERTEX
  5
CB1
  8
0
 62
     7
 10
184.24328600000001
 20
226.13601700000001
 30
0.0
  0
VERTEX
  5
CB2
  8
0
 62
     7
 10
183.06021100000001
 20
225.99011200000001
 30
0.0
  0
VERTEX
  5
CB3
  8
0
 62
     7
 10
181.87913499999999
 20
225.85601800000001
 30
0.0
  0
VERTEX
  5
CB4
  8
0
 62
     7
 10
180.34724399999999
 20
225.615219
 30
0.0
  0
VERTEX
  5
CB5
  8
0
 62
     7
 10
179.60554500000001
 20
225.44564800000001
 30
0.0
  0
VERTEX
  5
CB6
  8
0
 62
     7
 10
178.852982
 20
225.225739
 30
0.0
  0
VERTEX
  5
CB7
  8
0
 62
     7
 10
178.11575300000001
 20
224.95657299999999
 30
0.0
  0
VERTEX
  5
CB8
  8
0
 62
     7
 10
177.23275799999999
 20
224.55697599999999
 30
0.0
  0
VERTEX
  5
CB9
  8
0
 62
     7
 10
176.37060500000001
 20
224.079025
 30
0.0
  0
VERTEX
  5
CBA
  8
0
 62
     7
 10
175.35368299999999
 20
223.390793
 30
0.0
  0
VERTEX
  5
CBB
  8
0
 62
     7
 10
174.401489
 20
222.59497099999999
 30
0.0
  0
VERTEX
  5
CBC
  8
0
 62
     7
 10
173.96051
 20
222.15980500000001
 30
0.0
  0
VERTEX
  5
CBD
  8
0
 62
     7
 10
173.549286
 20
221.70178200000001
 30
0.0
  0
VERTEX
  5
CBE
  8
0
 62
     7
 10
172.99847399999999
 20
220.97547900000001
 30
0.0
  0
VERTEX
  5
CBF
  8
0
 62
     7
 10
172.539063
 20
220.207336
 30
0.0
  0
VERTEX
  5
CC0
  8
0
 62
     7
 10
172.18100000000001
 20
219.403549
 30
0.0
  0
VERTEX
  5
CC1
  8
0
 62
     7
 10
171.92825300000001
 20
218.57034300000001
 30
0.0
  0
VERTEX
  5
CC2
  8
0
 62
     7
 10
171.77285800000001
 20
217.68100000000001
 30
0.0
  0
VERTEX
  5
CC3
  8
0
 62
     7
 10
171.711975
 20
216.772964
 30
0.0
  0
VERTEX
  5
CC4
  8
0
 62
     7
 10
171.73855599999999
 20
215.54336499999999
 30
0.0
  0
VERTEX
  5
CC5
  8
0
 62
     7
 10
171.83047500000001
 20
214.30313100000001
 30
0.0
  0
VERTEX
  5
CC6
  8
0
 62
     7
 10
171.92825300000001
 20
213.06167600000001
 30
0.0
  0
VERTEX
  5
CC7
  8
0
 62
     7
 10
171.99664300000001
 20
211.62640400000001
 30
0.0
  0
VERTEX
  5
CC8
  8
0
 62
     7
 10
172.002441
 20
210.201538
 30
0.0
  0
VERTEX
  5
CC9
  8
0
 62
     7
 10
171.96752900000001
 20
208.78591900000001
 30
0.0
  0
VERTEX
  5
CCA
  8
0
 62
     7
 10
171.91842700000001
 20
204.548035
 30
0.0
  0
VERTEX
  5
CCB
  8
0
 62
     7
 10
171.821991
 20
198.50247200000001
 30
0.0
  0
VERTEX
  5
CCC
  8
0
 62
     7
 10
171.747803
 20
196.623932
 30
0.0
  0
VERTEX
  5
CCD
  8
0
 62
     7
 10
171.732147
 20
195.69348099999999
 30
0.0
  0
VERTEX
  5
CCE
  8
0
 62
     7
 10
171.75662199999999
 20
194.31214900000001
 30
0.0
  0
VERTEX
  5
CCF
  8
0
 62
     7
 10
171.821564
 20
193.287567
 30
0.0
  0
VERTEX
  5
CD0
  8
0
 62
     7
 10
171.92825300000001
 20
192.27084400000001
 30
0.0
  0
VERTEX
  5
CD1
  8
0
 62
     7
 10
172.22689800000001
 20
190.29806500000001
 30
0.0
  0
VERTEX
  5
CD2
  8
0
 62
     7
 10
172.816711
 20
186.22906499999999
 30
0.0
  0
VERTEX
  5
CD3
  8
0
 62
     7
 10
172.96984900000001
 20
184.908569
 30
0.0
  0
VERTEX
  5
CD4
  8
0
 62
     7
 10
173.06227100000001
 20
184.256317
 30
0.0
  0
VERTEX
  5
CD5
  8
0
 62
     7
 10
173.24864199999999
 20
183.30276499999999
 30
0.0
  0
VERTEX
  5
CD6
  8
0
 62
     7
 10
173.44491600000001
 20
182.61694299999999
 30
0.0
  0
VERTEX
  5
CD7
  8
0
 62
     7
 10
173.70519999999999
 20
181.96426399999999
 30
0.0
  0
VERTEX
  5
CD8
  8
0
 62
     7
 10
174.10548399999999
 20
181.250946
 30
0.0
  0
VERTEX
  5
CD9
  8
0
 62
     7
 10
174.620407
 20
180.59674100000001
 30
0.0
  0
VERTEX
  5
CDA
  8
0
 62
     7
 10
175.25619499999999
 20
180.004852
 30
0.0
  0
VERTEX
  5
CDB
  8
0
 62
     7
 10
176.01522800000001
 20
179.476471
 30
0.0
  0
SEQEND
  5
CDC
  8
0
 62
     7
  0
POLYLINE
  5
575
  8
0
 62
     7
 66
     1
 10
0.0
 20
0.0
 30
0.0
 70
     1
  0
VERTEX
  5
CDD
  8
0
 62
     7
 10
205.86790500000001
 20
181.07577499999999
 30
0.0
  0
VERTEX
  5
CDE
  8
0
 62
     7
 10
203.173676
 20
178.77096599999999
 30
0.0
  0
VERTEX
  5
CDF
  8
0
 62
     7
 10
201.958618
 20
177.69949299999999
 30
0.0
  0
VERTEX
  5
CE0
  8
0
 62
     7
 10
200.65588399999999
 20
176.465149
 30
0.0
  0
VERTEX
  5
CE1
  8
0
 62
     7
 10
199.292877
 20
175.033997
 30
0.0
  0
VERTEX
  5
CE2
  8
0
 62
     7
 10
198.21073899999999
 20
173.86300700000001
 30
0.0
  0
VERTEX
  5
CE3
  8
0
 62
     7
 10
197.69001800000001
 20
173.333313
 30
0.0
  0
VERTEX
  5
CE4
  8
0
 62
     7
 10
197.32247899999999
 20
172.99388099999999
 30
0.0
  0
VERTEX
  5
CE5
  8
0
 62
     7
 10
196.98318499999999
 20
172.723907
 30
0.0
  0
VERTEX
  5
CE6
  8
0
 62
     7
 10
196.75325000000001
 20
172.57794200000001
 30
0.0
  0
VERTEX
  5
CE7
  8
0
 62
     7
 10
196.545502
 20
172.48571799999999
 30
0.0
  0
VERTEX
  5
CE8
  8
0
 62
     7
 10
196.3069459999999
 20
172.45538300000001
 30
0.0
  0
VERTEX
  5
CE9
  8
0
 62
     7
 10
196.116501
 20
172.540649
 30
0.0
  0
VERTEX
  5
CEA
  8
0
 62
     7
 10
195.97795099999999
 20
172.75035099999999
 30
0.0
  0
VERTEX
  5
CEB
  8
0
 62
     7
 10
195.90997300000001
 20
172.99359100000001
 30
0.0
  0
VERTEX
  5
CEC
  8
0
 62
     7
 10
195.873932
 20
173.313232
 30
0.0
  0
VERTEX
  5
CED
  8
0
 62
     7
 10
195.900879
 20
174.189041
 30
0.0
  0
VERTEX
  5
CEE
  8
0
 62
     7
 10
196.01676900000001
 20
175.101776
 30
0.0
  0
VERTEX
  5
CEF
  8
0
 62
     7
 10
196.21745300000001
 20
176.21682699999999
 30
0.0
  0
VERTEX
  5
CF0
  8
0
 62
     7
 10
196.54586800000001
 20
177.7167969999999
 30
0.0
  0
VERTEX
  5
CF1
  8
0
 62
     7
 10
196.98318499999999
 20
179.476471
 30
0.0
  0
VERTEX
  5
CF2
  8
0
 62
     7
 10
198.19490099999999
 20
180.16619900000001
 30
0.0
  0
VERTEX
  5
CF3
  8
0
 62
     7
 10
199.438751
 20
180.69927999999999
 30
0.0
  0
VERTEX
  5
CF4
  8
0
 62
     7
 10
200.71476699999999
 20
181.07577499999999
 30
0.0
  0
VERTEX
  5
CF5
  8
0
 62
     7
 10
201.959351
 20
181.28866600000001
 30
0.0
  0
VERTEX
  5
CF6
  8
0
 62
     7
 10
203.23307800000001
 20
181.35961900000001
 30
0.0
  0
VERTEX
  5
CF7
  8
0
 62
     7
 10
204.53591900000001
 20
181.28866600000001
 30
0.0
  0
SEQEND
  5
CF8
  8
0
 62
     7
  0
POLYLINE
  5
626
  8
0
 62
     7
 66
     1
 10
0.0
 20
0.0
 30
0.0
  0
VERTEX
  5
CF9
  8
0
 62
     7
 10
107.97717299999999
 20
159.08019999999999
 30
0.0
  0
VERTEX
  5
CFA
  8
0
 62
     7
 10
107.051529
 20
159.17218
 30
0.0
  0
VERTEX
  5
CFB
  8
0
 62
     7
 10
106.139481
 20
159.36291499999999
 30
0.0
  0
VERTEX
  5
CFC
  8
0
 62
     7
 10
105.210037
 20
159.66116299999999
 30
0.0
  0
VERTEX
  5
CFD
  8
0
 62
     7
 10
104.304382
 20
160.051849
 30
0.0
  0
VERTEX
  5
CFE
  8
0
 62
     7
 10
103.431915
 20
160.52067600000001
 30
0.0
  0
VERTEX
  5
CFF
  8
0
 62
     7
 10
102.80577099999999
 20
160.913849
 30
0.0
  0
VERTEX
  5
D00
  8
0
 62
     7
 10
102.20871
 20
161.33509799999999
 30
0.0
  0
VERTEX
  5
D01
  8
0
 62
     7
 10
101.116333
 20
162.23962399999999
 30
0.0
  0
VERTEX
  5
D02
  8
0
 62
     7
 10
100.16810599999999
 20
163.21173099999999
 30
0.0
  0
VERTEX
  5
D03
  8
0
 62
     7
 10
99.363784999999993
 20
164.254333
 30
0.0
  0
VERTEX
  5
D04
  8
0
 62
     7
 10
98.681656000000004
 20
165.39872700000001
 30
0.0
  0
VERTEX
  5
D05
  8
0
 62
     7
 10
98.095810000000014
 20
166.68306000000001
 30
0.0
  0
VERTEX
  5
D06
  8
0
 62
     7
 10
97.588379000000003
 20
168.134094
 30
0.0
  0
VERTEX
  5
D07
  8
0
 62
     7
 10
97.161942000000025
 20
169.7491
 30
0.0
  0
VERTEX
  5
D08
  8
0
 62
     7
 10
96.98848000000001
 20
170.604736
 30
0.0
  0
VERTEX
  5
D09
  8
0
 62
     7
 10
96.851699999999994
 20
171.47778299999999
 30
0.0
  0
VERTEX
  5
D0A
  8
0
 62
     7
 10
96.768341000000007
 20
172.278809
 30
0.0
  0
VERTEX
  5
D0B
  8
0
 62
     7
 10
96.736496000000002
 20
173.06426999999999
 30
0.0
  0
VERTEX
  5
D0C
  8
0
 62
     7
 10
96.758865
 20
173.70318599999999
 30
0.0
  0
VERTEX
  5
D0D
  8
0
 62
     7
 10
96.834273999999994
 20
174.30642700000001
 30
0.0
  0
VERTEX
  5
D0E
  8
0
 62
     7
 10
96.926300000000012
 20
174.716431
 30
0.0
  0
VERTEX
  5
D0F
  8
0
 62
     7
 10
97.052124000000006
 20
175.09780900000001
 30
0.0
  0
VERTEX
  5
D10
  8
0
 62
     7
 10
97.275330000000011
 20
175.555939
 30
0.0
  0
VERTEX
  5
D11
  8
0
 62
     7
 10
97.563918999999999
 20
175.95062300000001
 30
0.0
  0
VERTEX
  5
D12
  8
0
 62
     7
 10
97.917862
 20
176.27789300000001
 30
0.0
  0
VERTEX
  5
D13
  8
0
 62
     7
 10
98.422729000000004
 20
176.57968099999999
 30
0.0
  0
VERTEX
  5
D14
  8
0
 62
     7
 10
99.005966000000001
 20
176.78829999999999
 30
0.0
  0
VERTEX
  5
D15
  8
0
 62
     7
 10
99.651793999999995
 20
176.91387900000001
 30
0.0
  0
VERTEX
  5
D16
  8
0
 62
     7
 10
100.22631800000001
 20
176.96516399999999
 30
0.0
  0
VERTEX
  5
D17
  8
0
 62
     7
 10
100.819351
 20
176.977295
 30
0.0
  0
VERTEX
  5
D18
  8
0
 62
     7
 10
101.419022
 20
176.95971700000001
 30
0.0
  0
VERTEX
  5
D19
  8
0
 62
     7
 10
102.243607
 20
176.90240499999999
 30
0.0
  0
VERTEX
  5
D1A
  8
0
 62
     7
 10
103.781738
 20
176.73468
 30
0.0
  0
VERTEX
  5
D1B
  8
0
 62
     7
 10
104.776535
 20
176.579849
 30
0.0
  0
VERTEX
  5
D1C
  8
0
 62
     7
 10
105.25299099999999
 20
176.476471
 30
0.0
  0
VERTEX
  5
D1D
  8
0
 62
     7
 10
105.969223
 20
176.26326
 30
0.0
  0
VERTEX
  5
D1E
  8
0
 62
     7
 10
106.718384
 20
175.95590200000001
 30
0.0
  0
VERTEX
  5
D1F
  8
0
 62
     7
 10
107.249847
 20
175.691238
 30
0.0
  0
VERTEX
  5
D20
  8
0
 62
     7
 10
108.401779
 20
175.033997
 30
0.0
  0
VERTEX
  5
D21
  8
0
 62
     7
 10
109.650482
 20
174.29968299999999
 30
0.0
  0
VERTEX
  5
D22
  8
0
 62
     7
 10
110.258438
 20
173.98297099999999
 30
0.0
  0
VERTEX
  5
D23
  8
0
 62
     7
 10
110.687073
 20
173.797867
 30
0.0
  0
VERTEX
  5
D24
  8
0
 62
     7
 10
111.080322
 20
173.67449999999999
 30
0.0
  0
VERTEX
  5
D25
  8
0
 62
     7
 10
111.36235000000001
 20
173.62918099999999
 30
0.0
  0
VERTEX
  5
D26
  8
0
 62
     7
 10
111.610901
 20
173.63713100000001
 30
0.0
  0
VERTEX
  5
D27
  8
0
 62
     7
 10
111.798462
 20
173.690979
 30
0.0
  0
VERTEX
  5
D28
  8
0
 62
     7
 10
111.95564299999999
 20
173.7901
 30
0.0
  0
VERTEX
  5
D29
  8
0
 62
     7
 10
112.14825399999999
 20
174.05664100000001
 30
0.0
  0
VERTEX
  5
D2A
  8
0
 62
     7
 10
112.25329600000001
 20
174.440933
 30
0.0
  0
VERTEX
  5
D2B
  8
0
 62
     7
 10
112.277084
 20
174.88635300000001
 30
0.0
  0
VERTEX
  5
D2C
  8
0
 62
     7
 10
112.237808
 20
175.399261
 30
0.0
  0
VERTEX
  5
D2D
  8
0
 62
     7
 10
112.12518300000001
 20
176.05209400000001
 30
0.0
  0
VERTEX
  5
D2E
  8
0
 62
     7
 10
111.95564299999999
 20
176.73468
 30
0.0
  0
VERTEX
  5
D2F
  8
0
 62
     7
 10
111.541214
 20
177.983215
 30
0.0
  0
VERTEX
  5
D30
  8
0
 62
     7
 10
111.06100499999999
 20
179.107178
 30
0.0
  0
VERTEX
  5
D31
  8
0
 62
     7
 10
110.618317
 20
179.96310399999999
 30
0.0
  0
VERTEX
  5
D32
  8
0
 62
     7
 10
110.19154399999999
 20
180.67018100000001
 30
0.0
  0
VERTEX
  5
D33
  8
0
 62
     7
 10
109.711456
 20
181.371521
 30
0.0
  0
VERTEX
  5
D34
  8
0
 62
     7
 10
109.290237
 20
181.96426399999999
 30
0.0
  0
VERTEX
  5
D35
  8
0
 62
     7
 10
108.968887
 20
182.46942100000001
 30
0.0
  0
VERTEX
  5
D36
  8
0
 62
     7
 10
108.639709
 20
183.15399199999999
 30
0.0
  0
VERTEX
  5
D37
  8
0
 62
     7
 10
108.474762
 20
183.64807099999999
 30
0.0
  0
VERTEX
  5
D38
  8
0
 62
     7
 10
108.342911
 20
184.20941199999999
 30
0.0
  0
VERTEX
  5
D39
  8
0
 62
     7
 10
108.200317
 20
185.290314
 30
0.0
  0
VERTEX
  5
D3A
  8
0
 62
     7
 10
108.146317
 20
186.61206100000001
 30
0.0
  0
VERTEX
  5
D3B
  8
0
 62
     7
 10
108.18145800000001
 20
188.19442699999999
 30
0.0
  0
VERTEX
  5
D3C
  8
0
 62
     7
 10
108.266464
 20
189.557953
 30
0.0
  0
VERTEX
  5
D3D
  8
0
 62
     7
 10
108.401779
 20
191.0746
 30
0.0
  0
VERTEX
  5
D3E
  8
0
 62
     7
 10
108.93615699999999
 20
192.14004499999999
 30
0.0
  0
VERTEX
  5
D3F
  8
0
 62
     7
 10
109.560272
 20
193.1474
 30
0.0
  0
VERTEX
  5
D40
  8
0
 62
     7
 10
110.273315
 20
194.09561199999999
 30
0.0
  0
VERTEX
  5
D41
  8
0
 62
     7
 10
111.07313499999999
 20
194.981888
 30
0.0
  0
VERTEX
  5
D42
  8
0
 62
     7
 10
111.95564299999999
 20
195.80091899999999
 30
0.0
  0
VERTEX
  5
D43
  8
0
 62
     7
 10
112.53323399999999
 20
196.26501499999989
 30
0.0
  0
VERTEX
  5
D44
  8
0
 62
     7
 10
113.137207
 20
196.69809000000001
 30
0.0
  0
VERTEX
  5
D45
  8
0
 62
     7
 10
113.754715
 20
197.09085099999999
 30
0.0
  0
VERTEX
  5
D46
  8
0
 62
     7
 10
114.392792
 20
197.44744900000001
 30
0.0
  0
VERTEX
  5
D47
  8
0
 62
     7
 10
115.390686
 20
197.910934
 30
0.0
  0
VERTEX
  5
D48
  8
0
 62
     7
 10
116.419296
 20
198.27392599999999
 30
0.0
  0
VERTEX
  5
D49
  8
0
 62
     7
 10
117.468842
 20
198.52801500000001
 30
0.0
  0
VERTEX
  5
D4A
  8
0
 62
     7
 10
118.530304
 20
198.668015
 30
0.0
  0
VERTEX
  5
D4B
  8
0
 62
     7
 10
119.7332
 20
198.68852200000001
 30
0.0
  0
VERTEX
  5
D4C
  8
0
 62
     7
 10
120.933716
 20
198.57054099999999
 30
0.0
  0
VERTEX
  5
D4D
  8
0
 62
     7
 10
122.111023
 20
198.33261100000001
 30
0.0
  0
VERTEX
  5
D4E
  8
0
 62
     7
 10
123.278076
 20
197.993011
 30
0.0
  0
VERTEX
  5
D4F
  8
0
 62
     7
 10
124.46425600000001
 20
197.56118799999999
 30
0.0
  0
VERTEX
  5
D50
  8
0
 62
     7
 10
125.638046
 20
197.068726
 30
0.0
  0
VERTEX
  5
D51
  8
0
 62
     7
 10
127.422363
 20
196.24105800000001
 30
0.0
  0
VERTEX
  5
D52
  8
0
 62
     7
 10
130.909424
 20
194.53713999999999
 30
0.0
  0
VERTEX
  5
D53
  8
0
 62
     7
 10
133.455872
 20
193.343445
 30
0.0
  0
VERTEX
  5
D54
  8
0
 62
     7
 10
135.944275
 20
192.27084400000001
 30
0.0
  0
VERTEX
  5
D55
  8
0
 62
     7
 10
140.46133399999999
 20
190.02499399999999
 30
0.0
  0
VERTEX
  5
D56
  8
0
 62
     7
 10
144.901825
 20
187.65370200000001
 30
0.0
  0
VERTEX
  5
D57
  8
0
 62
     7
 10
149.271286
 20
185.16287199999999
 30
0.0
  0
VERTEX
  5
D58
  8
0
 62
     7
 10
154.24581900000001
 20
182.16549699999999
 30
0.0
  0
VERTEX
  5
D59
  8
0
 62
     7
 10
157.24560500000001
 20
180.349121
 30
0.0
  0
VERTEX
  5
D5A
  8
0
 62
     7
 10
158.76458700000001
 20
179.476471
 30
0.0
  0
VERTEX
  5
D5B
  8
0
 62
     7
 10
159.810699
 20
178.913544
 30
0.0
  0
VERTEX
  5
D5C
  8
0
 62
     7
 10
160.87420700000001
 20
178.385254
 30
0.0
  0
VERTEX
  5
D5D
  8
0
 62
     7
 10
161.959259
 20
177.90048200000001
 30
0.0
  0
VERTEX
  5
D5E
  8
0
 62
     7
 10
163.06842
 20
177.46502699999999
 30
0.0
  0
VERTEX
  5
D5F
  8
0
 62
     7
 10
164.20135500000001
 20
177.07905600000001
 30
0.0
  0
VERTEX
  5
D60
  8
0
 62
     7
 10
165.35354599999999
 20
176.73468
 30
0.0
  0
VERTEX
  5
D61
  8
0
 62
     7
 10
167.27230800000001
 20
176.202606
 30
0.0
  0
VERTEX
  5
D62
  8
0
 62
     7
 10
168.219055
 20
175.91743500000001
 30
0.0
  0
VERTEX
  5
D63
  8
0
 62
     7
 10
169.34054599999999
 20
175.51759300000001
 30
0.0
  0
VERTEX
  5
D64
  8
0
 62
     7
 10
170.416809
 20
175.033997
 30
0.0
  0
VERTEX
  5
D65
  8
0
 62
     7
 10
171.274033
 20
174.55777
 30
0.0
  0
VERTEX
  5
D66
  8
0
 62
     7
 10
172.098297
 20
174.01728800000001
 30
0.0
  0
VERTEX
  5
D67
  8
0
 62
     7
 10
173.15748600000001
 20
173.21603400000001
 30
0.0
  0
VERTEX
  5
D68
  8
0
 62
     7
 10
173.847488
 20
172.64729299999999
 30
0.0
  0
VERTEX
  5
D69
  8
0
 62
     7
 10
175.214539
 20
171.47778299999999
 30
0.0
  0
VERTEX
  5
D6A
  8
0
 62
     7
 10
177.551941
 20
169.493134
 30
0.0
  0
VERTEX
  5
D6B
  8
0
 62
     7
 10
178.68691999999999
 20
168.49440000000001
 30
0.0
  0
VERTEX
  5
D6C
  8
0
 62
     7
 10
179.50251800000001
 20
167.71893299999999
 30
0.0
  0
VERTEX
  5
D6D
  8
0
 62
     7
 10
180.27954099999999
 20
166.908691
 30
0.0
  0
VERTEX
  5
D6E
  8
0
 62
     7
 10
180.934662
 20
166.160034
 30
0.0
  0
VERTEX
  5
D6F
  8
0
 62
     7
 10
182.184235
 20
164.59222399999999
 30
0.0
  0
VERTEX
  5
D70
  8
0
 62
     7
 10
183.43693500000001
 20
163.005371
 30
0.0
  0
VERTEX
  5
D71
  8
0
 62
     7
 10
184.09921299999999
 20
162.23962399999999
 30
0.0
  0
VERTEX
  5
D72
  8
0
 62
     7
 10
184.70352199999999
 20
161.60552999999999
 30
0.0
  0
VERTEX
  5
D73
  8
0
 62
     7
 10
185.341476
 20
161.00474500000001
 30
0.0
  0
VERTEX
  5
D74
  8
0
 62
     7
 10
185.949478
 20
160.49380500000001
 30
0.0
  0
VERTEX
  5
D75
  8
0
 62
     7
 10
186.586761
 20
160.01649499999999
 30
0.0
  0
VERTEX
  5
D76
  8
0
 62
     7
 10
187.52821399999999
 20
159.405914
 30
0.0
  0
VERTEX
  5
D77
  8
0
 62
     7
 10
188.51895099999999
 20
158.86547899999999
 30
0.0
  0
VERTEX
  5
D78
  8
0
 62
     7
 10
189.55020099999999
 20
158.39355499999999
 30
0.0
  0
VERTEX
  5
D79
  8
0
 62
     7
 10
190.50470000000001
 20
158.02401699999999
 30
0.0
  0
VERTEX
  5
D7A
  8
0
 62
     7
 10
191.475739
 20
157.70259100000001
 30
0.0
  0
VERTEX
  5
D7B
  8
0
 62
     7
 10
192.67337000000001
 20
157.36767599999999
 30
0.0
  0
VERTEX
  5
D7C
  8
0
 62
     7
 10
193.87235999999999
 20
157.08633399999999
 30
0.0
  0
VERTEX
  5
D7D
  8
0
 62
     7
 10
195.857574
 20
156.70581100000001
 30
0.0
  0
VERTEX
  5
D7E
  8
0
 62
     7
 10
197.16566499999999
 20
156.49295000000001
 30
0.0
  0
VERTEX
  5
D7F
  8
0
 62
     7
 10
199.76713599999999
 20
156.10275300000001
 30
0.0
  0
VERTEX
  5
D80
  8
0
 62
     7
 10
202.41059899999999
 20
155.68048099999999
 30
0.0
  0
VERTEX
  5
D81
  8
0
 62
     7
 10
203.77027899999999
 20
155.43370100000001
 30
0.0
  0
VERTEX
  5
D82
  8
0
 62
     7
 10
205.86790500000001
 20
155.00183100000001
 30
0.0
  0
VERTEX
  5
D83
  8
0
 62
     7
 10
208.52597
 20
154.35711699999999
 30
0.0
  0
VERTEX
  5
D84
  8
0
 62
     7
 10
211.16052199999999
 20
153.598465
 30
0.0
  0
VERTEX
  5
D85
  8
0
 62
     7
 10
212.42437699999999
 20
153.18386799999999
 30
0.0
  0
VERTEX
  5
D86
  8
0
 62
     7
 10
213.62941000000001
 20
152.75006099999999
 30
0.0
  0
VERTEX
  5
D87
  8
0
 62
     7
 10
215.121826
 20
152.145782
 30
0.0
  0
VERTEX
  5
D88
  8
0
 62
     7
 10
216.46992499999999
 20
151.51327499999999
 30
0.0
  0
VERTEX
  5
D89
  8
0
 62
     7
 10
217.683289
 20
150.84768700000001
 30
0.0
  0
VERTEX
  5
D8A
  8
0
 62
     7
 10
218.45578
 20
150.36705000000001
 30
0.0
  0
VERTEX
  5
D8B
  8
0
 62
     7
 10
219.97103899999999
 20
149.31079099999999
 30
0.0
  0
VERTEX
  5
D8C
  8
0
 62
     7
 10
222.603241
 20
147.36605800000001
 30
0.0
  0
VERTEX
  5
D8D
  8
0
 62
     7
 10
226.051987
 20
144.89402799999999
 30
0.0
  0
VERTEX
  5
D8E
  8
0
 62
     7
 10
228.13471999999999
 20
143.363541
 30
0.0
  0
VERTEX
  5
D8F
  8
0
 62
     7
 10
229.107269
 20
142.592117
 30
0.0
  0
VERTEX
  5
D90
  8
0
 62
     7
 10
229.76672400000001
 20
142.02371199999999
 30
0.0
  0
VERTEX
  5
D91
  8
0
 62
     7
 10
230.34277299999999
 20
141.471756
 30
0.0
  0
VERTEX
  5
D92
  8
0
 62
     7
 10
230.743393
 20
141.03066999999999
 30
0.0
  0
VERTEX
  5
D93
  8
0
 62
     7
 10
231.06210300000001
 20
140.60938999999999
 30
0.0
  0
VERTEX
  5
D94
  8
0
 62
     7
 10
231.289108
 20
140.21272300000001
 30
0.0
  0
VERTEX
  5
D95
  8
0
 62
     7
 10
231.41847200000001
 20
139.842026
 30
0.0
  0
VERTEX
  5
D96
  8
0
 62
     7
 10
231.445007
 20
139.49916099999999
 30
0.0
  0
VERTEX
  5
D97
  8
0
 62
     7
 10
231.365692
 20
139.18667600000001
 30
0.0
  0
VERTEX
  5
D98
  8
0
 62
     7
 10
231.259705
 20
139.003647
 30
0.0
  0
VERTEX
  5
D99
  8
0
 62
     7
 10
231.11132799999999
 20
138.83360300000001
 30
0.0
  0
VERTEX
  5
D9A
  8
0
 62
     7
 10
230.87835699999999
 20
138.646164
 30
0.0
  0
VERTEX
  5
D9B
  8
0
 62
     7
 10
230.588821
 20
138.47732500000001
 30
0.0
  0
VERTEX
  5
D9C
  8
0
 62
     7
 10
229.92524700000001
 20
138.21478300000001
 30
0.0
  0
VERTEX
  5
D9D
  8
0
 62
     7
 10
228.88031000000001
 20
137.96301299999999
 30
0.0
  0
VERTEX
  5
D9E
  8
0
 62
     7
 10
227.67001300000001
 20
137.78887900000001
 30
0.0
  0
VERTEX
  5
D9F
  8
0
 62
     7
 10
226.47936999999999
 20
137.68487500000001
 30
0.0
  0
VERTEX
  5
DA0
  8
0
 62
     7
 10
225.670502
 20
137.63888499999999
 30
0.0
  0
VERTEX
  5
DA1
  8
0
 62
     7
 10
224.08024599999999
 20
137.587402
 30
0.0
  0
VERTEX
  5
DA2
  8
0
 62
     7
 10
221.98843400000001
 20
137.569031
 30
0.0
  0
VERTEX
  5
DA3
  8
0
 62
     7
 10
218.57176200000001
 20
137.587402
 30
0.0
  0
VERTEX
  5
DA4
  8
0
 62
     7
 10
213.54603599999999
 20
137.56909200000001
 30
0.0
  0
VERTEX
  5
DA5
  8
0
 62
     7
 10
207.021683
 20
137.40969799999999
 30
0.0
  0
VERTEX
  5
DA6
  8
0
 62
     7
 10
206.29093900000001
 20
137.30602999999999
 30
0.0
  0
VERTEX
  5
DA7
  8
0
 62
     7
 10
205.56819200000001
 20
137.24382
 30
0.0
  0
VERTEX
  5
DA8
  8
0
 62
     7
 10
204.61694299999999
 20
137.225403
 30
0.0
  0
VERTEX
  5
DA9
  8
0
 62
     7
 10
203.679901
 20
137.28068500000001
 30
0.0
  0
VERTEX
  5
DAA
  8
0
 62
     7
 10
202.75704999999999
 20
137.40969799999999
 30
0.0
  0
VERTEX
  5
DAB
  8
0
 62
     7
 10
201.61253400000001
 20
137.67778000000001
 30
0.0
  0
VERTEX
  5
DAC
  8
0
 62
     7
 10
200.49063100000001
 20
138.063309
 30
0.0
  0
VERTEX
  5
DAD
  8
0
 62
     7
 10
199.391357
 20
138.56626900000001
 30
0.0
  0
VERTEX
  5
DAE
  8
0
 62
     7
 10
198.314697
 20
139.18667600000001
 30
0.0
  0
SEQEND
  5
DAF
  8
0
 62
     7
  0
POLYLINE
  5
640
  8
0
 62
     7
 10
113.80230669628905
 20
196.38656658789031
 30
0.0
 66
     1
 70
     8
  0
VERTEX
  8
0
  5
EF8
 10
113.802
 20
196.387
 30
0.000000
  70
    32
  0
VERTEX
  8
0
  5
EF9
 10
113.801
 20
196.331
 30
0.000000
  70
    32
  0
VERTEX
  8
0
  5
EFA
 10
113.803
 20
196.274
 30
0.000000
  70
    32
  0
VERTEX
  8
0
  5
EFB
 10
113.808
 20
196.219
 30
0.000000
  70
    32
  0
VERTEX
  8
0
  5
EFC
 10
113.817
 20
196.163
 30
0.000000
  70
    32
  0
VERTEX
  8
0
  5
EFD
 10
113.828
 20
196.108
 30
0.000000
  70
    32
  0
VERTEX
  8
0
  5
EFE
 10
113.842
 20
196.053
 30
0.000000
  70
    32
  0
VERTEX
  8
0
  5
EFF
 10
113.860
 20
195.999
 30
0.000000
  70
    32
  0
VERTEX
  8
0
  5
F00
 10
113.880
 20
195.945
 30
0.000000
  70
    32
  0
VERTEX
  8
0
  5
F01
 10
113.903
 20
195.893
 30
0.000000
  70
    32
  0
VERTEX
  8
0
  5
F02
 10
113.930
 20
195.841
 30
0.000000
  70
    32
  0
VERTEX
  8
0
  5
F03
 10
113.959
 20
195.791
 30
0.000000
  70
    32
  0
VERTEX
  8
0
  5
F04
 10
113.990
 20
195.742
 30
0.000000
  70
    32
  0
VERTEX
  8
0
  5
F05
 10
114.025
 20
195.695
 30
0.000000
  70
    32
  0
VERTEX
  8
0
  5
F06
 10
114.062
 20
195.649
 30
0.000000
  70
    32
  0
VERTEX
  8
0
  5
F07
 10
114.102
 20
195.604
 30
0.000000
  70
    32
  0
VERTEX
  8
0
  5
F08
 10
114.143
 20
195.562
 30
0.000000
  70
    32
  0
VERTEX
  8
0
  5
F09
 10
114.188
 20
195.521
 30
0.000000
  70
    32
  0
VERTEX
  8
0
  5
F0A
 10
114.234
 20
195.482
 30
0.000000
  70
    32
  0
VERTEX
  8
0
  5
F0B
 10
114.283
 20
195.445
 30
0.000000
  70
    32
  0
VERTEX
  8
0
  5
F0C
 10
114.333
 20
195.410
 30
0.000000
  70
    32
  0
VERTEX
  8
0
  5
F0D
 10
114.386
 20
195.378
 30
0.000000
  70
    32
  0
VERTEX
  8
0
  5
F0E
 10
114.440
 20
195.347
 30
0.000000
  70
    32
  0
VERTEX
  8
0
  5
F0F
 10
114.495
 20
195.320
 30
0.000000
  70
    32
  0
VERTEX
  8
0
  5
F10
 10
114.553
 20
195.294
 30
0.000000
  70
    32
  0
VERTEX
  8
0
  5
F11
 10
114.611
 20
195.271
 30
0.000000
  70
    32
  0
VERTEX
  8
0
  5
F12
 10
114.671
 20
195.251
 30
0.000000
  70
    32
  0
VERTEX
  8
0
  5
F13
 10
114.731
 20
195.233
 30
0.000000
  70
    32
  0
VERTEX
  8
0
  5
F14
 10
114.793
 20
195.217
 30
0.000000
  70
    32
  0
VERTEX
  8
0
  5
F15
 10
114.855
 20
195.205
 30
0.000000
  70
    32
  0
VERTEX
  8
0
  5
F16
 10
114.918
 20
195.195
 30
0.000000
  70
    32
  0
VERTEX
  8
0
  5
F17
 10
114.981
 20
195.188
 30
0.000000
  70
    32
  0
VERTEX
  8
0
  5
F18
 10
115.045
 20
195.183
 30
0.000000
  70
    32
  0
VERTEX
  8
0
  5
F19
 10
115.109
 20
195.182
 30
0.000000
  70
    32
  0
VERTEX
  8
0
  5
F1A
 10
115.173
 20
195.183
 30
0.000000
  70
    32
  0
VERTEX
  8
0
  5
F1B
 10
115.236
 20
195.186
 30
0.000000
  70
    32
  0
VERTEX
  8
0
  5
F1C
 10
115.299
 20
195.193
 30
0.000000
  70
    32
  0
VERTEX
  8
0
  5
F1D
 10
115.362
 20
195.202
 30
0.000000
  70
    32
  0
VERTEX
  8
0
  5
F1E
 10
115.424
 20
195.214
 30
0.000000
  70
    32
  0
VERTEX
  8
0
  5
F1F
 10
115.486
 20
195.229
 30
0.000000
  70
    32
  0
VERTEX
  8
0
  5
F20
 10
115.546
 20
195.246
 30
0.000000
  70
    32
  0
VERTEX
  8
0
  5
F21
 10
115.605
 20
195.266
 30
0.000000
  70
    32
  0
VERTEX
  8
0
  5
F22
 10
115.663
 20
195.288
 30
0.000000
  70
    32
  0
VERTEX
  8
0
  5
F23
 10
115.720
 20
195.313
 30
0.000000
  70
    32
  0
VERTEX
  8
0
  5
F24
 10
115.775
 20
195.341
 30
0.000000
  70
    32
  0
VERTEX
  8
0
  5
F25
 10
115.829
 20
195.370
 30
0.000000
  70
    32
  0
VERTEX
  8
0
  5
F26
 10
115.881
 20
195.402
 30
0.000000
  70
    32
  0
VERTEX
  8
0
  5
F27
 10
115.931
 20
195.437
 30
0.000000
  70
    32
  0
VERTEX
  8
0
  5
F28
 10
115.979
 20
195.473
 30
0.000000
  70
    32
  0
VERTEX
  8
0
  5
F29
 10
116.025
 20
195.511
 30
0.000000
  70
    32
  0
VERTEX
  8
0
  5
F2A
 10
116.068
 20
195.552
 30
0.000000
  70
    32
  0
VERTEX
  8
0
  5
F2B
 10
116.110
 20
195.594
 30
0.000000
  70
    32
  0
VERTEX
  8
0
  5
F2C
 10
116.149
 20
195.638
 30
0.000000
  70
    32
  0
VERTEX
  8
0
  5
F2D
 10
116.185
 20
195.684
 30
0.000000
  70
    32
  0
VERTEX
  8
0
  5
F2E
 10
116.219
 20
195.731
 30
0.000000
  70
    32
  0
VERTEX
  8
0
  5
F2F
 10
116.250
 20
195.780
 30
0.000000
  70
    32
  0
VERTEX
  8
0
  5
F30
 10
116.278
 20
195.830
 30
0.000000
  70
    32
  0
VERTEX
  8
0
  5
F31
 10
116.304
 20
195.881
 30
0.000000
  70
    32
  0
VERTEX
  8
0
  5
F32
 10
116.326
 20
195.933
 30
0.000000
  70
    32
  0
VERTEX
  8
0
  5
F33
 10
116.346
 20
195.986
 30
0.000000
  70
    32
  0
VERTEX
  8
0
  5
F34
 10
116.362
 20
196.040
 30
0.000000
  70
    32
  0
VERTEX
  8
0
  5
F35
 10
116.376
 20
196.095
 30
0.000000
  70
    32
  0
VERTEX
  8
0
  5
F36
 10
116.386
 20
196.150
 30
0.000000
  70
    32
  0
VERTEX
  8
0
  5
F37
 10
116.394
 20
196.205
 30
0.000000
  70
    32
  0
VERTEX
  8
0
  5
F38
 10
116.398
 20
196.261
 30
0.000000
  70
    32
  0
VERTEX
  8
0
  5
F39
 10
116.399
 20
196.317
 30
0.000000
  70
    32
  0
VERTEX
  8
0
  5
F3A
 10
116.397
 20
196.373
 30
0.000000
  70
    32
  0
VERTEX
  8
0
  5
F3B
 10
116.392
 20
196.429
 30
0.000000
  70
    32
  0
VERTEX
  8
0
  5
F3C
 10
116.384
 20
196.485
 30
0.000000
  70
    32
  0
VERTEX
  8
0
  5
F3D
 10
116.372
 20
196.540
 30
0.000000
  70
    32
  0
VERTEX
  8
0
  5
F3E
 10
116.358
 20
196.595
 30
0.000000
  70
    32
  0
VERTEX
  8
0
  5
F3F
 10
116.341
 20
196.649
 30
0.000000
  70
    32
  0
VERTEX
  8
0
  5
F40
 10
116.320
 20
196.703
 30
0.000000
  70
    32
  0
VERTEX
  8
0
  5
F41
 10
116.297
 20
196.755
 30
0.000000
  70
    32
  0
VERTEX
  8
0
  5
F42
 10
116.271
 20
196.806
 30
0.000000
  70
    32
  0
VERTEX
  8
0
  5
F43
 10
116.242
 20
196.857
 30
0.000000
  70
    32
  0
VERTEX
  8
0
  5
F44
 10
116.210
 20
196.906
 30
0.000000
  70
    32
  0
VERTEX
  8
0
  5
F45
 10
116.175
 20
196.953
 30
0.000000
  70
    32
  0
VERTEX
  8
0
  5
F46
 10
116.138
 20
196.999
 30
0.000000
  70
    32
  0
VERTEX
  8
0
  5
F47
 10
116.099
 20
197.044
 30
0.000000
  70
    32
  0
VERTEX
  8
0
  5
F48
 10
116.057
 20
197.086
 30
0.000000
  70
    32
  0
VERTEX
  8
0
  5
F49
 10
116.013
 20
197.127
 30
0.000000
  70
    32
  0
VERTEX
  8
0
  5
F4A
 10
115.966
 20
197.166
 30
0.000000
  70
    32
  0
VERTEX
  8
0
  5
F4B
 10
115.917
 20
197.203
 30
0.000000
  70
    32
  0
VERTEX
  8
0
  5
F4C
 10
115.867
 20
197.238
 30
0.000000
  70
    32
  0
VERTEX
  8
0
  5
F4D
 10
115.815
 20
197.270
 30
0.000000
  70
    32
  0
VERTEX
  8
0
  5
F4E
 10
115.761
 20
197.300
 30
0.000000
  70
    32
  0
VERTEX
  8
0
  5
F4F
 10
115.705
 20
197.328
 30
0.000000
  70
    32
  0
VERTEX
  8
0
  5
F50
 10
115.648
 20
197.354
 30
0.000000
  70
    32
  0
VERTEX
  8
0
  5
F51
 10
115.589
 20
197.377
 30
0.000000
  70
    32
  0
VERTEX
  8
0
  5
F52
 10
115.530
 20
197.397
 30
0.000000
  70
    32
  0
VERTEX
  8
0
  5
F53
 10
115.469
 20
197.415
 30
0.000000
  70
    32
  0
VERTEX
  8
0
  5
F54
 10
115.407
 20
197.430
 30
0.000000
  70
    32
  0
VERTEX
  8
0
  5
F55
 10
115.345
 20
197.443
 30
0.000000
  70
    32
  0
VERTEX
  8
0
  5
F56
 10
115.282
 20
197.453
 30
0.000000
  70
    32
  0
VERTEX
  8
0
  5
F57
 10
115.219
 20
197.460
 30
0.000000
  70
    32
  0
VERTEX
  8
0
  5
F58
 10
115.155
 20
197.465
 30
0.000000
  70
    32
  0
VERTEX
  8
0
  5
F59
 10
115.091
 20
197.466
 30
0.000000
  70
    32
  0
VERTEX
  8
0
  5
F5A
 10
115.028
 20
197.465
 30
0.000000
  70
    32
  0
VERTEX
  8
0
  5
F5B
 10
114.964
 20
197.461
 30
0.000000
  70
    32
  0
VERTEX
  8
0
  5
F5C
 10
114.901
 20
197.455
 30
0.000000
  70
    32
  0
VERTEX
  8
0
  5
F5D
 10
114.838
 20
197.446
 30
0.000000
  70
    32
  0
VERTEX
  8
0
  5
F5E
 10
114.776
 20
197.434
 30
0.000000
  70
    32
  0
VERTEX
  8
0
  5
F5F
 10
114.715
 20
197.419
 30
0.000000
  70
    32
  0
VERTEX
  8
0
  5
F60
 10
114.654
 20
197.402
 30
0.000000
  70
    32
  0
VERTEX
  8
0
  5
F61
 10
114.595
 20
197.382
 30
0.000000
  70
    32
  0
VERTEX
  8
0
  5
F62
 10
114.537
 20
197.359
 30
0.000000
  70
    32
  0
VERTEX
  8
0
  5
F63
 10
114.480
 20
197.334
 30
0.000000
  70
    32
  0
VERTEX
  8
0
  5
F64
 10
114.425
 20
197.307
 30
0.000000
  70
    32
  0
VERTEX
  8
0
  5
F65
 10
114.371
 20
197.277
 30
0.000000
  70
    32
  0
VERTEX
  8
0
  5
F66
 10
114.319
 20
197.245
 30
0.000000
  70
    32
  0
VERTEX
  8
0
  5
F67
 10
114.269
 20
197.211
 30
0.000000
  70
    32
  0
VERTEX
  8
0
  5
F68
 10
114.221
 20
197.175
 30
0.000000
  70
    32
  0
VERTEX
  8
0
  5
F69
 10
114.175
 20
197.136
 30
0.000000
  70
    32
  0
VERTEX
  8
0
  5
F6A
 10
114.132
 20
197.096
 30
0.000000
  70
    32
  0
VERTEX
  8
0
  5
F6B
 10
114.091
 20
197.054
 30
0.000000
  70
    32
  0
VERTEX
  8
0
  5
F6C
 10
114.052
 20
197.010
 30
0.000000
  70
    32
  0
VERTEX
  8
0
  5
F6D
 10
114.015
 20
196.964
 30
0.000000
  70
    32
  0
VERTEX
  8
0
  5
F6E
 10
113.982
 20
196.917
 30
0.000000
  70
    32
  0
VERTEX
  8
0
  5
F6F
 10
113.950
 20
196.868
 30
0.000000
  70
    32
  0
VERTEX
  8
0
  5
F70
 10
113.922
 20
196.818
 30
0.000000
  70
    32
  0
VERTEX
  8
0
  5
F71
 10
113.897
 20
196.767
 30
0.000000
  70
    32
  0
VERTEX
  8
0
  5
F72
 10
113.874
 20
196.715
 30
0.000000
  70
    32
  0
VERTEX
  8
0
  5
F73
 10
113.855
 20
196.662
 30
0.000000
  70
    32
  0
VERTEX
  8
0
  5
F74
 10
113.838
 20
196.608
 30
0.000000
  70
    32
  0
VERTEX
  8
0
  5
F75
 10
113.824
 20
196.553
 30
0.000000
  70
    32
  0
VERTEX
  8
0
  5
F76
 10
113.814
 20
196.498
 30
0.000000
  70
    32
  0
VERTEX
  8
0
  5
F77
 10
113.807
 20
196.442
 30
0.000000
  70
    32
  0
VERTEX
  8
0
  5
F78
 10
113.802
 20
196.387
 30
0.000000
  70
    32
  0
SEQEND
  8
0
  5
F79
  0
POLYLINE
  5
652
  8
0
 62
     7
 66
     1
 10
0.0
 20
0.0
 30
0.0
 70
     1
  0
VERTEX
  5
DB0
  8
0
 62
     7
 10
126.291229
 20
191.43151900000001
 30
0.0
  0
VERTEX
  5
DB1
  8
0
 62
     7
 10
126.20887
 20
191.116928
 30
0.0
  0
VERTEX
  5
DB2
  8
0
 62
     7
 10
125.98867799999999
 20
190.846161
 30
0.0
  0
VERTEX
  5
DB3
  8
0
 62
     7
 10
125.641403
 20
190.625336
 30
0.0
  0
VERTEX
  5
DB4
  8
0
 62
     7
 10
125.308876
 20
190.49392700000001
 30
0.0
  0
VERTEX
  5
DB5
  8
0
 62
     7
 10
124.925781
 20
190.39166299999999
 30
0.0
  0
VERTEX
  5
DB6
  8
0
 62
     7
 10
124.053017
 20
190.27093500000001
 30
0.0
  0
VERTEX
  5
DB7
  8
0
 62
     7
 10
123.00610399999999
 20
190.25747699999999
 30
0.0
  0
VERTEX
  5
DB8
  8
0
 62
     7
 10
121.97648599999999
 20
190.35891699999999
 30
0.0
  0
VERTEX
  5
DB9
  8
0
 62
     7
 10
121.041321
 20
190.56561300000001
 30
0.0
  0
VERTEX
  5
DBA
  8
0
 62
     7
 10
120.627228
 20
190.70620700000001
 30
0.0
  0
VERTEX
  5
DBB
  8
0
 62
     7
 10
120.256027
 20
190.870712
 30
0.0
  0
VERTEX
  5
DBC
  8
0
 62
     7
 10
119.76123
 20
191.182434
 30
0.0
  0
VERTEX
  5
DBD
  8
0
 62
     7
 10
119.39868199999999
 20
191.55261200000001
 30
0.0
  0
VERTEX
  5
DBE
  8
0
 62
     7
 10
119.175781
 20
191.98031599999999
 30
0.0
  0
VERTEX
  5
DBF
  8
0
 62
     7
 10
119.09641999999999
 20
192.46502699999999
 30
0.0
  0
VERTEX
  5
DC0
  8
0
 62
     7
 10
119.162094
 20
193.006607
 30
0.0
  0
VERTEX
  5
DC1
  8
0
 62
     7
 10
121.07356299999999
 20
193.49529999999999
 30
0.0
  0
VERTEX
  5
DC2
  8
0
 62
     7
 10
121.980591
 20
193.692429
 30
0.0
  0
VERTEX
  5
DC3
  8
0
 62
     7
 10
122.75116
 20
193.78195199999999
 30
0.0
  0
VERTEX
  5
DC4
  8
0
 62
     7
 10
123.144791
 20
193.77929700000001
 30
0.0
  0
VERTEX
  5
DC5
  8
0
 62
     7
 10
123.620255
 20
193.72045900000001
 30
0.0
  0
VERTEX
  5
DC6
  8
0
 62
     7
 10
124.10791
 20
193.59051500000001
 30
0.0
  0
VERTEX
  5
DC7
  8
0
 62
     7
 10
124.668488
 20
193.348129
 30
0.0
  0
VERTEX
  5
DC8
  8
0
 62
     7
 10
125.21357
 20
193.006607
 30
0.0
  0
VERTEX
  5
DC9
  8
0
 62
     7
 10
125.53327899999999
 20
192.74594099999999
 30
0.0
  0
VERTEX
  5
DCA
  8
0
 62
     7
 10
125.816216
 20
192.460342
 30
0.0
  0
VERTEX
  5
DCB
  8
0
 62
     7
 10
126.00985
 20
192.214294
 30
0.0
  0
VERTEX
  5
DCC
  8
0
 62
     7
 10
126.158783
 20
191.96485899999999
 30
0.0
  0
VERTEX
  5
DCD
  8
0
 62
     7
 10
126.261826
 20
191.692215
 30
0.0
  0
SEQEND
  5
DCE
  8
0
 62
     7
  0
POLYLINE
  5
665
  8
0
 62
     7
 10
164.44345108984376
 20
168.25341828124996
 30
0.0
 66
     1
 70
     8
  0
VERTEX
  8
0
  5
F7A
 10
164.443
 20
168.253
 30
0.000000
  70
    32
  0
VERTEX
  8
0
  5
F7B
 10
164.429
 20
168.208
 30
0.000000
  70
    32
  0
VERTEX
  8
0
  5
F7C
 10
164.419
 20
168.161
 30
0.000000
  70
    32
  0
VERTEX
  8
0
  5
F7D
 10
164.414
 20
168.112
 30
0.000000
  70
    32
  0
VERTEX
  8
0
  5
F7E
 10
164.413
 20
168.062
 30
0.000000
  70
    32
  0
VERTEX
  8
0
  5
F7F
 10
164.416
 20
168.011
 30
0.000000
  70
    32
  0
VERTEX
  8
0
  5
F80
 10
164.424
 20
167.959
 30
0.000000
  70
    32
  0
VERTEX
  8
0
  5
F81
 10
164.437
 20
167.906
 30
0.000000
  70
    32
  0
VERTEX
  8
0
  5
F82
 10
164.454
 20
167.853
 30
0.000000
  70
    32
  0
VERTEX
  8
0
  5
F83
 10
164.475
 20
167.798
 30
0.000000
  70
    32
  0
VERTEX
  8
0
  5
F84
 10
164.501
 20
167.744
 30
0.000000
  70
    32
  0
VERTEX
  8
0
  5
F85
 10
164.530
 20
167.688
 30
0.000000
  70
    32
  0
VERTEX
  8
0
  5
F86
 10
164.564
 20
167.633
 30
0.000000
  70
    32
  0
VERTEX
  8
0
  5
F87
 10
164.603
 20
167.577
 30
0.000000
  70
    32
  0
VERTEX
  8
0
  5
F88
 10
164.645
 20
167.521
 30
0.000000
  70
    32
  0
VERTEX
  8
0
  5
F89
 10
164.691
 20
167.466
 30
0.000000
  70
    32
  0
VERTEX
  8
0
  5
F8A
 10
164.741
 20
167.411
 30
0.000000
  70
    32
  0
VERTEX
  8
0
  5
F8B
 10
164.794
 20
167.356
 30
0.000000
  70
    32
  0
VERTEX
  8
0
  5
F8C
 10
164.851
 20
167.302
 30
0.000000
  70
    32
  0
VERTEX
  8
0
  5
F8D
 10
164.912
 20
167.248
 30
0.000000
  70
    32
  0
VERTEX
  8
0
  5
F8E
 10
164.976
 20
167.195
 30
0.000000
  70
    32
  0
VERTEX
  8
0
  5
F8F
 10
165.042
 20
167.143
 30
0.000000
  70
    32
  0
VERTEX
  8
0
  5
F90
 10
165.112
 20
167.093
 30
0.000000
  70
    32
  0
VERTEX
  8
0
  5
F91
 10
165.185
 20
167.043
 30
0.000000
  70
    32
  0
VERTEX
  8
0
  5
F92
 10
165.260
 20
166.995
 30
0.000000
  70
    32
  0
VERTEX
  8
0
  5
F93
 10
165.338
 20
166.948
 30
0.000000
  70
    32
  0
VERTEX
  8
0
  5
F94
 10
165.418
 20
166.902
 30
0.000000
  70
    32
  0
VERTEX
  8
0
  5
F95
 10
165.500
 20
166.859
 30
0.000000
  70
    32
  0
VERTEX
  8
0
  5
F96
 10
165.584
 20
166.817
 30
0.000000
  70
    32
  0
VERTEX
  8
0
  5
F97
 10
165.669
 20
166.776
 30
0.000000
  70
    32
  0
VERTEX
  8
0
  5
F98
 10
165.756
 20
166.738
 30
0.000000
  70
    32
  0
VERTEX
  8
0
  5
F99
 10
165.844
 20
166.702
 30
0.000000
  70
    32
  0
VERTEX
  8
0
  5
F9A
 10
165.933
 20
166.668
 30
0.000000
  70
    32
  0
VERTEX
  8
0
  5
F9B
 10
166.023
 20
166.636
 30
0.000000
  70
    32
  0
VERTEX
  8
0
  5
F9C
 10
166.114
 20
166.606
 30
0.000000
  70
    32
  0
VERTEX
  8
0
  5
F9D
 10
166.205
 20
166.579
 30
0.000000
  70
    32
  0
VERTEX
  8
0
  5
F9E
 10
166.296
 20
166.554
 30
0.000000
  70
    32
  0
VERTEX
  8
0
  5
F9F
 10
166.387
 20
166.532
 30
0.000000
  70
    32
  0
VERTEX
  8
0
  5
FA0
 10
166.478
 20
166.512
 30
0.000000
  70
    32
  0
VERTEX
  8
0
  5
FA1
 10
166.568
 20
166.495
 30
0.000000
  70
    32
  0
VERTEX
  8
0
  5
FA2
 10
166.658
 20
166.480
 30
0.000000
  70
    32
  0
VERTEX
  8
0
  5
FA3
 10
166.747
 20
166.468
 30
0.000000
  70
    32
  0
VERTEX
  8
0
  5
FA4
 10
166.834
 20
166.459
 30
0.000000
  70
    32
  0
VERTEX
  8
0
  5
FA5
 10
166.920
 20
166.452
 30
0.000000
  70
    32
  0
VERTEX
  8
0
  5
FA6
 10
167.005
 20
166.448
 30
0.000000
  70
    32
  0
VERTEX
  8
0
  5
FA7
 10
167.088
 20
166.447
 30
0.000000
  70
    32
  0
VERTEX
  8
0
  5
FA8
 10
167.168
 20
166.449
 30
0.000000
  70
    32
  0
VERTEX
  8
0
  5
FA9
 10
167.247
 20
166.453
 30
0.000000
  70
    32
  0
VERTEX
  8
0
  5
FAA
 10
167.323
 20
166.460
 30
0.000000
  70
    32
  0
VERTEX
  8
0
  5
FAB
 10
167.397
 20
166.470
 30
0.000000
  70
    32
  0
VERTEX
  8
0
  5
FAC
 10
167.468
 20
166.482
 30
0.000000
  70
    32
  0
VERTEX
  8
0
  5
FAD
 10
167.536
 20
166.497
 30
0.000000
  70
    32
  0
VERTEX
  8
0
  5
FAE
 10
167.601
 20
166.515
 30
0.000000
  70
    32
  0
VERTEX
  8
0
  5
FAF
 10
167.663
 20
166.535
 30
0.000000
  70
    32
  0
VERTEX
  8
0
  5
FB0
 10
167.722
 20
166.558
 30
0.000000
  70
    32
  0
VERTEX
  8
0
  5
FB1
 10
167.777
 20
166.583
 30
0.000000
  70
    32
  0
VERTEX
  8
0
  5
FB2
 10
167.828
 20
166.610
 30
0.000000
  70
    32
  0
VERTEX
  8
0
  5
FB3
 10
167.876
 20
166.640
 30
0.000000
  70
    32
  0
VERTEX
  8
0
  5
FB4
 10
167.920
 20
166.673
 30
0.000000
  70
    32
  0
VERTEX
  8
0
  5
FB5
 10
167.959
 20
166.707
 30
0.000000
  70
    32
  0
VERTEX
  8
0
  5
FB6
 10
167.995
 20
166.743
 30
0.000000
  70
    32
  0
VERTEX
  8
0
  5
FB7
 10
168.027
 20
166.782
 30
0.000000
  70
    32
  0
VERTEX
  8
0
  5
FB8
 10
168.054
 20
166.822
 30
0.000000
  70
    32
  0
VERTEX
  8
0
  5
FB9
 10
168.077
 20
166.865
 30
0.000000
  70
    32
  0
VERTEX
  8
0
  5
FBA
 10
168.096
 20
166.909
 30
0.000000
  70
    32
  0
VERTEX
  8
0
  5
FBB
 10
168.110
 20
166.954
 30
0.000000
  70
    32
  0
VERTEX
  8
0
  5
FBC
 10
168.120
 20
167.001
 30
0.000000
  70
    32
  0
VERTEX
  8
0
  5
FBD
 10
168.125
 20
167.050
 30
0.000000
  70
    32
  0
VERTEX
  8
0
  5
FBE
 10
168.126
 20
167.100
 30
0.000000
  70
    32
  0
VERTEX
  8
0
  5
FBF
 10
168.123
 20
167.151
 30
0.000000
  70
    32
  0
VERTEX
  8
0
  5
FC0
 10
168.115
 20
167.203
 30
0.000000
  70
    32
  0
VERTEX
  8
0
  5
FC1
 10
168.102
 20
167.256
 30
0.000000
  70
    32
  0
VERTEX
  8
0
  5
FC2
 10
168.086
 20
167.309
 30
0.000000
  70
    32
  0
VERTEX
  8
0
  5
FC3
 10
168.064
 20
167.364
 30
0.000000
  70
    32
  0
VERTEX
  8
0
  5
FC4
 10
168.039
 20
167.419
 30
0.000000
  70
    32
  0
VERTEX
  8
0
  5
FC5
 10
168.009
 20
167.474
 30
0.000000
  70
    32
  0
VERTEX
  8
0
  5
FC6
 10
167.975
 20
167.529
 30
0.000000
  70
    32
  0
VERTEX
  8
0
  5
FC7
 10
167.937
 20
167.585
 30
0.000000
  70
    32
  0
VERTEX
  8
0
  5
FC8
 10
167.895
 20
167.641
 30
0.000000
  70
    32
  0
VERTEX
  8
0
  5
FC9
 10
167.849
 20
167.696
 30
0.000000
  70
    32
  0
VERTEX
  8
0
  5
FCA
 10
167.799
 20
167.751
 30
0.000000
  70
    32
  0
VERTEX
  8
0
  5
FCB
 10
167.745
 20
167.806
 30
0.000000
  70
    32
  0
VERTEX
  8
0
  5
FCC
 10
167.688
 20
167.860
 30
0.000000
  70
    32
  0
VERTEX
  8
0
  5
FCD
 10
167.628
 20
167.914
 30
0.000000
  70
    32
  0
VERTEX
  8
0
  5
FCE
 10
167.564
 20
167.967
 30
0.000000
  70
    32
  0
VERTEX
  8
0
  5
FCF
 10
167.497
 20
168.019
 30
0.000000
  70
    32
  0
VERTEX
  8
0
  5
FD0
 10
167.427
 20
168.070
 30
0.000000
  70
    32
  0
VERTEX
  8
0
  5
FD1
 10
167.354
 20
168.119
 30
0.000000
  70
    32
  0
VERTEX
  8
0
  5
FD2
 10
167.279
 20
168.167
 30
0.000000
  70
    32
  0
VERTEX
  8
0
  5
FD3
 10
167.201
 20
168.214
 30
0.000000
  70
    32
  0
VERTEX
  8
0
  5
FD4
 10
167.122
 20
168.260
 30
0.000000
  70
    32
  0
VERTEX
  8
0
  5
FD5
 10
167.040
 20
168.304
 30
0.000000
  70
    32
  0
VERTEX
  8
0
  5
FD6
 10
166.956
 20
168.346
 30
0.000000
  70
    32
  0
VERTEX
  8
0
  5
FD7
 10
166.870
 20
168.386
 30
0.000000
  70
    32
  0
VERTEX
  8
0
  5
FD8
 10
166.783
 20
168.424
 30
0.000000
  70
    32
  0
VERTEX
  8
0
  5
FD9
 10
166.695
 20
168.460
 30
0.000000
  70
    32
  0
VERTEX
  8
0
  5
FDA
 10
166.606
 20
168.494
 30
0.000000
  70
    32
  0
VERTEX
  8
0
  5
FDB
 10
166.516
 20
168.526
 30
0.000000
  70
    32
  0
VERTEX
  8
0
  5
FDC
 10
166.425
 20
168.556
 30
0.000000
  70
    32
  0
VERTEX
  8
0
  5
FDD
 10
166.334
 20
168.583
 30
0.000000
  70
    32
  0
VERTEX
  8
0
  5
FDE
 10
166.243
 20
168.608
 30
0.000000
  70
    32
  0
VERTEX
  8
0
  5
FDF
 10
166.152
 20
168.630
 30
0.000000
  70
    32
  0
VERTEX
  8
0
  5
FE0
 10
166.061
 20
168.650
 30
0.000000
  70
    32
  0
VERTEX
  8
0
  5
FE1
 10
165.971
 20
168.667
 30
0.000000
  70
    32
  0
VERTEX
  8
0
  5
FE2
 10
165.881
 20
168.682
 30
0.000000
  70
    32
  0
VERTEX
  8
0
  5
FE3
 10
165.793
 20
168.694
 30
0.000000
  70
    32
  0
VERTEX
  8
0
  5
FE4
 10
165.705
 20
168.703
 30
0.000000
  70
    32
  0
VERTEX
  8
0
  5
FE5
 10
165.619
 20
168.710
 30
0.000000
  70
    32
  0
VERTEX
  8
0
  5
FE6
 10
165.535
 20
168.714
 30
0.000000
  70
    32
  0
VERTEX
  8
0
  5
FE7
 10
165.452
 20
168.715
 30
0.000000
  70
    32
  0
VERTEX
  8
0
  5
FE8
 10
165.371
 20
168.714
 30
0.000000
  70
    32
  0
VERTEX
  8
0
  5
FE9
 10
165.292
 20
168.709
 30
0.000000
  70
    32
  0
VERTEX
  8
0
  5
FEA
 10
165.216
 20
168.702
 30
0.000000
  70
    32
  0
VERTEX
  8
0
  5
FEB
 10
165.142
 20
168.693
 30
0.000000
  70
    32
  0
VERTEX
  8
0
  5
FEC
 10
165.071
 20
168.680
 30
0.000000
  70
    32
  0
VERTEX
  8
0
  5
FED
 10
165.003
 20
168.665
 30
0.000000
  70
    32
  0
VERTEX
  8
0
  5
FEE
 10
164.938
 20
168.647
 30
0.000000
  70
    32
  0
VERTEX
  8
0
  5
FEF
 10
164.876
 20
168.627
 30
0.000000
  70
    32
  0
VERTEX
  8
0
  5
FF0
 10
164.818
 20
168.605
 30
0.000000
  70
    32
  0
VERTEX
  8
0
  5
FF1
 10
164.763
 20
168.579
 30
0.000000
  70
    32
  0
VERTEX
  8
0
  5
FF2
 10
164.711
 20
168.552
 30
0.000000
  70
    32
  0
VERTEX
  8
0
  5
FF3
 10
164.663
 20
168.522
 30
0.000000
  70
    32
  0
VERTEX
  8
0
  5
FF4
 10
164.620
 20
168.490
 30
0.000000
  70
    32
  0
VERTEX
  8
0
  5
FF5
 10
164.580
 20
168.455
 30
0.000000
  70
    32
  0
VERTEX
  8
0
  5
FF6
 10
164.544
 20
168.419
 30
0.000000
  70
    32
  0
VERTEX
  8
0
  5
FF7
 10
164.513
 20
168.380
 30
0.000000
  70
    32
  0
VERTEX
  8
0
  5
FF8
 10
164.485
 20
168.340
 30
0.000000
  70
    32
  0
VERTEX
  8
0
  5
FF9
 10
164.462
 20
168.297
 30
0.000000
  70
    32
  0
VERTEX
  8
0
  5
FFA
 10
164.443
 20
168.253
 30
0.000000
  70
    32
  0
SEQEND
  8
0
  5
FFB
  0
POLYLINE
  5
696
  8
0
 62
     7
 66
     1
 10
0.0
 20
0.0
 30
0.0
 70
     1
  0
VERTEX
  5
DCF
  8
0
 62
     7
 10
116.39798
 20
173.7901
 30
0.0
  0
VERTEX
  5
DD0
  8
0
 62
     7
 10
116.481903
 20
174.14288300000001
 30
0.0
  0
VERTEX
  5
DD1
  8
0
 62
     7
 10
116.523224
 20
174.497467
 30
0.0
  0
VERTEX
  5
DD2
  8
0
 62
     7
 10
116.52156100000001
 20
174.86518899999999
 30
0.0
  0
VERTEX
  5
DD3
  8
0
 62
     7
 10
116.476547
 20
175.23275799999999
 30
0.0
  0
VERTEX
  5
DD4
  8
0
 62
     7
 10
116.35702499999999
 20
175.71279899999999
 30
0.0
  0
VERTEX
  5
DD5
  8
0
 62
     7
 10
116.177475
 20
176.18905599999999
 30
0.0
  0
VERTEX
  5
DD6
  8
0
 62
     7
 10
115.864502
 20
176.81572
 30
0.0
  0
VERTEX
  5
DD7
  8
0
 62
     7
 10
115.62262
 20
177.22721899999999
 30
0.0
  0
VERTEX
  5
DD8
  8
0
 62
     7
 10
115.100143
 20
178.034683
 30
0.0
  0
VERTEX
  5
DD9
  8
0
 62
     7
 10
114.542694
 20
178.88656599999999
 30
0.0
  0
VERTEX
  5
DDA
  8
0
 62
     7
 10
114.286377
 20
179.309448
 30
0.0
  0
VERTEX
  5
DDB
  8
0
 62
     7
 10
113.946915
 20
179.94665499999999
 30
0.0
  0
VERTEX
  5
DDC
  8
0
 62
     7
 10
113.735382
 20
180.43141199999999
 30
0.0
  0
VERTEX
  5
DDD
  8
0
 62
     7
 10
113.56543000000001
 20
180.92602500000001
 30
0.0
  0
VERTEX
  5
DDE
  8
0
 62
     7
 10
113.393585
 20
181.69291699999999
 30
0.0
  0
VERTEX
  5
DDF
  8
0
 62
     7
 10
113.3237
 20
182.49533099999999
 30
0.0
  0
VERTEX
  5
DE0
  8
0
 62
     7
 10
113.356674
 20
183.364136
 30
0.0
  0
VERTEX
  5
DE1
  8
0
 62
     7
 10
113.490784
 20
184.261078
 30
0.0
  0
VERTEX
  5
DE2
  8
0
 62
     7
 10
113.717789
 20
185.16287199999999
 30
0.0
  0
VERTEX
  5
DE3
  8
0
 62
     7
 10
114.080856
 20
186.149292
 30
0.0
  0
VERTEX
  5
DE4
  8
0
 62
     7
 10
114.300552
 20
186.59985399999999
 30
0.0
  0
VERTEX
  5
DE5
  8
0
 62
     7
 10
114.544235
 20
187.00619499999999
 30
0.0
  0
VERTEX
  5
DE6
  8
0
 62
     7
 10
114.81102
 20
187.356201
 30
0.0
  0
VERTEX
  5
DE7
  8
0
 62
     7
 10
115.100143
 20
187.63836699999999
 30
0.0
  0
VERTEX
  5
DE8
  8
0
 62
     7
 10
115.49472
 20
187.88124099999999
 30
0.0
  0
VERTEX
  5
DE9
  8
0
 62
     7
 10
115.922684
 20
187.98379499999999
 30
0.0
  0
VERTEX
  5
DEA
  8
0
 62
     7
 10
116.38327
 20
187.93341100000001
 30
0.0
  0
VERTEX
  5
DEB
  8
0
 62
     7
 10
116.87593099999999
 20
187.72110000000001
 30
0.0
  0
VERTEX
  5
DEC
  8
0
 62
     7
 10
117.207382
 20
187.49771100000001
 30
0.0
  0
VERTEX
  5
DED
  8
0
 62
     7
 10
117.551727
 20
187.20459
 30
0.0
  0
VERTEX
  5
DEE
  8
0
 62
     7
 10
117.940414
 20
186.806274
 30
0.0
  0
VERTEX
  5
DEF
  8
0
 62
     7
 10
118.344238
 20
186.32423399999999
 30
0.0
  0
VERTEX
  5
DF0
  8
0
 62
     7
 10
119.162094
 20
185.16287199999999
 30
0.0
  0
VERTEX
  5
DF1
  8
0
 62
     7
 10
119.04040500000001
 20
184.572937
 30
0.0
  0
VERTEX
  5
DF2
  8
0
 62
     7
 10
119.003998
 20
183.948669
 30
0.0
  0
VERTEX
  5
DF3
  8
0
 62
     7
 10
119.052277
 20
183.290268
 30
0.0
  0
VERTEX
  5
DF4
  8
0
 62
     7
 10
119.14314299999999
 20
182.77427700000001
 30
0.0
  0
VERTEX
  5
DF5
  8
0
 62
     7
 10
119.27958700000001
 20
182.23959400000001
 30
0.0
  0
VERTEX
  5
DF6
  8
0
 62
     7
 10
119.681366
 20
181.116196
 30
0.0
  0
VERTEX
  5
DF7
  8
0
 62
     7
 10
120.035217
 20
180.32965100000001
 30
0.0
  0
VERTEX
  5
DF8
  8
0
 62
     7
 10
120.90025300000001
 20
178.67884799999999
 30
0.0
  0
VERTEX
  5
DF9
  8
0
 62
     7
 10
121.980591
 20
176.73468
 30
0.0
  0
VERTEX
  5
DFA
  8
0
 62
     7
 10
122.44317599999999
 20
175.82815600000001
 30
0.0
  0
VERTEX
  5
DFB
  8
0
 62
     7
 10
122.650482
 20
175.376068
 30
0.0
  0
VERTEX
  5
DFC
  8
0
 62
     7
 10
122.91767900000001
 20
174.70306400000001
 30
0.0
  0
VERTEX
  5
DFD
  8
0
 62
     7
 10
123.12973
 20
173.989609
 30
0.0
  0
VERTEX
  5
DFE
  8
0
 62
     7
 10
123.243484
 20
173.294296
 30
0.0
  0
VERTEX
  5
DFF
  8
0
 62
     7
 10
123.243576
 20
172.65181000000001
 30
0.0
  0
VERTEX
  5
E00
  8
0
 62
     7
 10
123.124084
 20
172.03723099999999
 30
0.0
  0
VERTEX
  5
E01
  8
0
 62
     7
 10
122.87576300000001
 20
171.455963
 30
0.0
  0
VERTEX
  5
E02
  8
0
 62
     7
 10
122.494156
 20
170.913208
 30
0.0
  0
VERTEX
  5
E03
  8
0
 62
     7
 10
121.980591
 20
170.41381799999999
 30
0.0
  0
VERTEX
  5
E04
  8
0
 62
     7
 10
121.55987500000001
 20
170.101303
 30
0.0
  0
VERTEX
  5
E05
  8
0
 62
     7
 10
121.086243
 20
169.81213399999999
 30
0.0
  0
VERTEX
  5
E06
  8
0
 62
     7
 10
120.533524
 20
169.53259299999999
 30
0.0
  0
VERTEX
  5
E07
  8
0
 62
     7
 10
119.936691
 20
169.28166200000001
 30
0.0
  0
VERTEX
  5
E08
  8
0
 62
     7
 10
118.68821699999999
 20
168.87951699999999
 30
0.0
  0
VERTEX
  5
E09
  8
0
 62
     7
 10
117.393631
 20
168.595383
 30
0.0
  0
VERTEX
  5
E0A
  8
0
 62
     7
 10
116.142258
 20
168.433075
 30
0.0
  0
VERTEX
  5
E0B
  8
0
 62
     7
 10
115.02278099999999
 20
168.39430200000001
 30
0.0
  0
VERTEX
  5
E0C
  8
0
 62
     7
 10
114.538147
 20
168.42120399999999
 30
0.0
  0
VERTEX
  5
E0D
  8
0
 62
     7
 10
114.11557000000001
 20
168.47865300000001
 30
0.0
  0
VERTEX
  5
E0E
  8
0
 62
     7
 10
113.613998
 20
168.621262
 30
0.0
  0
VERTEX
  5
E0F
  8
0
 62
     7
 10
113.42797899999999
 20
168.717468
 30
0.0
  0
VERTEX
  5
E10
  8
0
 62
     7
 10
113.28733800000001
 20
168.82986500000001
 30
0.0
  0
VERTEX
  5
E11
  8
0
 62
     7
 10
113.192993
 20
168.95817600000001
 30
0.0
  0
VERTEX
  5
E12
  8
0
 62
     7
 10
113.145096
 20
169.10197400000001
 30
0.0
  0
VERTEX
  5
E13
  8
0
 62
     7
 10
113.143097
 20
169.260864
 30
0.0
  0
VERTEX
  5
E14
  8
0
 62
     7
 10
113.185654
 20
169.43438699999999
 30
0.0
  0
VERTEX
  5
E15
  8
0
 62
     7
 10
113.310699
 20
169.69274899999999
 30
0.0
  0
VERTEX
  5
E16
  8
0
 62
     7
 10
113.50561500000001
 20
169.97581500000001
 30
0.0
  0
VERTEX
  5
E17
  8
0
 62
     7
 10
113.855316
 20
170.38905299999999
 30
0.0
  0
VERTEX
  5
E18
  8
0
 62
     7
 10
114.74258399999999
 20
171.32345599999999
 30
0.0
  0
VERTEX
  5
E19
  8
0
 62
     7
 10
115.359604
 20
172.01254299999999
 30
0.0
  0
VERTEX
  5
E1A
  8
0
 62
     7
 10
115.644409
 20
172.372894
 30
0.0
  0
VERTEX
  5
E1B
  8
0
 62
     7
 10
116.015686
 20
172.92926
 30
0.0
  0
VERTEX
  5
E1C
  8
0
 62
     7
 10
116.23629800000001
 20
173.356506
 30
0.0
  0
SEQEND
  5
E1D
  8
0
 62
     7
  0
POLYLINE
  5
6BA
  8
0
 62
     7
 66
     1
 10
0.0
 20
0.0
 30
0.0
  0
VERTEX
  5
E1E
  8
0
 62
     7
 10
160.022705
 20
166.908691
 30
0.0
  0
VERTEX
  5
E1F
  8
0
 62
     7
 10
160.48277300000001
 20
165.92413300000001
 30
0.0
  0
VERTEX
  5
E20
  8
0
 62
     7
 10
161.02113299999999
 20
165.054688
 30
0.0
  0
VERTEX
  5
E21
  8
0
 62
     7
 10
161.637787
 20
164.30038500000001
 30
0.0
  0
VERTEX
  5
E22
  8
0
 62
     7
 10
162.33273299999999
 20
163.661224
 30
0.0
  0
VERTEX
  5
E23
  8
0
 62
     7
 10
163.02005
 20
163.18743900000001
 30
0.0
  0
VERTEX
  5
E24
  8
0
 62
     7
 10
163.769882
 20
162.8056179999999
 30
0.0
  0
VERTEX
  5
E25
  8
0
 62
     7
 10
164.582245
 20
162.515747
 30
0.0
  0
VERTEX
  5
E26
  8
0
 62
     7
 10
165.45715300000001
 20
162.31784099999999
 30
0.0
  0
VERTEX
  5
E27
  8
0
 62
     7
 10
166.06135599999999
 20
162.23831200000001
 30
0.0
  0
VERTEX
  5
E28
  8
0
 62
     7
 10
166.69216900000001
 20
162.19787600000001
 30
0.0
  0
VERTEX
  5
E29
  8
0
 62
     7
 10
167.37951699999999
 20
162.197418
 30
0.0
  0
VERTEX
  5
E2A
  8
0
 62
     7
 10
168.09591699999999
 20
162.23962399999999
 30
0.0
  0
SEQEND
  5
E2B
  8
0
 62
     7
  0
POLYLINE
  5
6C9
  8
0
 62
     7
 66
     1
 10
0.0
 20
0.0
 30
0.0
  0
VERTEX
  5
E2C
  8
0
 62
     7
 10
158.76458700000001
 20
173.7901
 30
0.0
  0
VERTEX
  5
E2D
  8
0
 62
     7
 10
162.41699199999999
 20
173.113068
 30
0.0
  0
VERTEX
  5
E2E
  8
0
 62
     7
 10
164.304214
 20
172.723907
 30
0.0
  0
VERTEX
  5
E2F
  8
0
 62
     7
 10
166.243256
 20
172.248535
 30
0.0
  0
VERTEX
  5
E30
  8
0
 62
     7
 10
167.19152800000001
 20
171.963379
 30
0.0
  0
VERTEX
  5
E31
  8
0
 62
     7
 10
167.887787
 20
171.71987899999999
 30
0.0
  0
VERTEX
  5
E32
  8
0
 62
     7
 10
168.56341599999999
 20
171.44695999999999
 30
0.0
  0
VERTEX
  5
E33
  8
0
 62
     7
 10
169.52551299999999
 20
170.97457900000001
 30
0.0
  0
VERTEX
  5
E34
  8
0
 62
     7
 10
170.416809
 20
170.41381799999999
 30
0.0
  0
VERTEX
  5
E35
  8
0
 62
     7
 10
171.17588799999999
 20
169.79949999999999
 30
0.0
  0
VERTEX
  5
E36
  8
0
 62
     7
 10
171.85531599999999
 20
169.09167500000001
 30
0.0
  0
VERTEX
  5
E37
  8
0
 62
     7
 10
172.45024100000001
 20
168.28598
 30
0.0
  0
VERTEX
  5
E38
  8
0
 62
     7
 10
172.95773299999999
 20
167.37966900000001
 30
0.0
  0
VERTEX
  5
E39
  8
0
 62
     7
 10
173.376251
 20
166.37136799999999
 30
0.0
  0
VERTEX
  5
E3A
  8
0
 62
     7
 10
173.70519999999999
 20
165.26052899999999
 30
0.0
  0
SEQEND
  5
E3B
  8
0
 62
     7
  0
POLYLINE
  5
6FE
  8
0
 62
     7
 66
     1
 10
0.0
 20
0.0
 30
0.0
  0
VERTEX
  5
E3C
  8
0
 62
     7
 10
106.423523
 20
157.08633399999999
 30
0.0
  0
VERTEX
  5
E3D
  8
0
 62
     7
 10
106.909592
 20
155.66021699999999
 30
0.0
  0
VERTEX
  5
E3E
  8
0
 62
     7
 10
107.47631800000001
 20
154.28338600000001
 30
0.0
  0
VERTEX
  5
E3F
  8
0
 62
     7
 10
108.12297100000001
 20
152.95541399999999
 30
0.0
  0
VERTEX
  5
E40
  8
0
 62
     7
 10
108.65537999999999
 20
151.99757399999999
 30
0.0
  0
VERTEX
  5
E41
  8
0
 62
     7
 10
109.229736
 20
151.06544500000001
 30
0.0
  0
VERTEX
  5
E42
  8
0
 62
     7
 10
109.852966
 20
150.145081
 30
0.0
  0
VERTEX
  5
E43
  8
0
 62
     7
 10
110.51422100000001
 20
149.24818400000001
 30
0.0
  0
VERTEX
  5
E44
  8
0
 62
     7
 10
111.57794199999999
 20
147.93035900000001
 30
0.0
  0
VERTEX
  5
E45
  8
0
 62
     7
 10
112.321472
 20
147.07351700000001
 30
0.0
  0
VERTEX
  5
E46
  8
0
 62
     7
 10
113.861771
 20
145.39480599999999
 30
0.0
  0
VERTEX
  5
E47
  8
0
 62
     7
 10
116.19682299999999
 20
142.90031400000001
 30
0.0
  0
VERTEX
  5
E48
  8
0
 62
     7
 10
117.32334899999999
 20
141.63256799999999
 30
0.0
  0
VERTEX
  5
E49
  8
0
 62
     7
 10
118.133133
 20
140.662262
 30
0.0
  0
VERTEX
  5
E4A
  8
0
 62
     7
 10
118.905457
 20
139.670547
 30
0.0
  0
VERTEX
  5
E4B
  8
0
 62
     7
 10
119.594269
 20
138.714798
 30
0.0
  0
VERTEX
  5
E4C
  8
0
 62
     7
 10
120.24443100000001
 20
137.73594700000001
 30
0.0
  0
VERTEX
  5
E4D
  8
0
 62
     7
 10
120.930679
 20
136.60716199999999
 30
0.0
  0
VERTEX
  5
E4E
  8
0
 62
     7
 10
121.574265
 20
135.45098899999999
 30
0.0
  0
VERTEX
  5
E4F
  8
0
 62
     7
 10
122.573486
 20
133.493301
 30
0.0
  0
VERTEX
  5
E50
  8
0
 62
     7
 10
123.44506800000001
 20
131.73080400000001
 30
0.0
  0
VERTEX
  5
E51
  8
0
 62
     7
 10
123.894272
 20
130.852554
 30
0.0
  0
VERTEX
  5
E52
  8
0
 62
     7
 10
124.60440800000001
 20
129.551682
 30
0.0
  0
VERTEX
  5
E53
  8
0
 62
     7
 10
125.181297
 20
128.58772300000001
 30
0.0
  0
VERTEX
  5
E54
  8
0
 62
     7
 10
125.79789700000001
 20
127.648926
 30
0.0
  0
VERTEX
  5
E55
  8
0
 62
     7
 10
126.686539
 20
126.44594600000001
 30
0.0
  0
VERTEX
  5
E56
  8
0
 62
     7
 10
127.652779
 20
125.309296
 30
0.0
  0
VERTEX
  5
E57
  8
0
 62
     7
 10
128.69511399999999
 20
124.248779
 30
0.0
  0
VERTEX
  5
E58
  8
0
 62
     7
 10
129.849075
 20
123.24118
 30
0.0
  0
VERTEX
  5
E59
  8
0
 62
     7
 10
131.07856799999999
 20
122.329453
 30
0.0
  0
VERTEX
  5
E5A
  8
0
 62
     7
 10
132.381775
 20
121.517807
 30
0.0
  0
VERTEX
  5
E5B
  8
0
 62
     7
 10
133.75756799999999
 20
120.80883799999999
 30
0.0
  0
VERTEX
  5
E5C
  8
0
 62
     7
 10
135.205399
 20
120.203873
 30
0.0
  0
VERTEX
  5
E5D
  8
0
 62
     7
 10
136.72500600000001
 20
119.70343
 30
0.0
  0
VERTEX
  5
E5E
  8
0
 62
     7
 10
138.69210799999999
 20
119.34448999999999
 30
0.0
  0
VERTEX
  5
E5F
  8
0
 62
     7
 10
140.661697
 20
119.091972
 30
0.0
  0
VERTEX
  5
E60
  8
0
 62
     7
 10
142.63378900000001
 20
118.945869
 30
0.0
  0
VERTEX
  5
E61
  8
0
 62
     7
 10
144.976868
 20
118.91055299999999
 30
0.0
  0
VERTEX
  5
E62
  8
0
 62
     7
 10
147.323486
 20
119.02504
 30
0.0
  0
VERTEX
  5
E63
  8
0
 62
     7
 10
149.67361500000001
 20
119.289337
 30
0.0
  0
VERTEX
  5
E64
  8
0
 62
     7
 10
152.027252
 20
119.70343
 30
0.0
  0
SEQEND
  5
E65
  8
0
 62
     7
  0
POLYLINE
  5
708
  8
0
 62
     7
 66
     1
 10
0.0
 20
0.0
 30
0.0
  0
VERTEX
  5
E66
  8
0
 62
     7
 10
213.08500699999999
 20
80.737983999999983
 30
0.0
  0
VERTEX
  5
E67
  8
0
 62
     7
 10
214.60884100000001
 20
80.876075999999998
 30
0.0
  0
VERTEX
  5
E68
  8
0
 62
     7
 10
216.13108800000001
 20
81.055267000000001
 30
0.0
  0
VERTEX
  5
E69
  8
0
 62
     7
 10
217.66568000000001
 20
81.277602999999999
 30
0.0
  0
VERTEX
  5
E6A
  8
0
 62
     7
 10
219.19871499999999
 20
81.541161000000017
 30
0.0
  0
VERTEX
  5
E6B
  8
0
 62
     7
 10
221.23112499999999
 20
81.953079000000017
 30
0.0
  0
VERTEX
  5
E6C
  8
0
 62
     7
 10
223.261078
 20
82.432357999999994
 30
0.0
  0
VERTEX
  5
E6D
  8
0
 62
     7
 10
225.96444700000001
 20
83.165413000000001
 30
0.0
  0
VERTEX
  5
E6E
  8
0
 62
     7
 10
227.765198
 20
83.703842000000009
 30
0.0
  0
VERTEX
  5
E6F
  8
0
 62
     7
 10
231.365692
 20
84.855750999999998
 30
0.0
  0
VERTEX
  5
E70
  8
0
 62
     7
 10
234.698792
 20
85.928291000000016
 30
0.0
  0
VERTEX
  5
E71
  8
0
 62
     7
 10
236.36866800000001
 20
86.430335999999997
 30
0.0
  0
VERTEX
  5
E72
  8
0
 62
     7
 10
238.88012699999999
 20
87.096473999999986
 30
0.0
  0
VERTEX
  5
E73
  8
0
 62
     7
 10
240.770355
 20
87.501373000000001
 30
0.0
  0
VERTEX
  5
E74
  8
0
 62
     7
 10
242.667236
 20
87.805770999999993
 30
0.0
  0
VERTEX
  5
E75
  8
0
 62
     7
 10
244.57127399999999
 20
87.997993000000008
 30
0.0
  0
VERTEX
  5
E76
  8
0
 62
     7
 10
246.48246800000001
 20
88.073661999999999
 30
0.0
  0
VERTEX
  5
E77
  8
0
 62
     7
 10
248.40022300000001
 20
88.037491000000003
 30
0.0
  0
VERTEX
  5
E78
  8
0
 62
     7
 10
250.62884500000001
 20
87.876944999999978
 30
0.0
  0
VERTEX
  5
E79
  8
0
 62
     7
 10
252.116928
 20
87.719077999999996
 30
0.0
  0
VERTEX
  5
E7A
  8
0
 62
     7
 10
255.09318500000001
 20
87.356956000000011
 30
0.0
  0
VERTEX
  5
E7B
  8
0
 62
     7
 10
257.07324199999999
 20
87.141159000000016
 30
0.0
  0
VERTEX
  5
E7C
  8
0
 62
     7
 10
258.06094400000001
 20
87.057327000000001
 30
0.0
  0
VERTEX
  5
E7D
  8
0
 62
     7
 10
259.538635
 20
86.975409999999997
 30
0.0
  0
VERTEX
  5
E7E
  8
0
 62
     7
 10
260.64343300000002
 20
86.955756999999991
 30
0.0
  0
VERTEX
  5
E7F
  8
0
 62
     7
 10
261.74496499999998
 20
86.976905999999985
 30
0.0
  0
VERTEX
  5
E80
  8
0
 62
     7
 10
263.23904399999998
 20
87.076164000000006
 30
0.0
  0
VERTEX
  5
E81
  8
0
 62
     7
 10
264.72692899999998
 20
87.258278000000004
 30
0.0
  0
VERTEX
  5
E82
  8
0
 62
     7
 10
266.20901500000002
 20
87.520149000000004
 30
0.0
  0
VERTEX
  5
E83
  8
0
 62
     7
 10
268.00906400000002
 20
87.936095999999992
 30
0.0
  0
VERTEX
  5
E84
  8
0
 62
     7
 10
269.80358899999999
 20
88.438987999999995
 30
0.0
  0
VERTEX
  5
E85
  8
0
 62
     7
 10
271.54830900000002
 20
88.988228000000007
 30
0.0
  0
VERTEX
  5
E86
  8
0
 62
     7
 10
275.037598
 20
90.158660999999995
 30
0.0
  0
VERTEX
  5
E87
  8
0
 62
     7
 10
277.37051400000001
 20
90.912970999999999
 30
0.0
  0
VERTEX
  5
E88
  8
0
 62
     7
 10
278.54055799999998
 20
91.26379399999999
 30
0.0
  0
VERTEX
  5
E89
  8
0
 62
     7
 10
280.30130000000003
 20
91.743651999999997
 30
0.0
  0
VERTEX
  5
E8A
  8
0
 62
     7
 10
282.29269399999998
 20
92.203193999999996
 30
0.0
  0
VERTEX
  5
E8B
  8
0
 62
     7
 10
284.29513500000002
 20
92.563980000000001
 30
0.0
  0
VERTEX
  5
E8C
  8
0
 62
     7
 10
286.64547700000003
 20
92.847068999999991
 30
0.0
  0
VERTEX
  5
E8D
  8
0
 62
     7
 10
287.82699600000001
 20
92.929985000000016
 30
0.0
  0
VERTEX
  5
E8E
  8
0
 62
     7
 10
289.01281699999998
 20
92.972717000000003
 30
0.0
  0
VERTEX
  5
E8F
  8
0
 62
     7
 10
290.600708
 20
92.966346999999999
 30
0.0
  0
VERTEX
  5
E90
  8
0
 62
     7
 10
292.19638099999997
 20
92.886977999999985
 30
0.0
  0
VERTEX
  5
E91
  8
0
 62
     7
 10
293.79989599999999
 20
92.734351999999987
 30
0.0
  0
SEQEND
  5
E92
  8
0
 62
     7
  0
POLYLINE
  5
736
  8
0
 62
     7
 66
     1
 10
0.0
 20
0.0
 30
0.0
  0
VERTEX
  5
E93
  8
0
 62
     7
 10
300.25207499999999
 20
92.734351999999987
 30
0.0
  0
VERTEX
  5
E94
  8
0
 62
     7
 10
299.69897500000002
 20
94.608093000000011
 30
0.0
  0
VERTEX
  5
E95
  8
0
 62
     7
 10
299.035797
 20
96.335685999999995
 30
0.0
  0
VERTEX
  5
E96
  8
0
 62
     7
 10
298.66156000000001
 20
97.147728000000001
 30
0.0
  0
VERTEX
  5
E97
  8
0
 62
     7
 10
298.25973499999998
 20
97.923125999999996
 30
0.0
  0
VERTEX
  5
E98
  8
0
 62
     7
 10
297.83377100000001
 20
98.656670000000005
 30
0.0
  0
VERTEX
  5
E99
  8
0
 62
     7
 10
297.38089000000002
 20
99.354445999999996
 30
0.0
  0
VERTEX
  5
E9A
  8
0
 62
     7
 10
296.73306300000002
 20
100.232788
 30
0.0
  0
VERTEX
  5
E9B
  8
0
 62
     7
 10
296.03817700000002
 20
101.04834700000001
 30
0.0
  0
VERTEX
  5
E9C
  8
0
 62
     7
 10
295.29705799999999
 20
101.8022
 30
0.0
  0
VERTEX
  5
E9D
  8
0
 62
     7
 10
294.71160900000001
 20
102.327904
 30
0.0
  0
VERTEX
  5
E9E
  8
0
 62
     7
 10
294.10140999999999
 20
102.820374
 30
0.0
  0
VERTEX
  5
E9F
  8
0
 62
     7
 10
293.46716300000003
 20
103.28042600000001
 30
0.0
  0
VERTEX
  5
EA0
  8
0
 62
     7
 10
292.80969199999998
 20
103.70903
 30
0.0
  0
VERTEX
  5
EA1
  8
0
 62
     7
 10
291.516479
 20
104.43227400000001
 30
0.0
  0
VERTEX
  5
EA2
  8
0
 62
     7
 10
290.15188599999999
 20
105.057121
 30
0.0
  0
VERTEX
  5
EA3
  8
0
 62
     7
 10
288.724152
 20
105.593422
 30
0.0
  0
VERTEX
  5
EA4
  8
0
 62
     7
 10
286.910889
 20
106.14344
 30
0.0
  0
VERTEX
  5
EA5
  8
0
 62
     7
 10
285.034851
 20
106.598854
 30
0.0
  0
VERTEX
  5
EA6
  8
0
 62
     7
 10
283.165436
 20
106.971481
 30
0.0
  0
VERTEX
  5
EA7
  8
0
 62
     7
 10
281.90325899999999
 20
107.190697
 30
0.0
  0
VERTEX
  5
EA8
  8
0
 62
     7
 10
279.35995500000001
 20
107.582489
 30
0.0
  0
VERTEX
  5
EA9
  8
0
 62
     7
 10
273.94781499999999
 20
108.343834
 30
0.0
  0
VERTEX
  5
EAA
  8
0
 62
     7
 10
268.680542
 20
109.15757000000001
 30
0.0
  0
VERTEX
  5
EAB
  8
0
 62
     7
 10
265.000336
 20
109.81044
 30
0.0
  0
VERTEX
  5
EAC
  8
0
 62
     7
 10
262.58596799999998
 20
110.27162199999999
 30
0.0
  0
VERTEX
  5
EAD
  8
0
 62
     7
 10
257.80715900000001
 20
111.218765
 30
0.0
  0
VERTEX
  5
EAE
  8
0
 62
     7
 10
253.02619899999999
 20
112.136337
 30
0.0
  0
VERTEX
  5
EAF
  8
0
 62
     7
 10
250.61381499999999
 20
112.564537
 30
0.0
  0
VERTEX
  5
EB0
  8
0
 62
     7
 10
246.95124799999999
 20
113.153183
 30
0.0
  0
VERTEX
  5
EB1
  8
0
 62
     7
 10
243.78079199999999
 20
113.595474
 30
0.0
  0
VERTEX
  5
EB2
  8
0
 62
     7
 10
240.55783099999999
 20
113.97790500000001
 30
0.0
  0
VERTEX
  5
EB3
  8
0
 62
     7
 10
236.01663199999999
 20
114.40224499999999
 30
0.0
  0
VERTEX
  5
EB4
  8
0
 62
     7
 10
231.365692
 20
114.70358299999999
 30
0.0
  0
SEQEND
  5
EB5
  8
0
 62
     7
  0
VIEWPORT
  5
75A
 67
     1
  8
0
 62
     0
 10
0.0
 20
0.0
 30
0.0
 40
1000.0
 41
1000.0
 68
     1
 69
     1
1001
ACAD
1000
MVIEW
1002
{
1070
    16
1010
0.0
1020
0.0
1030
0.0
1010
0.0
1020
0.0
1030
1.0
1040
0.0
1040
1000.0
1040
0.0
1040
0.0
1040
50.0
1040
0.0
1040
0.0
1070
     0
1070
   100
1070
     1
1070
     1
1070
     0
1070
     0
1070
     0
1070
     0
1040
0.0
1040
0.0
1040
0.0
1040
1.0
1040
1.0
1040
1.0
1040
1.0
1070
     0
1002
{
1002
}
1002
}
  0
ENDSEC
  0
EOF
