0
SECTION
2
HEADER
9
$EXTMIN
10
89
20
89
9
$EXTMAX
10
111
20
111
9
$LIMMIN
10
89
20
89
9
$LIMMAX
10
111
20
111
0
ENDSEC
0
SECTION
2
TABLES
0
TABLE
2
LTYPE
70
255
0
LTYPE
2
1
70
0
3
SOLID
72
65
73
0
40
0
0
ENDTAB
0
TABLE
2
LAYER
70
4
0
LAYER
2
0
62
7
6
1
70
64
0
ENDTAB
0
TABLE
2
STYLE
70
1
0
STYLE
2
STD
70
0
40
0
41
1
50
0
71
0
42
.2
3
txt
0
ENDTAB
0
ENDSEC
0
SECTION
2
BLOCKS
0
BLOCK
2
CROSS
70
0
10
0
20
0
0
LINE
8
0
62
0
10
-50
20
0
11
50
21
0
0
LINE
8
0
62
0
10
0
20
-50
11
0
21
50
0
ENDBLK
0
ENDSEC
0
SECTION
2
ENTITIES
0
INSERT
8
POINT
62
2
2
CROSS
10
3.0866              
20
5.0436              
30
3.3988              
41
0.002
42
0.002
43
0.002
50
0.0
0
TEXT
8
CODE
62
3
7
STD
40
0.25
41
1.0
50
0.0
51
0.0
10
3.0866              
20
5.0436              
30
3.3988              
1
 WAND
0
TEXT
8
PT_ID
62
3
7
STD
40
0.25
41
1.0
50
0.0
51
0.0
10
3.0866              
20
5.0436              
30
3.3988              
1
 A
0
TEXT
8
HEIGHT
62
3
7
STD
40
0.25
41
1.0
50
0.0
51
0.0
10
3.0866              
20
5.0436              
30
3.3988              
1
 3.399
0
TEXT
8
CO_ORDS
62
3
7
STD
40
0.25
41
1.0
50
0.0
51
0.0
10
3.0866              
20
5.0436              
30
3.3988              
1
 3.087 5.044
0
INSERT
8
POINT
62
2
2
CROSS
10
3.0524              
20
-1.9456             
30
4.0532              
41
0.002
42
0.002
43
0.002
50
0.0
0
TEXT
8
CODE
62
3
7
STD
40
0.25
41
1.0
50
0.0
51
0.0
10
3.0524              
20
-1.9456             
30
4.0532              
1
 WAND
0
TEXT
8
PT_ID
62
3
7
STD
40
0.25
41
1.0
50
0.0
51
0.0
10
3.0524              
20
-1.9456             
30
4.0532              
1
 A1
0
TEXT
8
HEIGHT
62
3
7
STD
40
0.25
41
1.0
50
0.0
51
0.0
10
3.0524              
20
-1.9456             
30
4.0532              
1
 4.053
0
TEXT
8
CO_ORDS
62
3
7
STD
40
0.25
41
1.0
50
0.0
51
0.0
10
3.0524              
20
-1.9456             
30
4.0532              
1
 3.052 -1.946
0
INSERT
8
POINT
62
2
2
CROSS
10
2.9009              
20
-2.4034             
30
4.0624              
41
0.002
42
0.002
43
0.002
50
0.0
0
TEXT
8
CODE
62
3
7
STD
40
0.25
41
1.0
50
0.0
51
0.0
10
2.9009              
20
-2.4034             
30
4.0624              
1
 WAND
0
TEXT
8
PT_ID
62
3
7
STD
40
0.25
41
1.0
50
0.0
51
0.0
10
2.9009              
20
-2.4034             
30
4.0624              
1
 A2
0
TEXT
8
HEIGHT
62
3
7
STD
40
0.25
41
1.0
50
0.0
51
0.0
10
2.9009              
20
-2.4034             
30
4.0624              
1
 4.062
0
TEXT
8
CO_ORDS
62
3
7
STD
40
0.25
41
1.0
50
0.0
51
0.0
10
2.9009              
20
-2.4034             
30
4.0624              
1
 2.901 -2.403
0
INSERT
8
POINT
62
2
2
CROSS
10
1.4216              
20
-2.3980             
30
4.2241              
41
0.002
42
0.002
43
0.002
50
0.0
0
TEXT
8
CODE
62
3
7
STD
40
0.25
41
1.0
50
0.0
51
0.0
10
1.4216              
20
-2.3980             
30
4.2241              
1
 WAND
0
TEXT
8
PT_ID
62
3
7
STD
40
0.25
41
1.0
50
0.0
51
0.0
10
1.4216              
20
-2.3980             
30
4.2241              
1
 A3
0
TEXT
8
HEIGHT
62
3
7
STD
40
0.25
41
1.0
50
0.0
51
0.0
10
1.4216              
20
-2.3980             
30
4.2241              
1
 4.224
0
TEXT
8
CO_ORDS
62
3
7
STD
40
0.25
41
1.0
50
0.0
51
0.0
10
1.4216              
20
-2.3980             
30
4.2241              
1
 1.422 -2.398
0
INSERT
8
POINT
62
2
2
CROSS
10
1.4622              
20
-2.3233             
30
2.9483              
41
0.002
42
0.002
43
0.002
50
0.0
0
TEXT
8
CODE
62
3
7
STD
40
0.25
41
1.0
50
0.0
51
0.0
10
1.4622              
20
-2.3233             
30
2.9483              
1
 WAND
0
TEXT
8
PT_ID
62
3
7
STD
40
0.25
41
1.0
50
0.0
51
0.0
10
1.4622              
20
-2.3233             
30
2.9483              
1
 A4
0
TEXT
8
HEIGHT
62
3
7
STD
40
0.25
41
1.0
50
0.0
51
0.0
10
1.4622              
20
-2.3233             
30
2.9483              
1
 2.948
0
TEXT
8
CO_ORDS
62
3
7
STD
40
0.25
41
1.0
50
0.0
51
0.0
10
1.4622              
20
-2.3233             
30
2.9483              
1
 1.462 -2.323
0
INSERT
8
POINT
62
2
2
CROSS
10
0.2082              
20
-2.3120             
30
2.0537              
41
0.002
42
0.002
43
0.002
50
0.0
0
TEXT
8
CODE
62
3
7
STD
40
0.25
41
1.0
50
0.0
51
0.0
10
0.2082              
20
-2.3120             
30
2.0537              
1
 WAND
0
TEXT
8
PT_ID
62
3
7
STD
40
0.25
41
1.0
50
0.0
51
0.0
10
0.2082              
20
-2.3120             
30
2.0537              
1
 A5
0
TEXT
8
HEIGHT
62
3
7
STD
40
0.25
41
1.0
50
0.0
51
0.0
10
0.2082              
20
-2.3120             
30
2.0537              
1
 2.054
0
TEXT
8
CO_ORDS
62
3
7
STD
40
0.25
41
1.0
50
0.0
51
0.0
10
0.2082              
20
-2.3120             
30
2.0537              
1
 0.208 -2.312
0
INSERT
8
POINT
62
2
2
CROSS
10
-0.0008             
20
-1.8110             
30
3.0081              
41
0.002
42
0.002
43
0.002
50
0.0
0
TEXT
8
CODE
62
3
7
STD
40
0.25
41
1.0
50
0.0
51
0.0
10
-0.0008             
20
-1.8110             
30
3.0081              
1
 WAND
0
TEXT
8
PT_ID
62
3
7
STD
40
0.25
41
1.0
50
0.0
51
0.0
10
-0.0008             
20
-1.8110             
30
3.0081              
1
 A6
0
TEXT
8
HEIGHT
62
3
7
STD
40
0.25
41
1.0
50
0.0
51
0.0
10
-0.0008             
20
-1.8110             
30
3.0081              
1
 3.008
0
TEXT
8
CO_ORDS
62
3
7
STD
40
0.25
41
1.0
50
0.0
51
0.0
10
-0.0008             
20
-1.8110             
30
3.0081              
1
 -0.001 -1.811
0
INSERT
8
POINT
62
2
2
CROSS
10
0.0020              
20
4.3245              
30
3.0727              
41
0.002
42
0.002
43
0.002
50
0.0
0
TEXT
8
CODE
62
3
7
STD
40
0.25
41
1.0
50
0.0
51
0.0
10
0.0020              
20
4.3245              
30
3.0727              
1
 WAND
0
TEXT
8
PT_ID
62
3
7
STD
40
0.25
41
1.0
50
0.0
51
0.0
10
0.0020              
20
4.3245              
30
3.0727              
1
 A7
0
TEXT
8
HEIGHT
62
3
7
STD
40
0.25
41
1.0
50
0.0
51
0.0
10
0.0020              
20
4.3245              
30
3.0727              
1
 3.073
0
TEXT
8
CO_ORDS
62
3
7
STD
40
0.25
41
1.0
50
0.0
51
0.0
10
0.0020              
20
4.3245              
30
3.0727              
1
 0.002 4.325
0
INSERT
8
POINT
62
2
2
CROSS
10
-1.6773             
20
3.8467              
30
3.7616              
41
0.002
42
0.002
43
0.002
50
0.0
0
TEXT
8
CODE
62
3
7
STD
40
0.25
41
1.0
50
0.0
51
0.0
10
-1.6773             
20
3.8467              
30
3.7616              
1
 WAND
0
TEXT
8
PT_ID
62
3
7
STD
40
0.25
41
1.0
50
0.0
51
0.0
10
-1.6773             
20
3.8467              
30
3.7616              
1
 A8
0
TEXT
8
HEIGHT
62
3
7
STD
40
0.25
41
1.0
50
0.0
51
0.0
10
-1.6773             
20
3.8467              
30
3.7616              
1
 3.762
0
TEXT
8
CO_ORDS
62
3
7
STD
40
0.25
41
1.0
50
0.0
51
0.0
10
-1.6773             
20
3.8467              
30
3.7616              
1
 -1.677 3.847
0
INSERT
8
POINT
62
2
2
CROSS
10
-2.4902             
20
3.8573              
30
3.7289              
41
0.002
42
0.002
43
0.002
50
0.0
0
TEXT
8
CODE
62
3
7
STD
40
0.25
41
1.0
50
0.0
51
0.0
10
-2.4902             
20
3.8573              
30
3.7289              
1
 WAND
0
TEXT
8
PT_ID
62
3
7
STD
40
0.25
41
1.0
50
0.0
51
0.0
10
-2.4902             
20
3.8573              
30
3.7289              
1
 A9
0
TEXT
8
HEIGHT
62
3
7
STD
40
0.25
41
1.0
50
0.0
51
0.0
10
-2.4902             
20
3.8573              
30
3.7289              
1
 3.729
0
TEXT
8
CO_ORDS
62
3
7
STD
40
0.25
41
1.0
50
0.0
51
0.0
10
-2.4902             
20
3.8573              
30
3.7289              
1
 -2.490 3.857
0
INSERT
8
POINT
62
2
2
CROSS
10
-2.6486             
20
3.9366              
30
3.7457              
41
0.002
42
0.002
43
0.002
50
0.0
0
TEXT
8
CODE
62
3
7
STD
40
0.25
41
1.0
50
0.0
51
0.0
10
-2.6486             
20
3.9366              
30
3.7457              
1
 WAND
0
TEXT
8
PT_ID
62
3
7
STD
40
0.25
41
1.0
50
0.0
51
0.0
10
-2.6486             
20
3.9366              
30
3.7457              
1
 A10
0
TEXT
8
HEIGHT
62
3
7
STD
40
0.25
41
1.0
50
0.0
51
0.0
10
-2.6486             
20
3.9366              
30
3.7457              
1
 3.746
0
TEXT
8
CO_ORDS
62
3
7
STD
40
0.25
41
1.0
50
0.0
51
0.0
10
-2.6486             
20
3.9366              
30
3.7457              
1
 -2.649 3.937
0
INSERT
8
POINT
62
2
2
CROSS
10
-2.6531             
20
4.6092              
30
3.7284              
41
0.002
42
0.002
43
0.002
50
0.0
0
TEXT
8
CODE
62
3
7
STD
40
0.25
41
1.0
50
0.0
51
0.0
10
-2.6531             
20
4.6092              
30
3.7284              
1
 WAND
0
TEXT
8
PT_ID
62
3
7
STD
40
0.25
41
1.0
50
0.0
51
0.0
10
-2.6531             
20
4.6092              
30
3.7284              
1
 A11
0
TEXT
8
HEIGHT
62
3
7
STD
40
0.25
41
1.0
50
0.0
51
0.0
10
-2.6531             
20
4.6092              
30
3.7284              
1
 3.728
0
TEXT
8
CO_ORDS
62
3
7
STD
40
0.25
41
1.0
50
0.0
51
0.0
10
-2.6531             
20
4.6092              
30
3.7284              
1
 -2.653 4.609
0
INSERT
8
POINT
62
2
2
CROSS
10
-0.0593             
20
4.4568              
30
3.5251              
41
0.002
42
0.002
43
0.002
50
0.0
0
TEXT
8
CODE
62
3
7
STD
40
0.25
41
1.0
50
0.0
51
0.0
10
-0.0593             
20
4.4568              
30
3.5251              
1
 TUR
0
TEXT
8
PT_ID
62
3
7
STD
40
0.25
41
1.0
50
0.0
51
0.0
10
-0.0593             
20
4.4568              
30
3.5251              
1
 A12
0
TEXT
8
HEIGHT
62
3
7
STD
40
0.25
41
1.0
50
0.0
51
0.0
10
-0.0593             
20
4.4568              
30
3.5251              
1
 3.525
0
TEXT
8
CO_ORDS
62
3
7
STD
40
0.25
41
1.0
50
0.0
51
0.0
10
-0.0593             
20
4.4568              
30
3.5251              
1
 -0.059 4.457
0
INSERT
8
POINT
62
2
2
CROSS
10
-0.0181             
20
5.2605              
30
3.5255              
41
0.002
42
0.002
43
0.002
50
0.0
0
TEXT
8
CODE
62
3
7
STD
40
0.25
41
1.0
50
0.0
51
0.0
10
-0.0181             
20
5.2605              
30
3.5255              
1
 TUR
0
TEXT
8
PT_ID
62
3
7
STD
40
0.25
41
1.0
50
0.0
51
0.0
10
-0.0181             
20
5.2605              
30
3.5255              
1
 A13
0
TEXT
8
HEIGHT
62
3
7
STD
40
0.25
41
1.0
50
0.0
51
0.0
10
-0.0181             
20
5.2605              
30
3.5255              
1
 3.526
0
TEXT
8
CO_ORDS
62
3
7
STD
40
0.25
41
1.0
50
0.0
51
0.0
10
-0.0181             
20
5.2605              
30
3.5255              
1
 -0.018 5.261
0
INSERT
8
POINT
62
2
2
CROSS
10
-0.0169             
20
5.6510              
30
3.5264              
41
0.002
42
0.002
43
0.002
50
0.0
0
TEXT
8
CODE
62
3
7
STD
40
0.25
41
1.0
50
0.0
51
0.0
10
-0.0169             
20
5.6510              
30
3.5264              
1
 TUR
0
TEXT
8
PT_ID
62
3
7
STD
40
0.25
41
1.0
50
0.0
51
0.0
10
-0.0169             
20
5.6510              
30
3.5264              
1
 A14
0
TEXT
8
HEIGHT
62
3
7
STD
40
0.25
41
1.0
50
0.0
51
0.0
10
-0.0169             
20
5.6510              
30
3.5264              
1
 3.526
0
TEXT
8
CO_ORDS
62
3
7
STD
40
0.25
41
1.0
50
0.0
51
0.0
10
-0.0169             
20
5.6510              
30
3.5264              
1
 -0.017 5.651
0
INSERT
8
POINT
62
2
2
CROSS
10
-0.0989             
20
6.4494              
30
3.4983              
41
0.002
42
0.002
43
0.002
50
0.0
0
TEXT
8
CODE
62
3
7
STD
40
0.25
41
1.0
50
0.0
51
0.0
10
-0.0989             
20
6.4494              
30
3.4983              
1
 TUR
0
TEXT
8
PT_ID
62
3
7
STD
40
0.25
41
1.0
50
0.0
51
0.0
10
-0.0989             
20
6.4494              
30
3.4983              
1
 A15
0
TEXT
8
HEIGHT
62
3
7
STD
40
0.25
41
1.0
50
0.0
51
0.0
10
-0.0989             
20
6.4494              
30
3.4983              
1
 3.498
0
TEXT
8
CO_ORDS
62
3
7
STD
40
0.25
41
1.0
50
0.0
51
0.0
10
-0.0989             
20
6.4494              
30
3.4983              
1
 -0.099 6.449
0
INSERT
8
POINT
62
2
2
CROSS
10
-0.0236             
20
6.4515              
30
3.5138              
41
0.002
42
0.002
43
0.002
50
0.0
0
TEXT
8
CODE
62
3
7
STD
40
0.25
41
1.0
50
0.0
51
0.0
10
-0.0236             
20
6.4515              
30
3.5138              
1
 TUR
0
TEXT
8
PT_ID
62
3
7
STD
40
0.25
41
1.0
50
0.0
51
0.0
10
-0.0236             
20
6.4515              
30
3.5138              
1
 A16
0
TEXT
8
HEIGHT
62
3
7
STD
40
0.25
41
1.0
50
0.0
51
0.0
10
-0.0236             
20
6.4515              
30
3.5138              
1
 3.514
0
TEXT
8
CO_ORDS
62
3
7
STD
40
0.25
41
1.0
50
0.0
51
0.0
10
-0.0236             
20
6.4515              
30
3.5138              
1
 -0.024 6.452
0
INSERT
8
POINT
62
2
2
CROSS
10
0.3688              
20
7.2066              
30
3.4531              
41
0.002
42
0.002
43
0.002
50
0.0
0
TEXT
8
CODE
62
3
7
STD
40
0.25
41
1.0
50
0.0
51
0.0
10
0.3688              
20
7.2066              
30
3.4531              
1
 TUR
0
TEXT
8
PT_ID
62
3
7
STD
40
0.25
41
1.0
50
0.0
51
0.0
10
0.3688              
20
7.2066              
30
3.4531              
1
 A17
0
TEXT
8
HEIGHT
62
3
7
STD
40
0.25
41
1.0
50
0.0
51
0.0
10
0.3688              
20
7.2066              
30
3.4531              
1
 3.453
0
TEXT
8
CO_ORDS
62
3
7
STD
40
0.25
41
1.0
50
0.0
51
0.0
10
0.3688              
20
7.2066              
30
3.4531              
1
 0.369 7.207
0
INSERT
8
POINT
62
2
2
CROSS
10
0.3784              
20
7.5862              
30
3.4319              
41
0.002
42
0.002
43
0.002
50
0.0
0
TEXT
8
CODE
62
3
7
STD
40
0.25
41
1.0
50
0.0
51
0.0
10
0.3784              
20
7.5862              
30
3.4319              
1
 TUR
0
TEXT
8
PT_ID
62
3
7
STD
40
0.25
41
1.0
50
0.0
51
0.0
10
0.3784              
20
7.5862              
30
3.4319              
1
 A18
0
TEXT
8
HEIGHT
62
3
7
STD
40
0.25
41
1.0
50
0.0
51
0.0
10
0.3784              
20
7.5862              
30
3.4319              
1
 3.432
0
TEXT
8
CO_ORDS
62
3
7
STD
40
0.25
41
1.0
50
0.0
51
0.0
10
0.3784              
20
7.5862              
30
3.4319              
1
 0.378 7.586
0
INSERT
8
POINT
62
2
2
CROSS
10
1.1933              
20
7.1351              
30
3.5340              
41
0.002
42
0.002
43
0.002
50
0.0
0
TEXT
8
CODE
62
3
7
STD
40
0.25
41
1.0
50
0.0
51
0.0
10
1.1933              
20
7.1351              
30
3.5340              
1
 TUR
0
TEXT
8
PT_ID
62
3
7
STD
40
0.25
41
1.0
50
0.0
51
0.0
10
1.1933              
20
7.1351              
30
3.5340              
1
 A19
0
TEXT
8
HEIGHT
62
3
7
STD
40
0.25
41
1.0
50
0.0
51
0.0
10
1.1933              
20
7.1351              
30
3.5340              
1
 3.534
0
TEXT
8
CO_ORDS
62
3
7
STD
40
0.25
41
1.0
50
0.0
51
0.0
10
1.1933              
20
7.1351              
30
3.5340              
1
 1.193 7.135
0
INSERT
8
POINT
62
2
2
CROSS
10
-0.5777             
20
9.4820              
30
3.6064              
41
0.002
42
0.002
43
0.002
50
0.0
0
TEXT
8
CODE
62
3
7
STD
40
0.25
41
1.0
50
0.0
51
0.0
10
-0.5777             
20
9.4820              
30
3.6064              
1
 WAND
0
TEXT
8
PT_ID
62
3
7
STD
40
0.25
41
1.0
50
0.0
51
0.0
10
-0.5777             
20
9.4820              
30
3.6064              
1
 A20
0
TEXT
8
HEIGHT
62
3
7
STD
40
0.25
41
1.0
50
0.0
51
0.0
10
-0.5777             
20
9.4820              
30
3.6064              
1
 3.606
0
TEXT
8
CO_ORDS
62
3
7
STD
40
0.25
41
1.0
50
0.0
51
0.0
10
-0.5777             
20
9.4820              
30
3.6064              
1
 -0.578 9.482
0
INSERT
8
POINT
62
2
2
CROSS
10
0.2547              
20
9.4696              
30
3.6150              
41
0.002
42
0.002
43
0.002
50
0.0
0
TEXT
8
CODE
62
3
7
STD
40
0.25
41
1.0
50
0.0
51
0.0
10
0.2547              
20
9.4696              
30
3.6150              
1
 WAND
0
TEXT
8
PT_ID
62
3
7
STD
40
0.25
41
1.0
50
0.0
51
0.0
10
0.2547              
20
9.4696              
30
3.6150              
1
 A21
0
TEXT
8
HEIGHT
62
3
7
STD
40
0.25
41
1.0
50
0.0
51
0.0
10
0.2547              
20
9.4696              
30
3.6150              
1
 3.615
0
TEXT
8
CO_ORDS
62
3
7
STD
40
0.25
41
1.0
50
0.0
51
0.0
10
0.2547              
20
9.4696              
30
3.6150              
1
 0.255 9.470
0
INSERT
8
POINT
62
2
2
CROSS
10
0.0041              
20
7.0379              
30
3.7177              
41
0.002
42
0.002
43
0.002
50
0.0
0
TEXT
8
CODE
62
3
7
STD
40
0.25
41
1.0
50
0.0
51
0.0
10
0.0041              
20
7.0379              
30
3.7177              
1
 WAND
0
TEXT
8
PT_ID
62
3
7
STD
40
0.25
41
1.0
50
0.0
51
0.0
10
0.0041              
20
7.0379              
30
3.7177              
1
 A22
0
TEXT
8
HEIGHT
62
3
7
STD
40
0.25
41
1.0
50
0.0
51
0.0
10
0.0041              
20
7.0379              
30
3.7177              
1
 3.718
0
TEXT
8
CO_ORDS
62
3
7
STD
40
0.25
41
1.0
50
0.0
51
0.0
10
0.0041              
20
7.0379              
30
3.7177              
1
 0.004 7.038
0
INSERT
8
POINT
62
2
2
CROSS
10
0.0032              
20
5.5012              
30
3.7523              
41
0.002
42
0.002
43
0.002
50
0.0
0
TEXT
8
CODE
62
3
7
STD
40
0.25
41
1.0
50
0.0
51
0.0
10
0.0032              
20
5.5012              
30
3.7523              
1
 WAND
0
TEXT
8
PT_ID
62
3
7
STD
40
0.25
41
1.0
50
0.0
51
0.0
10
0.0032              
20
5.5012              
30
3.7523              
1
 A23
0
TEXT
8
HEIGHT
62
3
7
STD
40
0.25
41
1.0
50
0.0
51
0.0
10
0.0032              
20
5.5012              
30
3.7523              
1
 3.752
0
TEXT
8
CO_ORDS
62
3
7
STD
40
0.25
41
1.0
50
0.0
51
0.0
10
0.0032              
20
5.5012              
30
3.7523              
1
 0.003 5.501
0
INSERT
8
POINT
62
2
2
CROSS
10
0.1633              
20
7.1438              
30
3.9568              
41
0.002
42
0.002
43
0.002
50
0.0
0
TEXT
8
CODE
62
3
7
STD
40
0.25
41
1.0
50
0.0
51
0.0
10
0.1633              
20
7.1438              
30
3.9568              
1
 WAND
0
TEXT
8
PT_ID
62
3
7
STD
40
0.25
41
1.0
50
0.0
51
0.0
10
0.1633              
20
7.1438              
30
3.9568              
1
 A24
0
TEXT
8
HEIGHT
62
3
7
STD
40
0.25
41
1.0
50
0.0
51
0.0
10
0.1633              
20
7.1438              
30
3.9568              
1
 3.957
0
TEXT
8
CO_ORDS
62
3
7
STD
40
0.25
41
1.0
50
0.0
51
0.0
10
0.1633              
20
7.1438              
30
3.9568              
1
 0.163 7.144
0
INSERT
8
POINT
62
2
2
CROSS
10
3.5541              
20
7.1089              
30
4.0541              
41
0.002
42
0.002
43
0.002
50
0.0
0
TEXT
8
CODE
62
3
7
STD
40
0.25
41
1.0
50
0.0
51
0.0
10
3.5541              
20
7.1089              
30
4.0541              
1
 WAND
0
TEXT
8
PT_ID
62
3
7
STD
40
0.25
41
1.0
50
0.0
51
0.0
10
3.5541              
20
7.1089              
30
4.0541              
1
 A25
0
TEXT
8
HEIGHT
62
3
7
STD
40
0.25
41
1.0
50
0.0
51
0.0
10
3.5541              
20
7.1089              
30
4.0541              
1
 4.054
0
TEXT
8
CO_ORDS
62
3
7
STD
40
0.25
41
1.0
50
0.0
51
0.0
10
3.5541              
20
7.1089              
30
4.0541              
1
 3.554 7.109
0
INSERT
8
POINT
62
2
2
CROSS
10
7.7507              
20
7.0755              
30
4.4430              
41
0.002
42
0.002
43
0.002
50
0.0
0
TEXT
8
CODE
62
3
7
STD
40
0.25
41
1.0
50
0.0
51
0.0
10
7.7507              
20
7.0755              
30
4.4430              
1
 WAND
0
TEXT
8
PT_ID
62
3
7
STD
40
0.25
41
1.0
50
0.0
51
0.0
10
7.7507              
20
7.0755              
30
4.4430              
1
 A26
0
TEXT
8
HEIGHT
62
3
7
STD
40
0.25
41
1.0
50
0.0
51
0.0
10
7.7507              
20
7.0755              
30
4.4430              
1
 4.443
0
TEXT
8
CO_ORDS
62
3
7
STD
40
0.25
41
1.0
50
0.0
51
0.0
10
7.7507              
20
7.0755              
30
4.4430              
1
 7.751 7.076
0
INSERT
8
POINT
62
2
2
CROSS
10
7.9474              
20
7.0239              
30
4.4250              
41
0.002
42
0.002
43
0.002
50
0.0
0
TEXT
8
CODE
62
3
7
STD
40
0.25
41
1.0
50
0.0
51
0.0
10
7.9474              
20
7.0239              
30
4.4250              
1
 WAND
0
TEXT
8
PT_ID
62
3
7
STD
40
0.25
41
1.0
50
0.0
51
0.0
10
7.9474              
20
7.0239              
30
4.4250              
1
 A27
0
TEXT
8
HEIGHT
62
3
7
STD
40
0.25
41
1.0
50
0.0
51
0.0
10
7.9474              
20
7.0239              
30
4.4250              
1
 4.425
0
TEXT
8
CO_ORDS
62
3
7
STD
40
0.25
41
1.0
50
0.0
51
0.0
10
7.9474              
20
7.0239              
30
4.4250              
1
 7.947 7.024
0
INSERT
8
POINT
62
2
2
CROSS
10
7.9556              
20
6.4198              
30
4.3603              
41
0.002
42
0.002
43
0.002
50
0.0
0
TEXT
8
CODE
62
3
7
STD
40
0.25
41
1.0
50
0.0
51
0.0
10
7.9556              
20
6.4198              
30
4.3603              
1
 WAND
0
TEXT
8
PT_ID
62
3
7
STD
40
0.25
41
1.0
50
0.0
51
0.0
10
7.9556              
20
6.4198              
30
4.3603              
1
 A28
0
TEXT
8
HEIGHT
62
3
7
STD
40
0.25
41
1.0
50
0.0
51
0.0
10
7.9556              
20
6.4198              
30
4.3603              
1
 4.360
0
TEXT
8
CO_ORDS
62
3
7
STD
40
0.25
41
1.0
50
0.0
51
0.0
10
7.9556              
20
6.4198              
30
4.3603              
1
 7.956 6.420
0
INSERT
8
POINT
62
2
2
CROSS
10
8.0867              
20
6.3610              
30
3.9103              
41
0.002
42
0.002
43
0.002
50
0.0
0
TEXT
8
CODE
62
3
7
STD
40
0.25
41
1.0
50
0.0
51
0.0
10
8.0867              
20
6.3610              
30
3.9103              
1
 WAND
0
TEXT
8
PT_ID
62
3
7
STD
40
0.25
41
1.0
50
0.0
51
0.0
10
8.0867              
20
6.3610              
30
3.9103              
1
 A29
0
TEXT
8
HEIGHT
62
3
7
STD
40
0.25
41
1.0
50
0.0
51
0.0
10
8.0867              
20
6.3610              
30
3.9103              
1
 3.910
0
TEXT
8
CO_ORDS
62
3
7
STD
40
0.25
41
1.0
50
0.0
51
0.0
10
8.0867              
20
6.3610              
30
3.9103              
1
 8.087 6.361
0
INSERT
8
POINT
62
2
2
CROSS
10
8.9297              
20
6.3519              
30
3.7645              
41
0.002
42
0.002
43
0.002
50
0.0
0
TEXT
8
CODE
62
3
7
STD
40
0.25
41
1.0
50
0.0
51
0.0
10
8.9297              
20
6.3519              
30
3.7645              
1
 WAND
0
TEXT
8
PT_ID
62
3
7
STD
40
0.25
41
1.0
50
0.0
51
0.0
10
8.9297              
20
6.3519              
30
3.7645              
1
 A30
0
TEXT
8
HEIGHT
62
3
7
STD
40
0.25
41
1.0
50
0.0
51
0.0
10
8.9297              
20
6.3519              
30
3.7645              
1
 3.764
0
TEXT
8
CO_ORDS
62
3
7
STD
40
0.25
41
1.0
50
0.0
51
0.0
10
8.9297              
20
6.3519              
30
3.7645              
1
 8.930 6.352
0
INSERT
8
POINT
62
2
2
CROSS
10
3.5938              
20
5.1069              
30
3.5825              
41
0.002
42
0.002
43
0.002
50
0.0
0
TEXT
8
CODE
62
3
7
STD
40
0.25
41
1.0
50
0.0
51
0.0
10
3.5938              
20
5.1069              
30
3.5825              
1
 WAND
0
TEXT
8
PT_ID
62
3
7
STD
40
0.25
41
1.0
50
0.0
51
0.0
10
3.5938              
20
5.1069              
30
3.5825              
1
 A31
0
TEXT
8
HEIGHT
62
3
7
STD
40
0.25
41
1.0
50
0.0
51
0.0
10
3.5938              
20
5.1069              
30
3.5825              
1
 3.582
0
TEXT
8
CO_ORDS
62
3
7
STD
40
0.25
41
1.0
50
0.0
51
0.0
10
3.5938              
20
5.1069              
30
3.5825              
1
 3.594 5.107
0
INSERT
8
POINT
62
2
2
CROSS
10
3.0856              
20
5.1846              
30
4.2805              
41
0.002
42
0.002
43
0.002
50
0.0
0
TEXT
8
CODE
62
3
7
STD
40
0.25
41
1.0
50
0.0
51
0.0
10
3.0856              
20
5.1846              
30
4.2805              
1
 UZS
0
TEXT
8
PT_ID
62
3
7
STD
40
0.25
41
1.0
50
0.0
51
0.0
10
3.0856              
20
5.1846              
30
4.2805              
1
 A32
0
TEXT
8
HEIGHT
62
3
7
STD
40
0.25
41
1.0
50
0.0
51
0.0
10
3.0856              
20
5.1846              
30
4.2805              
1
 4.280
0
TEXT
8
CO_ORDS
62
3
7
STD
40
0.25
41
1.0
50
0.0
51
0.0
10
3.0856              
20
5.1846              
30
4.2805              
1
 3.086 5.185
0
INSERT
8
POINT
62
2
2
CROSS
10
3.0875              
20
7.0340              
30
4.3526              
41
0.002
42
0.002
43
0.002
50
0.0
0
TEXT
8
CODE
62
3
7
STD
40
0.25
41
1.0
50
0.0
51
0.0
10
3.0875              
20
7.0340              
30
4.3526              
1
 UZS
0
TEXT
8
PT_ID
62
3
7
STD
40
0.25
41
1.0
50
0.0
51
0.0
10
3.0875              
20
7.0340              
30
4.3526              
1
 A33
0
TEXT
8
HEIGHT
62
3
7
STD
40
0.25
41
1.0
50
0.0
51
0.0
10
3.0875              
20
7.0340              
30
4.3526              
1
 4.353
0
TEXT
8
CO_ORDS
62
3
7
STD
40
0.25
41
1.0
50
0.0
51
0.0
10
3.0875              
20
7.0340              
30
4.3526              
1
 3.087 7.034
0
INSERT
8
POINT
62
2
2
CROSS
10
8.5242              
20
6.2396              
30
4.4057              
41
0.002
42
0.002
43
0.002
50
0.0
0
TEXT
8
CODE
62
3
7
STD
40
0.25
41
1.0
50
0.0
51
0.0
10
8.5242              
20
6.2396              
30
4.4057              
1
 UZS
0
TEXT
8
PT_ID
62
3
7
STD
40
0.25
41
1.0
50
0.0
51
0.0
10
8.5242              
20
6.2396              
30
4.4057              
1
 A34
0
TEXT
8
HEIGHT
62
3
7
STD
40
0.25
41
1.0
50
0.0
51
0.0
10
8.5242              
20
6.2396              
30
4.4057              
1
 4.406
0
TEXT
8
CO_ORDS
62
3
7
STD
40
0.25
41
1.0
50
0.0
51
0.0
10
8.5242              
20
6.2396              
30
4.4057              
1
 8.524 6.240
0
INSERT
8
POINT
62
2
2
CROSS
10
8.5283              
20
5.1410              
30
4.3754              
41
0.002
42
0.002
43
0.002
50
0.0
0
TEXT
8
CODE
62
3
7
STD
40
0.25
41
1.0
50
0.0
51
0.0
10
8.5283              
20
5.1410              
30
4.3754              
1
 UZS
0
TEXT
8
PT_ID
62
3
7
STD
40
0.25
41
1.0
50
0.0
51
0.0
10
8.5283              
20
5.1410              
30
4.3754              
1
 A35
0
TEXT
8
HEIGHT
62
3
7
STD
40
0.25
41
1.0
50
0.0
51
0.0
10
8.5283              
20
5.1410              
30
4.3754              
1
 4.375
0
TEXT
8
CO_ORDS
62
3
7
STD
40
0.25
41
1.0
50
0.0
51
0.0
10
8.5283              
20
5.1410              
30
4.3754              
1
 8.528 5.141
0
INSERT
8
POINT
62
2
2
CROSS
10
5.3099              
20
7.1336              
30
3.3959              
41
0.002
42
0.002
43
0.002
50
0.0
0
TEXT
8
CODE
62
3
7
STD
40
0.25
41
1.0
50
0.0
51
0.0
10
5.3099              
20
7.1336              
30
3.3959              
1
 TUR
0
TEXT
8
PT_ID
62
3
7
STD
40
0.25
41
1.0
50
0.0
51
0.0
10
5.3099              
20
7.1336              
30
3.3959              
1
 A36
0
TEXT
8
HEIGHT
62
3
7
STD
40
0.25
41
1.0
50
0.0
51
0.0
10
5.3099              
20
7.1336              
30
3.3959              
1
 3.396
0
TEXT
8
CO_ORDS
62
3
7
STD
40
0.25
41
1.0
50
0.0
51
0.0
10
5.3099              
20
7.1336              
30
3.3959              
1
 5.310 7.134
0
INSERT
8
POINT
62
2
2
CROSS
10
5.3092              
20
7.4652              
30
3.4055              
41
0.002
42
0.002
43
0.002
50
0.0
0
TEXT
8
CODE
62
3
7
STD
40
0.25
41
1.0
50
0.0
51
0.0
10
5.3092              
20
7.4652              
30
3.4055              
1
 TUR
0
TEXT
8
PT_ID
62
3
7
STD
40
0.25
41
1.0
50
0.0
51
0.0
10
5.3092              
20
7.4652              
30
3.4055              
1
 A37
0
TEXT
8
HEIGHT
62
3
7
STD
40
0.25
41
1.0
50
0.0
51
0.0
10
5.3092              
20
7.4652              
30
3.4055              
1
 3.405
0
TEXT
8
CO_ORDS
62
3
7
STD
40
0.25
41
1.0
50
0.0
51
0.0
10
5.3092              
20
7.4652              
30
3.4055              
1
 5.309 7.465
0
INSERT
8
POINT
62
2
2
CROSS
10
3.2643              
20
6.7702              
30
4.2257              
41
0.002
42
0.002
43
0.002
50
0.0
0
TEXT
8
CODE
62
3
7
STD
40
0.25
41
1.0
50
0.0
51
0.0
10
3.2643              
20
6.7702              
30
4.2257              
1
 UK
0
TEXT
8
PT_ID
62
3
7
STD
40
0.25
41
1.0
50
0.0
51
0.0
10
3.2643              
20
6.7702              
30
4.2257              
1
 A38
0
TEXT
8
HEIGHT
62
3
7
STD
40
0.25
41
1.0
50
0.0
51
0.0
10
3.2643              
20
6.7702              
30
4.2257              
1
 4.226
0
TEXT
8
CO_ORDS
62
3
7
STD
40
0.25
41
1.0
50
0.0
51
0.0
10
3.2643              
20
6.7702              
30
4.2257              
1
 3.264 6.770
0
INSERT
8
POINT
62
2
2
CROSS
10
3.2459              
20
5.2118              
30
4.2282              
41
0.002
42
0.002
43
0.002
50
0.0
0
TEXT
8
CODE
62
3
7
STD
40
0.25
41
1.0
50
0.0
51
0.0
10
3.2459              
20
5.2118              
30
4.2282              
1
 UK
0
TEXT
8
PT_ID
62
3
7
STD
40
0.25
41
1.0
50
0.0
51
0.0
10
3.2459              
20
5.2118              
30
4.2282              
1
 A39
0
TEXT
8
HEIGHT
62
3
7
STD
40
0.25
41
1.0
50
0.0
51
0.0
10
3.2459              
20
5.2118              
30
4.2282              
1
 4.228
0
TEXT
8
CO_ORDS
62
3
7
STD
40
0.25
41
1.0
50
0.0
51
0.0
10
3.2459              
20
5.2118              
30
4.2282              
1
 3.246 5.212
0
INSERT
8
POINT
62
2
2
CROSS
10
7.3774              
20
7.2156              
30
4.2016              
41
0.002
42
0.002
43
0.002
50
0.0
0
TEXT
8
CODE
62
3
7
STD
40
0.25
41
1.0
50
0.0
51
0.0
10
7.3774              
20
7.2156              
30
4.2016              
1
 UK
0
TEXT
8
PT_ID
62
3
7
STD
40
0.25
41
1.0
50
0.0
51
0.0
10
7.3774              
20
7.2156              
30
4.2016              
1
 A40
0
TEXT
8
HEIGHT
62
3
7
STD
40
0.25
41
1.0
50
0.0
51
0.0
10
7.3774              
20
7.2156              
30
4.2016              
1
 4.202
0
TEXT
8
CO_ORDS
62
3
7
STD
40
0.25
41
1.0
50
0.0
51
0.0
10
7.3774              
20
7.2156              
30
4.2016              
1
 7.377 7.216
0
INSERT
8
POINT
62
2
2
CROSS
10
6.7294              
20
7.2055              
30
4.2033              
41
0.002
42
0.002
43
0.002
50
0.0
0
TEXT
8
CODE
62
3
7
STD
40
0.25
41
1.0
50
0.0
51
0.0
10
6.7294              
20
7.2055              
30
4.2033              
1
 UK
0
TEXT
8
PT_ID
62
3
7
STD
40
0.25
41
1.0
50
0.0
51
0.0
10
6.7294              
20
7.2055              
30
4.2033              
1
 A41
0
TEXT
8
HEIGHT
62
3
7
STD
40
0.25
41
1.0
50
0.0
51
0.0
10
6.7294              
20
7.2055              
30
4.2033              
1
 4.203
0
TEXT
8
CO_ORDS
62
3
7
STD
40
0.25
41
1.0
50
0.0
51
0.0
10
6.7294              
20
7.2055              
30
4.2033              
1
 6.729 7.205
0
INSERT
8
POINT
62
2
2
CROSS
10
4.8975              
20
7.2320              
30
3.5356              
41
0.002
42
0.002
43
0.002
50
0.0
0
TEXT
8
CODE
62
3
7
STD
40
0.25
41
1.0
50
0.0
51
0.0
10
4.8975              
20
7.2320              
30
3.5356              
1
 UK
0
TEXT
8
PT_ID
62
3
7
STD
40
0.25
41
1.0
50
0.0
51
0.0
10
4.8975              
20
7.2320              
30
3.5356              
1
 A42
0
TEXT
8
HEIGHT
62
3
7
STD
40
0.25
41
1.0
50
0.0
51
0.0
10
4.8975              
20
7.2320              
30
3.5356              
1
 3.536
0
TEXT
8
CO_ORDS
62
3
7
STD
40
0.25
41
1.0
50
0.0
51
0.0
10
4.8975              
20
7.2320              
30
3.5356              
1
 4.897 7.232
0
INSERT
8
POINT
62
2
2
CROSS
10
5.2200              
20
5.9387              
30
4.7822              
41
0.002
42
0.002
43
0.002
50
0.0
0
TEXT
8
CODE
62
3
7
STD
40
0.25
41
1.0
50
0.0
51
0.0
10
5.2200              
20
5.9387              
30
4.7822              
1
 DUK
0
TEXT
8
PT_ID
62
3
7
STD
40
0.25
41
1.0
50
0.0
51
0.0
10
5.2200              
20
5.9387              
30
4.7822              
1
 A43
0
TEXT
8
HEIGHT
62
3
7
STD
40
0.25
41
1.0
50
0.0
51
0.0
10
5.2200              
20
5.9387              
30
4.7822              
1
 4.782
0
TEXT
8
CO_ORDS
62
3
7
STD
40
0.25
41
1.0
50
0.0
51
0.0
10
5.2200              
20
5.9387              
30
4.7822              
1
 5.220 5.939
0
INSERT
8
POINT
62
2
2
CROSS
10
2.3076              
20
5.3000              
30
4.8012              
41
0.002
42
0.002
43
0.002
50
0.0
0
TEXT
8
CODE
62
3
7
STD
40
0.25
41
1.0
50
0.0
51
0.0
10
2.3076              
20
5.3000              
30
4.8012              
1
 DUK
0
TEXT
8
PT_ID
62
3
7
STD
40
0.25
41
1.0
50
0.0
51
0.0
10
2.3076              
20
5.3000              
30
4.8012              
1
 A44
0
TEXT
8
HEIGHT
62
3
7
STD
40
0.25
41
1.0
50
0.0
51
0.0
10
2.3076              
20
5.3000              
30
4.8012              
1
 4.801
0
TEXT
8
CO_ORDS
62
3
7
STD
40
0.25
41
1.0
50
0.0
51
0.0
10
2.3076              
20
5.3000              
30
4.8012              
1
 2.308 5.300
0
INSERT
8
POINT
62
2
2
CROSS
10
0.4828              
20
4.9327              
30
4.7823              
41
0.002
42
0.002
43
0.002
50
0.0
0
TEXT
8
CODE
62
3
7
STD
40
0.25
41
1.0
50
0.0
51
0.0
10
0.4828              
20
4.9327              
30
4.7823              
1
 DUK
0
TEXT
8
PT_ID
62
3
7
STD
40
0.25
41
1.0
50
0.0
51
0.0
10
0.4828              
20
4.9327              
30
4.7823              
1
 A45
0
TEXT
8
HEIGHT
62
3
7
STD
40
0.25
41
1.0
50
0.0
51
0.0
10
0.4828              
20
4.9327              
30
4.7823              
1
 4.782
0
TEXT
8
CO_ORDS
62
3
7
STD
40
0.25
41
1.0
50
0.0
51
0.0
10
0.4828              
20
4.9327              
30
4.7823              
1
 0.483 4.933
0
INSERT
8
POINT
62
2
2
CROSS
10
-2.6465             
20
6.3756              
30
3.7346              
41
0.002
42
0.002
43
0.002
50
0.0
0
TEXT
8
CODE
62
3
7
STD
40
0.25
41
1.0
50
0.0
51
0.0
10
-2.6465             
20
6.3756              
30
3.7346              
1
 WAND
0
TEXT
8
PT_ID
62
3
7
STD
40
0.25
41
1.0
50
0.0
51
0.0
10
-2.6465             
20
6.3756              
30
3.7346              
1
 A46
0
TEXT
8
HEIGHT
62
3
7
STD
40
0.25
41
1.0
50
0.0
51
0.0
10
-2.6465             
20
6.3756              
30
3.7346              
1
 3.735
0
TEXT
8
CO_ORDS
62
3
7
STD
40
0.25
41
1.0
50
0.0
51
0.0
10
-2.6465             
20
6.3756              
30
3.7346              
1
 -2.646 6.376
0
INSERT
8
POINT
62
2
2
CROSS
10
-2.6465             
20
7.1086              
30
3.7655              
41
0.002
42
0.002
43
0.002
50
0.0
0
TEXT
8
CODE
62
3
7
STD
40
0.25
41
1.0
50
0.0
51
0.0
10
-2.6465             
20
7.1086              
30
3.7655              
1
 WAND
0
TEXT
8
PT_ID
62
3
7
STD
40
0.25
41
1.0
50
0.0
51
0.0
10
-2.6465             
20
7.1086              
30
3.7655              
1
 A47
0
TEXT
8
HEIGHT
62
3
7
STD
40
0.25
41
1.0
50
0.0
51
0.0
10
-2.6465             
20
7.1086              
30
3.7655              
1
 3.765
0
TEXT
8
CO_ORDS
62
3
7
STD
40
0.25
41
1.0
50
0.0
51
0.0
10
-2.6465             
20
7.1086              
30
3.7655              
1
 -2.647 7.109
0
INSERT
8
POINT
62
2
2
CROSS
10
-2.4827             
20
7.1629              
30
3.7494              
41
0.002
42
0.002
43
0.002
50
0.0
0
TEXT
8
CODE
62
3
7
STD
40
0.25
41
1.0
50
0.0
51
0.0
10
-2.4827             
20
7.1629              
30
3.7494              
1
 WAND
0
TEXT
8
PT_ID
62
3
7
STD
40
0.25
41
1.0
50
0.0
51
0.0
10
-2.4827             
20
7.1629              
30
3.7494              
1
 A48
0
TEXT
8
HEIGHT
62
3
7
STD
40
0.25
41
1.0
50
0.0
51
0.0
10
-2.4827             
20
7.1629              
30
3.7494              
1
 3.749
0
TEXT
8
CO_ORDS
62
3
7
STD
40
0.25
41
1.0
50
0.0
51
0.0
10
-2.4827             
20
7.1629              
30
3.7494              
1
 -2.483 7.163
0
INSERT
8
POINT
62
2
2
CROSS
10
-1.2835             
20
7.1601              
30
3.6750              
41
0.002
42
0.002
43
0.002
50
0.0
0
TEXT
8
CODE
62
3
7
STD
40
0.25
41
1.0
50
0.0
51
0.0
10
-1.2835             
20
7.1601              
30
3.6750              
1
 WAND
0
TEXT
8
PT_ID
62
3
7
STD
40
0.25
41
1.0
50
0.0
51
0.0
10
-1.2835             
20
7.1601              
30
3.6750              
1
 A49
0
TEXT
8
HEIGHT
62
3
7
STD
40
0.25
41
1.0
50
0.0
51
0.0
10
-1.2835             
20
7.1601              
30
3.6750              
1
 3.675
0
TEXT
8
CO_ORDS
62
3
7
STD
40
0.25
41
1.0
50
0.0
51
0.0
10
-1.2835             
20
7.1601              
30
3.6750              
1
 -1.283 7.160
0
INSERT
8
POINT
62
2
2
CROSS
10
-0.5841             
20
9.4818              
30
3.6635              
41
0.002
42
0.002
43
0.002
50
0.0
0
TEXT
8
CODE
62
3
7
STD
40
0.25
41
1.0
50
0.0
51
0.0
10
-0.5841             
20
9.4818              
30
3.6635              
1
 WAND
0
TEXT
8
PT_ID
62
3
7
STD
40
0.25
41
1.0
50
0.0
51
0.0
10
-0.5841             
20
9.4818              
30
3.6635              
1
 A50
0
TEXT
8
HEIGHT
62
3
7
STD
40
0.25
41
1.0
50
0.0
51
0.0
10
-0.5841             
20
9.4818              
30
3.6635              
1
 3.663
0
TEXT
8
CO_ORDS
62
3
7
STD
40
0.25
41
1.0
50
0.0
51
0.0
10
-0.5841             
20
9.4818              
30
3.6635              
1
 -0.584 9.482
0
INSERT
8
POINT
62
2
2
CROSS
10
0.4772              
20
9.4666              
30
3.6388              
41
0.002
42
0.002
43
0.002
50
0.0
0
TEXT
8
CODE
62
3
7
STD
40
0.25
41
1.0
50
0.0
51
0.0
10
0.4772              
20
9.4666              
30
3.6388              
1
 WAND
0
TEXT
8
PT_ID
62
3
7
STD
40
0.25
41
1.0
50
0.0
51
0.0
10
0.4772              
20
9.4666              
30
3.6388              
1
 A51
0
TEXT
8
HEIGHT
62
3
7
STD
40
0.25
41
1.0
50
0.0
51
0.0
10
0.4772              
20
9.4666              
30
3.6388              
1
 3.639
0
TEXT
8
CO_ORDS
62
3
7
STD
40
0.25
41
1.0
50
0.0
51
0.0
10
0.4772              
20
9.4666              
30
3.6388              
1
 0.477 9.467
0
INSERT
8
POINT
62
2
2
CROSS
10
0.3977              
20
9.5064              
30
3.4057              
41
0.002
42
0.002
43
0.002
50
0.0
0
TEXT
8
CODE
62
3
7
STD
40
0.25
41
1.0
50
0.0
51
0.0
10
0.3977              
20
9.5064              
30
3.4057              
1
 TUR
0
TEXT
8
PT_ID
62
3
7
STD
40
0.25
41
1.0
50
0.0
51
0.0
10
0.3977              
20
9.5064              
30
3.4057              
1
 A52
0
TEXT
8
HEIGHT
62
3
7
STD
40
0.25
41
1.0
50
0.0
51
0.0
10
0.3977              
20
9.5064              
30
3.4057              
1
 3.406
0
TEXT
8
CO_ORDS
62
3
7
STD
40
0.25
41
1.0
50
0.0
51
0.0
10
0.3977              
20
9.5064              
30
3.4057              
1
 0.398 9.506
0
INSERT
8
POINT
62
2
2
CROSS
10
0.6231              
20
-1.0318             
30
-0.0017             
41
0.002
42
0.002
43
0.002
50
0.0
0
TEXT
8
CODE
62
3
7
STD
40
0.25
41
1.0
50
0.0
51
0.0
10
0.6231              
20
-1.0318             
30
-0.0017             
1
 TUR
0
TEXT
8
PT_ID
62
3
7
STD
40
0.25
41
1.0
50
0.0
51
0.0
10
0.6231              
20
-1.0318             
30
-0.0017             
1
 A53
0
TEXT
8
HEIGHT
62
3
7
STD
40
0.25
41
1.0
50
0.0
51
0.0
10
0.6231              
20
-1.0318             
30
-0.0017             
1
 -0.002
0
TEXT
8
CO_ORDS
62
3
7
STD
40
0.25
41
1.0
50
0.0
51
0.0
10
0.6231              
20
-1.0318             
30
-0.0017             
1
 0.623 -1.032
0
INSERT
8
POINT
62
2
2
CROSS
10
0.6231              
20
-1.0320             
30
-0.0017             
41
0.002
42
0.002
43
0.002
50
0.0
0
TEXT
8
CODE
62
3
7
STD
40
0.25
41
1.0
50
0.0
51
0.0
10
0.6231              
20
-1.0320             
30
-0.0017             
1
 BH
0
TEXT
8
PT_ID
62
3
7
STD
40
0.25
41
1.0
50
0.0
51
0.0
10
0.6231              
20
-1.0320             
30
-0.0017             
1
 A54
0
TEXT
8
HEIGHT
62
3
7
STD
40
0.25
41
1.0
50
0.0
51
0.0
10
0.6231              
20
-1.0320             
30
-0.0017             
1
 -0.002
0
TEXT
8
CO_ORDS
62
3
7
STD
40
0.25
41
1.0
50
0.0
51
0.0
10
0.6231              
20
-1.0320             
30
-0.0017             
1
 0.623 -1.032
0
INSERT
8
POINT
62
2
2
CROSS
10
0.6902              
20
3.8766              
30
1.5402              
41
0.002
42
0.002
43
0.002
50
0.0
0
TEXT
8
CODE
62
3
7
STD
40
0.25
41
1.0
50
0.0
51
0.0
10
0.6902              
20
3.8766              
30
1.5402              
1
 BH
0
TEXT
8
PT_ID
62
3
7
STD
40
0.25
41
1.0
50
0.0
51
0.0
10
0.6902              
20
3.8766              
30
1.5402              
1
 A55
0
TEXT
8
HEIGHT
62
3
7
STD
40
0.25
41
1.0
50
0.0
51
0.0
10
0.6902              
20
3.8766              
30
1.5402              
1
 1.540
0
TEXT
8
CO_ORDS
62
3
7
STD
40
0.25
41
1.0
50
0.0
51
0.0
10
0.6902              
20
3.8766              
30
1.5402              
1
 0.690 3.877
0
INSERT
8
POINT
62
2
2
CROSS
10
2.7942              
20
5.9285              
30
1.5249              
41
0.002
42
0.002
43
0.002
50
0.0
0
TEXT
8
CODE
62
3
7
STD
40
0.25
41
1.0
50
0.0
51
0.0
10
2.7942              
20
5.9285              
30
1.5249              
1
 BH
0
TEXT
8
PT_ID
62
3
7
STD
40
0.25
41
1.0
50
0.0
51
0.0
10
2.7942              
20
5.9285              
30
1.5249              
1
 A56
0
TEXT
8
HEIGHT
62
3
7
STD
40
0.25
41
1.0
50
0.0
51
0.0
10
2.7942              
20
5.9285              
30
1.5249              
1
 1.525
0
TEXT
8
CO_ORDS
62
3
7
STD
40
0.25
41
1.0
50
0.0
51
0.0
10
2.7942              
20
5.9285              
30
1.5249              
1
 2.794 5.928
0
INSERT
8
POINT
62
2
2
CROSS
10
13.8373             
20
5.2994              
30
1.5353              
41
0.002
42
0.002
43
0.002
50
0.0
0
TEXT
8
CODE
62
3
7
STD
40
0.25
41
1.0
50
0.0
51
0.0
10
13.8373             
20
5.2994              
30
1.5353              
1
 BH
0
TEXT
8
PT_ID
62
3
7
STD
40
0.25
41
1.0
50
0.0
51
0.0
10
13.8373             
20
5.2994              
30
1.5353              
1
 A57
0
TEXT
8
HEIGHT
62
3
7
STD
40
0.25
41
1.0
50
0.0
51
0.0
10
13.8373             
20
5.2994              
30
1.5353              
1
 1.535
0
TEXT
8
CO_ORDS
62
3
7
STD
40
0.25
41
1.0
50
0.0
51
0.0
10
13.8373             
20
5.2994              
30
1.5353              
1
 13.837 5.299
0
INSERT
8
POINT
62
2
2
CROSS
10
17.2670             
20
6.2465              
30
1.2641              
41
0.002
42
0.002
43
0.002
50
0.0
0
TEXT
8
CODE
62
3
7
STD
40
0.25
41
1.0
50
0.0
51
0.0
10
17.2670             
20
6.2465              
30
1.2641              
1
 BH
0
TEXT
8
PT_ID
62
3
7
STD
40
0.25
41
1.0
50
0.0
51
0.0
10
17.2670             
20
6.2465              
30
1.2641              
1
 A58
0
TEXT
8
HEIGHT
62
3
7
STD
40
0.25
41
1.0
50
0.0
51
0.0
10
17.2670             
20
6.2465              
30
1.2641              
1
 1.264
0
TEXT
8
CO_ORDS
62
3
7
STD
40
0.25
41
1.0
50
0.0
51
0.0
10
17.2670             
20
6.2465              
30
1.2641              
1
 17.267 6.247
0
INSERT
8
POINT
62
2
2
CROSS
10
20.4914             
20
6.6668              
30
1.2526              
41
0.002
42
0.002
43
0.002
50
0.0
0
TEXT
8
CODE
62
3
7
STD
40
0.25
41
1.0
50
0.0
51
0.0
10
20.4914             
20
6.6668              
30
1.2526              
1
 BH
0
TEXT
8
PT_ID
62
3
7
STD
40
0.25
41
1.0
50
0.0
51
0.0
10
20.4914             
20
6.6668              
30
1.2526              
1
 A59
0
TEXT
8
HEIGHT
62
3
7
STD
40
0.25
41
1.0
50
0.0
51
0.0
10
20.4914             
20
6.6668              
30
1.2526              
1
 1.253
0
TEXT
8
CO_ORDS
62
3
7
STD
40
0.25
41
1.0
50
0.0
51
0.0
10
20.4914             
20
6.6668              
30
1.2526              
1
 20.491 6.667
0
INSERT
8
POINT
62
2
2
CROSS
10
18.3274             
20
7.0903              
30
3.5937              
41
0.002
42
0.002
43
0.002
50
0.0
0
TEXT
8
CODE
62
3
7
STD
40
0.25
41
1.0
50
0.0
51
0.0
10
18.3274             
20
7.0903              
30
3.5937              
1
 HOLZ
0
TEXT
8
PT_ID
62
3
7
STD
40
0.25
41
1.0
50
0.0
51
0.0
10
18.3274             
20
7.0903              
30
3.5937              
1
 A60
0
TEXT
8
HEIGHT
62
3
7
STD
40
0.25
41
1.0
50
0.0
51
0.0
10
18.3274             
20
7.0903              
30
3.5937              
1
 3.594
0
TEXT
8
CO_ORDS
62
3
7
STD
40
0.25
41
1.0
50
0.0
51
0.0
10
18.3274             
20
7.0903              
30
3.5937              
1
 18.327 7.090
0
INSERT
8
POINT
62
2
2
CROSS
10
18.2206             
20
5.9767              
30
3.5798              
41
0.002
42
0.002
43
0.002
50
0.0
0
TEXT
8
CODE
62
3
7
STD
40
0.25
41
1.0
50
0.0
51
0.0
10
18.2206             
20
5.9767              
30
3.5798              
1
 HOLZ
0
TEXT
8
PT_ID
62
3
7
STD
40
0.25
41
1.0
50
0.0
51
0.0
10
18.2206             
20
5.9767              
30
3.5798              
1
 A61
0
TEXT
8
HEIGHT
62
3
7
STD
40
0.25
41
1.0
50
0.0
51
0.0
10
18.2206             
20
5.9767              
30
3.5798              
1
 3.580
0
TEXT
8
CO_ORDS
62
3
7
STD
40
0.25
41
1.0
50
0.0
51
0.0
10
18.2206             
20
5.9767              
30
3.5798              
1
 18.221 5.977
0
INSERT
8
POINT
62
2
2
CROSS
10
18.2198             
20
5.8114              
30
3.5794              
41
0.002
42
0.002
43
0.002
50
0.0
0
TEXT
8
CODE
62
3
7
STD
40
0.25
41
1.0
50
0.0
51
0.0
10
18.2198             
20
5.8114              
30
3.5794              
1
 HOLZ
0
TEXT
8
PT_ID
62
3
7
STD
40
0.25
41
1.0
50
0.0
51
0.0
10
18.2198             
20
5.8114              
30
3.5794              
1
 A62
0
TEXT
8
HEIGHT
62
3
7
STD
40
0.25
41
1.0
50
0.0
51
0.0
10
18.2198             
20
5.8114              
30
3.5794              
1
 3.579
0
TEXT
8
CO_ORDS
62
3
7
STD
40
0.25
41
1.0
50
0.0
51
0.0
10
18.2198             
20
5.8114              
30
3.5794              
1
 18.220 5.811
0
INSERT
8
POINT
62
2
2
CROSS
10
18.3146             
20
5.7510              
30
3.5818              
41
0.002
42
0.002
43
0.002
50
0.0
0
TEXT
8
CODE
62
3
7
STD
40
0.25
41
1.0
50
0.0
51
0.0
10
18.3146             
20
5.7510              
30
3.5818              
1
 HOLZ
0
TEXT
8
PT_ID
62
3
7
STD
40
0.25
41
1.0
50
0.0
51
0.0
10
18.3146             
20
5.7510              
30
3.5818              
1
 A63
0
TEXT
8
HEIGHT
62
3
7
STD
40
0.25
41
1.0
50
0.0
51
0.0
10
18.3146             
20
5.7510              
30
3.5818              
1
 3.582
0
TEXT
8
CO_ORDS
62
3
7
STD
40
0.25
41
1.0
50
0.0
51
0.0
10
18.3146             
20
5.7510              
30
3.5818              
1
 18.315 5.751
0
INSERT
8
POINT
62
2
2
CROSS
10
27.5947             
20
5.3777              
30
2.1178              
41
0.002
42
0.002
43
0.002
50
0.0
0
TEXT
8
CODE
62
3
7
STD
40
0.25
41
1.0
50
0.0
51
0.0
10
27.5947             
20
5.3777              
30
2.1178              
1
 MM
0
TEXT
8
PT_ID
62
3
7
STD
40
0.25
41
1.0
50
0.0
51
0.0
10
27.5947             
20
5.3777              
30
2.1178              
1
 P
0
TEXT
8
HEIGHT
62
3
7
STD
40
0.25
41
1.0
50
0.0
51
0.0
10
27.5947             
20
5.3777              
30
2.1178              
1
 2.118
0
TEXT
8
CO_ORDS
62
3
7
STD
40
0.25
41
1.0
50
0.0
51
0.0
10
27.5947             
20
5.3777              
30
2.1178              
1
 27.595 5.378
0
INSERT
8
POINT
62
2
2
CROSS
10
-0.0338             
20
5.6709              
30
3.2466              
41
0.002
42
0.002
43
0.002
50
0.0
0
TEXT
8
CODE
62
3
7
STD
40
0.25
41
1.0
50
0.0
51
0.0
10
-0.0338             
20
5.6709              
30
3.2466              
1
 MM
0
TEXT
8
PT_ID
62
3
7
STD
40
0.25
41
1.0
50
0.0
51
0.0
10
-0.0338             
20
5.6709              
30
3.2466              
1
 P1
0
TEXT
8
HEIGHT
62
3
7
STD
40
0.25
41
1.0
50
0.0
51
0.0
10
-0.0338             
20
5.6709              
30
3.2466              
1
 3.247
0
TEXT
8
CO_ORDS
62
3
7
STD
40
0.25
41
1.0
50
0.0
51
0.0
10
-0.0338             
20
5.6709              
30
3.2466              
1
 -0.034 5.671
0
INSERT
8
POINT
62
2
2
CROSS
10
8.5065              
20
1.6276              
30
3.2924              
41
0.002
42
0.002
43
0.002
50
0.0
0
TEXT
8
CODE
62
3
7
STD
40
0.25
41
1.0
50
0.0
51
0.0
10
8.5065              
20
1.6276              
30
3.2924              
1
 WAND
0
TEXT
8
PT_ID
62
3
7
STD
40
0.25
41
1.0
50
0.0
51
0.0
10
8.5065              
20
1.6276              
30
3.2924              
1
 A64
0
TEXT
8
HEIGHT
62
3
7
STD
40
0.25
41
1.0
50
0.0
51
0.0
10
8.5065              
20
1.6276              
30
3.2924              
1
 3.292
0
TEXT
8
CO_ORDS
62
3
7
STD
40
0.25
41
1.0
50
0.0
51
0.0
10
8.5065              
20
1.6276              
30
3.2924              
1
 8.507 1.628
0
INSERT
8
POINT
62
2
2
CROSS
10
8.5129              
20
-1.8406             
30
3.2268              
41
0.002
42
0.002
43
0.002
50
0.0
0
TEXT
8
CODE
62
3
7
STD
40
0.25
41
1.0
50
0.0
51
0.0
10
8.5129              
20
-1.8406             
30
3.2268              
1
 WAND
0
TEXT
8
PT_ID
62
3
7
STD
40
0.25
41
1.0
50
0.0
51
0.0
10
8.5129              
20
-1.8406             
30
3.2268              
1
 A65
0
TEXT
8
HEIGHT
62
3
7
STD
40
0.25
41
1.0
50
0.0
51
0.0
10
8.5129              
20
-1.8406             
30
3.2268              
1
 3.227
0
TEXT
8
CO_ORDS
62
3
7
STD
40
0.25
41
1.0
50
0.0
51
0.0
10
8.5129              
20
-1.8406             
30
3.2268              
1
 8.513 -1.841
0
INSERT
8
POINT
62
2
2
CROSS
10
8.4440              
20
-1.9965             
30
3.2271              
41
0.002
42
0.002
43
0.002
50
0.0
0
TEXT
8
CODE
62
3
7
STD
40
0.25
41
1.0
50
0.0
51
0.0
10
8.4440              
20
-1.9965             
30
3.2271              
1
 WAND
0
TEXT
8
PT_ID
62
3
7
STD
40
0.25
41
1.0
50
0.0
51
0.0
10
8.4440              
20
-1.9965             
30
3.2271              
1
 A66
0
TEXT
8
HEIGHT
62
3
7
STD
40
0.25
41
1.0
50
0.0
51
0.0
10
8.4440              
20
-1.9965             
30
3.2271              
1
 3.227
0
TEXT
8
CO_ORDS
62
3
7
STD
40
0.25
41
1.0
50
0.0
51
0.0
10
8.4440              
20
-1.9965             
30
3.2271              
1
 8.444 -1.997
0
INSERT
8
POINT
62
2
2
CROSS
10
4.2019              
20
-1.9605             
30
3.2249              
41
0.002
42
0.002
43
0.002
50
0.0
0
TEXT
8
CODE
62
3
7
STD
40
0.25
41
1.0
50
0.0
51
0.0
10
4.2019              
20
-1.9605             
30
3.2249              
1
 WAND
0
TEXT
8
PT_ID
62
3
7
STD
40
0.25
41
1.0
50
0.0
51
0.0
10
4.2019              
20
-1.9605             
30
3.2249              
1
 A67
0
TEXT
8
HEIGHT
62
3
7
STD
40
0.25
41
1.0
50
0.0
51
0.0
10
4.2019              
20
-1.9605             
30
3.2249              
1
 3.225
0
TEXT
8
CO_ORDS
62
3
7
STD
40
0.25
41
1.0
50
0.0
51
0.0
10
4.2019              
20
-1.9605             
30
3.2249              
1
 4.202 -1.961
0
INSERT
8
POINT
62
2
2
CROSS
10
4.7928              
20
5.0700              
30
3.2100              
41
0.002
42
0.002
43
0.002
50
0.0
0
TEXT
8
CODE
62
3
7
STD
40
0.25
41
1.0
50
0.0
51
0.0
10
4.7928              
20
5.0700              
30
3.2100              
1
 TUR
0
TEXT
8
PT_ID
62
3
7
STD
40
0.25
41
1.0
50
0.0
51
0.0
10
4.7928              
20
5.0700              
30
3.2100              
1
 A68
0
TEXT
8
HEIGHT
62
3
7
STD
40
0.25
41
1.0
50
0.0
51
0.0
10
4.7928              
20
5.0700              
30
3.2100              
1
 3.210
0
TEXT
8
CO_ORDS
62
3
7
STD
40
0.25
41
1.0
50
0.0
51
0.0
10
4.7928              
20
5.0700              
30
3.2100              
1
 4.793 5.070
0
INSERT
8
POINT
62
2
2
CROSS
10
5.5919              
20
5.0576              
30
3.2122              
41
0.002
42
0.002
43
0.002
50
0.0
0
TEXT
8
CODE
62
3
7
STD
40
0.25
41
1.0
50
0.0
51
0.0
10
5.5919              
20
5.0576              
30
3.2122              
1
 TUR
0
TEXT
8
PT_ID
62
3
7
STD
40
0.25
41
1.0
50
0.0
51
0.0
10
5.5919              
20
5.0576              
30
3.2122              
1
 A69
0
TEXT
8
HEIGHT
62
3
7
STD
40
0.25
41
1.0
50
0.0
51
0.0
10
5.5919              
20
5.0576              
30
3.2122              
1
 3.212
0
TEXT
8
CO_ORDS
62
3
7
STD
40
0.25
41
1.0
50
0.0
51
0.0
10
5.5919              
20
5.0576              
30
3.2122              
1
 5.592 5.058
0
INSERT
8
POINT
62
2
2
CROSS
10
5.1772              
20
5.0547              
30
3.5137              
41
0.002
42
0.002
43
0.002
50
0.0
0
TEXT
8
CODE
62
3
7
STD
40
0.25
41
1.0
50
0.0
51
0.0
10
5.1772              
20
5.0547              
30
3.5137              
1
 TUR
0
TEXT
8
PT_ID
62
3
7
STD
40
0.25
41
1.0
50
0.0
51
0.0
10
5.1772              
20
5.0547              
30
3.5137              
1
 A70
0
TEXT
8
HEIGHT
62
3
7
STD
40
0.25
41
1.0
50
0.0
51
0.0
10
5.1772              
20
5.0547              
30
3.5137              
1
 3.514
0
TEXT
8
CO_ORDS
62
3
7
STD
40
0.25
41
1.0
50
0.0
51
0.0
10
5.1772              
20
5.0547              
30
3.5137              
1
 5.177 5.055
0
INSERT
8
POINT
62
2
2
CROSS
10
5.5045              
20
1.1153              
30
4.7637              
41
0.002
42
0.002
43
0.002
50
0.0
0
TEXT
8
CODE
62
3
7
STD
40
0.25
41
1.0
50
0.0
51
0.0
10
5.5045              
20
1.1153              
30
4.7637              
1
 DUK
0
TEXT
8
PT_ID
62
3
7
STD
40
0.25
41
1.0
50
0.0
51
0.0
10
5.5045              
20
1.1153              
30
4.7637              
1
 A71
0
TEXT
8
HEIGHT
62
3
7
STD
40
0.25
41
1.0
50
0.0
51
0.0
10
5.5045              
20
1.1153              
30
4.7637              
1
 4.764
0
TEXT
8
CO_ORDS
62
3
7
STD
40
0.25
41
1.0
50
0.0
51
0.0
10
5.5045              
20
1.1153              
30
4.7637              
1
 5.505 1.115
0
INSERT
8
POINT
62
2
2
CROSS
10
4.6076              
20
0.9721              
30
4.8006              
41
0.002
42
0.002
43
0.002
50
0.0
0
TEXT
8
CODE
62
3
7
STD
40
0.25
41
1.0
50
0.0
51
0.0
10
4.6076              
20
0.9721              
30
4.8006              
1
 DUK
0
TEXT
8
PT_ID
62
3
7
STD
40
0.25
41
1.0
50
0.0
51
0.0
10
4.6076              
20
0.9721              
30
4.8006              
1
 A72
0
TEXT
8
HEIGHT
62
3
7
STD
40
0.25
41
1.0
50
0.0
51
0.0
10
4.6076              
20
0.9721              
30
4.8006              
1
 4.801
0
TEXT
8
CO_ORDS
62
3
7
STD
40
0.25
41
1.0
50
0.0
51
0.0
10
4.6076              
20
0.9721              
30
4.8006              
1
 4.608 0.972
0
INSERT
8
POINT
62
2
2
CROSS
10
4.9708              
20
-2.0757             
30
4.1464              
41
0.002
42
0.002
43
0.002
50
0.0
0
TEXT
8
CODE
62
3
7
STD
40
0.25
41
1.0
50
0.0
51
0.0
10
4.9708              
20
-2.0757             
30
4.1464              
1
 UK
0
TEXT
8
PT_ID
62
3
7
STD
40
0.25
41
1.0
50
0.0
51
0.0
10
4.9708              
20
-2.0757             
30
4.1464              
1
 A73
0
TEXT
8
HEIGHT
62
3
7
STD
40
0.25
41
1.0
50
0.0
51
0.0
10
4.9708              
20
-2.0757             
30
4.1464              
1
 4.146
0
TEXT
8
CO_ORDS
62
3
7
STD
40
0.25
41
1.0
50
0.0
51
0.0
10
4.9708              
20
-2.0757             
30
4.1464              
1
 4.971 -2.076
0
INSERT
8
POINT
62
2
2
CROSS
10
5.7129              
20
-2.1280             
30
4.3645              
41
0.002
42
0.002
43
0.002
50
0.0
0
TEXT
8
CODE
62
3
7
STD
40
0.25
41
1.0
50
0.0
51
0.0
10
5.7129              
20
-2.1280             
30
4.3645              
1
 UK
0
TEXT
8
PT_ID
62
3
7
STD
40
0.25
41
1.0
50
0.0
51
0.0
10
5.7129              
20
-2.1280             
30
4.3645              
1
 A74
0
TEXT
8
HEIGHT
62
3
7
STD
40
0.25
41
1.0
50
0.0
51
0.0
10
5.7129              
20
-2.1280             
30
4.3645              
1
 4.365
0
TEXT
8
CO_ORDS
62
3
7
STD
40
0.25
41
1.0
50
0.0
51
0.0
10
5.7129              
20
-2.1280             
30
4.3645              
1
 5.713 -2.128
0
INSERT
8
POINT
62
2
2
CROSS
10
6.0113              
20
-2.0642             
30
4.3855              
41
0.002
42
0.002
43
0.002
50
0.0
0
TEXT
8
CODE
62
3
7
STD
40
0.25
41
1.0
50
0.0
51
0.0
10
6.0113              
20
-2.0642             
30
4.3855              
1
 UK
0
TEXT
8
PT_ID
62
3
7
STD
40
0.25
41
1.0
50
0.0
51
0.0
10
6.0113              
20
-2.0642             
30
4.3855              
1
 A75
0
TEXT
8
HEIGHT
62
3
7
STD
40
0.25
41
1.0
50
0.0
51
0.0
10
6.0113              
20
-2.0642             
30
4.3855              
1
 4.385
0
TEXT
8
CO_ORDS
62
3
7
STD
40
0.25
41
1.0
50
0.0
51
0.0
10
6.0113              
20
-2.0642             
30
4.3855              
1
 6.011 -2.064
0
INSERT
8
POINT
62
2
2
CROSS
10
6.7285              
20
-2.1308             
30
4.2875              
41
0.002
42
0.002
43
0.002
50
0.0
0
TEXT
8
CODE
62
3
7
STD
40
0.25
41
1.0
50
0.0
51
0.0
10
6.7285              
20
-2.1308             
30
4.2875              
1
 UK
0
TEXT
8
PT_ID
62
3
7
STD
40
0.25
41
1.0
50
0.0
51
0.0
10
6.7285              
20
-2.1308             
30
4.2875              
1
 A76
0
TEXT
8
HEIGHT
62
3
7
STD
40
0.25
41
1.0
50
0.0
51
0.0
10
6.7285              
20
-2.1308             
30
4.2875              
1
 4.288
0
TEXT
8
CO_ORDS
62
3
7
STD
40
0.25
41
1.0
50
0.0
51
0.0
10
6.7285              
20
-2.1308             
30
4.2875              
1
 6.729 -2.131
0
INSERT
8
POINT
62
2
2
CROSS
10
7.1198              
20
-2.1237             
30
4.1417              
41
0.002
42
0.002
43
0.002
50
0.0
0
TEXT
8
CODE
62
3
7
STD
40
0.25
41
1.0
50
0.0
51
0.0
10
7.1198              
20
-2.1237             
30
4.1417              
1
 UK
0
TEXT
8
PT_ID
62
3
7
STD
40
0.25
41
1.0
50
0.0
51
0.0
10
7.1198              
20
-2.1237             
30
4.1417              
1
 A77
0
TEXT
8
HEIGHT
62
3
7
STD
40
0.25
41
1.0
50
0.0
51
0.0
10
7.1198              
20
-2.1237             
30
4.1417              
1
 4.142
0
TEXT
8
CO_ORDS
62
3
7
STD
40
0.25
41
1.0
50
0.0
51
0.0
10
7.1198              
20
-2.1237             
30
4.1417              
1
 7.120 -2.124
0
INSERT
8
POINT
62
2
2
CROSS
10
7.5288              
20
-0.2896             
30
1.5349              
41
0.002
42
0.002
43
0.002
50
0.0
0
TEXT
8
CODE
62
3
7
STD
40
0.25
41
1.0
50
0.0
51
0.0
10
7.5288              
20
-0.2896             
30
1.5349              
1
 BH
0
TEXT
8
PT_ID
62
3
7
STD
40
0.25
41
1.0
50
0.0
51
0.0
10
7.5288              
20
-0.2896             
30
1.5349              
1
 A78
0
TEXT
8
HEIGHT
62
3
7
STD
40
0.25
41
1.0
50
0.0
51
0.0
10
7.5288              
20
-0.2896             
30
1.5349              
1
 1.535
0
TEXT
8
CO_ORDS
62
3
7
STD
40
0.25
41
1.0
50
0.0
51
0.0
10
7.5288              
20
-0.2896             
30
1.5349              
1
 7.529 -0.290
0
INSERT
8
POINT
62
2
2
CROSS
10
5.2039              
20
4.2459              
30
1.5341              
41
0.002
42
0.002
43
0.002
50
0.0
0
TEXT
8
CODE
62
3
7
STD
40
0.25
41
1.0
50
0.0
51
0.0
10
5.2039              
20
4.2459              
30
1.5341              
1
 BH
0
TEXT
8
PT_ID
62
3
7
STD
40
0.25
41
1.0
50
0.0
51
0.0
10
5.2039              
20
4.2459              
30
1.5341              
1
 A79
0
TEXT
8
HEIGHT
62
3
7
STD
40
0.25
41
1.0
50
0.0
51
0.0
10
5.2039              
20
4.2459              
30
1.5341              
1
 1.534
0
TEXT
8
CO_ORDS
62
3
7
STD
40
0.25
41
1.0
50
0.0
51
0.0
10
5.2039              
20
4.2459              
30
1.5341              
1
 5.204 4.246
0
INSERT
8
POINT
62
2
2
CROSS
10
13.1975             
20
5.0333              
30
4.0559              
41
0.002
42
0.002
43
0.002
50
0.0
0
TEXT
8
CODE
62
3
7
STD
40
0.25
41
1.0
50
0.0
51
0.0
10
13.1975             
20
5.0333              
30
4.0559              
1
 WAND
0
TEXT
8
PT_ID
62
3
7
STD
40
0.25
41
1.0
50
0.0
51
0.0
10
13.1975             
20
5.0333              
30
4.0559              
1
 A80
0
TEXT
8
HEIGHT
62
3
7
STD
40
0.25
41
1.0
50
0.0
51
0.0
10
13.1975             
20
5.0333              
30
4.0559              
1
 4.056
0
TEXT
8
CO_ORDS
62
3
7
STD
40
0.25
41
1.0
50
0.0
51
0.0
10
13.1975             
20
5.0333              
30
4.0559              
1
 13.197 5.033
0
INSERT
8
POINT
62
2
2
CROSS
10
6.2215              
20
5.0837              
30
3.6616              
41
0.002
42
0.002
43
0.002
50
0.0
0
TEXT
8
CODE
62
3
7
STD
40
0.25
41
1.0
50
0.0
51
0.0
10
6.2215              
20
5.0837              
30
3.6616              
1
 WAND
0
TEXT
8
PT_ID
62
3
7
STD
40
0.25
41
1.0
50
0.0
51
0.0
10
6.2215              
20
5.0837              
30
3.6616              
1
 A81
0
TEXT
8
HEIGHT
62
3
7
STD
40
0.25
41
1.0
50
0.0
51
0.0
10
6.2215              
20
5.0837              
30
3.6616              
1
 3.662
0
TEXT
8
CO_ORDS
62
3
7
STD
40
0.25
41
1.0
50
0.0
51
0.0
10
6.2215              
20
5.0837              
30
3.6616              
1
 6.221 5.084
0
INSERT
8
POINT
62
2
2
CROSS
10
3.1844              
20
5.1074              
30
3.7882              
41
0.002
42
0.002
43
0.002
50
0.0
0
TEXT
8
CODE
62
3
7
STD
40
0.25
41
1.0
50
0.0
51
0.0
10
3.1844              
20
5.1074              
30
3.7882              
1
 WAND
0
TEXT
8
PT_ID
62
3
7
STD
40
0.25
41
1.0
50
0.0
51
0.0
10
3.1844              
20
5.1074              
30
3.7882              
1
 A82
0
TEXT
8
HEIGHT
62
3
7
STD
40
0.25
41
1.0
50
0.0
51
0.0
10
3.1844              
20
5.1074              
30
3.7882              
1
 3.788
0
TEXT
8
CO_ORDS
62
3
7
STD
40
0.25
41
1.0
50
0.0
51
0.0
10
3.1844              
20
5.1074              
30
3.7882              
1
 3.184 5.107
0
INSERT
8
POINT
62
2
2
CROSS
10
7.1132              
20
7.0775              
30
4.2907              
41
0.002
42
0.002
43
0.002
50
0.0
0
TEXT
8
CODE
62
3
7
STD
40
0.25
41
1.0
50
0.0
51
0.0
10
7.1132              
20
7.0775              
30
4.2907              
1
 WAND
0
TEXT
8
PT_ID
62
3
7
STD
40
0.25
41
1.0
50
0.0
51
0.0
10
7.1132              
20
7.0775              
30
4.2907              
1
 A83
0
TEXT
8
HEIGHT
62
3
7
STD
40
0.25
41
1.0
50
0.0
51
0.0
10
7.1132              
20
7.0775              
30
4.2907              
1
 4.291
0
TEXT
8
CO_ORDS
62
3
7
STD
40
0.25
41
1.0
50
0.0
51
0.0
10
7.1132              
20
7.0775              
30
4.2907              
1
 7.113 7.077
0
INSERT
8
POINT
62
2
2
CROSS
10
3.7663              
20
7.1066              
30
3.9334              
41
0.002
42
0.002
43
0.002
50
0.0
0
TEXT
8
CODE
62
3
7
STD
40
0.25
41
1.0
50
0.0
51
0.0
10
3.7663              
20
7.1066              
30
3.9334              
1
 WAND
0
TEXT
8
PT_ID
62
3
7
STD
40
0.25
41
1.0
50
0.0
51
0.0
10
3.7663              
20
7.1066              
30
3.9334              
1
 A84
0
TEXT
8
HEIGHT
62
3
7
STD
40
0.25
41
1.0
50
0.0
51
0.0
10
3.7663              
20
7.1066              
30
3.9334              
1
 3.933
0
TEXT
8
CO_ORDS
62
3
7
STD
40
0.25
41
1.0
50
0.0
51
0.0
10
3.7663              
20
7.1066              
30
3.9334              
1
 3.766 7.107
0
INSERT
8
POINT
62
2
2
CROSS
10
4.1648              
20
9.1824              
30
3.6651              
41
0.002
42
0.002
43
0.002
50
0.0
0
TEXT
8
CODE
62
3
7
STD
40
0.25
41
1.0
50
0.0
51
0.0
10
4.1648              
20
9.1824              
30
3.6651              
1
 WAND
0
TEXT
8
PT_ID
62
3
7
STD
40
0.25
41
1.0
50
0.0
51
0.0
10
4.1648              
20
9.1824              
30
3.6651              
1
 A85
0
TEXT
8
HEIGHT
62
3
7
STD
40
0.25
41
1.0
50
0.0
51
0.0
10
4.1648              
20
9.1824              
30
3.6651              
1
 3.665
0
TEXT
8
CO_ORDS
62
3
7
STD
40
0.25
41
1.0
50
0.0
51
0.0
10
4.1648              
20
9.1824              
30
3.6651              
1
 4.165 9.182
0
INSERT
8
POINT
62
2
2
CROSS
10
4.1713              
20
9.5729              
30
3.7153              
41
0.002
42
0.002
43
0.002
50
0.0
0
TEXT
8
CODE
62
3
7
STD
40
0.25
41
1.0
50
0.0
51
0.0
10
4.1713              
20
9.5729              
30
3.7153              
1
 WAND
0
TEXT
8
PT_ID
62
3
7
STD
40
0.25
41
1.0
50
0.0
51
0.0
10
4.1713              
20
9.5729              
30
3.7153              
1
 A86
0
TEXT
8
HEIGHT
62
3
7
STD
40
0.25
41
1.0
50
0.0
51
0.0
10
4.1713              
20
9.5729              
30
3.7153              
1
 3.715
0
TEXT
8
CO_ORDS
62
3
7
STD
40
0.25
41
1.0
50
0.0
51
0.0
10
4.1713              
20
9.5729              
30
3.7153              
1
 4.171 9.573
0
INSERT
8
POINT
62
2
2
CROSS
10
4.2012              
20
9.6866              
30
3.7293              
41
0.002
42
0.002
43
0.002
50
0.0
0
TEXT
8
CODE
62
3
7
STD
40
0.25
41
1.0
50
0.0
51
0.0
10
4.2012              
20
9.6866              
30
3.7293              
1
 WAND
0
TEXT
8
PT_ID
62
3
7
STD
40
0.25
41
1.0
50
0.0
51
0.0
10
4.2012              
20
9.6866              
30
3.7293              
1
 A87
0
TEXT
8
HEIGHT
62
3
7
STD
40
0.25
41
1.0
50
0.0
51
0.0
10
4.2012              
20
9.6866              
30
3.7293              
1
 3.729
0
TEXT
8
CO_ORDS
62
3
7
STD
40
0.25
41
1.0
50
0.0
51
0.0
10
4.2012              
20
9.6866              
30
3.7293              
1
 4.201 9.687
0
INSERT
8
POINT
62
2
2
CROSS
10
5.3666              
20
9.6720              
30
3.7232              
41
0.002
42
0.002
43
0.002
50
0.0
0
TEXT
8
CODE
62
3
7
STD
40
0.25
41
1.0
50
0.0
51
0.0
10
5.3666              
20
9.6720              
30
3.7232              
1
 WAND
0
TEXT
8
PT_ID
62
3
7
STD
40
0.25
41
1.0
50
0.0
51
0.0
10
5.3666              
20
9.6720              
30
3.7232              
1
 A88
0
TEXT
8
HEIGHT
62
3
7
STD
40
0.25
41
1.0
50
0.0
51
0.0
10
5.3666              
20
9.6720              
30
3.7232              
1
 3.723
0
TEXT
8
CO_ORDS
62
3
7
STD
40
0.25
41
1.0
50
0.0
51
0.0
10
5.3666              
20
9.6720              
30
3.7232              
1
 5.367 9.672
0
INSERT
8
POINT
62
2
2
CROSS
10
5.6290              
20
13.9104             
30
3.3184              
41
0.002
42
0.002
43
0.002
50
0.0
0
TEXT
8
CODE
62
3
7
STD
40
0.25
41
1.0
50
0.0
51
0.0
10
5.6290              
20
13.9104             
30
3.3184              
1
 WAND
0
TEXT
8
PT_ID
62
3
7
STD
40
0.25
41
1.0
50
0.0
51
0.0
10
5.6290              
20
13.9104             
30
3.3184              
1
 A89
0
TEXT
8
HEIGHT
62
3
7
STD
40
0.25
41
1.0
50
0.0
51
0.0
10
5.6290              
20
13.9104             
30
3.3184              
1
 3.318
0
TEXT
8
CO_ORDS
62
3
7
STD
40
0.25
41
1.0
50
0.0
51
0.0
10
5.6290              
20
13.9104             
30
3.3184              
1
 5.629 13.910
0
INSERT
8
POINT
62
2
2
CROSS
10
4.8729              
20
8.4109              
30
1.5175              
41
0.002
42
0.002
43
0.002
50
0.0
0
TEXT
8
CODE
62
3
7
STD
40
0.25
41
1.0
50
0.0
51
0.0
10
4.8729              
20
8.4109              
30
1.5175              
1
 BH
0
TEXT
8
PT_ID
62
3
7
STD
40
0.25
41
1.0
50
0.0
51
0.0
10
4.8729              
20
8.4109              
30
1.5175              
1
 A90
0
TEXT
8
HEIGHT
62
3
7
STD
40
0.25
41
1.0
50
0.0
51
0.0
10
4.8729              
20
8.4109              
30
1.5175              
1
 1.518
0
TEXT
8
CO_ORDS
62
3
7
STD
40
0.25
41
1.0
50
0.0
51
0.0
10
4.8729              
20
8.4109              
30
1.5175              
1
 4.873 8.411
0
INSERT
8
POINT
62
2
2
CROSS
10
4.7750              
20
10.1803             
30
1.5009              
41
0.002
42
0.002
43
0.002
50
0.0
0
TEXT
8
CODE
62
3
7
STD
40
0.25
41
1.0
50
0.0
51
0.0
10
4.7750              
20
10.1803             
30
1.5009              
1
 BH
0
TEXT
8
PT_ID
62
3
7
STD
40
0.25
41
1.0
50
0.0
51
0.0
10
4.7750              
20
10.1803             
30
1.5009              
1
 A91
0
TEXT
8
HEIGHT
62
3
7
STD
40
0.25
41
1.0
50
0.0
51
0.0
10
4.7750              
20
10.1803             
30
1.5009              
1
 1.501
0
TEXT
8
CO_ORDS
62
3
7
STD
40
0.25
41
1.0
50
0.0
51
0.0
10
4.7750              
20
10.1803             
30
1.5009              
1
 4.775 10.180
0
INSERT
8
POINT
62
2
2
CROSS
10
4.5491              
20
13.5867             
30
1.5088              
41
0.002
42
0.002
43
0.002
50
0.0
0
TEXT
8
CODE
62
3
7
STD
40
0.25
41
1.0
50
0.0
51
0.0
10
4.5491              
20
13.5867             
30
1.5088              
1
 BH
0
TEXT
8
PT_ID
62
3
7
STD
40
0.25
41
1.0
50
0.0
51
0.0
10
4.5491              
20
13.5867             
30
1.5088              
1
 A92
0
TEXT
8
HEIGHT
62
3
7
STD
40
0.25
41
1.0
50
0.0
51
0.0
10
4.5491              
20
13.5867             
30
1.5088              
1
 1.509
0
TEXT
8
CO_ORDS
62
3
7
STD
40
0.25
41
1.0
50
0.0
51
0.0
10
4.5491              
20
13.5867             
30
1.5088              
1
 4.549 13.587
0
INSERT
8
POINT
62
2
2
CROSS
10
-1.4286             
20
5.9330              
30
1.5261              
41
0.002
42
0.002
43
0.002
50
0.0
0
TEXT
8
CODE
62
3
7
STD
40
0.25
41
1.0
50
0.0
51
0.0
10
-1.4286             
20
5.9330              
30
1.5261              
1
 BH
0
TEXT
8
PT_ID
62
3
7
STD
40
0.25
41
1.0
50
0.0
51
0.0
10
-1.4286             
20
5.9330              
30
1.5261              
1
 A93
0
TEXT
8
HEIGHT
62
3
7
STD
40
0.25
41
1.0
50
0.0
51
0.0
10
-1.4286             
20
5.9330              
30
1.5261              
1
 1.526
0
TEXT
8
CO_ORDS
62
3
7
STD
40
0.25
41
1.0
50
0.0
51
0.0
10
-1.4286             
20
5.9330              
30
1.5261              
1
 -1.429 5.933
0
INSERT
8
POINT
62
2
2
CROSS
10
3.5803              
20
5.2594              
30
4.3231              
41
0.002
42
0.002
43
0.002
50
0.0
0
TEXT
8
CODE
62
3
7
STD
40
0.25
41
1.0
50
0.0
51
0.0
10
3.5803              
20
5.2594              
30
4.3231              
1
 UZS
0
TEXT
8
PT_ID
62
3
7
STD
40
0.25
41
1.0
50
0.0
51
0.0
10
3.5803              
20
5.2594              
30
4.3231              
1
 A94
0
TEXT
8
HEIGHT
62
3
7
STD
40
0.25
41
1.0
50
0.0
51
0.0
10
3.5803              
20
5.2594              
30
4.3231              
1
 4.323
0
TEXT
8
CO_ORDS
62
3
7
STD
40
0.25
41
1.0
50
0.0
51
0.0
10
3.5803              
20
5.2594              
30
4.3231              
1
 3.580 5.259
0
INSERT
8
POINT
62
2
2
CROSS
10
3.5844              
20
6.9303              
30
4.3635              
41
0.002
42
0.002
43
0.002
50
0.0
0
TEXT
8
CODE
62
3
7
STD
40
0.25
41
1.0
50
0.0
51
0.0
10
3.5844              
20
6.9303              
30
4.3635              
1
 UZS
0
TEXT
8
PT_ID
62
3
7
STD
40
0.25
41
1.0
50
0.0
51
0.0
10
3.5844              
20
6.9303              
30
4.3635              
1
 A95
0
TEXT
8
HEIGHT
62
3
7
STD
40
0.25
41
1.0
50
0.0
51
0.0
10
3.5844              
20
6.9303              
30
4.3635              
1
 4.363
0
TEXT
8
CO_ORDS
62
3
7
STD
40
0.25
41
1.0
50
0.0
51
0.0
10
3.5844              
20
6.9303              
30
4.3635              
1
 3.584 6.930
0
INSERT
8
POINT
62
2
2
CROSS
10
5.0497              
20
-2.2112             
30
3.0726              
41
0.002
42
0.002
43
0.002
50
0.0
0
TEXT
8
CODE
62
3
7
STD
40
0.25
41
1.0
50
0.0
51
0.0
10
5.0497              
20
-2.2112             
30
3.0726              
1
 MM
0
TEXT
8
PT_ID
62
3
7
STD
40
0.25
41
1.0
50
0.0
51
0.0
10
5.0497              
20
-2.2112             
30
3.0726              
1
 M1
0
TEXT
8
HEIGHT
62
3
7
STD
40
0.25
41
1.0
50
0.0
51
0.0
10
5.0497              
20
-2.2112             
30
3.0726              
1
 3.073
0
TEXT
8
CO_ORDS
62
3
7
STD
40
0.25
41
1.0
50
0.0
51
0.0
10
5.0497              
20
-2.2112             
30
3.0726              
1
 5.050 -2.211
0
INSERT
8
POINT
62
2
2
CROSS
10
4.8731              
20
14.1572             
30
3.0817              
41
0.002
42
0.002
43
0.002
50
0.0
0
TEXT
8
CODE
62
3
7
STD
40
0.25
41
1.0
50
0.0
51
0.0
10
4.8731              
20
14.1572             
30
3.0817              
1
 MM
0
TEXT
8
PT_ID
62
3
7
STD
40
0.25
41
1.0
50
0.0
51
0.0
10
4.8731              
20
14.1572             
30
3.0817              
1
 M
0
TEXT
8
HEIGHT
62
3
7
STD
40
0.25
41
1.0
50
0.0
51
0.0
10
4.8731              
20
14.1572             
30
3.0817              
1
 3.082
0
TEXT
8
CO_ORDS
62
3
7
STD
40
0.25
41
1.0
50
0.0
51
0.0
10
4.8731              
20
14.1572             
30
3.0817              
1
 4.873 14.157
0
INSERT
8
POINT
62
2
2
CROSS
10
6.3318              
20
13.9124             
30
3.2598              
41
0.002
42
0.002
43
0.002
50
0.0
0
TEXT
8
CODE
62
3
7
STD
40
0.25
41
1.0
50
0.0
51
0.0
10
6.3318              
20
13.9124             
30
3.2598              
1
 WAND
0
TEXT
8
PT_ID
62
3
7
STD
40
0.25
41
1.0
50
0.0
51
0.0
10
6.3318              
20
13.9124             
30
3.2598              
1
 A96
0
TEXT
8
HEIGHT
62
3
7
STD
40
0.25
41
1.0
50
0.0
51
0.0
10
6.3318              
20
13.9124             
30
3.2598              
1
 3.260
0
TEXT
8
CO_ORDS
62
3
7
STD
40
0.25
41
1.0
50
0.0
51
0.0
10
6.3318              
20
13.9124             
30
3.2598              
1
 6.332 13.912
0
INSERT
8
POINT
62
2
2
CROSS
10
6.3275              
20
14.1436             
30
3.3015              
41
0.002
42
0.002
43
0.002
50
0.0
0
TEXT
8
CODE
62
3
7
STD
40
0.25
41
1.0
50
0.0
51
0.0
10
6.3275              
20
14.1436             
30
3.3015              
1
 WAND
0
TEXT
8
PT_ID
62
3
7
STD
40
0.25
41
1.0
50
0.0
51
0.0
10
6.3275              
20
14.1436             
30
3.3015              
1
 A97
0
TEXT
8
HEIGHT
62
3
7
STD
40
0.25
41
1.0
50
0.0
51
0.0
10
6.3275              
20
14.1436             
30
3.3015              
1
 3.302
0
TEXT
8
CO_ORDS
62
3
7
STD
40
0.25
41
1.0
50
0.0
51
0.0
10
6.3275              
20
14.1436             
30
3.3015              
1
 6.327 14.144
0
INSERT
8
POINT
62
2
2
CROSS
10
6.4284              
20
14.2091             
30
4.0638              
41
0.002
42
0.002
43
0.002
50
0.0
0
TEXT
8
CODE
62
3
7
STD
40
0.25
41
1.0
50
0.0
51
0.0
10
6.4284              
20
14.2091             
30
4.0638              
1
 WAND
0
TEXT
8
PT_ID
62
3
7
STD
40
0.25
41
1.0
50
0.0
51
0.0
10
6.4284              
20
14.2091             
30
4.0638              
1
 A98
0
TEXT
8
HEIGHT
62
3
7
STD
40
0.25
41
1.0
50
0.0
51
0.0
10
6.4284              
20
14.2091             
30
4.0638              
1
 4.064
0
TEXT
8
CO_ORDS
62
3
7
STD
40
0.25
41
1.0
50
0.0
51
0.0
10
6.4284              
20
14.2091             
30
4.0638              
1
 6.428 14.209
0
INSERT
8
POINT
62
2
2
CROSS
10
7.8225              
20
14.2094             
30
3.9993              
41
0.002
42
0.002
43
0.002
50
0.0
0
TEXT
8
CODE
62
3
7
STD
40
0.25
41
1.0
50
0.0
51
0.0
10
7.8225              
20
14.2094             
30
3.9993              
1
 WAND
0
TEXT
8
PT_ID
62
3
7
STD
40
0.25
41
1.0
50
0.0
51
0.0
10
7.8225              
20
14.2094             
30
3.9993              
1
 A99
0
TEXT
8
HEIGHT
62
3
7
STD
40
0.25
41
1.0
50
0.0
51
0.0
10
7.8225              
20
14.2094             
30
3.9993              
1
 3.999
0
TEXT
8
CO_ORDS
62
3
7
STD
40
0.25
41
1.0
50
0.0
51
0.0
10
7.8225              
20
14.2094             
30
3.9993              
1
 7.823 14.209
0
INSERT
8
POINT
62
2
2
CROSS
10
7.8592              
20
14.3828             
30
3.6525              
41
0.002
42
0.002
43
0.002
50
0.0
0
TEXT
8
CODE
62
3
7
STD
40
0.25
41
1.0
50
0.0
51
0.0
10
7.8592              
20
14.3828             
30
3.6525              
1
 WAND
0
TEXT
8
PT_ID
62
3
7
STD
40
0.25
41
1.0
50
0.0
51
0.0
10
7.8592              
20
14.3828             
30
3.6525              
1
 A100
0
TEXT
8
HEIGHT
62
3
7
STD
40
0.25
41
1.0
50
0.0
51
0.0
10
7.8592              
20
14.3828             
30
3.6525              
1
 3.652
0
TEXT
8
CO_ORDS
62
3
7
STD
40
0.25
41
1.0
50
0.0
51
0.0
10
7.8592              
20
14.3828             
30
3.6525              
1
 7.859 14.383
0
INSERT
8
POINT
62
2
2
CROSS
10
7.8515              
20
15.5148             
30
3.5550              
41
0.002
42
0.002
43
0.002
50
0.0
0
TEXT
8
CODE
62
3
7
STD
40
0.25
41
1.0
50
0.0
51
0.0
10
7.8515              
20
15.5148             
30
3.5550              
1
 WAND
0
TEXT
8
PT_ID
62
3
7
STD
40
0.25
41
1.0
50
0.0
51
0.0
10
7.8515              
20
15.5148             
30
3.5550              
1
 A101
0
TEXT
8
HEIGHT
62
3
7
STD
40
0.25
41
1.0
50
0.0
51
0.0
10
7.8515              
20
15.5148             
30
3.5550              
1
 3.555
0
TEXT
8
CO_ORDS
62
3
7
STD
40
0.25
41
1.0
50
0.0
51
0.0
10
7.8515              
20
15.5148             
30
3.5550              
1
 7.851 15.515
0
INSERT
8
POINT
62
2
2
CROSS
10
7.9024              
20
15.7196             
30
3.5616              
41
0.002
42
0.002
43
0.002
50
0.0
0
TEXT
8
CODE
62
3
7
STD
40
0.25
41
1.0
50
0.0
51
0.0
10
7.9024              
20
15.7196             
30
3.5616              
1
 WAND
0
TEXT
8
PT_ID
62
3
7
STD
40
0.25
41
1.0
50
0.0
51
0.0
10
7.9024              
20
15.7196             
30
3.5616              
1
 A102
0
TEXT
8
HEIGHT
62
3
7
STD
40
0.25
41
1.0
50
0.0
51
0.0
10
7.9024              
20
15.7196             
30
3.5616              
1
 3.562
0
TEXT
8
CO_ORDS
62
3
7
STD
40
0.25
41
1.0
50
0.0
51
0.0
10
7.9024              
20
15.7196             
30
3.5616              
1
 7.902 15.720
0
INSERT
8
POINT
62
2
2
CROSS
10
9.6438              
20
15.7007             
30
3.5666              
41
0.002
42
0.002
43
0.002
50
0.0
0
TEXT
8
CODE
62
3
7
STD
40
0.25
41
1.0
50
0.0
51
0.0
10
9.6438              
20
15.7007             
30
3.5666              
1
 WAND
0
TEXT
8
PT_ID
62
3
7
STD
40
0.25
41
1.0
50
0.0
51
0.0
10
9.6438              
20
15.7007             
30
3.5666              
1
 A103
0
TEXT
8
HEIGHT
62
3
7
STD
40
0.25
41
1.0
50
0.0
51
0.0
10
9.6438              
20
15.7007             
30
3.5666              
1
 3.567
0
TEXT
8
CO_ORDS
62
3
7
STD
40
0.25
41
1.0
50
0.0
51
0.0
10
9.6438              
20
15.7007             
30
3.5666              
1
 9.644 15.701
0
INSERT
8
POINT
62
2
2
CROSS
10
9.8958              
20
14.1961             
30
3.5143              
41
0.002
42
0.002
43
0.002
50
0.0
0
TEXT
8
CODE
62
3
7
STD
40
0.25
41
1.0
50
0.0
51
0.0
10
9.8958              
20
14.1961             
30
3.5143              
1
 WAND
0
TEXT
8
PT_ID
62
3
7
STD
40
0.25
41
1.0
50
0.0
51
0.0
10
9.8958              
20
14.1961             
30
3.5143              
1
 A104
0
TEXT
8
HEIGHT
62
3
7
STD
40
0.25
41
1.0
50
0.0
51
0.0
10
9.8958              
20
14.1961             
30
3.5143              
1
 3.514
0
TEXT
8
CO_ORDS
62
3
7
STD
40
0.25
41
1.0
50
0.0
51
0.0
10
9.8958              
20
14.1961             
30
3.5143              
1
 9.896 14.196
0
INSERT
8
POINT
62
2
2
CROSS
10
11.0195             
20
14.1923             
30
4.3612              
41
0.002
42
0.002
43
0.002
50
0.0
0
TEXT
8
CODE
62
3
7
STD
40
0.25
41
1.0
50
0.0
51
0.0
10
11.0195             
20
14.1923             
30
4.3612              
1
 WAND
0
TEXT
8
PT_ID
62
3
7
STD
40
0.25
41
1.0
50
0.0
51
0.0
10
11.0195             
20
14.1923             
30
4.3612              
1
 A105
0
TEXT
8
HEIGHT
62
3
7
STD
40
0.25
41
1.0
50
0.0
51
0.0
10
11.0195             
20
14.1923             
30
4.3612              
1
 4.361
0
TEXT
8
CO_ORDS
62
3
7
STD
40
0.25
41
1.0
50
0.0
51
0.0
10
11.0195             
20
14.1923             
30
4.3612              
1
 11.019 14.192
0
INSERT
8
POINT
62
2
2
CROSS
10
8.0354              
20
11.9032             
30
1.5349              
41
0.002
42
0.002
43
0.002
50
0.0
0
TEXT
8
CODE
62
3
7
STD
40
0.25
41
1.0
50
0.0
51
0.0
10
8.0354              
20
11.9032             
30
1.5349              
1
 BH
0
TEXT
8
PT_ID
62
3
7
STD
40
0.25
41
1.0
50
0.0
51
0.0
10
8.0354              
20
11.9032             
30
1.5349              
1
 A106
0
TEXT
8
HEIGHT
62
3
7
STD
40
0.25
41
1.0
50
0.0
51
0.0
10
8.0354              
20
11.9032             
30
1.5349              
1
 1.535
0
TEXT
8
CO_ORDS
62
3
7
STD
40
0.25
41
1.0
50
0.0
51
0.0
10
8.0354              
20
11.9032             
30
1.5349              
1
 8.035 11.903
0
INSERT
8
POINT
62
2
2
CROSS
10
7.9405              
20
14.5823             
30
1.5540              
41
0.002
42
0.002
43
0.002
50
0.0
0
TEXT
8
CODE
62
3
7
STD
40
0.25
41
1.0
50
0.0
51
0.0
10
7.9405              
20
14.5823             
30
1.5540              
1
 BH
0
TEXT
8
PT_ID
62
3
7
STD
40
0.25
41
1.0
50
0.0
51
0.0
10
7.9405              
20
14.5823             
30
1.5540              
1
 A107
0
TEXT
8
HEIGHT
62
3
7
STD
40
0.25
41
1.0
50
0.0
51
0.0
10
7.9405              
20
14.5823             
30
1.5540              
1
 1.554
0
TEXT
8
CO_ORDS
62
3
7
STD
40
0.25
41
1.0
50
0.0
51
0.0
10
7.9405              
20
14.5823             
30
1.5540              
1
 7.941 14.582
0
INSERT
8
POINT
62
2
2
CROSS
10
10.6039             
20
9.5879              
30
1.5353              
41
0.002
42
0.002
43
0.002
50
0.0
0
TEXT
8
CODE
62
3
7
STD
40
0.25
41
1.0
50
0.0
51
0.0
10
10.6039             
20
9.5879              
30
1.5353              
1
 BH
0
TEXT
8
PT_ID
62
3
7
STD
40
0.25
41
1.0
50
0.0
51
0.0
10
10.6039             
20
9.5879              
30
1.5353              
1
 A108
0
TEXT
8
HEIGHT
62
3
7
STD
40
0.25
41
1.0
50
0.0
51
0.0
10
10.6039             
20
9.5879              
30
1.5353              
1
 1.535
0
TEXT
8
CO_ORDS
62
3
7
STD
40
0.25
41
1.0
50
0.0
51
0.0
10
10.6039             
20
9.5879              
30
1.5353              
1
 10.604 9.588
0
INSERT
8
POINT
62
2
2
CROSS
10
11.1311             
20
7.1284              
30
1.5340              
41
0.002
42
0.002
43
0.002
50
0.0
0
TEXT
8
CODE
62
3
7
STD
40
0.25
41
1.0
50
0.0
51
0.0
10
11.1311             
20
7.1284              
30
1.5340              
1
 BH
0
TEXT
8
PT_ID
62
3
7
STD
40
0.25
41
1.0
50
0.0
51
0.0
10
11.1311             
20
7.1284              
30
1.5340              
1
 A109
0
TEXT
8
HEIGHT
62
3
7
STD
40
0.25
41
1.0
50
0.0
51
0.0
10
11.1311             
20
7.1284              
30
1.5340              
1
 1.534
0
TEXT
8
CO_ORDS
62
3
7
STD
40
0.25
41
1.0
50
0.0
51
0.0
10
11.1311             
20
7.1284              
30
1.5340              
1
 11.131 7.128
0
INSERT
8
POINT
62
2
2
CROSS
10
9.0271              
20
6.2493              
30
4.3000              
41
0.002
42
0.002
43
0.002
50
0.0
0
TEXT
8
CODE
62
3
7
STD
40
0.25
41
1.0
50
0.0
51
0.0
10
9.0271              
20
6.2493              
30
4.3000              
1
 UZS
0
TEXT
8
PT_ID
62
3
7
STD
40
0.25
41
1.0
50
0.0
51
0.0
10
9.0271              
20
6.2493              
30
4.3000              
1
 A110
0
TEXT
8
HEIGHT
62
3
7
STD
40
0.25
41
1.0
50
0.0
51
0.0
10
9.0271              
20
6.2493              
30
4.3000              
1
 4.300
0
TEXT
8
CO_ORDS
62
3
7
STD
40
0.25
41
1.0
50
0.0
51
0.0
10
9.0271              
20
6.2493              
30
4.3000              
1
 9.027 6.249
0
INSERT
8
POINT
62
2
2
CROSS
10
9.0313              
20
5.1087              
30
4.3034              
41
0.002
42
0.002
43
0.002
50
0.0
0
TEXT
8
CODE
62
3
7
STD
40
0.25
41
1.0
50
0.0
51
0.0
10
9.0313              
20
5.1087              
30
4.3034              
1
 UZS
0
TEXT
8
PT_ID
62
3
7
STD
40
0.25
41
1.0
50
0.0
51
0.0
10
9.0313              
20
5.1087              
30
4.3034              
1
 A111
0
TEXT
8
HEIGHT
62
3
7
STD
40
0.25
41
1.0
50
0.0
51
0.0
10
9.0313              
20
5.1087              
30
4.3034              
1
 4.303
0
TEXT
8
CO_ORDS
62
3
7
STD
40
0.25
41
1.0
50
0.0
51
0.0
10
9.0313              
20
5.1087              
30
4.3034              
1
 9.031 5.109
0
INSERT
8
POINT
62
2
2
CROSS
10
8.8525              
20
5.6327              
30
4.2002              
41
0.002
42
0.002
43
0.002
50
0.0
0
TEXT
8
CODE
62
3
7
STD
40
0.25
41
1.0
50
0.0
51
0.0
10
8.8525              
20
5.6327              
30
4.2002              
1
 UK
0
TEXT
8
PT_ID
62
3
7
STD
40
0.25
41
1.0
50
0.0
51
0.0
10
8.8525              
20
5.6327              
30
4.2002              
1
 A112
0
TEXT
8
HEIGHT
62
3
7
STD
40
0.25
41
1.0
50
0.0
51
0.0
10
8.8525              
20
5.6327              
30
4.2002              
1
 4.200
0
TEXT
8
CO_ORDS
62
3
7
STD
40
0.25
41
1.0
50
0.0
51
0.0
10
8.8525              
20
5.6327              
30
4.2002              
1
 8.852 5.633
0
INSERT
8
POINT
62
2
2
CROSS
10
10.3169             
20
7.1886              
30
4.2003              
41
0.002
42
0.002
43
0.002
50
0.0
0
TEXT
8
CODE
62
3
7
STD
40
0.25
41
1.0
50
0.0
51
0.0
10
10.3169             
20
7.1886              
30
4.2003              
1
 UK
0
TEXT
8
PT_ID
62
3
7
STD
40
0.25
41
1.0
50
0.0
51
0.0
10
10.3169             
20
7.1886              
30
4.2003              
1
 A113
0
TEXT
8
HEIGHT
62
3
7
STD
40
0.25
41
1.0
50
0.0
51
0.0
10
10.3169             
20
7.1886              
30
4.2003              
1
 4.200
0
TEXT
8
CO_ORDS
62
3
7
STD
40
0.25
41
1.0
50
0.0
51
0.0
10
10.3169             
20
7.1886              
30
4.2003              
1
 10.317 7.189
0
INSERT
8
POINT
62
2
2
CROSS
10
11.2883             
20
7.2520              
30
3.8373              
41
0.002
42
0.002
43
0.002
50
0.0
0
TEXT
8
CODE
62
3
7
STD
40
0.25
41
1.0
50
0.0
51
0.0
10
11.2883             
20
7.2520              
30
3.8373              
1
 WAND
0
TEXT
8
PT_ID
62
3
7
STD
40
0.25
41
1.0
50
0.0
51
0.0
10
11.2883             
20
7.2520              
30
3.8373              
1
 A114
0
TEXT
8
HEIGHT
62
3
7
STD
40
0.25
41
1.0
50
0.0
51
0.0
10
11.2883             
20
7.2520              
30
3.8373              
1
 3.837
0
TEXT
8
CO_ORDS
62
3
7
STD
40
0.25
41
1.0
50
0.0
51
0.0
10
11.2883             
20
7.2520              
30
3.8373              
1
 11.288 7.252
0
INSERT
8
POINT
62
2
2
CROSS
10
11.2842             
20
7.0921              
30
3.7876              
41
0.002
42
0.002
43
0.002
50
0.0
0
TEXT
8
CODE
62
3
7
STD
40
0.25
41
1.0
50
0.0
51
0.0
10
11.2842             
20
7.0921              
30
3.7876              
1
 WAND
0
TEXT
8
PT_ID
62
3
7
STD
40
0.25
41
1.0
50
0.0
51
0.0
10
11.2842             
20
7.0921              
30
3.7876              
1
 A115
0
TEXT
8
HEIGHT
62
3
7
STD
40
0.25
41
1.0
50
0.0
51
0.0
10
11.2842             
20
7.0921              
30
3.7876              
1
 3.788
0
TEXT
8
CO_ORDS
62
3
7
STD
40
0.25
41
1.0
50
0.0
51
0.0
10
11.2842             
20
7.0921              
30
3.7876              
1
 11.284 7.092
0
INSERT
8
POINT
62
2
2
CROSS
10
11.4990             
20
7.0680              
30
3.7929              
41
0.002
42
0.002
43
0.002
50
0.0
0
TEXT
8
CODE
62
3
7
STD
40
0.25
41
1.0
50
0.0
51
0.0
10
11.4990             
20
7.0680              
30
3.7929              
1
 WAND
0
TEXT
8
PT_ID
62
3
7
STD
40
0.25
41
1.0
50
0.0
51
0.0
10
11.4990             
20
7.0680              
30
3.7929              
1
 A116
0
TEXT
8
HEIGHT
62
3
7
STD
40
0.25
41
1.0
50
0.0
51
0.0
10
11.4990             
20
7.0680              
30
3.7929              
1
 3.793
0
TEXT
8
CO_ORDS
62
3
7
STD
40
0.25
41
1.0
50
0.0
51
0.0
10
11.4990             
20
7.0680              
30
3.7929              
1
 11.499 7.068
0
INSERT
8
POINT
62
2
2
CROSS
10
15.1949             
20
7.0302              
30
3.7455              
41
0.002
42
0.002
43
0.002
50
0.0
0
TEXT
8
CODE
62
3
7
STD
40
0.25
41
1.0
50
0.0
51
0.0
10
15.1949             
20
7.0302              
30
3.7455              
1
 WAND
0
TEXT
8
PT_ID
62
3
7
STD
40
0.25
41
1.0
50
0.0
51
0.0
10
15.1949             
20
7.0302              
30
3.7455              
1
 A117
0
TEXT
8
HEIGHT
62
3
7
STD
40
0.25
41
1.0
50
0.0
51
0.0
10
15.1949             
20
7.0302              
30
3.7455              
1
 3.746
0
TEXT
8
CO_ORDS
62
3
7
STD
40
0.25
41
1.0
50
0.0
51
0.0
10
15.1949             
20
7.0302              
30
3.7455              
1
 15.195 7.030
0
INSERT
8
POINT
62
2
2
CROSS
10
13.5036             
20
5.0340              
30
3.7678              
41
0.002
42
0.002
43
0.002
50
0.0
0
TEXT
8
CODE
62
3
7
STD
40
0.25
41
1.0
50
0.0
51
0.0
10
13.5036             
20
5.0340              
30
3.7678              
1
 WAND
0
TEXT
8
PT_ID
62
3
7
STD
40
0.25
41
1.0
50
0.0
51
0.0
10
13.5036             
20
5.0340              
30
3.7678              
1
 A118
0
TEXT
8
HEIGHT
62
3
7
STD
40
0.25
41
1.0
50
0.0
51
0.0
10
13.5036             
20
5.0340              
30
3.7678              
1
 3.768
0
TEXT
8
CO_ORDS
62
3
7
STD
40
0.25
41
1.0
50
0.0
51
0.0
10
13.5036             
20
5.0340              
30
3.7678              
1
 13.504 5.034
0
INSERT
8
POINT
62
2
2
CROSS
10
9.8854              
20
5.0529              
30
3.5793              
41
0.002
42
0.002
43
0.002
50
0.0
0
TEXT
8
CODE
62
3
7
STD
40
0.25
41
1.0
50
0.0
51
0.0
10
9.8854              
20
5.0529              
30
3.5793              
1
 WAND
0
TEXT
8
PT_ID
62
3
7
STD
40
0.25
41
1.0
50
0.0
51
0.0
10
9.8854              
20
5.0529              
30
3.5793              
1
 A119
0
TEXT
8
HEIGHT
62
3
7
STD
40
0.25
41
1.0
50
0.0
51
0.0
10
9.8854              
20
5.0529              
30
3.5793              
1
 3.579
0
TEXT
8
CO_ORDS
62
3
7
STD
40
0.25
41
1.0
50
0.0
51
0.0
10
9.8854              
20
5.0529              
30
3.5793              
1
 9.885 5.053
0
INSERT
8
POINT
62
2
2
CROSS
10
12.9871             
20
5.0056              
30
3.4053              
41
0.002
42
0.002
43
0.002
50
0.0
0
TEXT
8
CODE
62
3
7
STD
40
0.25
41
1.0
50
0.0
51
0.0
10
12.9871             
20
5.0056              
30
3.4053              
1
 TUR
0
TEXT
8
PT_ID
62
3
7
STD
40
0.25
41
1.0
50
0.0
51
0.0
10
12.9871             
20
5.0056              
30
3.4053              
1
 A120
0
TEXT
8
HEIGHT
62
3
7
STD
40
0.25
41
1.0
50
0.0
51
0.0
10
12.9871             
20
5.0056              
30
3.4053              
1
 3.405
0
TEXT
8
CO_ORDS
62
3
7
STD
40
0.25
41
1.0
50
0.0
51
0.0
10
12.9871             
20
5.0056              
30
3.4053              
1
 12.987 5.006
0
INSERT
8
POINT
62
2
2
CROSS
10
13.1442             
20
7.0794              
30
3.2879              
41
0.002
42
0.002
43
0.002
50
0.0
0
TEXT
8
CODE
62
3
7
STD
40
0.25
41
1.0
50
0.0
51
0.0
10
13.1442             
20
7.0794              
30
3.2879              
1
 TUR
0
TEXT
8
PT_ID
62
3
7
STD
40
0.25
41
1.0
50
0.0
51
0.0
10
13.1442             
20
7.0794              
30
3.2879              
1
 A121
0
TEXT
8
HEIGHT
62
3
7
STD
40
0.25
41
1.0
50
0.0
51
0.0
10
13.1442             
20
7.0794              
30
3.2879              
1
 3.288
0
TEXT
8
CO_ORDS
62
3
7
STD
40
0.25
41
1.0
50
0.0
51
0.0
10
13.1442             
20
7.0794              
30
3.2879              
1
 13.144 7.079
0
INSERT
8
POINT
62
2
2
CROSS
10
13.1387             
20
7.4636              
30
3.2918              
41
0.002
42
0.002
43
0.002
50
0.0
0
TEXT
8
CODE
62
3
7
STD
40
0.25
41
1.0
50
0.0
51
0.0
10
13.1387             
20
7.4636              
30
3.2918              
1
 TUR
0
TEXT
8
PT_ID
62
3
7
STD
40
0.25
41
1.0
50
0.0
51
0.0
10
13.1387             
20
7.4636              
30
3.2918              
1
 A122
0
TEXT
8
HEIGHT
62
3
7
STD
40
0.25
41
1.0
50
0.0
51
0.0
10
13.1387             
20
7.4636              
30
3.2918              
1
 3.292
0
TEXT
8
CO_ORDS
62
3
7
STD
40
0.25
41
1.0
50
0.0
51
0.0
10
13.1387             
20
7.4636              
30
3.2918              
1
 13.139 7.464
0
INSERT
8
POINT
62
2
2
CROSS
10
9.0289              
20
7.2480              
30
3.8259              
41
0.002
42
0.002
43
0.002
50
0.0
0
TEXT
8
CODE
62
3
7
STD
40
0.25
41
1.0
50
0.0
51
0.0
10
9.0289              
20
7.2480              
30
3.8259              
1
 WAND
0
TEXT
8
PT_ID
62
3
7
STD
40
0.25
41
1.0
50
0.0
51
0.0
10
9.0289              
20
7.2480              
30
3.8259              
1
 A123
0
TEXT
8
HEIGHT
62
3
7
STD
40
0.25
41
1.0
50
0.0
51
0.0
10
9.0289              
20
7.2480              
30
3.8259              
1
 3.826
0
TEXT
8
CO_ORDS
62
3
7
STD
40
0.25
41
1.0
50
0.0
51
0.0
10
9.0289              
20
7.2480              
30
3.8259              
1
 9.029 7.248
0
INSERT
8
POINT
62
2
2
CROSS
10
9.0264              
20
6.3683              
30
3.6759              
41
0.002
42
0.002
43
0.002
50
0.0
0
TEXT
8
CODE
62
3
7
STD
40
0.25
41
1.0
50
0.0
51
0.0
10
9.0264              
20
6.3683              
30
3.6759              
1
 WAND
0
TEXT
8
PT_ID
62
3
7
STD
40
0.25
41
1.0
50
0.0
51
0.0
10
9.0264              
20
6.3683              
30
3.6759              
1
 A124
0
TEXT
8
HEIGHT
62
3
7
STD
40
0.25
41
1.0
50
0.0
51
0.0
10
9.0264              
20
6.3683              
30
3.6759              
1
 3.676
0
TEXT
8
CO_ORDS
62
3
7
STD
40
0.25
41
1.0
50
0.0
51
0.0
10
9.0264              
20
6.3683              
30
3.6759              
1
 9.026 6.368
0
INSERT
8
POINT
62
2
2
CROSS
10
8.9179              
20
6.3537              
30
3.7140              
41
0.002
42
0.002
43
0.002
50
0.0
0
TEXT
8
CODE
62
3
7
STD
40
0.25
41
1.0
50
0.0
51
0.0
10
8.9179              
20
6.3537              
30
3.7140              
1
 WAND
0
TEXT
8
PT_ID
62
3
7
STD
40
0.25
41
1.0
50
0.0
51
0.0
10
8.9179              
20
6.3537              
30
3.7140              
1
 A125
0
TEXT
8
HEIGHT
62
3
7
STD
40
0.25
41
1.0
50
0.0
51
0.0
10
8.9179              
20
6.3537              
30
3.7140              
1
 3.714
0
TEXT
8
CO_ORDS
62
3
7
STD
40
0.25
41
1.0
50
0.0
51
0.0
10
8.9179              
20
6.3537              
30
3.7140              
1
 8.918 6.354
0
INSERT
8
POINT
62
2
2
CROSS
10
8.1040              
20
6.3626              
30
3.9378              
41
0.002
42
0.002
43
0.002
50
0.0
0
TEXT
8
CODE
62
3
7
STD
40
0.25
41
1.0
50
0.0
51
0.0
10
8.1040              
20
6.3626              
30
3.9378              
1
 WAND
0
TEXT
8
PT_ID
62
3
7
STD
40
0.25
41
1.0
50
0.0
51
0.0
10
8.1040              
20
6.3626              
30
3.9378              
1
 A126
0
TEXT
8
HEIGHT
62
3
7
STD
40
0.25
41
1.0
50
0.0
51
0.0
10
8.1040              
20
6.3626              
30
3.9378              
1
 3.938
0
TEXT
8
CO_ORDS
62
3
7
STD
40
0.25
41
1.0
50
0.0
51
0.0
10
8.1040              
20
6.3626              
30
3.9378              
1
 8.104 6.363
0
INSERT
8
POINT
62
2
2
CROSS
10
11.3346             
20
13.6277             
30
4.3359              
41
0.002
42
0.002
43
0.002
50
0.0
0
TEXT
8
CODE
62
3
7
STD
40
0.25
41
1.0
50
0.0
51
0.0
10
11.3346             
20
13.6277             
30
4.3359              
1
 WAND
0
TEXT
8
PT_ID
62
3
7
STD
40
0.25
41
1.0
50
0.0
51
0.0
10
11.3346             
20
13.6277             
30
4.3359              
1
 A127
0
TEXT
8
HEIGHT
62
3
7
STD
40
0.25
41
1.0
50
0.0
51
0.0
10
11.3346             
20
13.6277             
30
4.3359              
1
 4.336
0
TEXT
8
CO_ORDS
62
3
7
STD
40
0.25
41
1.0
50
0.0
51
0.0
10
11.3346             
20
13.6277             
30
4.3359              
1
 11.335 13.628
0
INSERT
8
POINT
62
2
2
CROSS
10
11.2980             
20
8.9787              
30
3.6846              
41
0.002
42
0.002
43
0.002
50
0.0
0
TEXT
8
CODE
62
3
7
STD
40
0.25
41
1.0
50
0.0
51
0.0
10
11.2980             
20
8.9787              
30
3.6846              
1
 WAND
0
TEXT
8
PT_ID
62
3
7
STD
40
0.25
41
1.0
50
0.0
51
0.0
10
11.2980             
20
8.9787              
30
3.6846              
1
 A128
0
TEXT
8
HEIGHT
62
3
7
STD
40
0.25
41
1.0
50
0.0
51
0.0
10
11.2980             
20
8.9787              
30
3.6846              
1
 3.685
0
TEXT
8
CO_ORDS
62
3
7
STD
40
0.25
41
1.0
50
0.0
51
0.0
10
11.2980             
20
8.9787              
30
3.6846              
1
 11.298 8.979
0
INSERT
8
POINT
62
2
2
CROSS
10
11.2982             
20
8.2148              
30
3.0058              
41
0.002
42
0.002
43
0.002
50
0.0
0
TEXT
8
CODE
62
3
7
STD
40
0.25
41
1.0
50
0.0
51
0.0
10
11.2982             
20
8.2148              
30
3.0058              
1
 WAND
0
TEXT
8
PT_ID
62
3
7
STD
40
0.25
41
1.0
50
0.0
51
0.0
10
11.2982             
20
8.2148              
30
3.0058              
1
 A129
0
TEXT
8
HEIGHT
62
3
7
STD
40
0.25
41
1.0
50
0.0
51
0.0
10
11.2982             
20
8.2148              
30
3.0058              
1
 3.006
0
TEXT
8
CO_ORDS
62
3
7
STD
40
0.25
41
1.0
50
0.0
51
0.0
10
11.2982             
20
8.2148              
30
3.0058              
1
 11.298 8.215
0
INSERT
8
POINT
62
2
2
CROSS
10
11.3260             
20
2.6470              
30
3.7713              
41
0.002
42
0.002
43
0.002
50
0.0
0
TEXT
8
CODE
62
3
7
STD
40
0.25
41
1.0
50
0.0
51
0.0
10
11.3260             
20
2.6470              
30
3.7713              
1
 WAND
0
TEXT
8
PT_ID
62
3
7
STD
40
0.25
41
1.0
50
0.0
51
0.0
10
11.3260             
20
2.6470              
30
3.7713              
1
 A130
0
TEXT
8
HEIGHT
62
3
7
STD
40
0.25
41
1.0
50
0.0
51
0.0
10
11.3260             
20
2.6470              
30
3.7713              
1
 3.771
0
TEXT
8
CO_ORDS
62
3
7
STD
40
0.25
41
1.0
50
0.0
51
0.0
10
11.3260             
20
2.6470              
30
3.7713              
1
 11.326 2.647
0
INSERT
8
POINT
62
2
2
CROSS
10
13.6431             
20
2.6375              
30
4.0325              
41
0.002
42
0.002
43
0.002
50
0.0
0
TEXT
8
CODE
62
3
7
STD
40
0.25
41
1.0
50
0.0
51
0.0
10
13.6431             
20
2.6375              
30
4.0325              
1
 WAND
0
TEXT
8
PT_ID
62
3
7
STD
40
0.25
41
1.0
50
0.0
51
0.0
10
13.6431             
20
2.6375              
30
4.0325              
1
 A131
0
TEXT
8
HEIGHT
62
3
7
STD
40
0.25
41
1.0
50
0.0
51
0.0
10
13.6431             
20
2.6375              
30
4.0325              
1
 4.033
0
TEXT
8
CO_ORDS
62
3
7
STD
40
0.25
41
1.0
50
0.0
51
0.0
10
13.6431             
20
2.6375              
30
4.0325              
1
 13.643 2.638
0
INSERT
8
POINT
62
2
2
CROSS
10
13.9936             
20
2.7399              
30
4.2029              
41
0.002
42
0.002
43
0.002
50
0.0
0
TEXT
8
CODE
62
3
7
STD
40
0.25
41
1.0
50
0.0
51
0.0
10
13.9936             
20
2.7399              
30
4.2029              
1
 WAND
0
TEXT
8
PT_ID
62
3
7
STD
40
0.25
41
1.0
50
0.0
51
0.0
10
13.9936             
20
2.7399              
30
4.2029              
1
 A132
0
TEXT
8
HEIGHT
62
3
7
STD
40
0.25
41
1.0
50
0.0
51
0.0
10
13.9936             
20
2.7399              
30
4.2029              
1
 4.203
0
TEXT
8
CO_ORDS
62
3
7
STD
40
0.25
41
1.0
50
0.0
51
0.0
10
13.9936             
20
2.7399              
30
4.2029              
1
 13.994 2.740
0
INSERT
8
POINT
62
2
2
CROSS
10
13.9938             
20
2.9642              
30
4.2243              
41
0.002
42
0.002
43
0.002
50
0.0
0
TEXT
8
CODE
62
3
7
STD
40
0.25
41
1.0
50
0.0
51
0.0
10
13.9938             
20
2.9642              
30
4.2243              
1
 WAND
0
TEXT
8
PT_ID
62
3
7
STD
40
0.25
41
1.0
50
0.0
51
0.0
10
13.9938             
20
2.9642              
30
4.2243              
1
 A133
0
TEXT
8
HEIGHT
62
3
7
STD
40
0.25
41
1.0
50
0.0
51
0.0
10
13.9938             
20
2.9642              
30
4.2243              
1
 4.224
0
TEXT
8
CO_ORDS
62
3
7
STD
40
0.25
41
1.0
50
0.0
51
0.0
10
13.9938             
20
2.9642              
30
4.2243              
1
 13.994 2.964
0
INSERT
8
POINT
62
2
2
CROSS
10
13.5441             
20
9.3332              
30
3.8157              
41
0.002
42
0.002
43
0.002
50
0.0
0
TEXT
8
CODE
62
3
7
STD
40
0.25
41
1.0
50
0.0
51
0.0
10
13.5441             
20
9.3332              
30
3.8157              
1
 WAND
0
TEXT
8
PT_ID
62
3
7
STD
40
0.25
41
1.0
50
0.0
51
0.0
10
13.5441             
20
9.3332              
30
3.8157              
1
 A134
0
TEXT
8
HEIGHT
62
3
7
STD
40
0.25
41
1.0
50
0.0
51
0.0
10
13.5441             
20
9.3332              
30
3.8157              
1
 3.816
0
TEXT
8
CO_ORDS
62
3
7
STD
40
0.25
41
1.0
50
0.0
51
0.0
10
13.5441             
20
9.3332              
30
3.8157              
1
 13.544 9.333
0
INSERT
8
POINT
62
2
2
CROSS
10
13.5477             
20
9.7873              
30
3.8860              
41
0.002
42
0.002
43
0.002
50
0.0
0
TEXT
8
CODE
62
3
7
STD
40
0.25
41
1.0
50
0.0
51
0.0
10
13.5477             
20
9.7873              
30
3.8860              
1
 WAND
0
TEXT
8
PT_ID
62
3
7
STD
40
0.25
41
1.0
50
0.0
51
0.0
10
13.5477             
20
9.7873              
30
3.8860              
1
 A135
0
TEXT
8
HEIGHT
62
3
7
STD
40
0.25
41
1.0
50
0.0
51
0.0
10
13.5477             
20
9.7873              
30
3.8860              
1
 3.886
0
TEXT
8
CO_ORDS
62
3
7
STD
40
0.25
41
1.0
50
0.0
51
0.0
10
13.5477             
20
9.7873              
30
3.8860              
1
 13.548 9.787
0
INSERT
8
POINT
62
2
2
CROSS
10
13.4899             
20
9.8315              
30
3.8791              
41
0.002
42
0.002
43
0.002
50
0.0
0
TEXT
8
CODE
62
3
7
STD
40
0.25
41
1.0
50
0.0
51
0.0
10
13.4899             
20
9.8315              
30
3.8791              
1
 WAND
0
TEXT
8
PT_ID
62
3
7
STD
40
0.25
41
1.0
50
0.0
51
0.0
10
13.4899             
20
9.8315              
30
3.8791              
1
 A136
0
TEXT
8
HEIGHT
62
3
7
STD
40
0.25
41
1.0
50
0.0
51
0.0
10
13.4899             
20
9.8315              
30
3.8791              
1
 3.879
0
TEXT
8
CO_ORDS
62
3
7
STD
40
0.25
41
1.0
50
0.0
51
0.0
10
13.4899             
20
9.8315              
30
3.8791              
1
 13.490 9.831
0
INSERT
8
POINT
62
2
2
CROSS
10
12.0303             
20
9.8369              
30
3.7840              
41
0.002
42
0.002
43
0.002
50
0.0
0
TEXT
8
CODE
62
3
7
STD
40
0.25
41
1.0
50
0.0
51
0.0
10
12.0303             
20
9.8369              
30
3.7840              
1
 WAND
0
TEXT
8
PT_ID
62
3
7
STD
40
0.25
41
1.0
50
0.0
51
0.0
10
12.0303             
20
9.8369              
30
3.7840              
1
 A137
0
TEXT
8
HEIGHT
62
3
7
STD
40
0.25
41
1.0
50
0.0
51
0.0
10
12.0303             
20
9.8369              
30
3.7840              
1
 3.784
0
TEXT
8
CO_ORDS
62
3
7
STD
40
0.25
41
1.0
50
0.0
51
0.0
10
12.0303             
20
9.8369              
30
3.7840              
1
 12.030 9.837
0
INSERT
8
POINT
62
2
2
CROSS
10
12.1858             
20
14.2237             
30
3.7857              
41
0.002
42
0.002
43
0.002
50
0.0
0
TEXT
8
CODE
62
3
7
STD
40
0.25
41
1.0
50
0.0
51
0.0
10
12.1858             
20
14.2237             
30
3.7857              
1
 WAND
0
TEXT
8
PT_ID
62
3
7
STD
40
0.25
41
1.0
50
0.0
51
0.0
10
12.1858             
20
14.2237             
30
3.7857              
1
 A138
0
TEXT
8
HEIGHT
62
3
7
STD
40
0.25
41
1.0
50
0.0
51
0.0
10
12.1858             
20
14.2237             
30
3.7857              
1
 3.786
0
TEXT
8
CO_ORDS
62
3
7
STD
40
0.25
41
1.0
50
0.0
51
0.0
10
12.1858             
20
14.2237             
30
3.7857              
1
 12.186 14.224
0
INSERT
8
POINT
62
2
2
CROSS
10
13.5179             
20
14.2031             
30
3.6095              
41
0.002
42
0.002
43
0.002
50
0.0
0
TEXT
8
CODE
62
3
7
STD
40
0.25
41
1.0
50
0.0
51
0.0
10
13.5179             
20
14.2031             
30
3.6095              
1
 WAND
0
TEXT
8
PT_ID
62
3
7
STD
40
0.25
41
1.0
50
0.0
51
0.0
10
13.5179             
20
14.2031             
30
3.6095              
1
 A139
0
TEXT
8
HEIGHT
62
3
7
STD
40
0.25
41
1.0
50
0.0
51
0.0
10
13.5179             
20
14.2031             
30
3.6095              
1
 3.610
0
TEXT
8
CO_ORDS
62
3
7
STD
40
0.25
41
1.0
50
0.0
51
0.0
10
13.5179             
20
14.2031             
30
3.6095              
1
 13.518 14.203
0
INSERT
8
POINT
62
2
2
CROSS
10
11.6679             
20
-2.3025             
30
2.9211              
41
0.002
42
0.002
43
0.002
50
0.0
0
TEXT
8
CODE
62
3
7
STD
40
0.25
41
1.0
50
0.0
51
0.0
10
11.6679             
20
-2.3025             
30
2.9211              
1
 MM
0
TEXT
8
PT_ID
62
3
7
STD
40
0.25
41
1.0
50
0.0
51
0.0
10
11.6679             
20
-2.3025             
30
2.9211              
1
 M2
0
TEXT
8
HEIGHT
62
3
7
STD
40
0.25
41
1.0
50
0.0
51
0.0
10
11.6679             
20
-2.3025             
30
2.9211              
1
 2.921
0
TEXT
8
CO_ORDS
62
3
7
STD
40
0.25
41
1.0
50
0.0
51
0.0
10
11.6679             
20
-2.3025             
30
2.9211              
1
 11.668 -2.302
0
INSERT
8
POINT
62
2
2
CROSS
10
12.7114             
20
12.2014             
30
3.0190              
41
0.002
42
0.002
43
0.002
50
0.0
0
TEXT
8
CODE
62
3
7
STD
40
0.25
41
1.0
50
0.0
51
0.0
10
12.7114             
20
12.2014             
30
3.0190              
1
 MM
0
TEXT
8
PT_ID
62
3
7
STD
40
0.25
41
1.0
50
0.0
51
0.0
10
12.7114             
20
12.2014             
30
3.0190              
1
 M3
0
TEXT
8
HEIGHT
62
3
7
STD
40
0.25
41
1.0
50
0.0
51
0.0
10
12.7114             
20
12.2014             
30
3.0190              
1
 3.019
0
TEXT
8
CO_ORDS
62
3
7
STD
40
0.25
41
1.0
50
0.0
51
0.0
10
12.7114             
20
12.2014             
30
3.0190              
1
 12.711 12.201
0
INSERT
8
POINT
62
2
2
CROSS
10
12.2978             
20
7.1911              
30
3.3620              
41
0.002
42
0.002
43
0.002
50
0.0
0
TEXT
8
CODE
62
3
7
STD
40
0.25
41
1.0
50
0.0
51
0.0
10
12.2978             
20
7.1911              
30
3.3620              
1
 TUR
0
TEXT
8
PT_ID
62
3
7
STD
40
0.25
41
1.0
50
0.0
51
0.0
10
12.2978             
20
7.1911              
30
3.3620              
1
 A140
0
TEXT
8
HEIGHT
62
3
7
STD
40
0.25
41
1.0
50
0.0
51
0.0
10
12.2978             
20
7.1911              
30
3.3620              
1
 3.362
0
TEXT
8
CO_ORDS
62
3
7
STD
40
0.25
41
1.0
50
0.0
51
0.0
10
12.2978             
20
7.1911              
30
3.3620              
1
 12.298 7.191
0
INSERT
8
POINT
62
2
2
CROSS
10
6.3378              
20
9.4932              
30
3.1182              
41
0.002
42
0.002
43
0.002
50
0.0
0
TEXT
8
CODE
62
3
7
STD
40
0.25
41
1.0
50
0.0
51
0.0
10
6.3378              
20
9.4932              
30
3.1182              
1
 WAND
0
TEXT
8
PT_ID
62
3
7
STD
40
0.25
41
1.0
50
0.0
51
0.0
10
6.3378              
20
9.4932              
30
3.1182              
1
 A141
0
TEXT
8
HEIGHT
62
3
7
STD
40
0.25
41
1.0
50
0.0
51
0.0
10
6.3378              
20
9.4932              
30
3.1182              
1
 3.118
0
TEXT
8
CO_ORDS
62
3
7
STD
40
0.25
41
1.0
50
0.0
51
0.0
10
6.3378              
20
9.4932              
30
3.1182              
1
 6.338 9.493
0
INSERT
8
POINT
62
2
2
CROSS
10
6.3402              
20
10.9950             
30
3.2092              
41
0.002
42
0.002
43
0.002
50
0.0
0
TEXT
8
CODE
62
3
7
STD
40
0.25
41
1.0
50
0.0
51
0.0
10
6.3402              
20
10.9950             
30
3.2092              
1
 WAND
0
TEXT
8
PT_ID
62
3
7
STD
40
0.25
41
1.0
50
0.0
51
0.0
10
6.3402              
20
10.9950             
30
3.2092              
1
 A142
0
TEXT
8
HEIGHT
62
3
7
STD
40
0.25
41
1.0
50
0.0
51
0.0
10
6.3402              
20
10.9950             
30
3.2092              
1
 3.209
0
TEXT
8
CO_ORDS
62
3
7
STD
40
0.25
41
1.0
50
0.0
51
0.0
10
6.3402              
20
10.9950             
30
3.2092              
1
 6.340 10.995
0
INSERT
8
POINT
62
2
2
CROSS
10
11.2308             
20
2.7315              
30
3.8261              
41
0.002
42
0.002
43
0.002
50
0.0
0
TEXT
8
CODE
62
3
7
STD
40
0.25
41
1.0
50
0.0
51
0.0
10
11.2308             
20
2.7315              
30
3.8261              
1
 WAND
0
TEXT
8
PT_ID
62
3
7
STD
40
0.25
41
1.0
50
0.0
51
0.0
10
11.2308             
20
2.7315              
30
3.8261              
1
 A143
0
TEXT
8
HEIGHT
62
3
7
STD
40
0.25
41
1.0
50
0.0
51
0.0
10
11.2308             
20
2.7315              
30
3.8261              
1
 3.826
0
TEXT
8
CO_ORDS
62
3
7
STD
40
0.25
41
1.0
50
0.0
51
0.0
10
11.2308             
20
2.7315              
30
3.8261              
1
 11.231 2.732
0
INSERT
8
POINT
62
2
2
CROSS
10
11.2448             
20
4.9009              
30
3.9345              
41
0.002
42
0.002
43
0.002
50
0.0
0
TEXT
8
CODE
62
3
7
STD
40
0.25
41
1.0
50
0.0
51
0.0
10
11.2448             
20
4.9009              
30
3.9345              
1
 WAND
0
TEXT
8
PT_ID
62
3
7
STD
40
0.25
41
1.0
50
0.0
51
0.0
10
11.2448             
20
4.9009              
30
3.9345              
1
 A144
0
TEXT
8
HEIGHT
62
3
7
STD
40
0.25
41
1.0
50
0.0
51
0.0
10
11.2448             
20
4.9009              
30
3.9345              
1
 3.935
0
TEXT
8
CO_ORDS
62
3
7
STD
40
0.25
41
1.0
50
0.0
51
0.0
10
11.2448             
20
4.9009              
30
3.9345              
1
 11.245 4.901
0
INSERT
8
POINT
62
2
2
CROSS
10
11.3601             
20
4.9507              
30
3.9328              
41
0.002
42
0.002
43
0.002
50
0.0
0
TEXT
8
CODE
62
3
7
STD
40
0.25
41
1.0
50
0.0
51
0.0
10
11.3601             
20
4.9507              
30
3.9328              
1
 WAND
0
TEXT
8
PT_ID
62
3
7
STD
40
0.25
41
1.0
50
0.0
51
0.0
10
11.3601             
20
4.9507              
30
3.9328              
1
 A145
0
TEXT
8
HEIGHT
62
3
7
STD
40
0.25
41
1.0
50
0.0
51
0.0
10
11.3601             
20
4.9507              
30
3.9328              
1
 3.933
0
TEXT
8
CO_ORDS
62
3
7
STD
40
0.25
41
1.0
50
0.0
51
0.0
10
11.3601             
20
4.9507              
30
3.9328              
1
 11.360 4.951
0
INSERT
8
POINT
62
2
2
CROSS
10
13.9202             
20
4.9331              
30
3.9257              
41
0.002
42
0.002
43
0.002
50
0.0
0
TEXT
8
CODE
62
3
7
STD
40
0.25
41
1.0
50
0.0
51
0.0
10
13.9202             
20
4.9331              
30
3.9257              
1
 WAND
0
TEXT
8
PT_ID
62
3
7
STD
40
0.25
41
1.0
50
0.0
51
0.0
10
13.9202             
20
4.9331              
30
3.9257              
1
 A146
0
TEXT
8
HEIGHT
62
3
7
STD
40
0.25
41
1.0
50
0.0
51
0.0
10
13.9202             
20
4.9331              
30
3.9257              
1
 3.926
0
TEXT
8
CO_ORDS
62
3
7
STD
40
0.25
41
1.0
50
0.0
51
0.0
10
13.9202             
20
4.9331              
30
3.9257              
1
 13.920 4.933
0
INSERT
8
POINT
62
2
2
CROSS
10
13.9913             
20
4.6365              
30
3.8853              
41
0.002
42
0.002
43
0.002
50
0.0
0
TEXT
8
CODE
62
3
7
STD
40
0.25
41
1.0
50
0.0
51
0.0
10
13.9913             
20
4.6365              
30
3.8853              
1
 WAND
0
TEXT
8
PT_ID
62
3
7
STD
40
0.25
41
1.0
50
0.0
51
0.0
10
13.9913             
20
4.6365              
30
3.8853              
1
 A147
0
TEXT
8
HEIGHT
62
3
7
STD
40
0.25
41
1.0
50
0.0
51
0.0
10
13.9913             
20
4.6365              
30
3.8853              
1
 3.885
0
TEXT
8
CO_ORDS
62
3
7
STD
40
0.25
41
1.0
50
0.0
51
0.0
10
13.9913             
20
4.6365              
30
3.8853              
1
 13.991 4.636
0
INSERT
8
POINT
62
2
2
CROSS
10
13.9951             
20
2.7298              
30
3.7506              
41
0.002
42
0.002
43
0.002
50
0.0
0
TEXT
8
CODE
62
3
7
STD
40
0.25
41
1.0
50
0.0
51
0.0
10
13.9951             
20
2.7298              
30
3.7506              
1
 WAND
0
TEXT
8
PT_ID
62
3
7
STD
40
0.25
41
1.0
50
0.0
51
0.0
10
13.9951             
20
2.7298              
30
3.7506              
1
 A148
0
TEXT
8
HEIGHT
62
3
7
STD
40
0.25
41
1.0
50
0.0
51
0.0
10
13.9951             
20
2.7298              
30
3.7506              
1
 3.751
0
TEXT
8
CO_ORDS
62
3
7
STD
40
0.25
41
1.0
50
0.0
51
0.0
10
13.9951             
20
2.7298              
30
3.7506              
1
 13.995 2.730
0
INSERT
8
POINT
62
2
2
CROSS
10
13.8258             
20
2.6369              
30
3.7124              
41
0.002
42
0.002
43
0.002
50
0.0
0
TEXT
8
CODE
62
3
7
STD
40
0.25
41
1.0
50
0.0
51
0.0
10
13.8258             
20
2.6369              
30
3.7124              
1
 WAND
0
TEXT
8
PT_ID
62
3
7
STD
40
0.25
41
1.0
50
0.0
51
0.0
10
13.8258             
20
2.6369              
30
3.7124              
1
 A149
0
TEXT
8
HEIGHT
62
3
7
STD
40
0.25
41
1.0
50
0.0
51
0.0
10
13.8258             
20
2.6369              
30
3.7124              
1
 3.712
0
TEXT
8
CO_ORDS
62
3
7
STD
40
0.25
41
1.0
50
0.0
51
0.0
10
13.8258             
20
2.6369              
30
3.7124              
1
 13.826 2.637
0
INSERT
8
POINT
62
2
2
CROSS
10
11.9451             
20
2.6465              
30
3.7598              
41
0.002
42
0.002
43
0.002
50
0.0
0
TEXT
8
CODE
62
3
7
STD
40
0.25
41
1.0
50
0.0
51
0.0
10
11.9451             
20
2.6465              
30
3.7598              
1
 WAND
0
TEXT
8
PT_ID
62
3
7
STD
40
0.25
41
1.0
50
0.0
51
0.0
10
11.9451             
20
2.6465              
30
3.7598              
1
 A150
0
TEXT
8
HEIGHT
62
3
7
STD
40
0.25
41
1.0
50
0.0
51
0.0
10
11.9451             
20
2.6465              
30
3.7598              
1
 3.760
0
TEXT
8
CO_ORDS
62
3
7
STD
40
0.25
41
1.0
50
0.0
51
0.0
10
11.9451             
20
2.6465              
30
3.7598              
1
 11.945 2.646
0
INSERT
8
POINT
62
2
2
CROSS
10
10.2089             
20
2.6539              
30
3.7886              
41
0.002
42
0.002
43
0.002
50
0.0
0
TEXT
8
CODE
62
3
7
STD
40
0.25
41
1.0
50
0.0
51
0.0
10
10.2089             
20
2.6539              
30
3.7886              
1
 WAND
0
TEXT
8
PT_ID
62
3
7
STD
40
0.25
41
1.0
50
0.0
51
0.0
10
10.2089             
20
2.6539              
30
3.7886              
1
 A151
0
TEXT
8
HEIGHT
62
3
7
STD
40
0.25
41
1.0
50
0.0
51
0.0
10
10.2089             
20
2.6539              
30
3.7886              
1
 3.789
0
TEXT
8
CO_ORDS
62
3
7
STD
40
0.25
41
1.0
50
0.0
51
0.0
10
10.2089             
20
2.6539              
30
3.7886              
1
 10.209 2.654
0
INSERT
8
POINT
62
2
2
CROSS
10
9.2116              
20
2.6556              
30
3.8913              
41
0.002
42
0.002
43
0.002
50
0.0
0
TEXT
8
CODE
62
3
7
STD
40
0.25
41
1.0
50
0.0
51
0.0
10
9.2116              
20
2.6556              
30
3.8913              
1
 WAND
0
TEXT
8
PT_ID
62
3
7
STD
40
0.25
41
1.0
50
0.0
51
0.0
10
9.2116              
20
2.6556              
30
3.8913              
1
 A152
0
TEXT
8
HEIGHT
62
3
7
STD
40
0.25
41
1.0
50
0.0
51
0.0
10
9.2116              
20
2.6556              
30
3.8913              
1
 3.891
0
TEXT
8
CO_ORDS
62
3
7
STD
40
0.25
41
1.0
50
0.0
51
0.0
10
9.2116              
20
2.6556              
30
3.8913              
1
 9.212 2.656
0
INSERT
8
POINT
62
2
2
CROSS
10
9.0595              
20
2.7584              
30
3.8444              
41
0.002
42
0.002
43
0.002
50
0.0
0
TEXT
8
CODE
62
3
7
STD
40
0.25
41
1.0
50
0.0
51
0.0
10
9.0595              
20
2.7584              
30
3.8444              
1
 WAND
0
TEXT
8
PT_ID
62
3
7
STD
40
0.25
41
1.0
50
0.0
51
0.0
10
9.0595              
20
2.7584              
30
3.8444              
1
 A153
0
TEXT
8
HEIGHT
62
3
7
STD
40
0.25
41
1.0
50
0.0
51
0.0
10
9.0595              
20
2.7584              
30
3.8444              
1
 3.844
0
TEXT
8
CO_ORDS
62
3
7
STD
40
0.25
41
1.0
50
0.0
51
0.0
10
9.0595              
20
2.7584              
30
3.8444              
1
 9.060 2.758
0
INSERT
8
POINT
62
2
2
CROSS
10
9.0610              
20
4.5844              
30
3.9263              
41
0.002
42
0.002
43
0.002
50
0.0
0
TEXT
8
CODE
62
3
7
STD
40
0.25
41
1.0
50
0.0
51
0.0
10
9.0610              
20
4.5844              
30
3.9263              
1
 WAND
0
TEXT
8
PT_ID
62
3
7
STD
40
0.25
41
1.0
50
0.0
51
0.0
10
9.0610              
20
4.5844              
30
3.9263              
1
 A154
0
TEXT
8
HEIGHT
62
3
7
STD
40
0.25
41
1.0
50
0.0
51
0.0
10
9.0610              
20
4.5844              
30
3.9263              
1
 3.926
0
TEXT
8
CO_ORDS
62
3
7
STD
40
0.25
41
1.0
50
0.0
51
0.0
10
9.0610              
20
4.5844              
30
3.9263              
1
 9.061 4.584
0
INSERT
8
POINT
62
2
2
CROSS
10
11.1988             
20
2.8117              
30
3.5504              
41
0.002
42
0.002
43
0.002
50
0.0
0
TEXT
8
CODE
62
3
7
STD
40
0.25
41
1.0
50
0.0
51
0.0
10
11.1988             
20
2.8117              
30
3.5504              
1
 TUR
0
TEXT
8
PT_ID
62
3
7
STD
40
0.25
41
1.0
50
0.0
51
0.0
10
11.1988             
20
2.8117              
30
3.5504              
1
 A155
0
TEXT
8
HEIGHT
62
3
7
STD
40
0.25
41
1.0
50
0.0
51
0.0
10
11.1988             
20
2.8117              
30
3.5504              
1
 3.550
0
TEXT
8
CO_ORDS
62
3
7
STD
40
0.25
41
1.0
50
0.0
51
0.0
10
11.1988             
20
2.8117              
30
3.5504              
1
 11.199 2.812
0
INSERT
8
POINT
62
2
2
CROSS
10
11.1924             
20
3.6141              
30
3.5530              
41
0.002
42
0.002
43
0.002
50
0.0
0
TEXT
8
CODE
62
3
7
STD
40
0.25
41
1.0
50
0.0
51
0.0
10
11.1924             
20
3.6141              
30
3.5530              
1
 TUR
0
TEXT
8
PT_ID
62
3
7
STD
40
0.25
41
1.0
50
0.0
51
0.0
10
11.1924             
20
3.6141              
30
3.5530              
1
 A156
0
TEXT
8
HEIGHT
62
3
7
STD
40
0.25
41
1.0
50
0.0
51
0.0
10
11.1924             
20
3.6141              
30
3.5530              
1
 3.553
0
TEXT
8
CO_ORDS
62
3
7
STD
40
0.25
41
1.0
50
0.0
51
0.0
10
11.1924             
20
3.6141              
30
3.5530              
1
 11.192 3.614
0
INSERT
8
POINT
62
2
2
CROSS
10
11.4330             
20
2.6091              
30
3.5435              
41
0.002
42
0.002
43
0.002
50
0.0
0
TEXT
8
CODE
62
3
7
STD
40
0.25
41
1.0
50
0.0
51
0.0
10
11.4330             
20
2.6091              
30
3.5435              
1
 TUR
0
TEXT
8
PT_ID
62
3
7
STD
40
0.25
41
1.0
50
0.0
51
0.0
10
11.4330             
20
2.6091              
30
3.5435              
1
 A157
0
TEXT
8
HEIGHT
62
3
7
STD
40
0.25
41
1.0
50
0.0
51
0.0
10
11.4330             
20
2.6091              
30
3.5435              
1
 3.544
0
TEXT
8
CO_ORDS
62
3
7
STD
40
0.25
41
1.0
50
0.0
51
0.0
10
11.4330             
20
2.6091              
30
3.5435              
1
 11.433 2.609
0
INSERT
8
POINT
62
2
2
CROSS
10
12.2361             
20
2.6502              
30
3.5461              
41
0.002
42
0.002
43
0.002
50
0.0
0
TEXT
8
CODE
62
3
7
STD
40
0.25
41
1.0
50
0.0
51
0.0
10
12.2361             
20
2.6502              
30
3.5461              
1
 TUR
0
TEXT
8
PT_ID
62
3
7
STD
40
0.25
41
1.0
50
0.0
51
0.0
10
12.2361             
20
2.6502              
30
3.5461              
1
 A158
0
TEXT
8
HEIGHT
62
3
7
STD
40
0.25
41
1.0
50
0.0
51
0.0
10
12.2361             
20
2.6502              
30
3.5461              
1
 3.546
0
TEXT
8
CO_ORDS
62
3
7
STD
40
0.25
41
1.0
50
0.0
51
0.0
10
12.2361             
20
2.6502              
30
3.5461              
1
 12.236 2.650
0
INSERT
8
POINT
62
2
2
CROSS
10
12.1877             
20
4.9698              
30
3.5345              
41
0.002
42
0.002
43
0.002
50
0.0
0
TEXT
8
CODE
62
3
7
STD
40
0.25
41
1.0
50
0.0
51
0.0
10
12.1877             
20
4.9698              
30
3.5345              
1
 TUR
0
TEXT
8
PT_ID
62
3
7
STD
40
0.25
41
1.0
50
0.0
51
0.0
10
12.1877             
20
4.9698              
30
3.5345              
1
 A159
0
TEXT
8
HEIGHT
62
3
7
STD
40
0.25
41
1.0
50
0.0
51
0.0
10
12.1877             
20
4.9698              
30
3.5345              
1
 3.534
0
TEXT
8
CO_ORDS
62
3
7
STD
40
0.25
41
1.0
50
0.0
51
0.0
10
12.1877             
20
4.9698              
30
3.5345              
1
 12.188 4.970
0
INSERT
8
POINT
62
2
2
CROSS
10
12.9855             
20
4.9953              
30
3.5351              
41
0.002
42
0.002
43
0.002
50
0.0
0
TEXT
8
CODE
62
3
7
STD
40
0.25
41
1.0
50
0.0
51
0.0
10
12.9855             
20
4.9953              
30
3.5351              
1
 TUR
0
TEXT
8
PT_ID
62
3
7
STD
40
0.25
41
1.0
50
0.0
51
0.0
10
12.9855             
20
4.9953              
30
3.5351              
1
 A160
0
TEXT
8
HEIGHT
62
3
7
STD
40
0.25
41
1.0
50
0.0
51
0.0
10
12.9855             
20
4.9953              
30
3.5351              
1
 3.535
0
TEXT
8
CO_ORDS
62
3
7
STD
40
0.25
41
1.0
50
0.0
51
0.0
10
12.9855             
20
4.9953              
30
3.5351              
1
 12.985 4.995
0
INSERT
8
POINT
62
2
2
CROSS
10
12.1141             
20
3.5643              
30
4.2346              
41
0.002
42
0.002
43
0.002
50
0.0
0
TEXT
8
CODE
62
3
7
STD
40
0.25
41
1.0
50
0.0
51
0.0
10
12.1141             
20
3.5643              
30
4.2346              
1
 DUK
0
TEXT
8
PT_ID
62
3
7
STD
40
0.25
41
1.0
50
0.0
51
0.0
10
12.1141             
20
3.5643              
30
4.2346              
1
 A161
0
TEXT
8
HEIGHT
62
3
7
STD
40
0.25
41
1.0
50
0.0
51
0.0
10
12.1141             
20
3.5643              
30
4.2346              
1
 4.235
0
TEXT
8
CO_ORDS
62
3
7
STD
40
0.25
41
1.0
50
0.0
51
0.0
10
12.1141             
20
3.5643              
30
4.2346              
1
 12.114 3.564
0
INSERT
8
POINT
62
2
2
CROSS
10
10.1055             
20
3.3234              
30
1.5433              
41
0.002
42
0.002
43
0.002
50
0.0
0
TEXT
8
CODE
62
3
7
STD
40
0.25
41
1.0
50
0.0
51
0.0
10
10.1055             
20
3.3234              
30
1.5433              
1
 BH
0
TEXT
8
PT_ID
62
3
7
STD
40
0.25
41
1.0
50
0.0
51
0.0
10
10.1055             
20
3.3234              
30
1.5433              
1
 A162
0
TEXT
8
HEIGHT
62
3
7
STD
40
0.25
41
1.0
50
0.0
51
0.0
10
10.1055             
20
3.3234              
30
1.5433              
1
 1.543
0
TEXT
8
CO_ORDS
62
3
7
STD
40
0.25
41
1.0
50
0.0
51
0.0
10
10.1055             
20
3.3234              
30
1.5433              
1
 10.105 3.323
0
INSERT
8
POINT
62
2
2
CROSS
10
12.7500             
20
3.8074              
30
1.5543              
41
0.002
42
0.002
43
0.002
50
0.0
0
TEXT
8
CODE
62
3
7
STD
40
0.25
41
1.0
50
0.0
51
0.0
10
12.7500             
20
3.8074              
30
1.5543              
1
 BH
0
TEXT
8
PT_ID
62
3
7
STD
40
0.25
41
1.0
50
0.0
51
0.0
10
12.7500             
20
3.8074              
30
1.5543              
1
 A163
0
TEXT
8
HEIGHT
62
3
7
STD
40
0.25
41
1.0
50
0.0
51
0.0
10
12.7500             
20
3.8074              
30
1.5543              
1
 1.554
0
TEXT
8
CO_ORDS
62
3
7
STD
40
0.25
41
1.0
50
0.0
51
0.0
10
12.7500             
20
3.8074              
30
1.5543              
1
 12.750 3.807
0
INSERT
8
POINT
62
2
2
CROSS
10
13.8861             
20
-2.0272             
30
3.1625              
41
0.002
42
0.002
43
0.002
50
0.0
0
TEXT
8
CODE
62
3
7
STD
40
0.25
41
1.0
50
0.0
51
0.0
10
13.8861             
20
-2.0272             
30
3.1625              
1
 WAND
0
TEXT
8
PT_ID
62
3
7
STD
40
0.25
41
1.0
50
0.0
51
0.0
10
13.8861             
20
-2.0272             
30
3.1625              
1
 A164
0
TEXT
8
HEIGHT
62
3
7
STD
40
0.25
41
1.0
50
0.0
51
0.0
10
13.8861             
20
-2.0272             
30
3.1625              
1
 3.162
0
TEXT
8
CO_ORDS
62
3
7
STD
40
0.25
41
1.0
50
0.0
51
0.0
10
13.8861             
20
-2.0272             
30
3.1625              
1
 13.886 -2.027
0
INSERT
8
POINT
62
2
2
CROSS
10
13.9613             
20
-1.9535             
30
3.1623              
41
0.002
42
0.002
43
0.002
50
0.0
0
TEXT
8
CODE
62
3
7
STD
40
0.25
41
1.0
50
0.0
51
0.0
10
13.9613             
20
-1.9535             
30
3.1623              
1
 WAND
0
TEXT
8
PT_ID
62
3
7
STD
40
0.25
41
1.0
50
0.0
51
0.0
10
13.9613             
20
-1.9535             
30
3.1623              
1
 A165
0
TEXT
8
HEIGHT
62
3
7
STD
40
0.25
41
1.0
50
0.0
51
0.0
10
13.9613             
20
-1.9535             
30
3.1623              
1
 3.162
0
TEXT
8
CO_ORDS
62
3
7
STD
40
0.25
41
1.0
50
0.0
51
0.0
10
13.9613             
20
-1.9535             
30
3.1623              
1
 13.961 -1.954
0
INSERT
8
POINT
62
2
2
CROSS
10
13.9916             
20
2.4320              
30
3.7026              
41
0.002
42
0.002
43
0.002
50
0.0
0
TEXT
8
CODE
62
3
7
STD
40
0.25
41
1.0
50
0.0
51
0.0
10
13.9916             
20
2.4320              
30
3.7026              
1
 WAND
0
TEXT
8
PT_ID
62
3
7
STD
40
0.25
41
1.0
50
0.0
51
0.0
10
13.9916             
20
2.4320              
30
3.7026              
1
 A166
0
TEXT
8
HEIGHT
62
3
7
STD
40
0.25
41
1.0
50
0.0
51
0.0
10
13.9916             
20
2.4320              
30
3.7026              
1
 3.703
0
TEXT
8
CO_ORDS
62
3
7
STD
40
0.25
41
1.0
50
0.0
51
0.0
10
13.9916             
20
2.4320              
30
3.7026              
1
 13.992 2.432
0
INSERT
8
POINT
62
2
2
CROSS
10
13.7828             
20
2.5403              
30
3.8155              
41
0.002
42
0.002
43
0.002
50
0.0
0
TEXT
8
CODE
62
3
7
STD
40
0.25
41
1.0
50
0.0
51
0.0
10
13.7828             
20
2.5403              
30
3.8155              
1
 WAND
0
TEXT
8
PT_ID
62
3
7
STD
40
0.25
41
1.0
50
0.0
51
0.0
10
13.7828             
20
2.5403              
30
3.8155              
1
 A167
0
TEXT
8
HEIGHT
62
3
7
STD
40
0.25
41
1.0
50
0.0
51
0.0
10
13.7828             
20
2.5403              
30
3.8155              
1
 3.816
0
TEXT
8
CO_ORDS
62
3
7
STD
40
0.25
41
1.0
50
0.0
51
0.0
10
13.7828             
20
2.5403              
30
3.8155              
1
 13.783 2.540
0
INSERT
8
POINT
62
2
2
CROSS
10
9.1467              
20
2.5588              
30
3.9638              
41
0.002
42
0.002
43
0.002
50
0.0
0
TEXT
8
CODE
62
3
7
STD
40
0.25
41
1.0
50
0.0
51
0.0
10
9.1467              
20
2.5588              
30
3.9638              
1
 WAND
0
TEXT
8
PT_ID
62
3
7
STD
40
0.25
41
1.0
50
0.0
51
0.0
10
9.1467              
20
2.5588              
30
3.9638              
1
 A168
0
TEXT
8
HEIGHT
62
3
7
STD
40
0.25
41
1.0
50
0.0
51
0.0
10
9.1467              
20
2.5588              
30
3.9638              
1
 3.964
0
TEXT
8
CO_ORDS
62
3
7
STD
40
0.25
41
1.0
50
0.0
51
0.0
10
9.1467              
20
2.5588              
30
3.9638              
1
 9.147 2.559
0
INSERT
8
POINT
62
2
2
CROSS
10
9.0149              
20
2.4291              
30
3.9684              
41
0.002
42
0.002
43
0.002
50
0.0
0
TEXT
8
CODE
62
3
7
STD
40
0.25
41
1.0
50
0.0
51
0.0
10
9.0149              
20
2.4291              
30
3.9684              
1
 WAND
0
TEXT
8
PT_ID
62
3
7
STD
40
0.25
41
1.0
50
0.0
51
0.0
10
9.0149              
20
2.4291              
30
3.9684              
1
 A169
0
TEXT
8
HEIGHT
62
3
7
STD
40
0.25
41
1.0
50
0.0
51
0.0
10
9.0149              
20
2.4291              
30
3.9684              
1
 3.968
0
TEXT
8
CO_ORDS
62
3
7
STD
40
0.25
41
1.0
50
0.0
51
0.0
10
9.0149              
20
2.4291              
30
3.9684              
1
 9.015 2.429
0
INSERT
8
POINT
62
2
2
CROSS
10
9.0219              
20
-1.9325             
30
3.9551              
41
0.002
42
0.002
43
0.002
50
0.0
0
TEXT
8
CODE
62
3
7
STD
40
0.25
41
1.0
50
0.0
51
0.0
10
9.0219              
20
-1.9325             
30
3.9551              
1
 WAND
0
TEXT
8
PT_ID
62
3
7
STD
40
0.25
41
1.0
50
0.0
51
0.0
10
9.0219              
20
-1.9325             
30
3.9551              
1
 A170
0
TEXT
8
HEIGHT
62
3
7
STD
40
0.25
41
1.0
50
0.0
51
0.0
10
9.0219              
20
-1.9325             
30
3.9551              
1
 3.955
0
TEXT
8
CO_ORDS
62
3
7
STD
40
0.25
41
1.0
50
0.0
51
0.0
10
9.0219              
20
-1.9325             
30
3.9551              
1
 9.022 -1.933
0
INSERT
8
POINT
62
2
2
CROSS
10
9.0902              
20
-2.0092             
30
3.9532              
41
0.002
42
0.002
43
0.002
50
0.0
0
TEXT
8
CODE
62
3
7
STD
40
0.25
41
1.0
50
0.0
51
0.0
10
9.0902              
20
-2.0092             
30
3.9532              
1
 WAND
0
TEXT
8
PT_ID
62
3
7
STD
40
0.25
41
1.0
50
0.0
51
0.0
10
9.0902              
20
-2.0092             
30
3.9532              
1
 A171
0
TEXT
8
HEIGHT
62
3
7
STD
40
0.25
41
1.0
50
0.0
51
0.0
10
9.0902              
20
-2.0092             
30
3.9532              
1
 3.953
0
TEXT
8
CO_ORDS
62
3
7
STD
40
0.25
41
1.0
50
0.0
51
0.0
10
9.0902              
20
-2.0092             
30
3.9532              
1
 9.090 -2.009
0
INSERT
8
POINT
62
2
2
CROSS
10
10.0970             
20
-2.0228             
30
3.8101              
41
0.002
42
0.002
43
0.002
50
0.0
0
TEXT
8
CODE
62
3
7
STD
40
0.25
41
1.0
50
0.0
51
0.0
10
10.0970             
20
-2.0228             
30
3.8101              
1
 WAND
0
TEXT
8
PT_ID
62
3
7
STD
40
0.25
41
1.0
50
0.0
51
0.0
10
10.0970             
20
-2.0228             
30
3.8101              
1
 A172
0
TEXT
8
HEIGHT
62
3
7
STD
40
0.25
41
1.0
50
0.0
51
0.0
10
10.0970             
20
-2.0228             
30
3.8101              
1
 3.810
0
TEXT
8
CO_ORDS
62
3
7
STD
40
0.25
41
1.0
50
0.0
51
0.0
10
10.0970             
20
-2.0228             
30
3.8101              
1
 10.097 -2.023
0
INSERT
8
POINT
62
2
2
CROSS
10
10.4694             
20
-2.1834             
30
4.1655              
41
0.002
42
0.002
43
0.002
50
0.0
0
TEXT
8
CODE
62
3
7
STD
40
0.25
41
1.0
50
0.0
51
0.0
10
10.4694             
20
-2.1834             
30
4.1655              
1
 UK
0
TEXT
8
PT_ID
62
3
7
STD
40
0.25
41
1.0
50
0.0
51
0.0
10
10.4694             
20
-2.1834             
30
4.1655              
1
 A173
0
TEXT
8
HEIGHT
62
3
7
STD
40
0.25
41
1.0
50
0.0
51
0.0
10
10.4694             
20
-2.1834             
30
4.1655              
1
 4.165
0
TEXT
8
CO_ORDS
62
3
7
STD
40
0.25
41
1.0
50
0.0
51
0.0
10
10.4694             
20
-2.1834             
30
4.1655              
1
 10.469 -2.183
0
INSERT
8
POINT
62
2
2
CROSS
10
10.4178             
20
-2.1802             
30
4.1395              
41
0.002
42
0.002
43
0.002
50
0.0
0
TEXT
8
CODE
62
3
7
STD
40
0.25
41
1.0
50
0.0
51
0.0
10
10.4178             
20
-2.1802             
30
4.1395              
1
 UK
0
TEXT
8
PT_ID
62
3
7
STD
40
0.25
41
1.0
50
0.0
51
0.0
10
10.4178             
20
-2.1802             
30
4.1395              
1
 A174
0
TEXT
8
HEIGHT
62
3
7
STD
40
0.25
41
1.0
50
0.0
51
0.0
10
10.4178             
20
-2.1802             
30
4.1395              
1
 4.139
0
TEXT
8
CO_ORDS
62
3
7
STD
40
0.25
41
1.0
50
0.0
51
0.0
10
10.4178             
20
-2.1802             
30
4.1395              
1
 10.418 -2.180
0
INSERT
8
POINT
62
2
2
CROSS
10
11.2302             
20
-2.1731             
30
4.3710              
41
0.002
42
0.002
43
0.002
50
0.0
0
TEXT
8
CODE
62
3
7
STD
40
0.25
41
1.0
50
0.0
51
0.0
10
11.2302             
20
-2.1731             
30
4.3710              
1
 UK
0
TEXT
8
PT_ID
62
3
7
STD
40
0.25
41
1.0
50
0.0
51
0.0
10
11.2302             
20
-2.1731             
30
4.3710              
1
 A175
0
TEXT
8
HEIGHT
62
3
7
STD
40
0.25
41
1.0
50
0.0
51
0.0
10
11.2302             
20
-2.1731             
30
4.3710              
1
 4.371
0
TEXT
8
CO_ORDS
62
3
7
STD
40
0.25
41
1.0
50
0.0
51
0.0
10
11.2302             
20
-2.1731             
30
4.3710              
1
 11.230 -2.173
0
INSERT
8
POINT
62
2
2
CROSS
10
11.4908             
20
-2.1882             
30
4.3815              
41
0.002
42
0.002
43
0.002
50
0.0
0
TEXT
8
CODE
62
3
7
STD
40
0.25
41
1.0
50
0.0
51
0.0
10
11.4908             
20
-2.1882             
30
4.3815              
1
 UK
0
TEXT
8
PT_ID
62
3
7
STD
40
0.25
41
1.0
50
0.0
51
0.0
10
11.4908             
20
-2.1882             
30
4.3815              
1
 A176
0
TEXT
8
HEIGHT
62
3
7
STD
40
0.25
41
1.0
50
0.0
51
0.0
10
11.4908             
20
-2.1882             
30
4.3815              
1
 4.381
0
TEXT
8
CO_ORDS
62
3
7
STD
40
0.25
41
1.0
50
0.0
51
0.0
10
11.4908             
20
-2.1882             
30
4.3815              
1
 11.491 -2.188
0
INSERT
8
POINT
62
2
2
CROSS
10
12.0308             
20
-2.1894             
30
4.3214              
41
0.002
42
0.002
43
0.002
50
0.0
0
TEXT
8
CODE
62
3
7
STD
40
0.25
41
1.0
50
0.0
51
0.0
10
12.0308             
20
-2.1894             
30
4.3214              
1
 UK
0
TEXT
8
PT_ID
62
3
7
STD
40
0.25
41
1.0
50
0.0
51
0.0
10
12.0308             
20
-2.1894             
30
4.3214              
1
 A177
0
TEXT
8
HEIGHT
62
3
7
STD
40
0.25
41
1.0
50
0.0
51
0.0
10
12.0308             
20
-2.1894             
30
4.3214              
1
 4.321
0
TEXT
8
CO_ORDS
62
3
7
STD
40
0.25
41
1.0
50
0.0
51
0.0
10
12.0308             
20
-2.1894             
30
4.3214              
1
 12.031 -2.189
0
INSERT
8
POINT
62
2
2
CROSS
10
12.0324             
20
-0.6156             
30
4.5267              
41
0.002
42
0.002
43
0.002
50
0.0
0
TEXT
8
CODE
62
3
7
STD
40
0.25
41
1.0
50
0.0
51
0.0
10
12.0324             
20
-0.6156             
30
4.5267              
1
 DUK
0
TEXT
8
PT_ID
62
3
7
STD
40
0.25
41
1.0
50
0.0
51
0.0
10
12.0324             
20
-0.6156             
30
4.5267              
1
 A178
0
TEXT
8
HEIGHT
62
3
7
STD
40
0.25
41
1.0
50
0.0
51
0.0
10
12.0324             
20
-0.6156             
30
4.5267              
1
 4.527
0
TEXT
8
CO_ORDS
62
3
7
STD
40
0.25
41
1.0
50
0.0
51
0.0
10
12.0324             
20
-0.6156             
30
4.5267              
1
 12.032 -0.616
0
INSERT
8
POINT
62
2
2
CROSS
10
12.0696             
20
-1.4181             
30
1.5549              
41
0.002
42
0.002
43
0.002
50
0.0
0
TEXT
8
CODE
62
3
7
STD
40
0.25
41
1.0
50
0.0
51
0.0
10
12.0696             
20
-1.4181             
30
1.5549              
1
 BH
0
TEXT
8
PT_ID
62
3
7
STD
40
0.25
41
1.0
50
0.0
51
0.0
10
12.0696             
20
-1.4181             
30
1.5549              
1
 A179
0
TEXT
8
HEIGHT
62
3
7
STD
40
0.25
41
1.0
50
0.0
51
0.0
10
12.0696             
20
-1.4181             
30
1.5549              
1
 1.555
0
TEXT
8
CO_ORDS
62
3
7
STD
40
0.25
41
1.0
50
0.0
51
0.0
10
12.0696             
20
-1.4181             
30
1.5549              
1
 12.070 -1.418
0
INSERT
8
POINT
62
2
2
CROSS
10
11.4249             
20
2.1697              
30
1.5587              
41
0.002
42
0.002
43
0.002
50
0.0
0
TEXT
8
CODE
62
3
7
STD
40
0.25
41
1.0
50
0.0
51
0.0
10
11.4249             
20
2.1697              
30
1.5587              
1
 BH
0
TEXT
8
PT_ID
62
3
7
STD
40
0.25
41
1.0
50
0.0
51
0.0
10
11.4249             
20
2.1697              
30
1.5587              
1
 A180
0
TEXT
8
HEIGHT
62
3
7
STD
40
0.25
41
1.0
50
0.0
51
0.0
10
11.4249             
20
2.1697              
30
1.5587              
1
 1.559
0
TEXT
8
CO_ORDS
62
3
7
STD
40
0.25
41
1.0
50
0.0
51
0.0
10
11.4249             
20
2.1697              
30
1.5587              
1
 11.425 2.170
0
INSERT
8
POINT
62
2
2
CROSS
10
12.5241             
20
7.9103              
30
1.5392              
41
0.002
42
0.002
43
0.002
50
0.0
0
TEXT
8
CODE
62
3
7
STD
40
0.25
41
1.0
50
0.0
51
0.0
10
12.5241             
20
7.9103              
30
1.5392              
1
 BH
0
TEXT
8
PT_ID
62
3
7
STD
40
0.25
41
1.0
50
0.0
51
0.0
10
12.5241             
20
7.9103              
30
1.5392              
1
 A181
0
TEXT
8
HEIGHT
62
3
7
STD
40
0.25
41
1.0
50
0.0
51
0.0
10
12.5241             
20
7.9103              
30
1.5392              
1
 1.539
0
TEXT
8
CO_ORDS
62
3
7
STD
40
0.25
41
1.0
50
0.0
51
0.0
10
12.5241             
20
7.9103              
30
1.5392              
1
 12.524 7.910
0
INSERT
8
POINT
62
2
2
CROSS
10
13.0975             
20
12.8882             
30
1.5578              
41
0.002
42
0.002
43
0.002
50
0.0
0
TEXT
8
CODE
62
3
7
STD
40
0.25
41
1.0
50
0.0
51
0.0
10
13.0975             
20
12.8882             
30
1.5578              
1
 BH
0
TEXT
8
PT_ID
62
3
7
STD
40
0.25
41
1.0
50
0.0
51
0.0
10
13.0975             
20
12.8882             
30
1.5578              
1
 A182
0
TEXT
8
HEIGHT
62
3
7
STD
40
0.25
41
1.0
50
0.0
51
0.0
10
13.0975             
20
12.8882             
30
1.5578              
1
 1.558
0
TEXT
8
CO_ORDS
62
3
7
STD
40
0.25
41
1.0
50
0.0
51
0.0
10
13.0975             
20
12.8882             
30
1.5578              
1
 13.098 12.888
0
INSERT
8
POINT
62
2
2
CROSS
10
12.9503             
20
8.9436              
30
4.2045              
41
0.002
42
0.002
43
0.002
50
0.0
0
TEXT
8
CODE
62
3
7
STD
40
0.25
41
1.0
50
0.0
51
0.0
10
12.9503             
20
8.9436              
30
4.2045              
1
 DUK
0
TEXT
8
PT_ID
62
3
7
STD
40
0.25
41
1.0
50
0.0
51
0.0
10
12.9503             
20
8.9436              
30
4.2045              
1
 A183
0
TEXT
8
HEIGHT
62
3
7
STD
40
0.25
41
1.0
50
0.0
51
0.0
10
12.9503             
20
8.9436              
30
4.2045              
1
 4.204
0
TEXT
8
CO_ORDS
62
3
7
STD
40
0.25
41
1.0
50
0.0
51
0.0
10
12.9503             
20
8.9436              
30
4.2045              
1
 12.950 8.944
0
INSERT
8
POINT
62
2
2
CROSS
10
15.2497             
20
8.2210              
30
3.9462              
41
0.002
42
0.002
43
0.002
50
0.0
0
TEXT
8
CODE
62
3
7
STD
40
0.25
41
1.0
50
0.0
51
0.0
10
15.2497             
20
8.2210              
30
3.9462              
1
 WAND
0
TEXT
8
PT_ID
62
3
7
STD
40
0.25
41
1.0
50
0.0
51
0.0
10
15.2497             
20
8.2210              
30
3.9462              
1
 A184
0
TEXT
8
HEIGHT
62
3
7
STD
40
0.25
41
1.0
50
0.0
51
0.0
10
15.2497             
20
8.2210              
30
3.9462              
1
 3.946
0
TEXT
8
CO_ORDS
62
3
7
STD
40
0.25
41
1.0
50
0.0
51
0.0
10
15.2497             
20
8.2210              
30
3.9462              
1
 15.250 8.221
0
INSERT
8
POINT
62
2
2
CROSS
10
15.2595             
20
9.4709              
30
3.9355              
41
0.002
42
0.002
43
0.002
50
0.0
0
TEXT
8
CODE
62
3
7
STD
40
0.25
41
1.0
50
0.0
51
0.0
10
15.2595             
20
9.4709              
30
3.9355              
1
 WAND
0
TEXT
8
PT_ID
62
3
7
STD
40
0.25
41
1.0
50
0.0
51
0.0
10
15.2595             
20
9.4709              
30
3.9355              
1
 A185
0
TEXT
8
HEIGHT
62
3
7
STD
40
0.25
41
1.0
50
0.0
51
0.0
10
15.2595             
20
9.4709              
30
3.9355              
1
 3.935
0
TEXT
8
CO_ORDS
62
3
7
STD
40
0.25
41
1.0
50
0.0
51
0.0
10
15.2595             
20
9.4709              
30
3.9355              
1
 15.259 9.471
0
INSERT
8
POINT
62
2
2
CROSS
10
13.4296             
20
7.5455              
30
3.9909              
41
0.002
42
0.002
43
0.002
50
0.0
0
TEXT
8
CODE
62
3
7
STD
40
0.25
41
1.0
50
0.0
51
0.0
10
13.4296             
20
7.5455              
30
3.9909              
1
 WAND
0
TEXT
8
PT_ID
62
3
7
STD
40
0.25
41
1.0
50
0.0
51
0.0
10
13.4296             
20
7.5455              
30
3.9909              
1
 A186
0
TEXT
8
HEIGHT
62
3
7
STD
40
0.25
41
1.0
50
0.0
51
0.0
10
13.4296             
20
7.5455              
30
3.9909              
1
 3.991
0
TEXT
8
CO_ORDS
62
3
7
STD
40
0.25
41
1.0
50
0.0
51
0.0
10
13.4296             
20
7.5455              
30
3.9909              
1
 13.430 7.545
0
INSERT
8
POINT
62
2
2
CROSS
10
11.8495             
20
7.5527              
30
3.7784              
41
0.002
42
0.002
43
0.002
50
0.0
0
TEXT
8
CODE
62
3
7
STD
40
0.25
41
1.0
50
0.0
51
0.0
10
11.8495             
20
7.5527              
30
3.7784              
1
 WAND
0
TEXT
8
PT_ID
62
3
7
STD
40
0.25
41
1.0
50
0.0
51
0.0
10
11.8495             
20
7.5527              
30
3.7784              
1
 A187
0
TEXT
8
HEIGHT
62
3
7
STD
40
0.25
41
1.0
50
0.0
51
0.0
10
11.8495             
20
7.5527              
30
3.7784              
1
 3.778
0
TEXT
8
CO_ORDS
62
3
7
STD
40
0.25
41
1.0
50
0.0
51
0.0
10
11.8495             
20
7.5527              
30
3.7784              
1
 11.849 7.553
0
INSERT
8
POINT
62
2
2
CROSS
10
11.7823             
20
7.6423              
30
3.8934              
41
0.002
42
0.002
43
0.002
50
0.0
0
TEXT
8
CODE
62
3
7
STD
40
0.25
41
1.0
50
0.0
51
0.0
10
11.7823             
20
7.6423              
30
3.8934              
1
 WAND
0
TEXT
8
PT_ID
62
3
7
STD
40
0.25
41
1.0
50
0.0
51
0.0
10
11.7823             
20
7.6423              
30
3.8934              
1
 A188
0
TEXT
8
HEIGHT
62
3
7
STD
40
0.25
41
1.0
50
0.0
51
0.0
10
11.7823             
20
7.6423              
30
3.8934              
1
 3.893
0
TEXT
8
CO_ORDS
62
3
7
STD
40
0.25
41
1.0
50
0.0
51
0.0
10
11.7823             
20
7.6423              
30
3.8934              
1
 11.782 7.642
0
INSERT
8
POINT
62
2
2
CROSS
10
11.7965             
20
9.7650              
30
3.7706              
41
0.002
42
0.002
43
0.002
50
0.0
0
TEXT
8
CODE
62
3
7
STD
40
0.25
41
1.0
50
0.0
51
0.0
10
11.7965             
20
9.7650              
30
3.7706              
1
 WAND
0
TEXT
8
PT_ID
62
3
7
STD
40
0.25
41
1.0
50
0.0
51
0.0
10
11.7965             
20
9.7650              
30
3.7706              
1
 A189
0
TEXT
8
HEIGHT
62
3
7
STD
40
0.25
41
1.0
50
0.0
51
0.0
10
11.7965             
20
9.7650              
30
3.7706              
1
 3.771
0
TEXT
8
CO_ORDS
62
3
7
STD
40
0.25
41
1.0
50
0.0
51
0.0
10
11.7965             
20
9.7650              
30
3.7706              
1
 11.797 9.765
0
INSERT
8
POINT
62
2
2
CROSS
10
11.9031             
20
9.8373              
30
3.8204              
41
0.002
42
0.002
43
0.002
50
0.0
0
TEXT
8
CODE
62
3
7
STD
40
0.25
41
1.0
50
0.0
51
0.0
10
11.9031             
20
9.8373              
30
3.8204              
1
 WAND
0
TEXT
8
PT_ID
62
3
7
STD
40
0.25
41
1.0
50
0.0
51
0.0
10
11.9031             
20
9.8373              
30
3.8204              
1
 A190
0
TEXT
8
HEIGHT
62
3
7
STD
40
0.25
41
1.0
50
0.0
51
0.0
10
11.9031             
20
9.8373              
30
3.8204              
1
 3.820
0
TEXT
8
CO_ORDS
62
3
7
STD
40
0.25
41
1.0
50
0.0
51
0.0
10
11.9031             
20
9.8373              
30
3.8204              
1
 11.903 9.837
0
INSERT
8
POINT
62
2
2
CROSS
10
13.5190             
20
9.8354              
30
3.8901              
41
0.002
42
0.002
43
0.002
50
0.0
0
TEXT
8
CODE
62
3
7
STD
40
0.25
41
1.0
50
0.0
51
0.0
10
13.5190             
20
9.8354              
30
3.8901              
1
 WAND
0
TEXT
8
PT_ID
62
3
7
STD
40
0.25
41
1.0
50
0.0
51
0.0
10
13.5190             
20
9.8354              
30
3.8901              
1
 A191
0
TEXT
8
HEIGHT
62
3
7
STD
40
0.25
41
1.0
50
0.0
51
0.0
10
13.5190             
20
9.8354              
30
3.8901              
1
 3.890
0
TEXT
8
CO_ORDS
62
3
7
STD
40
0.25
41
1.0
50
0.0
51
0.0
10
13.5190             
20
9.8354              
30
3.8901              
1
 13.519 9.835
0
INSERT
8
POINT
62
2
2
CROSS
10
14.4483             
20
8.9928              
30
1.5429              
41
0.002
42
0.002
43
0.002
50
0.0
0
TEXT
8
CODE
62
3
7
STD
40
0.25
41
1.0
50
0.0
51
0.0
10
14.4483             
20
8.9928              
30
1.5429              
1
 BH
0
TEXT
8
PT_ID
62
3
7
STD
40
0.25
41
1.0
50
0.0
51
0.0
10
14.4483             
20
8.9928              
30
1.5429              
1
 A192
0
TEXT
8
HEIGHT
62
3
7
STD
40
0.25
41
1.0
50
0.0
51
0.0
10
14.4483             
20
8.9928              
30
1.5429              
1
 1.543
0
TEXT
8
CO_ORDS
62
3
7
STD
40
0.25
41
1.0
50
0.0
51
0.0
10
14.4483             
20
8.9928              
30
1.5429              
1
 14.448 8.993
0
INSERT
8
POINT
62
2
2
CROSS
10
14.1479             
20
12.7791             
30
1.5570              
41
0.002
42
0.002
43
0.002
50
0.0
0
TEXT
8
CODE
62
3
7
STD
40
0.25
41
1.0
50
0.0
51
0.0
10
14.1479             
20
12.7791             
30
1.5570              
1
 BH
0
TEXT
8
PT_ID
62
3
7
STD
40
0.25
41
1.0
50
0.0
51
0.0
10
14.1479             
20
12.7791             
30
1.5570              
1
 A193
0
TEXT
8
HEIGHT
62
3
7
STD
40
0.25
41
1.0
50
0.0
51
0.0
10
14.1479             
20
12.7791             
30
1.5570              
1
 1.557
0
TEXT
8
CO_ORDS
62
3
7
STD
40
0.25
41
1.0
50
0.0
51
0.0
10
14.1479             
20
12.7791             
30
1.5570              
1
 14.148 12.779
0
INSERT
8
POINT
62
2
2
CROSS
10
13.1672             
20
12.2518             
30
4.5459              
41
0.002
42
0.002
43
0.002
50
0.0
0
TEXT
8
CODE
62
3
7
STD
40
0.25
41
1.0
50
0.0
51
0.0
10
13.1672             
20
12.2518             
30
4.5459              
1
 DUK
0
TEXT
8
PT_ID
62
3
7
STD
40
0.25
41
1.0
50
0.0
51
0.0
10
13.1672             
20
12.2518             
30
4.5459              
1
 A194
0
TEXT
8
HEIGHT
62
3
7
STD
40
0.25
41
1.0
50
0.0
51
0.0
10
13.1672             
20
12.2518             
30
4.5459              
1
 4.546
0
TEXT
8
CO_ORDS
62
3
7
STD
40
0.25
41
1.0
50
0.0
51
0.0
10
13.1672             
20
12.2518             
30
4.5459              
1
 13.167 12.252
0
INSERT
8
POINT
62
2
2
CROSS
10
11.8002             
20
10.2770             
30
3.9528              
41
0.002
42
0.002
43
0.002
50
0.0
0
TEXT
8
CODE
62
3
7
STD
40
0.25
41
1.0
50
0.0
51
0.0
10
11.8002             
20
10.2770             
30
3.9528              
1
 WAND
0
TEXT
8
PT_ID
62
3
7
STD
40
0.25
41
1.0
50
0.0
51
0.0
10
11.8002             
20
10.2770             
30
3.9528              
1
 A195
0
TEXT
8
HEIGHT
62
3
7
STD
40
0.25
41
1.0
50
0.0
51
0.0
10
11.8002             
20
10.2770             
30
3.9528              
1
 3.953
0
TEXT
8
CO_ORDS
62
3
7
STD
40
0.25
41
1.0
50
0.0
51
0.0
10
11.8002             
20
10.2770             
30
3.9528              
1
 11.800 10.277
0
INSERT
8
POINT
62
2
2
CROSS
10
11.8212             
20
12.2085             
30
4.2847              
41
0.002
42
0.002
43
0.002
50
0.0
0
TEXT
8
CODE
62
3
7
STD
40
0.25
41
1.0
50
0.0
51
0.0
10
11.8212             
20
12.2085             
30
4.2847              
1
 WAND
0
TEXT
8
PT_ID
62
3
7
STD
40
0.25
41
1.0
50
0.0
51
0.0
10
11.8212             
20
12.2085             
30
4.2847              
1
 A196
0
TEXT
8
HEIGHT
62
3
7
STD
40
0.25
41
1.0
50
0.0
51
0.0
10
11.8212             
20
12.2085             
30
4.2847              
1
 4.285
0
TEXT
8
CO_ORDS
62
3
7
STD
40
0.25
41
1.0
50
0.0
51
0.0
10
11.8212             
20
12.2085             
30
4.2847              
1
 11.821 12.208
0
INSERT
8
POINT
62
2
2
CROSS
10
11.8204             
20
14.1484             
30
4.1992              
41
0.002
42
0.002
43
0.002
50
0.0
0
TEXT
8
CODE
62
3
7
STD
40
0.25
41
1.0
50
0.0
51
0.0
10
11.8204             
20
14.1484             
30
4.1992              
1
 WAND
0
TEXT
8
PT_ID
62
3
7
STD
40
0.25
41
1.0
50
0.0
51
0.0
10
11.8204             
20
14.1484             
30
4.1992              
1
 A197
0
TEXT
8
HEIGHT
62
3
7
STD
40
0.25
41
1.0
50
0.0
51
0.0
10
11.8204             
20
14.1484             
30
4.1992              
1
 4.199
0
TEXT
8
CO_ORDS
62
3
7
STD
40
0.25
41
1.0
50
0.0
51
0.0
10
11.8204             
20
14.1484             
30
4.1992              
1
 11.820 14.148
0
INSERT
8
POINT
62
2
2
CROSS
10
11.8808             
20
14.2282             
30
4.2151              
41
0.002
42
0.002
43
0.002
50
0.0
0
TEXT
8
CODE
62
3
7
STD
40
0.25
41
1.0
50
0.0
51
0.0
10
11.8808             
20
14.2282             
30
4.2151              
1
 WAND
0
TEXT
8
PT_ID
62
3
7
STD
40
0.25
41
1.0
50
0.0
51
0.0
10
11.8808             
20
14.2282             
30
4.2151              
1
 A198
0
TEXT
8
HEIGHT
62
3
7
STD
40
0.25
41
1.0
50
0.0
51
0.0
10
11.8808             
20
14.2282             
30
4.2151              
1
 4.215
0
TEXT
8
CO_ORDS
62
3
7
STD
40
0.25
41
1.0
50
0.0
51
0.0
10
11.8808             
20
14.2282             
30
4.2151              
1
 11.881 14.228
0
INSERT
8
POINT
62
2
2
CROSS
10
15.1561             
20
14.1803             
30
4.0310              
41
0.002
42
0.002
43
0.002
50
0.0
0
TEXT
8
CODE
62
3
7
STD
40
0.25
41
1.0
50
0.0
51
0.0
10
15.1561             
20
14.1803             
30
4.0310              
1
 WAND
0
TEXT
8
PT_ID
62
3
7
STD
40
0.25
41
1.0
50
0.0
51
0.0
10
15.1561             
20
14.1803             
30
4.0310              
1
 A199
0
TEXT
8
HEIGHT
62
3
7
STD
40
0.25
41
1.0
50
0.0
51
0.0
10
15.1561             
20
14.1803             
30
4.0310              
1
 4.031
0
TEXT
8
CO_ORDS
62
3
7
STD
40
0.25
41
1.0
50
0.0
51
0.0
10
15.1561             
20
14.1803             
30
4.0310              
1
 15.156 14.180
0
INSERT
8
POINT
62
2
2
CROSS
10
15.2928             
20
14.0289             
30
4.0221              
41
0.002
42
0.002
43
0.002
50
0.0
0
TEXT
8
CODE
62
3
7
STD
40
0.25
41
1.0
50
0.0
51
0.0
10
15.2928             
20
14.0289             
30
4.0221              
1
 WAND
0
TEXT
8
PT_ID
62
3
7
STD
40
0.25
41
1.0
50
0.0
51
0.0
10
15.2928             
20
14.0289             
30
4.0221              
1
 A200
0
TEXT
8
HEIGHT
62
3
7
STD
40
0.25
41
1.0
50
0.0
51
0.0
10
15.2928             
20
14.0289             
30
4.0221              
1
 4.022
0
TEXT
8
CO_ORDS
62
3
7
STD
40
0.25
41
1.0
50
0.0
51
0.0
10
15.2928             
20
14.0289             
30
4.0221              
1
 15.293 14.029
0
INSERT
8
POINT
62
2
2
CROSS
10
15.2638             
20
9.9670              
30
3.8972              
41
0.002
42
0.002
43
0.002
50
0.0
0
TEXT
8
CODE
62
3
7
STD
40
0.25
41
1.0
50
0.0
51
0.0
10
15.2638             
20
9.9670              
30
3.8972              
1
 WAND
0
TEXT
8
PT_ID
62
3
7
STD
40
0.25
41
1.0
50
0.0
51
0.0
10
15.2638             
20
9.9670              
30
3.8972              
1
 A201
0
TEXT
8
HEIGHT
62
3
7
STD
40
0.25
41
1.0
50
0.0
51
0.0
10
15.2638             
20
9.9670              
30
3.8972              
1
 3.897
0
TEXT
8
CO_ORDS
62
3
7
STD
40
0.25
41
1.0
50
0.0
51
0.0
10
15.2638             
20
9.9670              
30
3.8972              
1
 15.264 9.967
0
INSERT
8
POINT
62
2
2
CROSS
10
15.1367             
20
9.9213              
30
3.9411              
41
0.002
42
0.002
43
0.002
50
0.0
0
TEXT
8
CODE
62
3
7
STD
40
0.25
41
1.0
50
0.0
51
0.0
10
15.1367             
20
9.9213              
30
3.9411              
1
 WAND
0
TEXT
8
PT_ID
62
3
7
STD
40
0.25
41
1.0
50
0.0
51
0.0
10
15.1367             
20
9.9213              
30
3.9411              
1
 A202
0
TEXT
8
HEIGHT
62
3
7
STD
40
0.25
41
1.0
50
0.0
51
0.0
10
15.1367             
20
9.9213              
30
3.9411              
1
 3.941
0
TEXT
8
CO_ORDS
62
3
7
STD
40
0.25
41
1.0
50
0.0
51
0.0
10
15.1367             
20
9.9213              
30
3.9411              
1
 15.137 9.921
0
INSERT
8
POINT
62
2
2
CROSS
10
11.9538             
20
9.9313              
30
3.8210              
41
0.002
42
0.002
43
0.002
50
0.0
0
TEXT
8
CODE
62
3
7
STD
40
0.25
41
1.0
50
0.0
51
0.0
10
11.9538             
20
9.9313              
30
3.8210              
1
 WAND
0
TEXT
8
PT_ID
62
3
7
STD
40
0.25
41
1.0
50
0.0
51
0.0
10
11.9538             
20
9.9313              
30
3.8210              
1
 A203
0
TEXT
8
HEIGHT
62
3
7
STD
40
0.25
41
1.0
50
0.0
51
0.0
10
11.9538             
20
9.9313              
30
3.8210              
1
 3.821
0
TEXT
8
CO_ORDS
62
3
7
STD
40
0.25
41
1.0
50
0.0
51
0.0
10
11.9538             
20
9.9313              
30
3.8210              
1
 11.954 9.931
0
INSERT
8
POINT
62
2
2
CROSS
10
12.3117             
20
9.8961              
30
3.4823              
41
0.002
42
0.002
43
0.002
50
0.0
0
TEXT
8
CODE
62
3
7
STD
40
0.25
41
1.0
50
0.0
51
0.0
10
12.3117             
20
9.8961              
30
3.4823              
1
 TUR
0
TEXT
8
PT_ID
62
3
7
STD
40
0.25
41
1.0
50
0.0
51
0.0
10
12.3117             
20
9.8961              
30
3.4823              
1
 A204
0
TEXT
8
HEIGHT
62
3
7
STD
40
0.25
41
1.0
50
0.0
51
0.0
10
12.3117             
20
9.8961              
30
3.4823              
1
 3.482
0
TEXT
8
CO_ORDS
62
3
7
STD
40
0.25
41
1.0
50
0.0
51
0.0
10
12.3117             
20
9.8961              
30
3.4823              
1
 12.312 9.896
0
INSERT
8
POINT
62
2
2
CROSS
10
13.1168             
20
9.8856              
30
3.5581              
41
0.002
42
0.002
43
0.002
50
0.0
0
TEXT
8
CODE
62
3
7
STD
40
0.25
41
1.0
50
0.0
51
0.0
10
13.1168             
20
9.8856              
30
3.5581              
1
 TUR
0
TEXT
8
PT_ID
62
3
7
STD
40
0.25
41
1.0
50
0.0
51
0.0
10
13.1168             
20
9.8856              
30
3.5581              
1
 A205
0
TEXT
8
HEIGHT
62
3
7
STD
40
0.25
41
1.0
50
0.0
51
0.0
10
13.1168             
20
9.8856              
30
3.5581              
1
 3.558
0
TEXT
8
CO_ORDS
62
3
7
STD
40
0.25
41
1.0
50
0.0
51
0.0
10
13.1168             
20
9.8856              
30
3.5581              
1
 13.117 9.886
0
INSERT
8
POINT
62
2
2
CROSS
10
14.5187             
20
0.5089              
30
2.7591              
41
0.002
42
0.002
43
0.002
50
0.0
0
TEXT
8
CODE
62
3
7
STD
40
0.25
41
1.0
50
0.0
51
0.0
10
14.5187             
20
0.5089              
30
2.7591              
1
 WAND
0
TEXT
8
PT_ID
62
3
7
STD
40
0.25
41
1.0
50
0.0
51
0.0
10
14.5187             
20
0.5089              
30
2.7591              
1
 A206
0
TEXT
8
HEIGHT
62
3
7
STD
40
0.25
41
1.0
50
0.0
51
0.0
10
14.5187             
20
0.5089              
30
2.7591              
1
 2.759
0
TEXT
8
CO_ORDS
62
3
7
STD
40
0.25
41
1.0
50
0.0
51
0.0
10
14.5187             
20
0.5089              
30
2.7591              
1
 14.519 0.509
0
INSERT
8
POINT
62
2
2
CROSS
10
14.5256             
20
1.8486              
30
2.6004              
41
0.002
42
0.002
43
0.002
50
0.0
0
TEXT
8
CODE
62
3
7
STD
40
0.25
41
1.0
50
0.0
51
0.0
10
14.5256             
20
1.8486              
30
2.6004              
1
 WAND
0
TEXT
8
PT_ID
62
3
7
STD
40
0.25
41
1.0
50
0.0
51
0.0
10
14.5256             
20
1.8486              
30
2.6004              
1
 A207
0
TEXT
8
HEIGHT
62
3
7
STD
40
0.25
41
1.0
50
0.0
51
0.0
10
14.5256             
20
1.8486              
30
2.6004              
1
 2.600
0
TEXT
8
CO_ORDS
62
3
7
STD
40
0.25
41
1.0
50
0.0
51
0.0
10
14.5256             
20
1.8486              
30
2.6004              
1
 14.526 1.849
0
INSERT
8
POINT
62
2
2
CROSS
10
14.4855             
20
4.7305              
30
3.3482              
41
0.002
42
0.002
43
0.002
50
0.0
0
TEXT
8
CODE
62
3
7
STD
40
0.25
41
1.0
50
0.0
51
0.0
10
14.4855             
20
4.7305              
30
3.3482              
1
 WAND
0
TEXT
8
PT_ID
62
3
7
STD
40
0.25
41
1.0
50
0.0
51
0.0
10
14.4855             
20
4.7305              
30
3.3482              
1
 A208
0
TEXT
8
HEIGHT
62
3
7
STD
40
0.25
41
1.0
50
0.0
51
0.0
10
14.4855             
20
4.7305              
30
3.3482              
1
 3.348
0
TEXT
8
CO_ORDS
62
3
7
STD
40
0.25
41
1.0
50
0.0
51
0.0
10
14.4855             
20
4.7305              
30
3.3482              
1
 14.486 4.730
0
INSERT
8
POINT
62
2
2
CROSS
10
14.4854             
20
5.0187              
30
3.3377              
41
0.002
42
0.002
43
0.002
50
0.0
0
TEXT
8
CODE
62
3
7
STD
40
0.25
41
1.0
50
0.0
51
0.0
10
14.4854             
20
5.0187              
30
3.3377              
1
 WAND
0
TEXT
8
PT_ID
62
3
7
STD
40
0.25
41
1.0
50
0.0
51
0.0
10
14.4854             
20
5.0187              
30
3.3377              
1
 A209
0
TEXT
8
HEIGHT
62
3
7
STD
40
0.25
41
1.0
50
0.0
51
0.0
10
14.4854             
20
5.0187              
30
3.3377              
1
 3.338
0
TEXT
8
CO_ORDS
62
3
7
STD
40
0.25
41
1.0
50
0.0
51
0.0
10
14.4854             
20
5.0187              
30
3.3377              
1
 14.485 5.019
0
INSERT
8
POINT
62
2
2
CROSS
10
15.5787             
20
7.1159              
30
3.1292              
41
0.002
42
0.002
43
0.002
50
0.0
0
TEXT
8
CODE
62
3
7
STD
40
0.25
41
1.0
50
0.0
51
0.0
10
15.5787             
20
7.1159              
30
3.1292              
1
 WAND
0
TEXT
8
PT_ID
62
3
7
STD
40
0.25
41
1.0
50
0.0
51
0.0
10
15.5787             
20
7.1159              
30
3.1292              
1
 A210
0
TEXT
8
HEIGHT
62
3
7
STD
40
0.25
41
1.0
50
0.0
51
0.0
10
15.5787             
20
7.1159              
30
3.1292              
1
 3.129
0
TEXT
8
CO_ORDS
62
3
7
STD
40
0.25
41
1.0
50
0.0
51
0.0
10
15.5787             
20
7.1159              
30
3.1292              
1
 15.579 7.116
0
INSERT
8
POINT
62
2
2
CROSS
10
15.5795             
20
7.0440              
30
3.1249              
41
0.002
42
0.002
43
0.002
50
0.0
0
TEXT
8
CODE
62
3
7
STD
40
0.25
41
1.0
50
0.0
51
0.0
10
15.5795             
20
7.0440              
30
3.1249              
1
 WAND
0
TEXT
8
PT_ID
62
3
7
STD
40
0.25
41
1.0
50
0.0
51
0.0
10
15.5795             
20
7.0440              
30
3.1249              
1
 A211
0
TEXT
8
HEIGHT
62
3
7
STD
40
0.25
41
1.0
50
0.0
51
0.0
10
15.5795             
20
7.0440              
30
3.1249              
1
 3.125
0
TEXT
8
CO_ORDS
62
3
7
STD
40
0.25
41
1.0
50
0.0
51
0.0
10
15.5795             
20
7.0440              
30
3.1249              
1
 15.580 7.044
0
INSERT
8
POINT
62
2
2
CROSS
10
14.9621             
20
0.3783              
30
3.8070              
41
0.002
42
0.002
43
0.002
50
0.0
0
TEXT
8
CODE
62
3
7
STD
40
0.25
41
1.0
50
0.0
51
0.0
10
14.9621             
20
0.3783              
30
3.8070              
1
 HOLZ
0
TEXT
8
PT_ID
62
3
7
STD
40
0.25
41
1.0
50
0.0
51
0.0
10
14.9621             
20
0.3783              
30
3.8070              
1
 A212
0
TEXT
8
HEIGHT
62
3
7
STD
40
0.25
41
1.0
50
0.0
51
0.0
10
14.9621             
20
0.3783              
30
3.8070              
1
 3.807
0
TEXT
8
CO_ORDS
62
3
7
STD
40
0.25
41
1.0
50
0.0
51
0.0
10
14.9621             
20
0.3783              
30
3.8070              
1
 14.962 0.378
0
INSERT
8
POINT
62
2
2
CROSS
10
17.8471             
20
0.3557              
30
3.7814              
41
0.002
42
0.002
43
0.002
50
0.0
0
TEXT
8
CODE
62
3
7
STD
40
0.25
41
1.0
50
0.0
51
0.0
10
17.8471             
20
0.3557              
30
3.7814              
1
 HOLZ
0
TEXT
8
PT_ID
62
3
7
STD
40
0.25
41
1.0
50
0.0
51
0.0
10
17.8471             
20
0.3557              
30
3.7814              
1
 A213
0
TEXT
8
HEIGHT
62
3
7
STD
40
0.25
41
1.0
50
0.0
51
0.0
10
17.8471             
20
0.3557              
30
3.7814              
1
 3.781
0
TEXT
8
CO_ORDS
62
3
7
STD
40
0.25
41
1.0
50
0.0
51
0.0
10
17.8471             
20
0.3557              
30
3.7814              
1
 17.847 0.356
0
INSERT
8
POINT
62
2
2
CROSS
10
18.1923             
20
4.6458              
30
3.6232              
41
0.002
42
0.002
43
0.002
50
0.0
0
TEXT
8
CODE
62
3
7
STD
40
0.25
41
1.0
50
0.0
51
0.0
10
18.1923             
20
4.6458              
30
3.6232              
1
 HOLZ
0
TEXT
8
PT_ID
62
3
7
STD
40
0.25
41
1.0
50
0.0
51
0.0
10
18.1923             
20
4.6458              
30
3.6232              
1
 A214
0
TEXT
8
HEIGHT
62
3
7
STD
40
0.25
41
1.0
50
0.0
51
0.0
10
18.1923             
20
4.6458              
30
3.6232              
1
 3.623
0
TEXT
8
CO_ORDS
62
3
7
STD
40
0.25
41
1.0
50
0.0
51
0.0
10
18.1923             
20
4.6458              
30
3.6232              
1
 18.192 4.646
0
INSERT
8
POINT
62
2
2
CROSS
10
16.4018             
20
4.6554              
30
3.4685              
41
0.002
42
0.002
43
0.002
50
0.0
0
TEXT
8
CODE
62
3
7
STD
40
0.25
41
1.0
50
0.0
51
0.0
10
16.4018             
20
4.6554              
30
3.4685              
1
 HOLZ
0
TEXT
8
PT_ID
62
3
7
STD
40
0.25
41
1.0
50
0.0
51
0.0
10
16.4018             
20
4.6554              
30
3.4685              
1
 A215
0
TEXT
8
HEIGHT
62
3
7
STD
40
0.25
41
1.0
50
0.0
51
0.0
10
16.4018             
20
4.6554              
30
3.4685              
1
 3.469
0
TEXT
8
CO_ORDS
62
3
7
STD
40
0.25
41
1.0
50
0.0
51
0.0
10
16.4018             
20
4.6554              
30
3.4685              
1
 16.402 4.655
0
INSERT
8
POINT
62
2
2
CROSS
10
14.5101             
20
4.6673              
30
3.4508              
41
0.002
42
0.002
43
0.002
50
0.0
0
TEXT
8
CODE
62
3
7
STD
40
0.25
41
1.0
50
0.0
51
0.0
10
14.5101             
20
4.6673              
30
3.4508              
1
 HOLZ
0
TEXT
8
PT_ID
62
3
7
STD
40
0.25
41
1.0
50
0.0
51
0.0
10
14.5101             
20
4.6673              
30
3.4508              
1
 A216
0
TEXT
8
HEIGHT
62
3
7
STD
40
0.25
41
1.0
50
0.0
51
0.0
10
14.5101             
20
4.6673              
30
3.4508              
1
 3.451
0
TEXT
8
CO_ORDS
62
3
7
STD
40
0.25
41
1.0
50
0.0
51
0.0
10
14.5101             
20
4.6673              
30
3.4508              
1
 14.510 4.667
0
INSERT
8
POINT
62
2
2
CROSS
10
18.3171             
20
4.6907              
30
3.4960              
41
0.002
42
0.002
43
0.002
50
0.0
0
TEXT
8
CODE
62
3
7
STD
40
0.25
41
1.0
50
0.0
51
0.0
10
18.3171             
20
4.6907              
30
3.4960              
1
 HOLZ
0
TEXT
8
PT_ID
62
3
7
STD
40
0.25
41
1.0
50
0.0
51
0.0
10
18.3171             
20
4.6907              
30
3.4960              
1
 A217
0
TEXT
8
HEIGHT
62
3
7
STD
40
0.25
41
1.0
50
0.0
51
0.0
10
18.3171             
20
4.6907              
30
3.4960              
1
 3.496
0
TEXT
8
CO_ORDS
62
3
7
STD
40
0.25
41
1.0
50
0.0
51
0.0
10
18.3171             
20
4.6907              
30
3.4960              
1
 18.317 4.691
0
INSERT
8
POINT
62
2
2
CROSS
10
18.3171             
20
5.7522              
30
3.4345              
41
0.002
42
0.002
43
0.002
50
0.0
0
TEXT
8
CODE
62
3
7
STD
40
0.25
41
1.0
50
0.0
51
0.0
10
18.3171             
20
5.7522              
30
3.4345              
1
 HOLZ
0
TEXT
8
PT_ID
62
3
7
STD
40
0.25
41
1.0
50
0.0
51
0.0
10
18.3171             
20
5.7522              
30
3.4345              
1
 A218
0
TEXT
8
HEIGHT
62
3
7
STD
40
0.25
41
1.0
50
0.0
51
0.0
10
18.3171             
20
5.7522              
30
3.4345              
1
 3.434
0
TEXT
8
CO_ORDS
62
3
7
STD
40
0.25
41
1.0
50
0.0
51
0.0
10
18.3171             
20
5.7522              
30
3.4345              
1
 18.317 5.752
0
INSERT
8
POINT
62
2
2
CROSS
10
18.3186             
20
6.0609              
30
3.4358              
41
0.002
42
0.002
43
0.002
50
0.0
0
TEXT
8
CODE
62
3
7
STD
40
0.25
41
1.0
50
0.0
51
0.0
10
18.3186             
20
6.0609              
30
3.4358              
1
 HOLZ
0
TEXT
8
PT_ID
62
3
7
STD
40
0.25
41
1.0
50
0.0
51
0.0
10
18.3186             
20
6.0609              
30
3.4358              
1
 A219
0
TEXT
8
HEIGHT
62
3
7
STD
40
0.25
41
1.0
50
0.0
51
0.0
10
18.3186             
20
6.0609              
30
3.4358              
1
 3.436
0
TEXT
8
CO_ORDS
62
3
7
STD
40
0.25
41
1.0
50
0.0
51
0.0
10
18.3186             
20
6.0609              
30
3.4358              
1
 18.319 6.061
0
INSERT
8
POINT
62
2
2
CROSS
10
18.3080             
20
5.7887              
30
3.3275              
41
0.002
42
0.002
43
0.002
50
0.0
0
TEXT
8
CODE
62
3
7
STD
40
0.25
41
1.0
50
0.0
51
0.0
10
18.3080             
20
5.7887              
30
3.3275              
1
 HOLZ
0
TEXT
8
PT_ID
62
3
7
STD
40
0.25
41
1.0
50
0.0
51
0.0
10
18.3080             
20
5.7887              
30
3.3275              
1
 A220
0
TEXT
8
HEIGHT
62
3
7
STD
40
0.25
41
1.0
50
0.0
51
0.0
10
18.3080             
20
5.7887              
30
3.3275              
1
 3.328
0
TEXT
8
CO_ORDS
62
3
7
STD
40
0.25
41
1.0
50
0.0
51
0.0
10
18.3080             
20
5.7887              
30
3.3275              
1
 18.308 5.789
0
INSERT
8
POINT
62
2
2
CROSS
10
18.3302             
20
7.0981              
30
3.5390              
41
0.002
42
0.002
43
0.002
50
0.0
0
TEXT
8
CODE
62
3
7
STD
40
0.25
41
1.0
50
0.0
51
0.0
10
18.3302             
20
7.0981              
30
3.5390              
1
 HOLZ
0
TEXT
8
PT_ID
62
3
7
STD
40
0.25
41
1.0
50
0.0
51
0.0
10
18.3302             
20
7.0981              
30
3.5390              
1
 A221
0
TEXT
8
HEIGHT
62
3
7
STD
40
0.25
41
1.0
50
0.0
51
0.0
10
18.3302             
20
7.0981              
30
3.5390              
1
 3.539
0
TEXT
8
CO_ORDS
62
3
7
STD
40
0.25
41
1.0
50
0.0
51
0.0
10
18.3302             
20
7.0981              
30
3.5390              
1
 18.330 7.098
0
INSERT
8
POINT
62
2
2
CROSS
10
18.2579             
20
7.1261              
30
3.8891              
41
0.002
42
0.002
43
0.002
50
0.0
0
TEXT
8
CODE
62
3
7
STD
40
0.25
41
1.0
50
0.0
51
0.0
10
18.2579             
20
7.1261              
30
3.8891              
1
 HOLZ
0
TEXT
8
PT_ID
62
3
7
STD
40
0.25
41
1.0
50
0.0
51
0.0
10
18.2579             
20
7.1261              
30
3.8891              
1
 A222
0
TEXT
8
HEIGHT
62
3
7
STD
40
0.25
41
1.0
50
0.0
51
0.0
10
18.2579             
20
7.1261              
30
3.8891              
1
 3.889
0
TEXT
8
CO_ORDS
62
3
7
STD
40
0.25
41
1.0
50
0.0
51
0.0
10
18.2579             
20
7.1261              
30
3.8891              
1
 18.258 7.126
0
INSERT
8
POINT
62
2
2
CROSS
10
15.6528             
20
7.1432              
30
3.8928              
41
0.002
42
0.002
43
0.002
50
0.0
0
TEXT
8
CODE
62
3
7
STD
40
0.25
41
1.0
50
0.0
51
0.0
10
15.6528             
20
7.1432              
30
3.8928              
1
 HOLZ
0
TEXT
8
PT_ID
62
3
7
STD
40
0.25
41
1.0
50
0.0
51
0.0
10
15.6528             
20
7.1432              
30
3.8928              
1
 A223
0
TEXT
8
HEIGHT
62
3
7
STD
40
0.25
41
1.0
50
0.0
51
0.0
10
15.6528             
20
7.1432              
30
3.8928              
1
 3.893
0
TEXT
8
CO_ORDS
62
3
7
STD
40
0.25
41
1.0
50
0.0
51
0.0
10
15.6528             
20
7.1432              
30
3.8928              
1
 15.653 7.143
0
INSERT
8
POINT
62
2
2
CROSS
10
13.9783             
20
6.6955              
30
1.5350              
41
0.002
42
0.002
43
0.002
50
0.0
0
TEXT
8
CODE
62
3
7
STD
40
0.25
41
1.0
50
0.0
51
0.0
10
13.9783             
20
6.6955              
30
1.5350              
1
 RAMPE
0
TEXT
8
PT_ID
62
3
7
STD
40
0.25
41
1.0
50
0.0
51
0.0
10
13.9783             
20
6.6955              
30
1.5350              
1
 A224
0
TEXT
8
HEIGHT
62
3
7
STD
40
0.25
41
1.0
50
0.0
51
0.0
10
13.9783             
20
6.6955              
30
1.5350              
1
 1.535
0
TEXT
8
CO_ORDS
62
3
7
STD
40
0.25
41
1.0
50
0.0
51
0.0
10
13.9783             
20
6.6955              
30
1.5350              
1
 13.978 6.695
0
INSERT
8
POINT
62
2
2
CROSS
10
13.9768             
20
5.0495              
30
1.5353              
41
0.002
42
0.002
43
0.002
50
0.0
0
TEXT
8
CODE
62
3
7
STD
40
0.25
41
1.0
50
0.0
51
0.0
10
13.9768             
20
5.0495              
30
1.5353              
1
 RAMPE
0
TEXT
8
PT_ID
62
3
7
STD
40
0.25
41
1.0
50
0.0
51
0.0
10
13.9768             
20
5.0495              
30
1.5353              
1
 A225
0
TEXT
8
HEIGHT
62
3
7
STD
40
0.25
41
1.0
50
0.0
51
0.0
10
13.9768             
20
5.0495              
30
1.5353              
1
 1.535
0
TEXT
8
CO_ORDS
62
3
7
STD
40
0.25
41
1.0
50
0.0
51
0.0
10
13.9768             
20
5.0495              
30
1.5353              
1
 13.977 5.049
0
INSERT
8
POINT
62
2
2
CROSS
10
16.4204             
20
5.0227              
30
1.2655              
41
0.002
42
0.002
43
0.002
50
0.0
0
TEXT
8
CODE
62
3
7
STD
40
0.25
41
1.0
50
0.0
51
0.0
10
16.4204             
20
5.0227              
30
1.2655              
1
 RAMPE
0
TEXT
8
PT_ID
62
3
7
STD
40
0.25
41
1.0
50
0.0
51
0.0
10
16.4204             
20
5.0227              
30
1.2655              
1
 A226
0
TEXT
8
HEIGHT
62
3
7
STD
40
0.25
41
1.0
50
0.0
51
0.0
10
16.4204             
20
5.0227              
30
1.2655              
1
 1.265
0
TEXT
8
CO_ORDS
62
3
7
STD
40
0.25
41
1.0
50
0.0
51
0.0
10
16.4204             
20
5.0227              
30
1.2655              
1
 16.420 5.023
0
INSERT
8
POINT
62
2
2
CROSS
10
16.4570             
20
6.6652              
30
1.2638              
41
0.002
42
0.002
43
0.002
50
0.0
0
TEXT
8
CODE
62
3
7
STD
40
0.25
41
1.0
50
0.0
51
0.0
10
16.4570             
20
6.6652              
30
1.2638              
1
 RAMPE
0
TEXT
8
PT_ID
62
3
7
STD
40
0.25
41
1.0
50
0.0
51
0.0
10
16.4570             
20
6.6652              
30
1.2638              
1
 A227
0
TEXT
8
HEIGHT
62
3
7
STD
40
0.25
41
1.0
50
0.0
51
0.0
10
16.4570             
20
6.6652              
30
1.2638              
1
 1.264
0
TEXT
8
CO_ORDS
62
3
7
STD
40
0.25
41
1.0
50
0.0
51
0.0
10
16.4570             
20
6.6652              
30
1.2638              
1
 16.457 6.665
0
INSERT
8
POINT
62
2
2
CROSS
10
16.1263             
20
6.8345              
30
1.2609              
41
0.002
42
0.002
43
0.002
50
0.0
0
TEXT
8
CODE
62
3
7
STD
40
0.25
41
1.0
50
0.0
51
0.0
10
16.1263             
20
6.8345              
30
1.2609              
1
 BH
0
TEXT
8
PT_ID
62
3
7
STD
40
0.25
41
1.0
50
0.0
51
0.0
10
16.1263             
20
6.8345              
30
1.2609              
1
 A228
0
TEXT
8
HEIGHT
62
3
7
STD
40
0.25
41
1.0
50
0.0
51
0.0
10
16.1263             
20
6.8345              
30
1.2609              
1
 1.261
0
TEXT
8
CO_ORDS
62
3
7
STD
40
0.25
41
1.0
50
0.0
51
0.0
10
16.1263             
20
6.8345              
30
1.2609              
1
 16.126 6.835
0
INSERT
8
POINT
62
2
2
CROSS
10
15.6737             
20
4.8312              
30
1.2562              
41
0.002
42
0.002
43
0.002
50
0.0
0
TEXT
8
CODE
62
3
7
STD
40
0.25
41
1.0
50
0.0
51
0.0
10
15.6737             
20
4.8312              
30
1.2562              
1
 BH
0
TEXT
8
PT_ID
62
3
7
STD
40
0.25
41
1.0
50
0.0
51
0.0
10
15.6737             
20
4.8312              
30
1.2562              
1
 A229
0
TEXT
8
HEIGHT
62
3
7
STD
40
0.25
41
1.0
50
0.0
51
0.0
10
15.6737             
20
4.8312              
30
1.2562              
1
 1.256
0
TEXT
8
CO_ORDS
62
3
7
STD
40
0.25
41
1.0
50
0.0
51
0.0
10
15.6737             
20
4.8312              
30
1.2562              
1
 15.674 4.831
0
INSERT
8
POINT
62
2
2
CROSS
10
16.2929             
20
2.5041              
30
1.2547              
41
0.002
42
0.002
43
0.002
50
0.0
0
TEXT
8
CODE
62
3
7
STD
40
0.25
41
1.0
50
0.0
51
0.0
10
16.2929             
20
2.5041              
30
1.2547              
1
 BH
0
TEXT
8
PT_ID
62
3
7
STD
40
0.25
41
1.0
50
0.0
51
0.0
10
16.2929             
20
2.5041              
30
1.2547              
1
 A230
0
TEXT
8
HEIGHT
62
3
7
STD
40
0.25
41
1.0
50
0.0
51
0.0
10
16.2929             
20
2.5041              
30
1.2547              
1
 1.255
0
TEXT
8
CO_ORDS
62
3
7
STD
40
0.25
41
1.0
50
0.0
51
0.0
10
16.2929             
20
2.5041              
30
1.2547              
1
 16.293 2.504
0
INSERT
8
POINT
62
2
2
CROSS
10
16.4494             
20
7.2760              
30
1.2235              
41
0.002
42
0.002
43
0.002
50
0.0
0
TEXT
8
CODE
62
3
7
STD
40
0.25
41
1.0
50
0.0
51
0.0
10
16.4494             
20
7.2760              
30
1.2235              
1
 RAMPE
0
TEXT
8
PT_ID
62
3
7
STD
40
0.25
41
1.0
50
0.0
51
0.0
10
16.4494             
20
7.2760              
30
1.2235              
1
 A231
0
TEXT
8
HEIGHT
62
3
7
STD
40
0.25
41
1.0
50
0.0
51
0.0
10
16.4494             
20
7.2760              
30
1.2235              
1
 1.223
0
TEXT
8
CO_ORDS
62
3
7
STD
40
0.25
41
1.0
50
0.0
51
0.0
10
16.4494             
20
7.2760              
30
1.2235              
1
 16.449 7.276
0
INSERT
8
POINT
62
2
2
CROSS
10
16.4140             
20
8.6769              
30
1.2149              
41
0.002
42
0.002
43
0.002
50
0.0
0
TEXT
8
CODE
62
3
7
STD
40
0.25
41
1.0
50
0.0
51
0.0
10
16.4140             
20
8.6769              
30
1.2149              
1
 RAMPE
0
TEXT
8
PT_ID
62
3
7
STD
40
0.25
41
1.0
50
0.0
51
0.0
10
16.4140             
20
8.6769              
30
1.2149              
1
 A232
0
TEXT
8
HEIGHT
62
3
7
STD
40
0.25
41
1.0
50
0.0
51
0.0
10
16.4140             
20
8.6769              
30
1.2149              
1
 1.215
0
TEXT
8
CO_ORDS
62
3
7
STD
40
0.25
41
1.0
50
0.0
51
0.0
10
16.4140             
20
8.6769              
30
1.2149              
1
 16.414 8.677
0
INSERT
8
POINT
62
2
2
CROSS
10
17.4937             
20
8.7017              
30
1.2087              
41
0.002
42
0.002
43
0.002
50
0.0
0
TEXT
8
CODE
62
3
7
STD
40
0.25
41
1.0
50
0.0
51
0.0
10
17.4937             
20
8.7017              
30
1.2087              
1
 RAMPE
0
TEXT
8
PT_ID
62
3
7
STD
40
0.25
41
1.0
50
0.0
51
0.0
10
17.4937             
20
8.7017              
30
1.2087              
1
 A233
0
TEXT
8
HEIGHT
62
3
7
STD
40
0.25
41
1.0
50
0.0
51
0.0
10
17.4937             
20
8.7017              
30
1.2087              
1
 1.209
0
TEXT
8
CO_ORDS
62
3
7
STD
40
0.25
41
1.0
50
0.0
51
0.0
10
17.4937             
20
8.7017              
30
1.2087              
1
 17.494 8.702
0
INSERT
8
POINT
62
2
2
CROSS
10
17.4120             
20
7.2570              
30
1.2248              
41
0.002
42
0.002
43
0.002
50
0.0
0
TEXT
8
CODE
62
3
7
STD
40
0.25
41
1.0
50
0.0
51
0.0
10
17.4120             
20
7.2570              
30
1.2248              
1
 RAMPE
0
TEXT
8
PT_ID
62
3
7
STD
40
0.25
41
1.0
50
0.0
51
0.0
10
17.4120             
20
7.2570              
30
1.2248              
1
 A234
0
TEXT
8
HEIGHT
62
3
7
STD
40
0.25
41
1.0
50
0.0
51
0.0
10
17.4120             
20
7.2570              
30
1.2248              
1
 1.225
0
TEXT
8
CO_ORDS
62
3
7
STD
40
0.25
41
1.0
50
0.0
51
0.0
10
17.4120             
20
7.2570              
30
1.2248              
1
 17.412 7.257
0
INSERT
8
POINT
62
2
2
CROSS
10
17.2441             
20
7.5097              
30
1.2169              
41
0.002
42
0.002
43
0.002
50
0.0
0
TEXT
8
CODE
62
3
7
STD
40
0.25
41
1.0
50
0.0
51
0.0
10
17.2441             
20
7.5097              
30
1.2169              
1
 RAMPE
0
TEXT
8
PT_ID
62
3
7
STD
40
0.25
41
1.0
50
0.0
51
0.0
10
17.2441             
20
7.5097              
30
1.2169              
1
 A235
0
TEXT
8
HEIGHT
62
3
7
STD
40
0.25
41
1.0
50
0.0
51
0.0
10
17.2441             
20
7.5097              
30
1.2169              
1
 1.217
0
TEXT
8
CO_ORDS
62
3
7
STD
40
0.25
41
1.0
50
0.0
51
0.0
10
17.2441             
20
7.5097              
30
1.2169              
1
 17.244 7.510
0
INSERT
8
POINT
62
2
2
CROSS
10
17.2496             
20
7.8959              
30
1.2181              
41
0.002
42
0.002
43
0.002
50
0.0
0
TEXT
8
CODE
62
3
7
STD
40
0.25
41
1.0
50
0.0
51
0.0
10
17.2496             
20
7.8959              
30
1.2181              
1
 RAMPE
0
TEXT
8
PT_ID
62
3
7
STD
40
0.25
41
1.0
50
0.0
51
0.0
10
17.2496             
20
7.8959              
30
1.2181              
1
 A236
0
TEXT
8
HEIGHT
62
3
7
STD
40
0.25
41
1.0
50
0.0
51
0.0
10
17.2496             
20
7.8959              
30
1.2181              
1
 1.218
0
TEXT
8
CO_ORDS
62
3
7
STD
40
0.25
41
1.0
50
0.0
51
0.0
10
17.2496             
20
7.8959              
30
1.2181              
1
 17.250 7.896
0
INSERT
8
POINT
62
2
2
CROSS
10
16.6579             
20
7.8941              
30
1.2181              
41
0.002
42
0.002
43
0.002
50
0.0
0
TEXT
8
CODE
62
3
7
STD
40
0.25
41
1.0
50
0.0
51
0.0
10
16.6579             
20
7.8941              
30
1.2181              
1
 RAMPE
0
TEXT
8
PT_ID
62
3
7
STD
40
0.25
41
1.0
50
0.0
51
0.0
10
16.6579             
20
7.8941              
30
1.2181              
1
 A237
0
TEXT
8
HEIGHT
62
3
7
STD
40
0.25
41
1.0
50
0.0
51
0.0
10
16.6579             
20
7.8941              
30
1.2181              
1
 1.218
0
TEXT
8
CO_ORDS
62
3
7
STD
40
0.25
41
1.0
50
0.0
51
0.0
10
16.6579             
20
7.8941              
30
1.2181              
1
 16.658 7.894
0
INSERT
8
POINT
62
2
2
CROSS
10
16.6514             
20
7.5019              
30
1.2208              
41
0.002
42
0.002
43
0.002
50
0.0
0
TEXT
8
CODE
62
3
7
STD
40
0.25
41
1.0
50
0.0
51
0.0
10
16.6514             
20
7.5019              
30
1.2208              
1
 RAMPE
0
TEXT
8
PT_ID
62
3
7
STD
40
0.25
41
1.0
50
0.0
51
0.0
10
16.6514             
20
7.5019              
30
1.2208              
1
 A238
0
TEXT
8
HEIGHT
62
3
7
STD
40
0.25
41
1.0
50
0.0
51
0.0
10
16.6514             
20
7.5019              
30
1.2208              
1
 1.221
0
TEXT
8
CO_ORDS
62
3
7
STD
40
0.25
41
1.0
50
0.0
51
0.0
10
16.6514             
20
7.5019              
30
1.2208              
1
 16.651 7.502
0
INSERT
8
POINT
62
2
2
CROSS
10
15.5778             
20
13.6348             
30
4.1268              
41
0.002
42
0.002
43
0.002
50
0.0
0
TEXT
8
CODE
62
3
7
STD
40
0.25
41
1.0
50
0.0
51
0.0
10
15.5778             
20
13.6348             
30
4.1268              
1
 WAND
0
TEXT
8
PT_ID
62
3
7
STD
40
0.25
41
1.0
50
0.0
51
0.0
10
15.5778             
20
13.6348             
30
4.1268              
1
 A239
0
TEXT
8
HEIGHT
62
3
7
STD
40
0.25
41
1.0
50
0.0
51
0.0
10
15.5778             
20
13.6348             
30
4.1268              
1
 4.127
0
TEXT
8
CO_ORDS
62
3
7
STD
40
0.25
41
1.0
50
0.0
51
0.0
10
15.5778             
20
13.6348             
30
4.1268              
1
 15.578 13.635
0
INSERT
8
POINT
62
2
2
CROSS
10
15.5459             
20
9.4919              
30
3.9336              
41
0.002
42
0.002
43
0.002
50
0.0
0
TEXT
8
CODE
62
3
7
STD
40
0.25
41
1.0
50
0.0
51
0.0
10
15.5459             
20
9.4919              
30
3.9336              
1
 WAND
0
TEXT
8
PT_ID
62
3
7
STD
40
0.25
41
1.0
50
0.0
51
0.0
10
15.5459             
20
9.4919              
30
3.9336              
1
 A240
0
TEXT
8
HEIGHT
62
3
7
STD
40
0.25
41
1.0
50
0.0
51
0.0
10
15.5459             
20
9.4919              
30
3.9336              
1
 3.934
0
TEXT
8
CO_ORDS
62
3
7
STD
40
0.25
41
1.0
50
0.0
51
0.0
10
15.5459             
20
9.4919              
30
3.9336              
1
 15.546 9.492
0
INSERT
8
POINT
62
2
2
CROSS
10
18.2518             
20
16.4639             
30
3.1987              
41
0.002
42
0.002
43
0.002
50
0.0
0
TEXT
8
CODE
62
3
7
STD
40
0.25
41
1.0
50
0.0
51
0.0
10
18.2518             
20
16.4639             
30
3.1987              
1
 WAND
0
TEXT
8
PT_ID
62
3
7
STD
40
0.25
41
1.0
50
0.0
51
0.0
10
18.2518             
20
16.4639             
30
3.1987              
1
 A241
0
TEXT
8
HEIGHT
62
3
7
STD
40
0.25
41
1.0
50
0.0
51
0.0
10
18.2518             
20
16.4639             
30
3.1987              
1
 3.199
0
TEXT
8
CO_ORDS
62
3
7
STD
40
0.25
41
1.0
50
0.0
51
0.0
10
18.2518             
20
16.4639             
30
3.1987              
1
 18.252 16.464
0
INSERT
8
POINT
62
2
2
CROSS
10
18.2500             
20
16.9019             
30
1.7713              
41
0.002
42
0.002
43
0.002
50
0.0
0
TEXT
8
CODE
62
3
7
STD
40
0.25
41
1.0
50
0.0
51
0.0
10
18.2500             
20
16.9019             
30
1.7713              
1
 WAND
0
TEXT
8
PT_ID
62
3
7
STD
40
0.25
41
1.0
50
0.0
51
0.0
10
18.2500             
20
16.9019             
30
1.7713              
1
 A242
0
TEXT
8
HEIGHT
62
3
7
STD
40
0.25
41
1.0
50
0.0
51
0.0
10
18.2500             
20
16.9019             
30
1.7713              
1
 1.771
0
TEXT
8
CO_ORDS
62
3
7
STD
40
0.25
41
1.0
50
0.0
51
0.0
10
18.2500             
20
16.9019             
30
1.7713              
1
 18.250 16.902
0
INSERT
8
POINT
62
2
2
CROSS
10
18.2432             
20
15.3288             
30
1.7865              
41
0.002
42
0.002
43
0.002
50
0.0
0
TEXT
8
CODE
62
3
7
STD
40
0.25
41
1.0
50
0.0
51
0.0
10
18.2432             
20
15.3288             
30
1.7865              
1
 WAND
0
TEXT
8
PT_ID
62
3
7
STD
40
0.25
41
1.0
50
0.0
51
0.0
10
18.2432             
20
15.3288             
30
1.7865              
1
 A243
0
TEXT
8
HEIGHT
62
3
7
STD
40
0.25
41
1.0
50
0.0
51
0.0
10
18.2432             
20
15.3288             
30
1.7865              
1
 1.787
0
TEXT
8
CO_ORDS
62
3
7
STD
40
0.25
41
1.0
50
0.0
51
0.0
10
18.2432             
20
15.3288             
30
1.7865              
1
 18.243 15.329
0
INSERT
8
POINT
62
2
2
CROSS
10
27.6198             
20
9.8969              
30
1.8732              
41
0.002
42
0.002
43
0.002
50
0.0
0
TEXT
8
CODE
62
3
7
STD
40
0.25
41
1.0
50
0.0
51
0.0
10
27.6198             
20
9.8969              
30
1.8732              
1
 WAND
0
TEXT
8
PT_ID
62
3
7
STD
40
0.25
41
1.0
50
0.0
51
0.0
10
27.6198             
20
9.8969              
30
1.8732              
1
 A244
0
TEXT
8
HEIGHT
62
3
7
STD
40
0.25
41
1.0
50
0.0
51
0.0
10
27.6198             
20
9.8969              
30
1.8732              
1
 1.873
0
TEXT
8
CO_ORDS
62
3
7
STD
40
0.25
41
1.0
50
0.0
51
0.0
10
27.6198             
20
9.8969              
30
1.8732              
1
 27.620 9.897
0
INSERT
8
POINT
62
2
2
CROSS
10
27.6092             
20
6.8507              
30
1.9022              
41
0.002
42
0.002
43
0.002
50
0.0
0
TEXT
8
CODE
62
3
7
STD
40
0.25
41
1.0
50
0.0
51
0.0
10
27.6092             
20
6.8507              
30
1.9022              
1
 WAND
0
TEXT
8
PT_ID
62
3
7
STD
40
0.25
41
1.0
50
0.0
51
0.0
10
27.6092             
20
6.8507              
30
1.9022              
1
 A245
0
TEXT
8
HEIGHT
62
3
7
STD
40
0.25
41
1.0
50
0.0
51
0.0
10
27.6092             
20
6.8507              
30
1.9022              
1
 1.902
0
TEXT
8
CO_ORDS
62
3
7
STD
40
0.25
41
1.0
50
0.0
51
0.0
10
27.6092             
20
6.8507              
30
1.9022              
1
 27.609 6.851
0
INSERT
8
POINT
62
2
2
CROSS
10
27.5984             
20
4.1042              
30
1.9181              
41
0.002
42
0.002
43
0.002
50
0.0
0
TEXT
8
CODE
62
3
7
STD
40
0.25
41
1.0
50
0.0
51
0.0
10
27.5984             
20
4.1042              
30
1.9181              
1
 WAND
0
TEXT
8
PT_ID
62
3
7
STD
40
0.25
41
1.0
50
0.0
51
0.0
10
27.5984             
20
4.1042              
30
1.9181              
1
 A246
0
TEXT
8
HEIGHT
62
3
7
STD
40
0.25
41
1.0
50
0.0
51
0.0
10
27.5984             
20
4.1042              
30
1.9181              
1
 1.918
0
TEXT
8
CO_ORDS
62
3
7
STD
40
0.25
41
1.0
50
0.0
51
0.0
10
27.5984             
20
4.1042              
30
1.9181              
1
 27.598 4.104
0
INSERT
8
POINT
62
2
2
CROSS
10
27.5865             
20
2.6169              
30
2.0173              
41
0.002
42
0.002
43
0.002
50
0.0
0
TEXT
8
CODE
62
3
7
STD
40
0.25
41
1.0
50
0.0
51
0.0
10
27.5865             
20
2.6169              
30
2.0173              
1
 WAND
0
TEXT
8
PT_ID
62
3
7
STD
40
0.25
41
1.0
50
0.0
51
0.0
10
27.5865             
20
2.6169              
30
2.0173              
1
 A247
0
TEXT
8
HEIGHT
62
3
7
STD
40
0.25
41
1.0
50
0.0
51
0.0
10
27.5865             
20
2.6169              
30
2.0173              
1
 2.017
0
TEXT
8
CO_ORDS
62
3
7
STD
40
0.25
41
1.0
50
0.0
51
0.0
10
27.5865             
20
2.6169              
30
2.0173              
1
 27.587 2.617
0
INSERT
8
POINT
62
2
2
CROSS
10
27.5832             
20
0.1418              
30
1.9900              
41
0.002
42
0.002
43
0.002
50
0.0
0
TEXT
8
CODE
62
3
7
STD
40
0.25
41
1.0
50
0.0
51
0.0
10
27.5832             
20
0.1418              
30
1.9900              
1
 WAND
0
TEXT
8
PT_ID
62
3
7
STD
40
0.25
41
1.0
50
0.0
51
0.0
10
27.5832             
20
0.1418              
30
1.9900              
1
 A248
0
TEXT
8
HEIGHT
62
3
7
STD
40
0.25
41
1.0
50
0.0
51
0.0
10
27.5832             
20
0.1418              
30
1.9900              
1
 1.990
0
TEXT
8
CO_ORDS
62
3
7
STD
40
0.25
41
1.0
50
0.0
51
0.0
10
27.5832             
20
0.1418              
30
1.9900              
1
 27.583 0.142
0
INSERT
8
POINT
62
2
2
CROSS
10
27.2709             
20
-0.5110             
30
1.9630              
41
0.002
42
0.002
43
0.002
50
0.0
0
TEXT
8
CODE
62
3
7
STD
40
0.25
41
1.0
50
0.0
51
0.0
10
27.2709             
20
-0.5110             
30
1.9630              
1
 WAND
0
TEXT
8
PT_ID
62
3
7
STD
40
0.25
41
1.0
50
0.0
51
0.0
10
27.2709             
20
-0.5110             
30
1.9630              
1
 A249
0
TEXT
8
HEIGHT
62
3
7
STD
40
0.25
41
1.0
50
0.0
51
0.0
10
27.2709             
20
-0.5110             
30
1.9630              
1
 1.963
0
TEXT
8
CO_ORDS
62
3
7
STD
40
0.25
41
1.0
50
0.0
51
0.0
10
27.2709             
20
-0.5110             
30
1.9630              
1
 27.271 -0.511
0
INSERT
8
POINT
62
2
2
CROSS
10
26.5783             
20
-0.5083             
30
2.0189              
41
0.002
42
0.002
43
0.002
50
0.0
0
TEXT
8
CODE
62
3
7
STD
40
0.25
41
1.0
50
0.0
51
0.0
10
26.5783             
20
-0.5083             
30
2.0189              
1
 WAND
0
TEXT
8
PT_ID
62
3
7
STD
40
0.25
41
1.0
50
0.0
51
0.0
10
26.5783             
20
-0.5083             
30
2.0189              
1
 A250
0
TEXT
8
HEIGHT
62
3
7
STD
40
0.25
41
1.0
50
0.0
51
0.0
10
26.5783             
20
-0.5083             
30
2.0189              
1
 2.019
0
TEXT
8
CO_ORDS
62
3
7
STD
40
0.25
41
1.0
50
0.0
51
0.0
10
26.5783             
20
-0.5083             
30
2.0189              
1
 26.578 -0.508
0
INSERT
8
POINT
62
2
2
CROSS
10
25.8711             
20
-0.4978             
30
1.9028              
41
0.002
42
0.002
43
0.002
50
0.0
0
TEXT
8
CODE
62
3
7
STD
40
0.25
41
1.0
50
0.0
51
0.0
10
25.8711             
20
-0.4978             
30
1.9028              
1
 WAND
0
TEXT
8
PT_ID
62
3
7
STD
40
0.25
41
1.0
50
0.0
51
0.0
10
25.8711             
20
-0.4978             
30
1.9028              
1
 A251
0
TEXT
8
HEIGHT
62
3
7
STD
40
0.25
41
1.0
50
0.0
51
0.0
10
25.8711             
20
-0.4978             
30
1.9028              
1
 1.903
0
TEXT
8
CO_ORDS
62
3
7
STD
40
0.25
41
1.0
50
0.0
51
0.0
10
25.8711             
20
-0.4978             
30
1.9028              
1
 25.871 -0.498
0
INSERT
8
POINT
62
2
2
CROSS
10
23.5331             
20
-0.4802             
30
1.9657              
41
0.002
42
0.002
43
0.002
50
0.0
0
TEXT
8
CODE
62
3
7
STD
40
0.25
41
1.0
50
0.0
51
0.0
10
23.5331             
20
-0.4802             
30
1.9657              
1
 WAND
0
TEXT
8
PT_ID
62
3
7
STD
40
0.25
41
1.0
50
0.0
51
0.0
10
23.5331             
20
-0.4802             
30
1.9657              
1
 A252
0
TEXT
8
HEIGHT
62
3
7
STD
40
0.25
41
1.0
50
0.0
51
0.0
10
23.5331             
20
-0.4802             
30
1.9657              
1
 1.966
0
TEXT
8
CO_ORDS
62
3
7
STD
40
0.25
41
1.0
50
0.0
51
0.0
10
23.5331             
20
-0.4802             
30
1.9657              
1
 23.533 -0.480
0
INSERT
8
POINT
62
2
2
CROSS
10
21.9139             
20
-0.4664             
30
1.9167              
41
0.002
42
0.002
43
0.002
50
0.0
0
TEXT
8
CODE
62
3
7
STD
40
0.25
41
1.0
50
0.0
51
0.0
10
21.9139             
20
-0.4664             
30
1.9167              
1
 WAND
0
TEXT
8
PT_ID
62
3
7
STD
40
0.25
41
1.0
50
0.0
51
0.0
10
21.9139             
20
-0.4664             
30
1.9167              
1
 A253
0
TEXT
8
HEIGHT
62
3
7
STD
40
0.25
41
1.0
50
0.0
51
0.0
10
21.9139             
20
-0.4664             
30
1.9167              
1
 1.917
0
TEXT
8
CO_ORDS
62
3
7
STD
40
0.25
41
1.0
50
0.0
51
0.0
10
21.9139             
20
-0.4664             
30
1.9167              
1
 21.914 -0.466
0
INSERT
8
POINT
62
2
2
CROSS
10
19.3279             
20
-0.4496             
30
2.0882              
41
0.002
42
0.002
43
0.002
50
0.0
0
TEXT
8
CODE
62
3
7
STD
40
0.25
41
1.0
50
0.0
51
0.0
10
19.3279             
20
-0.4496             
30
2.0882              
1
 WAND
0
TEXT
8
PT_ID
62
3
7
STD
40
0.25
41
1.0
50
0.0
51
0.0
10
19.3279             
20
-0.4496             
30
2.0882              
1
 A254
0
TEXT
8
HEIGHT
62
3
7
STD
40
0.25
41
1.0
50
0.0
51
0.0
10
19.3279             
20
-0.4496             
30
2.0882              
1
 2.088
0
TEXT
8
CO_ORDS
62
3
7
STD
40
0.25
41
1.0
50
0.0
51
0.0
10
19.3279             
20
-0.4496             
30
2.0882              
1
 19.328 -0.450
0
INSERT
8
POINT
62
2
2
CROSS
10
18.5221             
20
-0.4438             
30
2.3101              
41
0.002
42
0.002
43
0.002
50
0.0
0
TEXT
8
CODE
62
3
7
STD
40
0.25
41
1.0
50
0.0
51
0.0
10
18.5221             
20
-0.4438             
30
2.3101              
1
 WAND
0
TEXT
8
PT_ID
62
3
7
STD
40
0.25
41
1.0
50
0.0
51
0.0
10
18.5221             
20
-0.4438             
30
2.3101              
1
 A255
0
TEXT
8
HEIGHT
62
3
7
STD
40
0.25
41
1.0
50
0.0
51
0.0
10
18.5221             
20
-0.4438             
30
2.3101              
1
 2.310
0
TEXT
8
CO_ORDS
62
3
7
STD
40
0.25
41
1.0
50
0.0
51
0.0
10
18.5221             
20
-0.4438             
30
2.3101              
1
 18.522 -0.444
0
INSERT
8
POINT
62
2
2
CROSS
10
18.4308             
20
0.1511              
30
1.9424              
41
0.002
42
0.002
43
0.002
50
0.0
0
TEXT
8
CODE
62
3
7
STD
40
0.25
41
1.0
50
0.0
51
0.0
10
18.4308             
20
0.1511              
30
1.9424              
1
 WAND
0
TEXT
8
PT_ID
62
3
7
STD
40
0.25
41
1.0
50
0.0
51
0.0
10
18.4308             
20
0.1511              
30
1.9424              
1
 A256
0
TEXT
8
HEIGHT
62
3
7
STD
40
0.25
41
1.0
50
0.0
51
0.0
10
18.4308             
20
0.1511              
30
1.9424              
1
 1.942
0
TEXT
8
CO_ORDS
62
3
7
STD
40
0.25
41
1.0
50
0.0
51
0.0
10
18.4308             
20
0.1511              
30
1.9424              
1
 18.431 0.151
0
INSERT
8
POINT
62
2
2
CROSS
10
18.4516             
20
4.4181              
30
1.9051              
41
0.002
42
0.002
43
0.002
50
0.0
0
TEXT
8
CODE
62
3
7
STD
40
0.25
41
1.0
50
0.0
51
0.0
10
18.4516             
20
4.4181              
30
1.9051              
1
 WAND
0
TEXT
8
PT_ID
62
3
7
STD
40
0.25
41
1.0
50
0.0
51
0.0
10
18.4516             
20
4.4181              
30
1.9051              
1
 A257
0
TEXT
8
HEIGHT
62
3
7
STD
40
0.25
41
1.0
50
0.0
51
0.0
10
18.4516             
20
4.4181              
30
1.9051              
1
 1.905
0
TEXT
8
CO_ORDS
62
3
7
STD
40
0.25
41
1.0
50
0.0
51
0.0
10
18.4516             
20
4.4181              
30
1.9051              
1
 18.452 4.418
0
INSERT
8
POINT
62
2
2
CROSS
10
18.5887             
20
1.5751              
30
2.4833              
41
0.002
42
0.002
43
0.002
50
0.0
0
TEXT
8
CODE
62
3
7
STD
40
0.25
41
1.0
50
0.0
51
0.0
10
18.5887             
20
1.5751              
30
2.4833              
1
 HOLZST
0
TEXT
8
PT_ID
62
3
7
STD
40
0.25
41
1.0
50
0.0
51
0.0
10
18.5887             
20
1.5751              
30
2.4833              
1
 A258
0
TEXT
8
HEIGHT
62
3
7
STD
40
0.25
41
1.0
50
0.0
51
0.0
10
18.5887             
20
1.5751              
30
2.4833              
1
 2.483
0
TEXT
8
CO_ORDS
62
3
7
STD
40
0.25
41
1.0
50
0.0
51
0.0
10
18.5887             
20
1.5751              
30
2.4833              
1
 18.589 1.575
0
INSERT
8
POINT
62
2
2
CROSS
10
18.5902             
20
1.6744              
30
2.4903              
41
0.002
42
0.002
43
0.002
50
0.0
0
TEXT
8
CODE
62
3
7
STD
40
0.25
41
1.0
50
0.0
51
0.0
10
18.5902             
20
1.6744              
30
2.4903              
1
 HOLZST
0
TEXT
8
PT_ID
62
3
7
STD
40
0.25
41
1.0
50
0.0
51
0.0
10
18.5902             
20
1.6744              
30
2.4903              
1
 A259
0
TEXT
8
HEIGHT
62
3
7
STD
40
0.25
41
1.0
50
0.0
51
0.0
10
18.5902             
20
1.6744              
30
2.4903              
1
 2.490
0
TEXT
8
CO_ORDS
62
3
7
STD
40
0.25
41
1.0
50
0.0
51
0.0
10
18.5902             
20
1.6744              
30
2.4903              
1
 18.590 1.674
0
INSERT
8
POINT
62
2
2
CROSS
10
18.5708             
20
1.7019              
30
2.4911              
41
0.002
42
0.002
43
0.002
50
0.0
0
TEXT
8
CODE
62
3
7
STD
40
0.25
41
1.0
50
0.0
51
0.0
10
18.5708             
20
1.7019              
30
2.4911              
1
 HOLZST
0
TEXT
8
PT_ID
62
3
7
STD
40
0.25
41
1.0
50
0.0
51
0.0
10
18.5708             
20
1.7019              
30
2.4911              
1
 A260
0
TEXT
8
HEIGHT
62
3
7
STD
40
0.25
41
1.0
50
0.0
51
0.0
10
18.5708             
20
1.7019              
30
2.4911              
1
 2.491
0
TEXT
8
CO_ORDS
62
3
7
STD
40
0.25
41
1.0
50
0.0
51
0.0
10
18.5708             
20
1.7019              
30
2.4911              
1
 18.571 1.702
0
INSERT
8
POINT
62
2
2
CROSS
10
18.3839             
20
1.7020              
30
2.5122              
41
0.002
42
0.002
43
0.002
50
0.0
0
TEXT
8
CODE
62
3
7
STD
40
0.25
41
1.0
50
0.0
51
0.0
10
18.3839             
20
1.7020              
30
2.5122              
1
 HOLZST
0
TEXT
8
PT_ID
62
3
7
STD
40
0.25
41
1.0
50
0.0
51
0.0
10
18.3839             
20
1.7020              
30
2.5122              
1
 A261
0
TEXT
8
HEIGHT
62
3
7
STD
40
0.25
41
1.0
50
0.0
51
0.0
10
18.3839             
20
1.7020              
30
2.5122              
1
 2.512
0
TEXT
8
CO_ORDS
62
3
7
STD
40
0.25
41
1.0
50
0.0
51
0.0
10
18.3839             
20
1.7020              
30
2.5122              
1
 18.384 1.702
0
INSERT
8
POINT
62
2
2
CROSS
10
18.5963             
20
3.6850              
30
2.5135              
41
0.002
42
0.002
43
0.002
50
0.0
0
TEXT
8
CODE
62
3
7
STD
40
0.25
41
1.0
50
0.0
51
0.0
10
18.5963             
20
3.6850              
30
2.5135              
1
 HOLZST
0
TEXT
8
PT_ID
62
3
7
STD
40
0.25
41
1.0
50
0.0
51
0.0
10
18.5963             
20
3.6850              
30
2.5135              
1
 A262
0
TEXT
8
HEIGHT
62
3
7
STD
40
0.25
41
1.0
50
0.0
51
0.0
10
18.5963             
20
3.6850              
30
2.5135              
1
 2.514
0
TEXT
8
CO_ORDS
62
3
7
STD
40
0.25
41
1.0
50
0.0
51
0.0
10
18.5963             
20
3.6850              
30
2.5135              
1
 18.596 3.685
0
INSERT
8
POINT
62
2
2
CROSS
10
18.5987             
20
3.8123              
30
2.5207              
41
0.002
42
0.002
43
0.002
50
0.0
0
TEXT
8
CODE
62
3
7
STD
40
0.25
41
1.0
50
0.0
51
0.0
10
18.5987             
20
3.8123              
30
2.5207              
1
 HOLZST
0
TEXT
8
PT_ID
62
3
7
STD
40
0.25
41
1.0
50
0.0
51
0.0
10
18.5987             
20
3.8123              
30
2.5207              
1
 A263
0
TEXT
8
HEIGHT
62
3
7
STD
40
0.25
41
1.0
50
0.0
51
0.0
10
18.5987             
20
3.8123              
30
2.5207              
1
 2.521
0
TEXT
8
CO_ORDS
62
3
7
STD
40
0.25
41
1.0
50
0.0
51
0.0
10
18.5987             
20
3.8123              
30
2.5207              
1
 18.599 3.812
0
INSERT
8
POINT
62
2
2
CROSS
10
18.5591             
20
3.8294              
30
2.5173              
41
0.002
42
0.002
43
0.002
50
0.0
0
TEXT
8
CODE
62
3
7
STD
40
0.25
41
1.0
50
0.0
51
0.0
10
18.5591             
20
3.8294              
30
2.5173              
1
 HOLZST
0
TEXT
8
PT_ID
62
3
7
STD
40
0.25
41
1.0
50
0.0
51
0.0
10
18.5591             
20
3.8294              
30
2.5173              
1
 A264
0
TEXT
8
HEIGHT
62
3
7
STD
40
0.25
41
1.0
50
0.0
51
0.0
10
18.5591             
20
3.8294              
30
2.5173              
1
 2.517
0
TEXT
8
CO_ORDS
62
3
7
STD
40
0.25
41
1.0
50
0.0
51
0.0
10
18.5591             
20
3.8294              
30
2.5173              
1
 18.559 3.829
0
INSERT
8
POINT
62
2
2
CROSS
10
18.4580             
20
3.8299              
30
2.5063              
41
0.002
42
0.002
43
0.002
50
0.0
0
TEXT
8
CODE
62
3
7
STD
40
0.25
41
1.0
50
0.0
51
0.0
10
18.4580             
20
3.8299              
30
2.5063              
1
 HOLZST
0
TEXT
8
PT_ID
62
3
7
STD
40
0.25
41
1.0
50
0.0
51
0.0
10
18.4580             
20
3.8299              
30
2.5063              
1
 A265
0
TEXT
8
HEIGHT
62
3
7
STD
40
0.25
41
1.0
50
0.0
51
0.0
10
18.4580             
20
3.8299              
30
2.5063              
1
 2.506
0
TEXT
8
CO_ORDS
62
3
7
STD
40
0.25
41
1.0
50
0.0
51
0.0
10
18.4580             
20
3.8299              
30
2.5063              
1
 18.458 3.830
0
INSERT
8
POINT
62
2
2
CROSS
10
18.4417             
20
7.9362              
30
3.1469              
41
0.002
42
0.002
43
0.002
50
0.0
0
TEXT
8
CODE
62
3
7
STD
40
0.25
41
1.0
50
0.0
51
0.0
10
18.4417             
20
7.9362              
30
3.1469              
1
 HOLZST
0
TEXT
8
PT_ID
62
3
7
STD
40
0.25
41
1.0
50
0.0
51
0.0
10
18.4417             
20
7.9362              
30
3.1469              
1
 A266
0
TEXT
8
HEIGHT
62
3
7
STD
40
0.25
41
1.0
50
0.0
51
0.0
10
18.4417             
20
7.9362              
30
3.1469              
1
 3.147
0
TEXT
8
CO_ORDS
62
3
7
STD
40
0.25
41
1.0
50
0.0
51
0.0
10
18.4417             
20
7.9362              
30
3.1469              
1
 18.442 7.936
0
INSERT
8
POINT
62
2
2
CROSS
10
18.5913             
20
7.9351              
30
3.1410              
41
0.002
42
0.002
43
0.002
50
0.0
0
TEXT
8
CODE
62
3
7
STD
40
0.25
41
1.0
50
0.0
51
0.0
10
18.5913             
20
7.9351              
30
3.1410              
1
 HOLZST
0
TEXT
8
PT_ID
62
3
7
STD
40
0.25
41
1.0
50
0.0
51
0.0
10
18.5913             
20
7.9351              
30
3.1410              
1
 A267
0
TEXT
8
HEIGHT
62
3
7
STD
40
0.25
41
1.0
50
0.0
51
0.0
10
18.5913             
20
7.9351              
30
3.1410              
1
 3.141
0
TEXT
8
CO_ORDS
62
3
7
STD
40
0.25
41
1.0
50
0.0
51
0.0
10
18.5913             
20
7.9351              
30
3.1410              
1
 18.591 7.935
0
INSERT
8
POINT
62
2
2
CROSS
10
18.6200             
20
7.9494              
30
3.1403              
41
0.002
42
0.002
43
0.002
50
0.0
0
TEXT
8
CODE
62
3
7
STD
40
0.25
41
1.0
50
0.0
51
0.0
10
18.6200             
20
7.9494              
30
3.1403              
1
 HOLZST
0
TEXT
8
PT_ID
62
3
7
STD
40
0.25
41
1.0
50
0.0
51
0.0
10
18.6200             
20
7.9494              
30
3.1403              
1
 A268
0
TEXT
8
HEIGHT
62
3
7
STD
40
0.25
41
1.0
50
0.0
51
0.0
10
18.6200             
20
7.9494              
30
3.1403              
1
 3.140
0
TEXT
8
CO_ORDS
62
3
7
STD
40
0.25
41
1.0
50
0.0
51
0.0
10
18.6200             
20
7.9494              
30
3.1403              
1
 18.620 7.949
0
INSERT
8
POINT
62
2
2
CROSS
10
18.6213             
20
8.0682              
30
3.1444              
41
0.002
42
0.002
43
0.002
50
0.0
0
TEXT
8
CODE
62
3
7
STD
40
0.25
41
1.0
50
0.0
51
0.0
10
18.6213             
20
8.0682              
30
3.1444              
1
 HOLZST
0
TEXT
8
PT_ID
62
3
7
STD
40
0.25
41
1.0
50
0.0
51
0.0
10
18.6213             
20
8.0682              
30
3.1444              
1
 A269
0
TEXT
8
HEIGHT
62
3
7
STD
40
0.25
41
1.0
50
0.0
51
0.0
10
18.6213             
20
8.0682              
30
3.1444              
1
 3.144
0
TEXT
8
CO_ORDS
62
3
7
STD
40
0.25
41
1.0
50
0.0
51
0.0
10
18.6213             
20
8.0682              
30
3.1444              
1
 18.621 8.068
0
INSERT
8
POINT
62
2
2
CROSS
10
18.4591             
20
10.0637             
30
3.1990              
41
0.002
42
0.002
43
0.002
50
0.0
0
TEXT
8
CODE
62
3
7
STD
40
0.25
41
1.0
50
0.0
51
0.0
10
18.4591             
20
10.0637             
30
3.1990              
1
 HOLZST
0
TEXT
8
PT_ID
62
3
7
STD
40
0.25
41
1.0
50
0.0
51
0.0
10
18.4591             
20
10.0637             
30
3.1990              
1
 A270
0
TEXT
8
HEIGHT
62
3
7
STD
40
0.25
41
1.0
50
0.0
51
0.0
10
18.4591             
20
10.0637             
30
3.1990              
1
 3.199
0
TEXT
8
CO_ORDS
62
3
7
STD
40
0.25
41
1.0
50
0.0
51
0.0
10
18.4591             
20
10.0637             
30
3.1990              
1
 18.459 10.064
0
INSERT
8
POINT
62
2
2
CROSS
10
18.6175             
20
10.0624             
30
3.1950              
41
0.002
42
0.002
43
0.002
50
0.0
0
TEXT
8
CODE
62
3
7
STD
40
0.25
41
1.0
50
0.0
51
0.0
10
18.6175             
20
10.0624             
30
3.1950              
1
 HOLZST
0
TEXT
8
PT_ID
62
3
7
STD
40
0.25
41
1.0
50
0.0
51
0.0
10
18.6175             
20
10.0624             
30
3.1950              
1
 A271
0
TEXT
8
HEIGHT
62
3
7
STD
40
0.25
41
1.0
50
0.0
51
0.0
10
18.6175             
20
10.0624             
30
3.1950              
1
 3.195
0
TEXT
8
CO_ORDS
62
3
7
STD
40
0.25
41
1.0
50
0.0
51
0.0
10
18.6175             
20
10.0624             
30
3.1950              
1
 18.618 10.062
0
INSERT
8
POINT
62
2
2
CROSS
10
18.6288             
20
10.1104             
30
3.1966              
41
0.002
42
0.002
43
0.002
50
0.0
0
TEXT
8
CODE
62
3
7
STD
40
0.25
41
1.0
50
0.0
51
0.0
10
18.6288             
20
10.1104             
30
3.1966              
1
 HOLZST
0
TEXT
8
PT_ID
62
3
7
STD
40
0.25
41
1.0
50
0.0
51
0.0
10
18.6288             
20
10.1104             
30
3.1966              
1
 A272
0
TEXT
8
HEIGHT
62
3
7
STD
40
0.25
41
1.0
50
0.0
51
0.0
10
18.6288             
20
10.1104             
30
3.1966              
1
 3.197
0
TEXT
8
CO_ORDS
62
3
7
STD
40
0.25
41
1.0
50
0.0
51
0.0
10
18.6288             
20
10.1104             
30
3.1966              
1
 18.629 10.110
0
INSERT
8
POINT
62
2
2
CROSS
10
18.6299             
20
10.1971             
30
3.2003              
41
0.002
42
0.002
43
0.002
50
0.0
0
TEXT
8
CODE
62
3
7
STD
40
0.25
41
1.0
50
0.0
51
0.0
10
18.6299             
20
10.1971             
30
3.2003              
1
 HOLZST
0
TEXT
8
PT_ID
62
3
7
STD
40
0.25
41
1.0
50
0.0
51
0.0
10
18.6299             
20
10.1971             
30
3.2003              
1
 A273
0
TEXT
8
HEIGHT
62
3
7
STD
40
0.25
41
1.0
50
0.0
51
0.0
10
18.6299             
20
10.1971             
30
3.2003              
1
 3.200
0
TEXT
8
CO_ORDS
62
3
7
STD
40
0.25
41
1.0
50
0.0
51
0.0
10
18.6299             
20
10.1971             
30
3.2003              
1
 18.630 10.197
0
INSERT
8
POINT
62
2
2
CROSS
10
27.5754             
20
12.1204             
30
3.2053              
41
0.002
42
0.002
43
0.002
50
0.0
0
TEXT
8
CODE
62
3
7
STD
40
0.25
41
1.0
50
0.0
51
0.0
10
27.5754             
20
12.1204             
30
3.2053              
1
 HOLZST
0
TEXT
8
PT_ID
62
3
7
STD
40
0.25
41
1.0
50
0.0
51
0.0
10
27.5754             
20
12.1204             
30
3.2053              
1
 A274
0
TEXT
8
HEIGHT
62
3
7
STD
40
0.25
41
1.0
50
0.0
51
0.0
10
27.5754             
20
12.1204             
30
3.2053              
1
 3.205
0
TEXT
8
CO_ORDS
62
3
7
STD
40
0.25
41
1.0
50
0.0
51
0.0
10
27.5754             
20
12.1204             
30
3.2053              
1
 27.575 12.120
0
INSERT
8
POINT
62
2
2
CROSS
10
27.6666             
20
12.1204             
30
3.2071              
41
0.002
42
0.002
43
0.002
50
0.0
0
TEXT
8
CODE
62
3
7
STD
40
0.25
41
1.0
50
0.0
51
0.0
10
27.6666             
20
12.1204             
30
3.2071              
1
 HOLZST
0
TEXT
8
PT_ID
62
3
7
STD
40
0.25
41
1.0
50
0.0
51
0.0
10
27.6666             
20
12.1204             
30
3.2071              
1
 A275
0
TEXT
8
HEIGHT
62
3
7
STD
40
0.25
41
1.0
50
0.0
51
0.0
10
27.6666             
20
12.1204             
30
3.2071              
1
 3.207
0
TEXT
8
CO_ORDS
62
3
7
STD
40
0.25
41
1.0
50
0.0
51
0.0
10
27.6666             
20
12.1204             
30
3.2071              
1
 27.667 12.120
0
INSERT
8
POINT
62
2
2
CROSS
10
27.4698             
20
10.1385             
30
2.9254              
41
0.002
42
0.002
43
0.002
50
0.0
0
TEXT
8
CODE
62
3
7
STD
40
0.25
41
1.0
50
0.0
51
0.0
10
27.4698             
20
10.1385             
30
2.9254              
1
 HOLZST
0
TEXT
8
PT_ID
62
3
7
STD
40
0.25
41
1.0
50
0.0
51
0.0
10
27.4698             
20
10.1385             
30
2.9254              
1
 A276
0
TEXT
8
HEIGHT
62
3
7
STD
40
0.25
41
1.0
50
0.0
51
0.0
10
27.4698             
20
10.1385             
30
2.9254              
1
 2.925
0
TEXT
8
CO_ORDS
62
3
7
STD
40
0.25
41
1.0
50
0.0
51
0.0
10
27.4698             
20
10.1385             
30
2.9254              
1
 27.470 10.139
0
INSERT
8
POINT
62
2
2
CROSS
10
27.4686             
20
10.0142             
30
2.9251              
41
0.002
42
0.002
43
0.002
50
0.0
0
TEXT
8
CODE
62
3
7
STD
40
0.25
41
1.0
50
0.0
51
0.0
10
27.4686             
20
10.0142             
30
2.9251              
1
 HOLZST
0
TEXT
8
PT_ID
62
3
7
STD
40
0.25
41
1.0
50
0.0
51
0.0
10
27.4686             
20
10.0142             
30
2.9251              
1
 A277
0
TEXT
8
HEIGHT
62
3
7
STD
40
0.25
41
1.0
50
0.0
51
0.0
10
27.4686             
20
10.0142             
30
2.9251              
1
 2.925
0
TEXT
8
CO_ORDS
62
3
7
STD
40
0.25
41
1.0
50
0.0
51
0.0
10
27.4686             
20
10.0142             
30
2.9251              
1
 27.469 10.014
0
INSERT
8
POINT
62
2
2
CROSS
10
27.5164             
20
9.9988              
30
1.8974              
41
0.002
42
0.002
43
0.002
50
0.0
0
TEXT
8
CODE
62
3
7
STD
40
0.25
41
1.0
50
0.0
51
0.0
10
27.5164             
20
9.9988              
30
1.8974              
1
 HOLZST
0
TEXT
8
PT_ID
62
3
7
STD
40
0.25
41
1.0
50
0.0
51
0.0
10
27.5164             
20
9.9988              
30
1.8974              
1
 A278
0
TEXT
8
HEIGHT
62
3
7
STD
40
0.25
41
1.0
50
0.0
51
0.0
10
27.5164             
20
9.9988              
30
1.8974              
1
 1.897
0
TEXT
8
CO_ORDS
62
3
7
STD
40
0.25
41
1.0
50
0.0
51
0.0
10
27.5164             
20
9.9988              
30
1.8974              
1
 27.516 9.999
0
INSERT
8
POINT
62
2
2
CROSS
10
27.5501             
20
9.9984              
30
1.9648              
41
0.002
42
0.002
43
0.002
50
0.0
0
TEXT
8
CODE
62
3
7
STD
40
0.25
41
1.0
50
0.0
51
0.0
10
27.5501             
20
9.9984              
30
1.9648              
1
 HOLZST
0
TEXT
8
PT_ID
62
3
7
STD
40
0.25
41
1.0
50
0.0
51
0.0
10
27.5501             
20
9.9984              
30
1.9648              
1
 A279
0
TEXT
8
HEIGHT
62
3
7
STD
40
0.25
41
1.0
50
0.0
51
0.0
10
27.5501             
20
9.9984              
30
1.9648              
1
 1.965
0
TEXT
8
CO_ORDS
62
3
7
STD
40
0.25
41
1.0
50
0.0
51
0.0
10
27.5501             
20
9.9984              
30
1.9648              
1
 27.550 9.998
0
INSERT
8
POINT
62
2
2
CROSS
10
27.4639             
20
8.0094              
30
2.1894              
41
0.002
42
0.002
43
0.002
50
0.0
0
TEXT
8
CODE
62
3
7
STD
40
0.25
41
1.0
50
0.0
51
0.0
10
27.4639             
20
8.0094              
30
2.1894              
1
 HOLZST
0
TEXT
8
PT_ID
62
3
7
STD
40
0.25
41
1.0
50
0.0
51
0.0
10
27.4639             
20
8.0094              
30
2.1894              
1
 A280
0
TEXT
8
HEIGHT
62
3
7
STD
40
0.25
41
1.0
50
0.0
51
0.0
10
27.4639             
20
8.0094              
30
2.1894              
1
 2.189
0
TEXT
8
CO_ORDS
62
3
7
STD
40
0.25
41
1.0
50
0.0
51
0.0
10
27.4639             
20
8.0094              
30
2.1894              
1
 27.464 8.009
0
INSERT
8
POINT
62
2
2
CROSS
10
27.4627             
20
7.9004              
30
2.2375              
41
0.002
42
0.002
43
0.002
50
0.0
0
TEXT
8
CODE
62
3
7
STD
40
0.25
41
1.0
50
0.0
51
0.0
10
27.4627             
20
7.9004              
30
2.2375              
1
 HOLZST
0
TEXT
8
PT_ID
62
3
7
STD
40
0.25
41
1.0
50
0.0
51
0.0
10
27.4627             
20
7.9004              
30
2.2375              
1
 A281
0
TEXT
8
HEIGHT
62
3
7
STD
40
0.25
41
1.0
50
0.0
51
0.0
10
27.4627             
20
7.9004              
30
2.2375              
1
 2.238
0
TEXT
8
CO_ORDS
62
3
7
STD
40
0.25
41
1.0
50
0.0
51
0.0
10
27.4627             
20
7.9004              
30
2.2375              
1
 27.463 7.900
0
INSERT
8
POINT
62
2
2
CROSS
10
27.4991             
20
7.8669              
30
2.2354              
41
0.002
42
0.002
43
0.002
50
0.0
0
TEXT
8
CODE
62
3
7
STD
40
0.25
41
1.0
50
0.0
51
0.0
10
27.4991             
20
7.8669              
30
2.2354              
1
 HOLZST
0
TEXT
8
PT_ID
62
3
7
STD
40
0.25
41
1.0
50
0.0
51
0.0
10
27.4991             
20
7.8669              
30
2.2354              
1
 A282
0
TEXT
8
HEIGHT
62
3
7
STD
40
0.25
41
1.0
50
0.0
51
0.0
10
27.4991             
20
7.8669              
30
2.2354              
1
 2.235
0
TEXT
8
CO_ORDS
62
3
7
STD
40
0.25
41
1.0
50
0.0
51
0.0
10
27.4991             
20
7.8669              
30
2.2354              
1
 27.499 7.867
0
INSERT
8
POINT
62
2
2
CROSS
10
27.5883             
20
7.8666              
30
2.2264              
41
0.002
42
0.002
43
0.002
50
0.0
0
TEXT
8
CODE
62
3
7
STD
40
0.25
41
1.0
50
0.0
51
0.0
10
27.5883             
20
7.8666              
30
2.2264              
1
 HOLZST
0
TEXT
8
PT_ID
62
3
7
STD
40
0.25
41
1.0
50
0.0
51
0.0
10
27.5883             
20
7.8666              
30
2.2264              
1
 A283
0
TEXT
8
HEIGHT
62
3
7
STD
40
0.25
41
1.0
50
0.0
51
0.0
10
27.5883             
20
7.8666              
30
2.2264              
1
 2.226
0
TEXT
8
CO_ORDS
62
3
7
STD
40
0.25
41
1.0
50
0.0
51
0.0
10
27.5883             
20
7.8666              
30
2.2264              
1
 27.588 7.867
0
INSERT
8
POINT
62
2
2
CROSS
10
27.5714             
20
3.7666              
30
2.0279              
41
0.002
42
0.002
43
0.002
50
0.0
0
TEXT
8
CODE
62
3
7
STD
40
0.25
41
1.0
50
0.0
51
0.0
10
27.5714             
20
3.7666              
30
2.0279              
1
 HOLZST
0
TEXT
8
PT_ID
62
3
7
STD
40
0.25
41
1.0
50
0.0
51
0.0
10
27.5714             
20
3.7666              
30
2.0279              
1
 A284
0
TEXT
8
HEIGHT
62
3
7
STD
40
0.25
41
1.0
50
0.0
51
0.0
10
27.5714             
20
3.7666              
30
2.0279              
1
 2.028
0
TEXT
8
CO_ORDS
62
3
7
STD
40
0.25
41
1.0
50
0.0
51
0.0
10
27.5714             
20
3.7666              
30
2.0279              
1
 27.571 3.767
0
INSERT
8
POINT
62
2
2
CROSS
10
27.4787             
20
3.7711              
30
2.0415              
41
0.002
42
0.002
43
0.002
50
0.0
0
TEXT
8
CODE
62
3
7
STD
40
0.25
41
1.0
50
0.0
51
0.0
10
27.4787             
20
3.7711              
30
2.0415              
1
 HOLZST
0
TEXT
8
PT_ID
62
3
7
STD
40
0.25
41
1.0
50
0.0
51
0.0
10
27.4787             
20
3.7711              
30
2.0415              
1
 A285
0
TEXT
8
HEIGHT
62
3
7
STD
40
0.25
41
1.0
50
0.0
51
0.0
10
27.4787             
20
3.7711              
30
2.0415              
1
 2.041
0
TEXT
8
CO_ORDS
62
3
7
STD
40
0.25
41
1.0
50
0.0
51
0.0
10
27.4787             
20
3.7711              
30
2.0415              
1
 27.479 3.771
0
INSERT
8
POINT
62
2
2
CROSS
10
27.4447             
20
3.7515              
30
2.0456              
41
0.002
42
0.002
43
0.002
50
0.0
0
TEXT
8
CODE
62
3
7
STD
40
0.25
41
1.0
50
0.0
51
0.0
10
27.4447             
20
3.7515              
30
2.0456              
1
 HOLZST
0
TEXT
8
PT_ID
62
3
7
STD
40
0.25
41
1.0
50
0.0
51
0.0
10
27.4447             
20
3.7515              
30
2.0456              
1
 A286
0
TEXT
8
HEIGHT
62
3
7
STD
40
0.25
41
1.0
50
0.0
51
0.0
10
27.4447             
20
3.7515              
30
2.0456              
1
 2.046
0
TEXT
8
CO_ORDS
62
3
7
STD
40
0.25
41
1.0
50
0.0
51
0.0
10
27.4447             
20
3.7515              
30
2.0456              
1
 27.445 3.751
0
INSERT
8
POINT
62
2
2
CROSS
10
27.4431             
20
3.6422              
30
2.0416              
41
0.002
42
0.002
43
0.002
50
0.0
0
TEXT
8
CODE
62
3
7
STD
40
0.25
41
1.0
50
0.0
51
0.0
10
27.4431             
20
3.6422              
30
2.0416              
1
 HOLZST
0
TEXT
8
PT_ID
62
3
7
STD
40
0.25
41
1.0
50
0.0
51
0.0
10
27.4431             
20
3.6422              
30
2.0416              
1
 A287
0
TEXT
8
HEIGHT
62
3
7
STD
40
0.25
41
1.0
50
0.0
51
0.0
10
27.4431             
20
3.6422              
30
2.0416              
1
 2.042
0
TEXT
8
CO_ORDS
62
3
7
STD
40
0.25
41
1.0
50
0.0
51
0.0
10
27.4431             
20
3.6422              
30
2.0416              
1
 27.443 3.642
0
INSERT
8
POINT
62
2
2
CROSS
10
27.5529             
20
1.6364              
30
2.0360              
41
0.002
42
0.002
43
0.002
50
0.0
0
TEXT
8
CODE
62
3
7
STD
40
0.25
41
1.0
50
0.0
51
0.0
10
27.5529             
20
1.6364              
30
2.0360              
1
 HOLZST
0
TEXT
8
PT_ID
62
3
7
STD
40
0.25
41
1.0
50
0.0
51
0.0
10
27.5529             
20
1.6364              
30
2.0360              
1
 A288
0
TEXT
8
HEIGHT
62
3
7
STD
40
0.25
41
1.0
50
0.0
51
0.0
10
27.5529             
20
1.6364              
30
2.0360              
1
 2.036
0
TEXT
8
CO_ORDS
62
3
7
STD
40
0.25
41
1.0
50
0.0
51
0.0
10
27.5529             
20
1.6364              
30
2.0360              
1
 27.553 1.636
0
INSERT
8
POINT
62
2
2
CROSS
10
27.4675             
20
1.6389              
30
2.0455              
41
0.002
42
0.002
43
0.002
50
0.0
0
TEXT
8
CODE
62
3
7
STD
40
0.25
41
1.0
50
0.0
51
0.0
10
27.4675             
20
1.6389              
30
2.0455              
1
 HOLZST
0
TEXT
8
PT_ID
62
3
7
STD
40
0.25
41
1.0
50
0.0
51
0.0
10
27.4675             
20
1.6389              
30
2.0455              
1
 A289
0
TEXT
8
HEIGHT
62
3
7
STD
40
0.25
41
1.0
50
0.0
51
0.0
10
27.4675             
20
1.6389              
30
2.0455              
1
 2.045
0
TEXT
8
CO_ORDS
62
3
7
STD
40
0.25
41
1.0
50
0.0
51
0.0
10
27.4675             
20
1.6389              
30
2.0455              
1
 27.468 1.639
0
INSERT
8
POINT
62
2
2
CROSS
10
27.4324             
20
1.6142              
30
2.0476              
41
0.002
42
0.002
43
0.002
50
0.0
0
TEXT
8
CODE
62
3
7
STD
40
0.25
41
1.0
50
0.0
51
0.0
10
27.4324             
20
1.6142              
30
2.0476              
1
 HOLZST
0
TEXT
8
PT_ID
62
3
7
STD
40
0.25
41
1.0
50
0.0
51
0.0
10
27.4324             
20
1.6142              
30
2.0476              
1
 A290
0
TEXT
8
HEIGHT
62
3
7
STD
40
0.25
41
1.0
50
0.0
51
0.0
10
27.4324             
20
1.6142              
30
2.0476              
1
 2.048
0
TEXT
8
CO_ORDS
62
3
7
STD
40
0.25
41
1.0
50
0.0
51
0.0
10
27.4324             
20
1.6142              
30
2.0476              
1
 27.432 1.614
0
INSERT
8
POINT
62
2
2
CROSS
10
27.4310             
20
1.5026              
30
2.0399              
41
0.002
42
0.002
43
0.002
50
0.0
0
TEXT
8
CODE
62
3
7
STD
40
0.25
41
1.0
50
0.0
51
0.0
10
27.4310             
20
1.5026              
30
2.0399              
1
 HOLZST
0
TEXT
8
PT_ID
62
3
7
STD
40
0.25
41
1.0
50
0.0
51
0.0
10
27.4310             
20
1.5026              
30
2.0399              
1
 A291
0
TEXT
8
HEIGHT
62
3
7
STD
40
0.25
41
1.0
50
0.0
51
0.0
10
27.4310             
20
1.5026              
30
2.0399              
1
 2.040
0
TEXT
8
CO_ORDS
62
3
7
STD
40
0.25
41
1.0
50
0.0
51
0.0
10
27.4310             
20
1.5026              
30
2.0399              
1
 27.431 1.503
0
INSERT
8
POINT
62
2
2
CROSS
10
26.4596             
20
-0.4841             
30
1.9612              
41
0.002
42
0.002
43
0.002
50
0.0
0
TEXT
8
CODE
62
3
7
STD
40
0.25
41
1.0
50
0.0
51
0.0
10
26.4596             
20
-0.4841             
30
1.9612              
1
 HOLZST
0
TEXT
8
PT_ID
62
3
7
STD
40
0.25
41
1.0
50
0.0
51
0.0
10
26.4596             
20
-0.4841             
30
1.9612              
1
 A292
0
TEXT
8
HEIGHT
62
3
7
STD
40
0.25
41
1.0
50
0.0
51
0.0
10
26.4596             
20
-0.4841             
30
1.9612              
1
 1.961
0
TEXT
8
CO_ORDS
62
3
7
STD
40
0.25
41
1.0
50
0.0
51
0.0
10
26.4596             
20
-0.4841             
30
1.9612              
1
 26.460 -0.484
0
INSERT
8
POINT
62
2
2
CROSS
10
26.3646             
20
-0.4829             
30
1.9691              
41
0.002
42
0.002
43
0.002
50
0.0
0
TEXT
8
CODE
62
3
7
STD
40
0.25
41
1.0
50
0.0
51
0.0
10
26.3646             
20
-0.4829             
30
1.9691              
1
 HOLZST
0
TEXT
8
PT_ID
62
3
7
STD
40
0.25
41
1.0
50
0.0
51
0.0
10
26.3646             
20
-0.4829             
30
1.9691              
1
 A293
0
TEXT
8
HEIGHT
62
3
7
STD
40
0.25
41
1.0
50
0.0
51
0.0
10
26.3646             
20
-0.4829             
30
1.9691              
1
 1.969
0
TEXT
8
CO_ORDS
62
3
7
STD
40
0.25
41
1.0
50
0.0
51
0.0
10
26.3646             
20
-0.4829             
30
1.9691              
1
 26.365 -0.483
0
INSERT
8
POINT
62
2
2
CROSS
10
23.0617             
20
-0.4565             
30
1.9445              
41
0.002
42
0.002
43
0.002
50
0.0
0
TEXT
8
CODE
62
3
7
STD
40
0.25
41
1.0
50
0.0
51
0.0
10
23.0617             
20
-0.4565             
30
1.9445              
1
 HOLZST
0
TEXT
8
PT_ID
62
3
7
STD
40
0.25
41
1.0
50
0.0
51
0.0
10
23.0617             
20
-0.4565             
30
1.9445              
1
 A294
0
TEXT
8
HEIGHT
62
3
7
STD
40
0.25
41
1.0
50
0.0
51
0.0
10
23.0617             
20
-0.4565             
30
1.9445              
1
 1.945
0
TEXT
8
CO_ORDS
62
3
7
STD
40
0.25
41
1.0
50
0.0
51
0.0
10
23.0617             
20
-0.4565             
30
1.9445              
1
 23.062 -0.456
0
INSERT
8
POINT
62
2
2
CROSS
10
22.9587             
20
-0.4574             
30
1.9484              
41
0.002
42
0.002
43
0.002
50
0.0
0
TEXT
8
CODE
62
3
7
STD
40
0.25
41
1.0
50
0.0
51
0.0
10
22.9587             
20
-0.4574             
30
1.9484              
1
 HOLZST
0
TEXT
8
PT_ID
62
3
7
STD
40
0.25
41
1.0
50
0.0
51
0.0
10
22.9587             
20
-0.4574             
30
1.9484              
1
 A295
0
TEXT
8
HEIGHT
62
3
7
STD
40
0.25
41
1.0
50
0.0
51
0.0
10
22.9587             
20
-0.4574             
30
1.9484              
1
 1.948
0
TEXT
8
CO_ORDS
62
3
7
STD
40
0.25
41
1.0
50
0.0
51
0.0
10
22.9587             
20
-0.4574             
30
1.9484              
1
 22.959 -0.457
0
INSERT
8
POINT
62
2
2
CROSS
10
27.0107             
20
12.0421             
30
3.4657              
41
0.002
42
0.002
43
0.002
50
0.0
0
TEXT
8
CODE
62
3
7
STD
40
0.25
41
1.0
50
0.0
51
0.0
10
27.0107             
20
12.0421             
30
3.4657              
1
 WAND
0
TEXT
8
PT_ID
62
3
7
STD
40
0.25
41
1.0
50
0.0
51
0.0
10
27.0107             
20
12.0421             
30
3.4657              
1
 A296
0
TEXT
8
HEIGHT
62
3
7
STD
40
0.25
41
1.0
50
0.0
51
0.0
10
27.0107             
20
12.0421             
30
3.4657              
1
 3.466
0
TEXT
8
CO_ORDS
62
3
7
STD
40
0.25
41
1.0
50
0.0
51
0.0
10
27.0107             
20
12.0421             
30
3.4657              
1
 27.011 12.042
0
INSERT
8
POINT
62
2
2
CROSS
10
19.3547             
20
12.0952             
30
3.3775              
41
0.002
42
0.002
43
0.002
50
0.0
0
TEXT
8
CODE
62
3
7
STD
40
0.25
41
1.0
50
0.0
51
0.0
10
19.3547             
20
12.0952             
30
3.3775              
1
 WAND
0
TEXT
8
PT_ID
62
3
7
STD
40
0.25
41
1.0
50
0.0
51
0.0
10
19.3547             
20
12.0952             
30
3.3775              
1
 A297
0
TEXT
8
HEIGHT
62
3
7
STD
40
0.25
41
1.0
50
0.0
51
0.0
10
19.3547             
20
12.0952             
30
3.3775              
1
 3.377
0
TEXT
8
CO_ORDS
62
3
7
STD
40
0.25
41
1.0
50
0.0
51
0.0
10
19.3547             
20
12.0952             
30
3.3775              
1
 19.355 12.095
0
INSERT
8
POINT
62
2
2
CROSS
10
27.6899             
20
7.3744              
30
3.9194              
41
0.002
42
0.002
43
0.002
50
0.0
0
TEXT
8
CODE
62
3
7
STD
40
0.25
41
1.0
50
0.0
51
0.0
10
27.6899             
20
7.3744              
30
3.9194              
1
 FENSTER
0
TEXT
8
PT_ID
62
3
7
STD
40
0.25
41
1.0
50
0.0
51
0.0
10
27.6899             
20
7.3744              
30
3.9194              
1
 A298
0
TEXT
8
HEIGHT
62
3
7
STD
40
0.25
41
1.0
50
0.0
51
0.0
10
27.6899             
20
7.3744              
30
3.9194              
1
 3.919
0
TEXT
8
CO_ORDS
62
3
7
STD
40
0.25
41
1.0
50
0.0
51
0.0
10
27.6899             
20
7.3744              
30
3.9194              
1
 27.690 7.374
0
INSERT
8
POINT
62
2
2
CROSS
10
27.6857             
20
6.2833              
30
3.9087              
41
0.002
42
0.002
43
0.002
50
0.0
0
TEXT
8
CODE
62
3
7
STD
40
0.25
41
1.0
50
0.0
51
0.0
10
27.6857             
20
6.2833              
30
3.9087              
1
 FENSTER
0
TEXT
8
PT_ID
62
3
7
STD
40
0.25
41
1.0
50
0.0
51
0.0
10
27.6857             
20
6.2833              
30
3.9087              
1
 A299
0
TEXT
8
HEIGHT
62
3
7
STD
40
0.25
41
1.0
50
0.0
51
0.0
10
27.6857             
20
6.2833              
30
3.9087              
1
 3.909
0
TEXT
8
CO_ORDS
62
3
7
STD
40
0.25
41
1.0
50
0.0
51
0.0
10
27.6857             
20
6.2833              
30
3.9087              
1
 27.686 6.283
0
INSERT
8
POINT
62
2
2
CROSS
10
27.6628             
20
0.4833              
30
3.9117              
41
0.002
42
0.002
43
0.002
50
0.0
0
TEXT
8
CODE
62
3
7
STD
40
0.25
41
1.0
50
0.0
51
0.0
10
27.6628             
20
0.4833              
30
3.9117              
1
 FENSTER
0
TEXT
8
PT_ID
62
3
7
STD
40
0.25
41
1.0
50
0.0
51
0.0
10
27.6628             
20
0.4833              
30
3.9117              
1
 A300
0
TEXT
8
HEIGHT
62
3
7
STD
40
0.25
41
1.0
50
0.0
51
0.0
10
27.6628             
20
0.4833              
30
3.9117              
1
 3.912
0
TEXT
8
CO_ORDS
62
3
7
STD
40
0.25
41
1.0
50
0.0
51
0.0
10
27.6628             
20
0.4833              
30
3.9117              
1
 27.663 0.483
0
INSERT
8
POINT
62
2
2
CROSS
10
25.7716             
20
-0.5333             
30
3.4232              
41
0.002
42
0.002
43
0.002
50
0.0
0
TEXT
8
CODE
62
3
7
STD
40
0.25
41
1.0
50
0.0
51
0.0
10
25.7716             
20
-0.5333             
30
3.4232              
1
 FENSTER
0
TEXT
8
PT_ID
62
3
7
STD
40
0.25
41
1.0
50
0.0
51
0.0
10
25.7716             
20
-0.5333             
30
3.4232              
1
 A301
0
TEXT
8
HEIGHT
62
3
7
STD
40
0.25
41
1.0
50
0.0
51
0.0
10
25.7716             
20
-0.5333             
30
3.4232              
1
 3.423
0
TEXT
8
CO_ORDS
62
3
7
STD
40
0.25
41
1.0
50
0.0
51
0.0
10
25.7716             
20
-0.5333             
30
3.4232              
1
 25.772 -0.533
0
INSERT
8
POINT
62
2
2
CROSS
10
20.2641             
20
-0.4899             
30
3.4265              
41
0.002
42
0.002
43
0.002
50
0.0
0
TEXT
8
CODE
62
3
7
STD
40
0.25
41
1.0
50
0.0
51
0.0
10
20.2641             
20
-0.4899             
30
3.4265              
1
 FENSTER
0
TEXT
8
PT_ID
62
3
7
STD
40
0.25
41
1.0
50
0.0
51
0.0
10
20.2641             
20
-0.4899             
30
3.4265              
1
 A302
0
TEXT
8
HEIGHT
62
3
7
STD
40
0.25
41
1.0
50
0.0
51
0.0
10
20.2641             
20
-0.4899             
30
3.4265              
1
 3.426
0
TEXT
8
CO_ORDS
62
3
7
STD
40
0.25
41
1.0
50
0.0
51
0.0
10
20.2641             
20
-0.4899             
30
3.4265              
1
 20.264 -0.490
0
INSERT
8
POINT
62
2
2
CROSS
10
18.3572             
20
0.3435              
30
3.4265              
41
0.002
42
0.002
43
0.002
50
0.0
0
TEXT
8
CODE
62
3
7
STD
40
0.25
41
1.0
50
0.0
51
0.0
10
18.3572             
20
0.3435              
30
3.4265              
1
 FENSTER
0
TEXT
8
PT_ID
62
3
7
STD
40
0.25
41
1.0
50
0.0
51
0.0
10
18.3572             
20
0.3435              
30
3.4265              
1
 A303
0
TEXT
8
HEIGHT
62
3
7
STD
40
0.25
41
1.0
50
0.0
51
0.0
10
18.3572             
20
0.3435              
30
3.4265              
1
 3.427
0
TEXT
8
CO_ORDS
62
3
7
STD
40
0.25
41
1.0
50
0.0
51
0.0
10
18.3572             
20
0.3435              
30
3.4265              
1
 18.357 0.344
0
INSERT
8
POINT
62
2
2
CROSS
10
18.3774             
20
4.9276              
30
3.4325              
41
0.002
42
0.002
43
0.002
50
0.0
0
TEXT
8
CODE
62
3
7
STD
40
0.25
41
1.0
50
0.0
51
0.0
10
18.3774             
20
4.9276              
30
3.4325              
1
 FENSTER
0
TEXT
8
PT_ID
62
3
7
STD
40
0.25
41
1.0
50
0.0
51
0.0
10
18.3774             
20
4.9276              
30
3.4325              
1
 A304
0
TEXT
8
HEIGHT
62
3
7
STD
40
0.25
41
1.0
50
0.0
51
0.0
10
18.3774             
20
4.9276              
30
3.4325              
1
 3.433
0
TEXT
8
CO_ORDS
62
3
7
STD
40
0.25
41
1.0
50
0.0
51
0.0
10
18.3774             
20
4.9276              
30
3.4325              
1
 18.377 4.928
0
INSERT
8
POINT
62
2
2
CROSS
10
18.3943             
20
8.7276              
30
3.4370              
41
0.002
42
0.002
43
0.002
50
0.0
0
TEXT
8
CODE
62
3
7
STD
40
0.25
41
1.0
50
0.0
51
0.0
10
18.3943             
20
8.7276              
30
3.4370              
1
 FENSTER
0
TEXT
8
PT_ID
62
3
7
STD
40
0.25
41
1.0
50
0.0
51
0.0
10
18.3943             
20
8.7276              
30
3.4370              
1
 A305
0
TEXT
8
HEIGHT
62
3
7
STD
40
0.25
41
1.0
50
0.0
51
0.0
10
18.3943             
20
8.7276              
30
3.4370              
1
 3.437
0
TEXT
8
CO_ORDS
62
3
7
STD
40
0.25
41
1.0
50
0.0
51
0.0
10
18.3943             
20
8.7276              
30
3.4370              
1
 18.394 8.728
0
INSERT
8
POINT
62
2
2
CROSS
10
18.4087             
20
11.5761             
30
3.4477              
41
0.002
42
0.002
43
0.002
50
0.0
0
TEXT
8
CODE
62
3
7
STD
40
0.25
41
1.0
50
0.0
51
0.0
10
18.4087             
20
11.5761             
30
3.4477              
1
 FENSTER
0
TEXT
8
PT_ID
62
3
7
STD
40
0.25
41
1.0
50
0.0
51
0.0
10
18.4087             
20
11.5761             
30
3.4477              
1
 A306
0
TEXT
8
HEIGHT
62
3
7
STD
40
0.25
41
1.0
50
0.0
51
0.0
10
18.4087             
20
11.5761             
30
3.4477              
1
 3.448
0
TEXT
8
CO_ORDS
62
3
7
STD
40
0.25
41
1.0
50
0.0
51
0.0
10
18.4087             
20
11.5761             
30
3.4477              
1
 18.409 11.576
0
INSERT
8
POINT
62
2
2
CROSS
10
22.0711             
20
11.2879             
30
1.2541              
41
0.002
42
0.002
43
0.002
50
0.0
0
TEXT
8
CODE
62
3
7
STD
40
0.25
41
1.0
50
0.0
51
0.0
10
22.0711             
20
11.2879             
30
1.2541              
1
 BH
0
TEXT
8
PT_ID
62
3
7
STD
40
0.25
41
1.0
50
0.0
51
0.0
10
22.0711             
20
11.2879             
30
1.2541              
1
 A307
0
TEXT
8
HEIGHT
62
3
7
STD
40
0.25
41
1.0
50
0.0
51
0.0
10
22.0711             
20
11.2879             
30
1.2541              
1
 1.254
0
TEXT
8
CO_ORDS
62
3
7
STD
40
0.25
41
1.0
50
0.0
51
0.0
10
22.0711             
20
11.2879             
30
1.2541              
1
 22.071 11.288
0
INSERT
8
POINT
62
2
2
CROSS
10
21.0675             
20
0.9445              
30
1.2464              
41
0.002
42
0.002
43
0.002
50
0.0
0
TEXT
8
CODE
62
3
7
STD
40
0.25
41
1.0
50
0.0
51
0.0
10
21.0675             
20
0.9445              
30
1.2464              
1
 BH
0
TEXT
8
PT_ID
62
3
7
STD
40
0.25
41
1.0
50
0.0
51
0.0
10
21.0675             
20
0.9445              
30
1.2464              
1
 A308
0
TEXT
8
HEIGHT
62
3
7
STD
40
0.25
41
1.0
50
0.0
51
0.0
10
21.0675             
20
0.9445              
30
1.2464              
1
 1.246
0
TEXT
8
CO_ORDS
62
3
7
STD
40
0.25
41
1.0
50
0.0
51
0.0
10
21.0675             
20
0.9445              
30
1.2464              
1
 21.068 0.945
0
INSERT
8
POINT
62
2
2
CROSS
10
23.7519             
20
1.9111              
30
1.2494              
41
0.002
42
0.002
43
0.002
50
0.0
0
TEXT
8
CODE
62
3
7
STD
40
0.25
41
1.0
50
0.0
51
0.0
10
23.7519             
20
1.9111              
30
1.2494              
1
 BH
0
TEXT
8
PT_ID
62
3
7
STD
40
0.25
41
1.0
50
0.0
51
0.0
10
23.7519             
20
1.9111              
30
1.2494              
1
 A309
0
TEXT
8
HEIGHT
62
3
7
STD
40
0.25
41
1.0
50
0.0
51
0.0
10
23.7519             
20
1.9111              
30
1.2494              
1
 1.249
0
TEXT
8
CO_ORDS
62
3
7
STD
40
0.25
41
1.0
50
0.0
51
0.0
10
23.7519             
20
1.9111              
30
1.2494              
1
 23.752 1.911
0
INSERT
8
POINT
62
2
2
CROSS
10
19.9911             
20
18.9249             
30
3.2950              
41
0.002
42
0.002
43
0.002
50
0.0
0
TEXT
8
CODE
62
3
7
STD
40
0.25
41
1.0
50
0.0
51
0.0
10
19.9911             
20
18.9249             
30
3.2950              
1
 WAND
0
TEXT
8
PT_ID
62
3
7
STD
40
0.25
41
1.0
50
0.0
51
0.0
10
19.9911             
20
18.9249             
30
3.2950              
1
 A310
0
TEXT
8
HEIGHT
62
3
7
STD
40
0.25
41
1.0
50
0.0
51
0.0
10
19.9911             
20
18.9249             
30
3.2950              
1
 3.295
0
TEXT
8
CO_ORDS
62
3
7
STD
40
0.25
41
1.0
50
0.0
51
0.0
10
19.9911             
20
18.9249             
30
3.2950              
1
 19.991 18.925
0
INSERT
8
POINT
62
2
2
CROSS
10
20.6309             
20
18.9201             
30
3.2954              
41
0.002
42
0.002
43
0.002
50
0.0
0
TEXT
8
CODE
62
3
7
STD
40
0.25
41
1.0
50
0.0
51
0.0
10
20.6309             
20
18.9201             
30
3.2954              
1
 WAND
0
TEXT
8
PT_ID
62
3
7
STD
40
0.25
41
1.0
50
0.0
51
0.0
10
20.6309             
20
18.9201             
30
3.2954              
1
 A311
0
TEXT
8
HEIGHT
62
3
7
STD
40
0.25
41
1.0
50
0.0
51
0.0
10
20.6309             
20
18.9201             
30
3.2954              
1
 3.295
0
TEXT
8
CO_ORDS
62
3
7
STD
40
0.25
41
1.0
50
0.0
51
0.0
10
20.6309             
20
18.9201             
30
3.2954              
1
 20.631 18.920
0
INSERT
8
POINT
62
2
2
CROSS
10
26.0350             
20
14.3136             
30
2.4093              
41
0.002
42
0.002
43
0.002
50
0.0
0
TEXT
8
CODE
62
3
7
STD
40
0.25
41
1.0
50
0.0
51
0.0
10
26.0350             
20
14.3136             
30
2.4093              
1
 WAND
0
TEXT
8
PT_ID
62
3
7
STD
40
0.25
41
1.0
50
0.0
51
0.0
10
26.0350             
20
14.3136             
30
2.4093              
1
 A312
0
TEXT
8
HEIGHT
62
3
7
STD
40
0.25
41
1.0
50
0.0
51
0.0
10
26.0350             
20
14.3136             
30
2.4093              
1
 2.409
0
TEXT
8
CO_ORDS
62
3
7
STD
40
0.25
41
1.0
50
0.0
51
0.0
10
26.0350             
20
14.3136             
30
2.4093              
1
 26.035 14.314
0
INSERT
8
POINT
62
2
2
CROSS
10
26.8318             
20
14.3078             
30
2.4794              
41
0.002
42
0.002
43
0.002
50
0.0
0
TEXT
8
CODE
62
3
7
STD
40
0.25
41
1.0
50
0.0
51
0.0
10
26.8318             
20
14.3078             
30
2.4794              
1
 WAND
0
TEXT
8
PT_ID
62
3
7
STD
40
0.25
41
1.0
50
0.0
51
0.0
10
26.8318             
20
14.3078             
30
2.4794              
1
 A313
0
TEXT
8
HEIGHT
62
3
7
STD
40
0.25
41
1.0
50
0.0
51
0.0
10
26.8318             
20
14.3078             
30
2.4794              
1
 2.479
0
TEXT
8
CO_ORDS
62
3
7
STD
40
0.25
41
1.0
50
0.0
51
0.0
10
26.8318             
20
14.3078             
30
2.4794              
1
 26.832 14.308
0
INSERT
8
POINT
62
2
2
CROSS
10
21.2684             
20
-0.4405             
30
2.7480              
41
0.002
42
0.002
43
0.002
50
0.0
0
TEXT
8
CODE
62
3
7
STD
40
0.25
41
1.0
50
0.0
51
0.0
10
21.2684             
20
-0.4405             
30
2.7480              
1
 MM
0
TEXT
8
PT_ID
62
3
7
STD
40
0.25
41
1.0
50
0.0
51
0.0
10
21.2684             
20
-0.4405             
30
2.7480              
1
 M4
0
TEXT
8
HEIGHT
62
3
7
STD
40
0.25
41
1.0
50
0.0
51
0.0
10
21.2684             
20
-0.4405             
30
2.7480              
1
 2.748
0
TEXT
8
CO_ORDS
62
3
7
STD
40
0.25
41
1.0
50
0.0
51
0.0
10
21.2684             
20
-0.4405             
30
2.7480              
1
 21.268 -0.441
0
INSERT
8
POINT
62
2
2
CROSS
10
21.3210             
20
12.0794             
30
2.7657              
41
0.002
42
0.002
43
0.002
50
0.0
0
TEXT
8
CODE
62
3
7
STD
40
0.25
41
1.0
50
0.0
51
0.0
10
21.3210             
20
12.0794             
30
2.7657              
1
 MM
0
TEXT
8
PT_ID
62
3
7
STD
40
0.25
41
1.0
50
0.0
51
0.0
10
21.3210             
20
12.0794             
30
2.7657              
1
 M5
0
TEXT
8
HEIGHT
62
3
7
STD
40
0.25
41
1.0
50
0.0
51
0.0
10
21.3210             
20
12.0794             
30
2.7657              
1
 2.766
0
TEXT
8
CO_ORDS
62
3
7
STD
40
0.25
41
1.0
50
0.0
51
0.0
10
21.3210             
20
12.0794             
30
2.7657              
1
 21.321 12.079
0
INSERT
8
POINT
62
2
2
CROSS
10
0.5676              
20
-2.3081             
30
1.2887              
41
0.002
42
0.002
43
0.002
50
0.0
0
TEXT
8
CODE
62
3
7
STD
40
0.25
41
1.0
50
0.0
51
0.0
10
0.5676              
20
-2.3081             
30
1.2887              
1
 MM
0
TEXT
8
PT_ID
62
3
7
STD
40
0.25
41
1.0
50
0.0
51
0.0
10
0.5676              
20
-2.3081             
30
1.2887              
1
 M6
0
TEXT
8
HEIGHT
62
3
7
STD
40
0.25
41
1.0
50
0.0
51
0.0
10
0.5676              
20
-2.3081             
30
1.2887              
1
 1.289
0
TEXT
8
CO_ORDS
62
3
7
STD
40
0.25
41
1.0
50
0.0
51
0.0
10
0.5676              
20
-2.3081             
30
1.2887              
1
 0.568 -2.308
0
INSERT
8
POINT
62
2
2
CROSS
10
2.0668              
20
7.1281              
30
3.2153              
41
0.002
42
0.002
43
0.002
50
0.0
0
TEXT
8
CODE
62
3
7
STD
40
0.25
41
1.0
50
0.0
51
0.0
10
2.0668              
20
7.1281              
30
3.2153              
1
 MM
0
TEXT
8
PT_ID
62
3
7
STD
40
0.25
41
1.0
50
0.0
51
0.0
10
2.0668              
20
7.1281              
30
3.2153              
1
 M7
0
TEXT
8
HEIGHT
62
3
7
STD
40
0.25
41
1.0
50
0.0
51
0.0
10
2.0668              
20
7.1281              
30
3.2153              
1
 3.215
0
TEXT
8
CO_ORDS
62
3
7
STD
40
0.25
41
1.0
50
0.0
51
0.0
10
2.0668              
20
7.1281              
30
3.2153              
1
 2.067 7.128
0
INSERT
8
POINT
62
2
2
CROSS
10
0.7685              
20
14.2044             
30
3.0863              
41
0.002
42
0.002
43
0.002
50
0.0
0
TEXT
8
CODE
62
3
7
STD
40
0.25
41
1.0
50
0.0
51
0.0
10
0.7685              
20
14.2044             
30
3.0863              
1
 MM
0
TEXT
8
PT_ID
62
3
7
STD
40
0.25
41
1.0
50
0.0
51
0.0
10
0.7685              
20
14.2044             
30
3.0863              
1
 M8
0
TEXT
8
HEIGHT
62
3
7
STD
40
0.25
41
1.0
50
0.0
51
0.0
10
0.7685              
20
14.2044             
30
3.0863              
1
 3.086
0
TEXT
8
CO_ORDS
62
3
7
STD
40
0.25
41
1.0
50
0.0
51
0.0
10
0.7685              
20
14.2044             
30
3.0863              
1
 0.769 14.204
0
INSERT
8
POINT
62
2
2
CROSS
10
2.7322              
20
-2.3123             
30
0.6365              
41
0.002
42
0.002
43
0.002
50
0.0
0
TEXT
8
CODE
62
3
7
STD
40
0.25
41
1.0
50
0.0
51
0.0
10
2.7322              
20
-2.3123             
30
0.6365              
1
 WAND
0
TEXT
8
PT_ID
62
3
7
STD
40
0.25
41
1.0
50
0.0
51
0.0
10
2.7322              
20
-2.3123             
30
0.6365              
1
 A314
0
TEXT
8
HEIGHT
62
3
7
STD
40
0.25
41
1.0
50
0.0
51
0.0
10
2.7322              
20
-2.3123             
30
0.6365              
1
 0.637
0
TEXT
8
CO_ORDS
62
3
7
STD
40
0.25
41
1.0
50
0.0
51
0.0
10
2.7322              
20
-2.3123             
30
0.6365              
1
 2.732 -2.312
0
INSERT
8
POINT
62
2
2
CROSS
10
0.2969              
20
-2.3046             
30
0.7821              
41
0.002
42
0.002
43
0.002
50
0.0
0
TEXT
8
CODE
62
3
7
STD
40
0.25
41
1.0
50
0.0
51
0.0
10
0.2969              
20
-2.3046             
30
0.7821              
1
 WAND
0
TEXT
8
PT_ID
62
3
7
STD
40
0.25
41
1.0
50
0.0
51
0.0
10
0.2969              
20
-2.3046             
30
0.7821              
1
 A315
0
TEXT
8
HEIGHT
62
3
7
STD
40
0.25
41
1.0
50
0.0
51
0.0
10
0.2969              
20
-2.3046             
30
0.7821              
1
 0.782
0
TEXT
8
CO_ORDS
62
3
7
STD
40
0.25
41
1.0
50
0.0
51
0.0
10
0.2969              
20
-2.3046             
30
0.7821              
1
 0.297 -2.305
0
INSERT
8
POINT
62
2
2
CROSS
10
-2.6488             
20
6.3822              
30
3.9038              
41
0.002
42
0.002
43
0.002
50
0.0
0
TEXT
8
CODE
62
3
7
STD
40
0.25
41
1.0
50
0.0
51
0.0
10
-2.6488             
20
6.3822              
30
3.9038              
1
 WAND
0
TEXT
8
PT_ID
62
3
7
STD
40
0.25
41
1.0
50
0.0
51
0.0
10
-2.6488             
20
6.3822              
30
3.9038              
1
 A316
0
TEXT
8
HEIGHT
62
3
7
STD
40
0.25
41
1.0
50
0.0
51
0.0
10
-2.6488             
20
6.3822              
30
3.9038              
1
 3.904
0
TEXT
8
CO_ORDS
62
3
7
STD
40
0.25
41
1.0
50
0.0
51
0.0
10
-2.6488             
20
6.3822              
30
3.9038              
1
 -2.649 6.382
0
INSERT
8
POINT
62
2
2
CROSS
10
-2.6477             
20
7.1063              
30
3.8900              
41
0.002
42
0.002
43
0.002
50
0.0
0
TEXT
8
CODE
62
3
7
STD
40
0.25
41
1.0
50
0.0
51
0.0
10
-2.6477             
20
7.1063              
30
3.8900              
1
 WAND
0
TEXT
8
PT_ID
62
3
7
STD
40
0.25
41
1.0
50
0.0
51
0.0
10
-2.6477             
20
7.1063              
30
3.8900              
1
 A317
0
TEXT
8
HEIGHT
62
3
7
STD
40
0.25
41
1.0
50
0.0
51
0.0
10
-2.6477             
20
7.1063              
30
3.8900              
1
 3.890
0
TEXT
8
CO_ORDS
62
3
7
STD
40
0.25
41
1.0
50
0.0
51
0.0
10
-2.6477             
20
7.1063              
30
3.8900              
1
 -2.648 7.106
0
INSERT
8
POINT
62
2
2
CROSS
10
-2.3943             
20
7.1637              
30
3.7523              
41
0.002
42
0.002
43
0.002
50
0.0
0
TEXT
8
CODE
62
3
7
STD
40
0.25
41
1.0
50
0.0
51
0.0
10
-2.3943             
20
7.1637              
30
3.7523              
1
 WAND
0
TEXT
8
PT_ID
62
3
7
STD
40
0.25
41
1.0
50
0.0
51
0.0
10
-2.3943             
20
7.1637              
30
3.7523              
1
 A318
0
TEXT
8
HEIGHT
62
3
7
STD
40
0.25
41
1.0
50
0.0
51
0.0
10
-2.3943             
20
7.1637              
30
3.7523              
1
 3.752
0
TEXT
8
CO_ORDS
62
3
7
STD
40
0.25
41
1.0
50
0.0
51
0.0
10
-2.3943             
20
7.1637              
30
3.7523              
1
 -2.394 7.164
0
INSERT
8
POINT
62
2
2
CROSS
10
-1.1229             
20
7.1614              
30
3.6711              
41
0.002
42
0.002
43
0.002
50
0.0
0
TEXT
8
CODE
62
3
7
STD
40
0.25
41
1.0
50
0.0
51
0.0
10
-1.1229             
20
7.1614              
30
3.6711              
1
 WAND
0
TEXT
8
PT_ID
62
3
7
STD
40
0.25
41
1.0
50
0.0
51
0.0
10
-1.1229             
20
7.1614              
30
3.6711              
1
 A319
0
TEXT
8
HEIGHT
62
3
7
STD
40
0.25
41
1.0
50
0.0
51
0.0
10
-1.1229             
20
7.1614              
30
3.6711              
1
 3.671
0
TEXT
8
CO_ORDS
62
3
7
STD
40
0.25
41
1.0
50
0.0
51
0.0
10
-1.1229             
20
7.1614              
30
3.6711              
1
 -1.123 7.161
0
INSERT
8
POINT
62
2
2
CROSS
10
0.0448              
20
13.9820             
30
3.2471              
41
0.002
42
0.002
43
0.002
50
0.0
0
TEXT
8
CODE
62
3
7
STD
40
0.25
41
1.0
50
0.0
51
0.0
10
0.0448              
20
13.9820             
30
3.2471              
1
 WAND
0
TEXT
8
PT_ID
62
3
7
STD
40
0.25
41
1.0
50
0.0
51
0.0
10
0.0448              
20
13.9820             
30
3.2471              
1
 A320
0
TEXT
8
HEIGHT
62
3
7
STD
40
0.25
41
1.0
50
0.0
51
0.0
10
0.0448              
20
13.9820             
30
3.2471              
1
 3.247
0
TEXT
8
CO_ORDS
62
3
7
STD
40
0.25
41
1.0
50
0.0
51
0.0
10
0.0448              
20
13.9820             
30
3.2471              
1
 0.045 13.982
0
INSERT
8
POINT
62
2
2
CROSS
10
2.9180              
20
-2.4078             
30
4.9779              
41
0.002
42
0.002
43
0.002
50
0.0
0
TEXT
8
CODE
62
3
7
STD
40
0.25
41
1.0
50
0.0
51
0.0
10
2.9180              
20
-2.4078             
30
4.9779              
1
 MM
0
TEXT
8
PT_ID
62
3
7
STD
40
0.25
41
1.0
50
0.0
51
0.0
10
2.9180              
20
-2.4078             
30
4.9779              
1
 M9
0
TEXT
8
HEIGHT
62
3
7
STD
40
0.25
41
1.0
50
0.0
51
0.0
10
2.9180              
20
-2.4078             
30
4.9779              
1
 4.978
0
TEXT
8
CO_ORDS
62
3
7
STD
40
0.25
41
1.0
50
0.0
51
0.0
10
2.9180              
20
-2.4078             
30
4.9779              
1
 2.918 -2.408
0
INSERT
8
POINT
62
2
2
CROSS
10
5.9600              
20
7.5778              
30
4.0988              
41
0.002
42
0.002
43
0.002
50
0.0
0
TEXT
8
CODE
62
3
7
STD
40
0.25
41
1.0
50
0.0
51
0.0
10
5.9600              
20
7.5778              
30
4.0988              
1
 WAND
0
TEXT
8
PT_ID
62
3
7
STD
40
0.25
41
1.0
50
0.0
51
0.0
10
5.9600              
20
7.5778              
30
4.0988              
1
 B
0
TEXT
8
HEIGHT
62
3
7
STD
40
0.25
41
1.0
50
0.0
51
0.0
10
5.9600              
20
7.5778              
30
4.0988              
1
 4.099
0
TEXT
8
CO_ORDS
62
3
7
STD
40
0.25
41
1.0
50
0.0
51
0.0
10
5.9600              
20
7.5778              
30
4.0988              
1
 5.960 7.578
0
INSERT
8
POINT
62
2
2
CROSS
10
4.2108              
20
7.5922              
30
4.1002              
41
0.002
42
0.002
43
0.002
50
0.0
0
TEXT
8
CODE
62
3
7
STD
40
0.25
41
1.0
50
0.0
51
0.0
10
4.2108              
20
7.5922              
30
4.1002              
1
 WAND
0
TEXT
8
PT_ID
62
3
7
STD
40
0.25
41
1.0
50
0.0
51
0.0
10
4.2108              
20
7.5922              
30
4.1002              
1
 B1
0
TEXT
8
HEIGHT
62
3
7
STD
40
0.25
41
1.0
50
0.0
51
0.0
10
4.2108              
20
7.5922              
30
4.1002              
1
 4.100
0
TEXT
8
CO_ORDS
62
3
7
STD
40
0.25
41
1.0
50
0.0
51
0.0
10
4.2108              
20
7.5922              
30
4.1002              
1
 4.211 7.592
0
INSERT
8
POINT
62
2
2
CROSS
10
4.1386              
20
7.7284              
30
4.0426              
41
0.002
42
0.002
43
0.002
50
0.0
0
TEXT
8
CODE
62
3
7
STD
40
0.25
41
1.0
50
0.0
51
0.0
10
4.1386              
20
7.7284              
30
4.0426              
1
 WAND
0
TEXT
8
PT_ID
62
3
7
STD
40
0.25
41
1.0
50
0.0
51
0.0
10
4.1386              
20
7.7284              
30
4.0426              
1
 B2
0
TEXT
8
HEIGHT
62
3
7
STD
40
0.25
41
1.0
50
0.0
51
0.0
10
4.1386              
20
7.7284              
30
4.0426              
1
 4.043
0
TEXT
8
CO_ORDS
62
3
7
STD
40
0.25
41
1.0
50
0.0
51
0.0
10
4.1386              
20
7.7284              
30
4.0426              
1
 4.139 7.728
0
INSERT
8
POINT
62
2
2
CROSS
10
4.1697              
20
9.5798              
30
4.0627              
41
0.002
42
0.002
43
0.002
50
0.0
0
TEXT
8
CODE
62
3
7
STD
40
0.25
41
1.0
50
0.0
51
0.0
10
4.1697              
20
9.5798              
30
4.0627              
1
 WAND
0
TEXT
8
PT_ID
62
3
7
STD
40
0.25
41
1.0
50
0.0
51
0.0
10
4.1697              
20
9.5798              
30
4.0627              
1
 B3
0
TEXT
8
HEIGHT
62
3
7
STD
40
0.25
41
1.0
50
0.0
51
0.0
10
4.1697              
20
9.5798              
30
4.0627              
1
 4.063
0
TEXT
8
CO_ORDS
62
3
7
STD
40
0.25
41
1.0
50
0.0
51
0.0
10
4.1697              
20
9.5798              
30
4.0627              
1
 4.170 9.580
0
INSERT
8
POINT
62
2
2
CROSS
10
4.2903              
20
9.6868              
30
4.0947              
41
0.002
42
0.002
43
0.002
50
0.0
0
TEXT
8
CODE
62
3
7
STD
40
0.25
41
1.0
50
0.0
51
0.0
10
4.2903              
20
9.6868              
30
4.0947              
1
 WAND
0
TEXT
8
PT_ID
62
3
7
STD
40
0.25
41
1.0
50
0.0
51
0.0
10
4.2903              
20
9.6868              
30
4.0947              
1
 B4
0
TEXT
8
HEIGHT
62
3
7
STD
40
0.25
41
1.0
50
0.0
51
0.0
10
4.2903              
20
9.6868              
30
4.0947              
1
 4.095
0
TEXT
8
CO_ORDS
62
3
7
STD
40
0.25
41
1.0
50
0.0
51
0.0
10
4.2903              
20
9.6868              
30
4.0947              
1
 4.290 9.687
0
INSERT
8
POINT
62
2
2
CROSS
10
5.9466              
20
9.6676              
30
4.1558              
41
0.002
42
0.002
43
0.002
50
0.0
0
TEXT
8
CODE
62
3
7
STD
40
0.25
41
1.0
50
0.0
51
0.0
10
5.9466              
20
9.6676              
30
4.1558              
1
 WAND
0
TEXT
8
PT_ID
62
3
7
STD
40
0.25
41
1.0
50
0.0
51
0.0
10
5.9466              
20
9.6676              
30
4.1558              
1
 B5
0
TEXT
8
HEIGHT
62
3
7
STD
40
0.25
41
1.0
50
0.0
51
0.0
10
5.9466              
20
9.6676              
30
4.1558              
1
 4.156
0
TEXT
8
CO_ORDS
62
3
7
STD
40
0.25
41
1.0
50
0.0
51
0.0
10
5.9466              
20
9.6676              
30
4.1558              
1
 5.947 9.668
0
INSERT
8
POINT
62
2
2
CROSS
10
6.0191              
20
9.6208              
30
4.1185              
41
0.002
42
0.002
43
0.002
50
0.0
0
TEXT
8
CODE
62
3
7
STD
40
0.25
41
1.0
50
0.0
51
0.0
10
6.0191              
20
9.6208              
30
4.1185              
1
 WAND
0
TEXT
8
PT_ID
62
3
7
STD
40
0.25
41
1.0
50
0.0
51
0.0
10
6.0191              
20
9.6208              
30
4.1185              
1
 B6
0
TEXT
8
HEIGHT
62
3
7
STD
40
0.25
41
1.0
50
0.0
51
0.0
10
6.0191              
20
9.6208              
30
4.1185              
1
 4.119
0
TEXT
8
CO_ORDS
62
3
7
STD
40
0.25
41
1.0
50
0.0
51
0.0
10
6.0191              
20
9.6208              
30
4.1185              
1
 6.019 9.621
0
INSERT
8
POINT
62
2
2
CROSS
10
6.0013              
20
7.6294              
30
4.1356              
41
0.002
42
0.002
43
0.002
50
0.0
0
TEXT
8
CODE
62
3
7
STD
40
0.25
41
1.0
50
0.0
51
0.0
10
6.0013              
20
7.6294              
30
4.1356              
1
 WAND
0
TEXT
8
PT_ID
62
3
7
STD
40
0.25
41
1.0
50
0.0
51
0.0
10
6.0013              
20
7.6294              
30
4.1356              
1
 B7
0
TEXT
8
HEIGHT
62
3
7
STD
40
0.25
41
1.0
50
0.0
51
0.0
10
6.0013              
20
7.6294              
30
4.1356              
1
 4.136
0
TEXT
8
CO_ORDS
62
3
7
STD
40
0.25
41
1.0
50
0.0
51
0.0
10
6.0013              
20
7.6294              
30
4.1356              
1
 6.001 7.629
0
INSERT
8
POINT
62
2
2
CROSS
10
2.8950              
20
7.6149              
30
3.9557              
41
0.002
42
0.002
43
0.002
50
0.0
0
TEXT
8
CODE
62
3
7
STD
40
0.25
41
1.0
50
0.0
51
0.0
10
2.8950              
20
7.6149              
30
3.9557              
1
 WAND
0
TEXT
8
PT_ID
62
3
7
STD
40
0.25
41
1.0
50
0.0
51
0.0
10
2.8950              
20
7.6149              
30
3.9557              
1
 B8
0
TEXT
8
HEIGHT
62
3
7
STD
40
0.25
41
1.0
50
0.0
51
0.0
10
2.8950              
20
7.6149              
30
3.9557              
1
 3.956
0
TEXT
8
CO_ORDS
62
3
7
STD
40
0.25
41
1.0
50
0.0
51
0.0
10
2.8950              
20
7.6149              
30
3.9557              
1
 2.895 7.615
0
INSERT
8
POINT
62
2
2
CROSS
10
2.6808              
20
7.6139              
30
3.6442              
41
0.002
42
0.002
43
0.002
50
0.0
0
TEXT
8
CODE
62
3
7
STD
40
0.25
41
1.0
50
0.0
51
0.0
10
2.6808              
20
7.6139              
30
3.6442              
1
 WAND
0
TEXT
8
PT_ID
62
3
7
STD
40
0.25
41
1.0
50
0.0
51
0.0
10
2.6808              
20
7.6139              
30
3.6442              
1
 B9
0
TEXT
8
HEIGHT
62
3
7
STD
40
0.25
41
1.0
50
0.0
51
0.0
10
2.6808              
20
7.6139              
30
3.6442              
1
 3.644
0
TEXT
8
CO_ORDS
62
3
7
STD
40
0.25
41
1.0
50
0.0
51
0.0
10
2.6808              
20
7.6139              
30
3.6442              
1
 2.681 7.614
0
INSERT
8
POINT
62
2
2
CROSS
10
2.6437              
20
7.6777              
30
3.6575              
41
0.002
42
0.002
43
0.002
50
0.0
0
TEXT
8
CODE
62
3
7
STD
40
0.25
41
1.0
50
0.0
51
0.0
10
2.6437              
20
7.6777              
30
3.6575              
1
 WAND
0
TEXT
8
PT_ID
62
3
7
STD
40
0.25
41
1.0
50
0.0
51
0.0
10
2.6437              
20
7.6777              
30
3.6575              
1
 B10
0
TEXT
8
HEIGHT
62
3
7
STD
40
0.25
41
1.0
50
0.0
51
0.0
10
2.6437              
20
7.6777              
30
3.6575              
1
 3.657
0
TEXT
8
CO_ORDS
62
3
7
STD
40
0.25
41
1.0
50
0.0
51
0.0
10
2.6437              
20
7.6777              
30
3.6575              
1
 2.644 7.678
0
INSERT
8
POINT
62
2
2
CROSS
10
2.6742              
20
9.1707              
30
4.0164              
41
0.002
42
0.002
43
0.002
50
0.0
0
TEXT
8
CODE
62
3
7
STD
40
0.25
41
1.0
50
0.0
51
0.0
10
2.6742              
20
9.1707              
30
4.0164              
1
 WAND
0
TEXT
8
PT_ID
62
3
7
STD
40
0.25
41
1.0
50
0.0
51
0.0
10
2.6742              
20
9.1707              
30
4.0164              
1
 B11
0
TEXT
8
HEIGHT
62
3
7
STD
40
0.25
41
1.0
50
0.0
51
0.0
10
2.6742              
20
9.1707              
30
4.0164              
1
 4.016
0
TEXT
8
CO_ORDS
62
3
7
STD
40
0.25
41
1.0
50
0.0
51
0.0
10
2.6742              
20
9.1707              
30
4.0164              
1
 2.674 9.171
0
INSERT
8
POINT
62
2
2
CROSS
10
2.5385              
20
39.6506             
30
0.2589              
41
0.002
42
0.002
43
0.002
50
0.0
0
TEXT
8
CODE
62
3
7
STD
40
0.25
41
1.0
50
0.0
51
0.0
10
2.5385              
20
39.6506             
30
0.2589              
1
 GG
0
TEXT
8
PT_ID
62
3
7
STD
40
0.25
41
1.0
50
0.0
51
0.0
10
2.5385              
20
39.6506             
30
0.2589              
1
 GG
0
TEXT
8
HEIGHT
62
3
7
STD
40
0.25
41
1.0
50
0.0
51
0.0
10
2.5385              
20
39.6506             
30
0.2589              
1
 0.259
0
TEXT
8
CO_ORDS
62
3
7
STD
40
0.25
41
1.0
50
0.0
51
0.0
10
2.5385              
20
39.6506             
30
0.2589              
1
 2.538 39.651
0
INSERT
8
POINT
62
2
2
CROSS
10
5.9900              
20
11.3042             
30
4.1263              
41
0.002
42
0.002
43
0.002
50
0.0
0
TEXT
8
CODE
62
3
7
STD
40
0.25
41
1.0
50
0.0
51
0.0
10
5.9900              
20
11.3042             
30
4.1263              
1
 WAND
0
TEXT
8
PT_ID
62
3
7
STD
40
0.25
41
1.0
50
0.0
51
0.0
10
5.9900              
20
11.3042             
30
4.1263              
1
 B12
0
TEXT
8
HEIGHT
62
3
7
STD
40
0.25
41
1.0
50
0.0
51
0.0
10
5.9900              
20
11.3042             
30
4.1263              
1
 4.126
0
TEXT
8
CO_ORDS
62
3
7
STD
40
0.25
41
1.0
50
0.0
51
0.0
10
5.9900              
20
11.3042             
30
4.1263              
1
 5.990 11.304
0
INSERT
8
POINT
62
2
2
CROSS
10
5.9968              
20
13.4998             
30
4.1685              
41
0.002
42
0.002
43
0.002
50
0.0
0
TEXT
8
CODE
62
3
7
STD
40
0.25
41
1.0
50
0.0
51
0.0
10
5.9968              
20
13.4998             
30
4.1685              
1
 WAND
0
TEXT
8
PT_ID
62
3
7
STD
40
0.25
41
1.0
50
0.0
51
0.0
10
5.9968              
20
13.4998             
30
4.1685              
1
 B13
0
TEXT
8
HEIGHT
62
3
7
STD
40
0.25
41
1.0
50
0.0
51
0.0
10
5.9968              
20
13.4998             
30
4.1685              
1
 4.169
0
TEXT
8
CO_ORDS
62
3
7
STD
40
0.25
41
1.0
50
0.0
51
0.0
10
5.9968              
20
13.4998             
30
4.1685              
1
 5.997 13.500
0
INSERT
8
POINT
62
2
2
CROSS
10
5.7396              
20
13.9102             
30
3.4657              
41
0.002
42
0.002
43
0.002
50
0.0
0
TEXT
8
CODE
62
3
7
STD
40
0.25
41
1.0
50
0.0
51
0.0
10
5.7396              
20
13.9102             
30
3.4657              
1
 WAND
0
TEXT
8
PT_ID
62
3
7
STD
40
0.25
41
1.0
50
0.0
51
0.0
10
5.7396              
20
13.9102             
30
3.4657              
1
 B14
0
TEXT
8
HEIGHT
62
3
7
STD
40
0.25
41
1.0
50
0.0
51
0.0
10
5.7396              
20
13.9102             
30
3.4657              
1
 3.466
0
TEXT
8
CO_ORDS
62
3
7
STD
40
0.25
41
1.0
50
0.0
51
0.0
10
5.7396              
20
13.9102             
30
3.4657              
1
 5.740 13.910
0
INSERT
8
POINT
62
2
2
CROSS
10
3.3914              
20
13.9439             
30
3.4845              
41
0.002
42
0.002
43
0.002
50
0.0
0
TEXT
8
CODE
62
3
7
STD
40
0.25
41
1.0
50
0.0
51
0.0
10
3.3914              
20
13.9439             
30
3.4845              
1
 WAND
0
TEXT
8
PT_ID
62
3
7
STD
40
0.25
41
1.0
50
0.0
51
0.0
10
3.3914              
20
13.9439             
30
3.4845              
1
 B15
0
TEXT
8
HEIGHT
62
3
7
STD
40
0.25
41
1.0
50
0.0
51
0.0
10
3.3914              
20
13.9439             
30
3.4845              
1
 3.485
0
TEXT
8
CO_ORDS
62
3
7
STD
40
0.25
41
1.0
50
0.0
51
0.0
10
3.3914              
20
13.9439             
30
3.4845              
1
 3.391 13.944
0
INSERT
8
POINT
62
2
2
CROSS
10
2.8200              
20
13.9532             
30
3.4947              
41
0.002
42
0.002
43
0.002
50
0.0
0
TEXT
8
CODE
62
3
7
STD
40
0.25
41
1.0
50
0.0
51
0.0
10
2.8200              
20
13.9532             
30
3.4947              
1
 WAND
0
TEXT
8
PT_ID
62
3
7
STD
40
0.25
41
1.0
50
0.0
51
0.0
10
2.8200              
20
13.9532             
30
3.4947              
1
 B16
0
TEXT
8
HEIGHT
62
3
7
STD
40
0.25
41
1.0
50
0.0
51
0.0
10
2.8200              
20
13.9532             
30
3.4947              
1
 3.495
0
TEXT
8
CO_ORDS
62
3
7
STD
40
0.25
41
1.0
50
0.0
51
0.0
10
2.8200              
20
13.9532             
30
3.4947              
1
 2.820 13.953
0
INSERT
8
POINT
62
2
2
CROSS
10
2.7119              
20
13.8501             
30
3.4923              
41
0.002
42
0.002
43
0.002
50
0.0
0
TEXT
8
CODE
62
3
7
STD
40
0.25
41
1.0
50
0.0
51
0.0
10
2.7119              
20
13.8501             
30
3.4923              
1
 WAND
0
TEXT
8
PT_ID
62
3
7
STD
40
0.25
41
1.0
50
0.0
51
0.0
10
2.7119              
20
13.8501             
30
3.4923              
1
 B17
0
TEXT
8
HEIGHT
62
3
7
STD
40
0.25
41
1.0
50
0.0
51
0.0
10
2.7119              
20
13.8501             
30
3.4923              
1
 3.492
0
TEXT
8
CO_ORDS
62
3
7
STD
40
0.25
41
1.0
50
0.0
51
0.0
10
2.7119              
20
13.8501             
30
3.4923              
1
 2.712 13.850
0
INSERT
8
POINT
62
2
2
CROSS
10
2.7098              
20
12.7469             
30
3.4448              
41
0.002
42
0.002
43
0.002
50
0.0
0
TEXT
8
CODE
62
3
7
STD
40
0.25
41
1.0
50
0.0
51
0.0
10
2.7098              
20
12.7469             
30
3.4448              
1
 WAND
0
TEXT
8
PT_ID
62
3
7
STD
40
0.25
41
1.0
50
0.0
51
0.0
10
2.7098              
20
12.7469             
30
3.4448              
1
 B18
0
TEXT
8
HEIGHT
62
3
7
STD
40
0.25
41
1.0
50
0.0
51
0.0
10
2.7098              
20
12.7469             
30
3.4448              
1
 3.445
0
TEXT
8
CO_ORDS
62
3
7
STD
40
0.25
41
1.0
50
0.0
51
0.0
10
2.7098              
20
12.7469             
30
3.4448              
1
 2.710 12.747
0
INSERT
8
POINT
62
2
2
CROSS
10
3.1830              
20
11.8789             
30
3.3968              
41
0.002
42
0.002
43
0.002
50
0.0
0
TEXT
8
CODE
62
3
7
STD
40
0.25
41
1.0
50
0.0
51
0.0
10
3.1830              
20
11.8789             
30
3.3968              
1
 WAND
0
TEXT
8
PT_ID
62
3
7
STD
40
0.25
41
1.0
50
0.0
51
0.0
10
3.1830              
20
11.8789             
30
3.3968              
1
 B19
0
TEXT
8
HEIGHT
62
3
7
STD
40
0.25
41
1.0
50
0.0
51
0.0
10
3.1830              
20
11.8789             
30
3.3968              
1
 3.397
0
TEXT
8
CO_ORDS
62
3
7
STD
40
0.25
41
1.0
50
0.0
51
0.0
10
3.1830              
20
11.8789             
30
3.3968              
1
 3.183 11.879
0
INSERT
8
POINT
62
2
2
CROSS
10
3.1836              
20
11.9280             
30
3.3988              
41
0.002
42
0.002
43
0.002
50
0.0
0
TEXT
8
CODE
62
3
7
STD
40
0.25
41
1.0
50
0.0
51
0.0
10
3.1836              
20
11.9280             
30
3.3988              
1
 WAND
0
TEXT
8
PT_ID
62
3
7
STD
40
0.25
41
1.0
50
0.0
51
0.0
10
3.1836              
20
11.9280             
30
3.3988              
1
 B20
0
TEXT
8
HEIGHT
62
3
7
STD
40
0.25
41
1.0
50
0.0
51
0.0
10
3.1836              
20
11.9280             
30
3.3988              
1
 3.399
0
TEXT
8
CO_ORDS
62
3
7
STD
40
0.25
41
1.0
50
0.0
51
0.0
10
3.1836              
20
11.9280             
30
3.3988              
1
 3.184 11.928
0
INSERT
8
POINT
62
2
2
CROSS
10
4.1754              
20
12.3152             
30
4.5145              
41
0.002
42
0.002
43
0.002
50
0.0
0
TEXT
8
CODE
62
3
7
STD
40
0.25
41
1.0
50
0.0
51
0.0
10
4.1754              
20
12.3152             
30
4.5145              
1
 RH
0
TEXT
8
PT_ID
62
3
7
STD
40
0.25
41
1.0
50
0.0
51
0.0
10
4.1754              
20
12.3152             
30
4.5145              
1
 B21
0
TEXT
8
HEIGHT
62
3
7
STD
40
0.25
41
1.0
50
0.0
51
0.0
10
4.1754              
20
12.3152             
30
4.5145              
1
 4.515
0
TEXT
8
CO_ORDS
62
3
7
STD
40
0.25
41
1.0
50
0.0
51
0.0
10
4.1754              
20
12.3152             
30
4.5145              
1
 4.175 12.315
0
INSERT
8
POINT
62
2
2
CROSS
10
4.3005              
20
8.6891              
30
4.2099              
41
0.002
42
0.002
43
0.002
50
0.0
0
TEXT
8
CODE
62
3
7
STD
40
0.25
41
1.0
50
0.0
51
0.0
10
4.3005              
20
8.6891              
30
4.2099              
1
 RH
0
TEXT
8
PT_ID
62
3
7
STD
40
0.25
41
1.0
50
0.0
51
0.0
10
4.3005              
20
8.6891              
30
4.2099              
1
 B22
0
TEXT
8
HEIGHT
62
3
7
STD
40
0.25
41
1.0
50
0.0
51
0.0
10
4.3005              
20
8.6891              
30
4.2099              
1
 4.210
0
TEXT
8
CO_ORDS
62
3
7
STD
40
0.25
41
1.0
50
0.0
51
0.0
10
4.3005              
20
8.6891              
30
4.2099              
1
 4.301 8.689
0
INSERT
8
POINT
62
2
2
CROSS
10
3.8190              
20
13.4190             
30
1.5140              
41
0.002
42
0.002
43
0.002
50
0.0
0
TEXT
8
CODE
62
3
7
STD
40
0.25
41
1.0
50
0.0
51
0.0
10
3.8190              
20
13.4190             
30
1.5140              
1
 BH
0
TEXT
8
PT_ID
62
3
7
STD
40
0.25
41
1.0
50
0.0
51
0.0
10
3.8190              
20
13.4190             
30
1.5140              
1
 B23
0
TEXT
8
HEIGHT
62
3
7
STD
40
0.25
41
1.0
50
0.0
51
0.0
10
3.8190              
20
13.4190             
30
1.5140              
1
 1.514
0
TEXT
8
CO_ORDS
62
3
7
STD
40
0.25
41
1.0
50
0.0
51
0.0
10
3.8190              
20
13.4190             
30
1.5140              
1
 3.819 13.419
0
INSERT
8
POINT
62
2
2
CROSS
10
3.3393              
20
7.7498              
30
1.5253              
41
0.002
42
0.002
43
0.002
50
0.0
0
TEXT
8
CODE
62
3
7
STD
40
0.25
41
1.0
50
0.0
51
0.0
10
3.3393              
20
7.7498              
30
1.5253              
1
 BH
0
TEXT
8
PT_ID
62
3
7
STD
40
0.25
41
1.0
50
0.0
51
0.0
10
3.3393              
20
7.7498              
30
1.5253              
1
 B24
0
TEXT
8
HEIGHT
62
3
7
STD
40
0.25
41
1.0
50
0.0
51
0.0
10
3.3393              
20
7.7498              
30
1.5253              
1
 1.525
0
TEXT
8
CO_ORDS
62
3
7
STD
40
0.25
41
1.0
50
0.0
51
0.0
10
3.3393              
20
7.7498              
30
1.5253              
1
 3.339 7.750
0
INSERT
8
POINT
62
2
2
CROSS
10
2.1793              
20
7.6246              
30
4.0672              
41
0.002
42
0.002
43
0.002
50
0.0
0
TEXT
8
CODE
62
3
7
STD
40
0.25
41
1.0
50
0.0
51
0.0
10
2.1793              
20
7.6246              
30
4.0672              
1
 WAND
0
TEXT
8
PT_ID
62
3
7
STD
40
0.25
41
1.0
50
0.0
51
0.0
10
2.1793              
20
7.6246              
30
4.0672              
1
 B25
0
TEXT
8
HEIGHT
62
3
7
STD
40
0.25
41
1.0
50
0.0
51
0.0
10
2.1793              
20
7.6246              
30
4.0672              
1
 4.067
0
TEXT
8
CO_ORDS
62
3
7
STD
40
0.25
41
1.0
50
0.0
51
0.0
10
2.1793              
20
7.6246              
30
4.0672              
1
 2.179 7.625
0
INSERT
8
POINT
62
2
2
CROSS
10
-0.7946             
20
7.6527              
30
4.1424              
41
0.002
42
0.002
43
0.002
50
0.0
0
TEXT
8
CODE
62
3
7
STD
40
0.25
41
1.0
50
0.0
51
0.0
10
-0.7946             
20
7.6527              
30
4.1424              
1
 WAND
0
TEXT
8
PT_ID
62
3
7
STD
40
0.25
41
1.0
50
0.0
51
0.0
10
-0.7946             
20
7.6527              
30
4.1424              
1
 B26
0
TEXT
8
HEIGHT
62
3
7
STD
40
0.25
41
1.0
50
0.0
51
0.0
10
-0.7946             
20
7.6527              
30
4.1424              
1
 4.142
0
TEXT
8
CO_ORDS
62
3
7
STD
40
0.25
41
1.0
50
0.0
51
0.0
10
-0.7946             
20
7.6527              
30
4.1424              
1
 -0.795 7.653
0
INSERT
8
POINT
62
2
2
CROSS
10
-0.8310             
20
7.7013              
30
4.1590              
41
0.002
42
0.002
43
0.002
50
0.0
0
TEXT
8
CODE
62
3
7
STD
40
0.25
41
1.0
50
0.0
51
0.0
10
-0.8310             
20
7.7013              
30
4.1590              
1
 WAND
0
TEXT
8
PT_ID
62
3
7
STD
40
0.25
41
1.0
50
0.0
51
0.0
10
-0.8310             
20
7.7013              
30
4.1590              
1
 B27
0
TEXT
8
HEIGHT
62
3
7
STD
40
0.25
41
1.0
50
0.0
51
0.0
10
-0.8310             
20
7.7013              
30
4.1590              
1
 4.159
0
TEXT
8
CO_ORDS
62
3
7
STD
40
0.25
41
1.0
50
0.0
51
0.0
10
-0.8310             
20
7.7013              
30
4.1590              
1
 -0.831 7.701
0
INSERT
8
POINT
62
2
2
CROSS
10
-0.8140             
20
9.4436              
30
4.1391              
41
0.002
42
0.002
43
0.002
50
0.0
0
TEXT
8
CODE
62
3
7
STD
40
0.25
41
1.0
50
0.0
51
0.0
10
-0.8140             
20
9.4436              
30
4.1391              
1
 WAND
0
TEXT
8
PT_ID
62
3
7
STD
40
0.25
41
1.0
50
0.0
51
0.0
10
-0.8140             
20
9.4436              
30
4.1391              
1
 B28
0
TEXT
8
HEIGHT
62
3
7
STD
40
0.25
41
1.0
50
0.0
51
0.0
10
-0.8140             
20
9.4436              
30
4.1391              
1
 4.139
0
TEXT
8
CO_ORDS
62
3
7
STD
40
0.25
41
1.0
50
0.0
51
0.0
10
-0.8140             
20
9.4436              
30
4.1391              
1
 -0.814 9.444
0
INSERT
8
POINT
62
2
2
CROSS
10
-0.4510             
20
9.4822              
30
4.0336              
41
0.002
42
0.002
43
0.002
50
0.0
0
TEXT
8
CODE
62
3
7
STD
40
0.25
41
1.0
50
0.0
51
0.0
10
-0.4510             
20
9.4822              
30
4.0336              
1
 WAND
0
TEXT
8
PT_ID
62
3
7
STD
40
0.25
41
1.0
50
0.0
51
0.0
10
-0.4510             
20
9.4822              
30
4.0336              
1
 B29
0
TEXT
8
HEIGHT
62
3
7
STD
40
0.25
41
1.0
50
0.0
51
0.0
10
-0.4510             
20
9.4822              
30
4.0336              
1
 4.034
0
TEXT
8
CO_ORDS
62
3
7
STD
40
0.25
41
1.0
50
0.0
51
0.0
10
-0.4510             
20
9.4822              
30
4.0336              
1
 -0.451 9.482
0
INSERT
8
POINT
62
2
2
CROSS
10
2.2102              
20
9.4492              
30
4.1304              
41
0.002
42
0.002
43
0.002
50
0.0
0
TEXT
8
CODE
62
3
7
STD
40
0.25
41
1.0
50
0.0
51
0.0
10
2.2102              
20
9.4492              
30
4.1304              
1
 WAND
0
TEXT
8
PT_ID
62
3
7
STD
40
0.25
41
1.0
50
0.0
51
0.0
10
2.2102              
20
9.4492              
30
4.1304              
1
 B30
0
TEXT
8
HEIGHT
62
3
7
STD
40
0.25
41
1.0
50
0.0
51
0.0
10
2.2102              
20
9.4492              
30
4.1304              
1
 4.130
0
TEXT
8
CO_ORDS
62
3
7
STD
40
0.25
41
1.0
50
0.0
51
0.0
10
2.2102              
20
9.4492              
30
4.1304              
1
 2.210 9.449
0
INSERT
8
POINT
62
2
2
CROSS
10
2.3617              
20
9.3891              
30
4.1251              
41
0.002
42
0.002
43
0.002
50
0.0
0
TEXT
8
CODE
62
3
7
STD
40
0.25
41
1.0
50
0.0
51
0.0
10
2.3617              
20
9.3891              
30
4.1251              
1
 WAND
0
TEXT
8
PT_ID
62
3
7
STD
40
0.25
41
1.0
50
0.0
51
0.0
10
2.3617              
20
9.3891              
30
4.1251              
1
 B31
0
TEXT
8
HEIGHT
62
3
7
STD
40
0.25
41
1.0
50
0.0
51
0.0
10
2.3617              
20
9.3891              
30
4.1251              
1
 4.125
0
TEXT
8
CO_ORDS
62
3
7
STD
40
0.25
41
1.0
50
0.0
51
0.0
10
2.3617              
20
9.3891              
30
4.1251              
1
 2.362 9.389
0
INSERT
8
POINT
62
2
2
CROSS
10
2.3287              
20
7.6856              
30
4.1684              
41
0.002
42
0.002
43
0.002
50
0.0
0
TEXT
8
CODE
62
3
7
STD
40
0.25
41
1.0
50
0.0
51
0.0
10
2.3287              
20
7.6856              
30
4.1684              
1
 WAND
0
TEXT
8
PT_ID
62
3
7
STD
40
0.25
41
1.0
50
0.0
51
0.0
10
2.3287              
20
7.6856              
30
4.1684              
1
 B32
0
TEXT
8
HEIGHT
62
3
7
STD
40
0.25
41
1.0
50
0.0
51
0.0
10
2.3287              
20
7.6856              
30
4.1684              
1
 4.168
0
TEXT
8
CO_ORDS
62
3
7
STD
40
0.25
41
1.0
50
0.0
51
0.0
10
2.3287              
20
7.6856              
30
4.1684              
1
 2.329 7.686
0
INSERT
8
POINT
62
2
2
CROSS
10
-2.6254             
20
8.3147              
30
3.7471              
41
0.002
42
0.002
43
0.002
50
0.0
0
TEXT
8
CODE
62
3
7
STD
40
0.25
41
1.0
50
0.0
51
0.0
10
-2.6254             
20
8.3147              
30
3.7471              
1
 WAND
0
TEXT
8
PT_ID
62
3
7
STD
40
0.25
41
1.0
50
0.0
51
0.0
10
-2.6254             
20
8.3147              
30
3.7471              
1
 B33
0
TEXT
8
HEIGHT
62
3
7
STD
40
0.25
41
1.0
50
0.0
51
0.0
10
-2.6254             
20
8.3147              
30
3.7471              
1
 3.747
0
TEXT
8
CO_ORDS
62
3
7
STD
40
0.25
41
1.0
50
0.0
51
0.0
10
-2.6254             
20
8.3147              
30
3.7471              
1
 -2.625 8.315
0
INSERT
8
POINT
62
2
2
CROSS
10
-2.6225             
20
8.9907              
30
3.7042              
41
0.002
42
0.002
43
0.002
50
0.0
0
TEXT
8
CODE
62
3
7
STD
40
0.25
41
1.0
50
0.0
51
0.0
10
-2.6225             
20
8.9907              
30
3.7042              
1
 WAND
0
TEXT
8
PT_ID
62
3
7
STD
40
0.25
41
1.0
50
0.0
51
0.0
10
-2.6225             
20
8.9907              
30
3.7042              
1
 B34
0
TEXT
8
HEIGHT
62
3
7
STD
40
0.25
41
1.0
50
0.0
51
0.0
10
-2.6225             
20
8.9907              
30
3.7042              
1
 3.704
0
TEXT
8
CO_ORDS
62
3
7
STD
40
0.25
41
1.0
50
0.0
51
0.0
10
-2.6225             
20
8.9907              
30
3.7042              
1
 -2.623 8.991
0
INSERT
8
POINT
62
2
2
CROSS
10
-0.9680             
20
11.1980             
30
3.5083              
41
0.002
42
0.002
43
0.002
50
0.0
0
TEXT
8
CODE
62
3
7
STD
40
0.25
41
1.0
50
0.0
51
0.0
10
-0.9680             
20
11.1980             
30
3.5083              
1
 WAND
0
TEXT
8
PT_ID
62
3
7
STD
40
0.25
41
1.0
50
0.0
51
0.0
10
-0.9680             
20
11.1980             
30
3.5083              
1
 B35
0
TEXT
8
HEIGHT
62
3
7
STD
40
0.25
41
1.0
50
0.0
51
0.0
10
-0.9680             
20
11.1980             
30
3.5083              
1
 3.508
0
TEXT
8
CO_ORDS
62
3
7
STD
40
0.25
41
1.0
50
0.0
51
0.0
10
-0.9680             
20
11.1980             
30
3.5083              
1
 -0.968 11.198
0
INSERT
8
POINT
62
2
2
CROSS
10
-0.9843             
20
13.8720             
30
3.6224              
41
0.002
42
0.002
43
0.002
50
0.0
0
TEXT
8
CODE
62
3
7
STD
40
0.25
41
1.0
50
0.0
51
0.0
10
-0.9843             
20
13.8720             
30
3.6224              
1
 WAND
0
TEXT
8
PT_ID
62
3
7
STD
40
0.25
41
1.0
50
0.0
51
0.0
10
-0.9843             
20
13.8720             
30
3.6224              
1
 B36
0
TEXT
8
HEIGHT
62
3
7
STD
40
0.25
41
1.0
50
0.0
51
0.0
10
-0.9843             
20
13.8720             
30
3.6224              
1
 3.622
0
TEXT
8
CO_ORDS
62
3
7
STD
40
0.25
41
1.0
50
0.0
51
0.0
10
-0.9843             
20
13.8720             
30
3.6224              
1
 -0.984 13.872
0
INSERT
8
POINT
62
2
2
CROSS
10
-0.8374             
20
13.9918             
30
3.6273              
41
0.002
42
0.002
43
0.002
50
0.0
0
TEXT
8
CODE
62
3
7
STD
40
0.25
41
1.0
50
0.0
51
0.0
10
-0.8374             
20
13.9918             
30
3.6273              
1
 WAND
0
TEXT
8
PT_ID
62
3
7
STD
40
0.25
41
1.0
50
0.0
51
0.0
10
-0.8374             
20
13.9918             
30
3.6273              
1
 B37
0
TEXT
8
HEIGHT
62
3
7
STD
40
0.25
41
1.0
50
0.0
51
0.0
10
-0.8374             
20
13.9918             
30
3.6273              
1
 3.627
0
TEXT
8
CO_ORDS
62
3
7
STD
40
0.25
41
1.0
50
0.0
51
0.0
10
-0.8374             
20
13.9918             
30
3.6273              
1
 -0.837 13.992
0
INSERT
8
POINT
62
2
2
CROSS
10
2.4621              
20
13.9601             
30
3.6256              
41
0.002
42
0.002
43
0.002
50
0.0
0
TEXT
8
CODE
62
3
7
STD
40
0.25
41
1.0
50
0.0
51
0.0
10
2.4621              
20
13.9601             
30
3.6256              
1
 WAND
0
TEXT
8
PT_ID
62
3
7
STD
40
0.25
41
1.0
50
0.0
51
0.0
10
2.4621              
20
13.9601             
30
3.6256              
1
 B38
0
TEXT
8
HEIGHT
62
3
7
STD
40
0.25
41
1.0
50
0.0
51
0.0
10
2.4621              
20
13.9601             
30
3.6256              
1
 3.626
0
TEXT
8
CO_ORDS
62
3
7
STD
40
0.25
41
1.0
50
0.0
51
0.0
10
2.4621              
20
13.9601             
30
3.6256              
1
 2.462 13.960
0
INSERT
8
POINT
62
2
2
CROSS
10
2.6118              
20
13.6508             
30
3.6075              
41
0.002
42
0.002
43
0.002
50
0.0
0
TEXT
8
CODE
62
3
7
STD
40
0.25
41
1.0
50
0.0
51
0.0
10
2.6118              
20
13.6508             
30
3.6075              
1
 WAND
0
TEXT
8
PT_ID
62
3
7
STD
40
0.25
41
1.0
50
0.0
51
0.0
10
2.6118              
20
13.6508             
30
3.6075              
1
 B39
0
TEXT
8
HEIGHT
62
3
7
STD
40
0.25
41
1.0
50
0.0
51
0.0
10
2.6118              
20
13.6508             
30
3.6075              
1
 3.608
0
TEXT
8
CO_ORDS
62
3
7
STD
40
0.25
41
1.0
50
0.0
51
0.0
10
2.6118              
20
13.6508             
30
3.6075              
1
 2.612 13.651
0
INSERT
8
POINT
62
2
2
CROSS
10
2.6058              
20
11.2090             
30
4.5139              
41
0.002
42
0.002
43
0.002
50
0.0
0
TEXT
8
CODE
62
3
7
STD
40
0.25
41
1.0
50
0.0
51
0.0
10
2.6058              
20
11.2090             
30
4.5139              
1
 WAND
0
TEXT
8
PT_ID
62
3
7
STD
40
0.25
41
1.0
50
0.0
51
0.0
10
2.6058              
20
11.2090             
30
4.5139              
1
 B40
0
TEXT
8
HEIGHT
62
3
7
STD
40
0.25
41
1.0
50
0.0
51
0.0
10
2.6058              
20
11.2090             
30
4.5139              
1
 4.514
0
TEXT
8
CO_ORDS
62
3
7
STD
40
0.25
41
1.0
50
0.0
51
0.0
10
2.6058              
20
11.2090             
30
4.5139              
1
 2.606 11.209
0
INSERT
8
POINT
62
2
2
CROSS
10
1.1868              
20
12.1113             
30
4.7496              
41
0.002
42
0.002
43
0.002
50
0.0
0
TEXT
8
CODE
62
3
7
STD
40
0.25
41
1.0
50
0.0
51
0.0
10
1.1868              
20
12.1113             
30
4.7496              
1
 RH
0
TEXT
8
PT_ID
62
3
7
STD
40
0.25
41
1.0
50
0.0
51
0.0
10
1.1868              
20
12.1113             
30
4.7496              
1
 B41
0
TEXT
8
HEIGHT
62
3
7
STD
40
0.25
41
1.0
50
0.0
51
0.0
10
1.1868              
20
12.1113             
30
4.7496              
1
 4.750
0
TEXT
8
CO_ORDS
62
3
7
STD
40
0.25
41
1.0
50
0.0
51
0.0
10
1.1868              
20
12.1113             
30
4.7496              
1
 1.187 12.111
0
INSERT
8
POINT
62
2
2
CROSS
10
0.2145              
20
8.8581              
30
4.2508              
41
0.002
42
0.002
43
0.002
50
0.0
0
TEXT
8
CODE
62
3
7
STD
40
0.25
41
1.0
50
0.0
51
0.0
10
0.2145              
20
8.8581              
30
4.2508              
1
 RH
0
TEXT
8
PT_ID
62
3
7
STD
40
0.25
41
1.0
50
0.0
51
0.0
10
0.2145              
20
8.8581              
30
4.2508              
1
 B42
0
TEXT
8
HEIGHT
62
3
7
STD
40
0.25
41
1.0
50
0.0
51
0.0
10
0.2145              
20
8.8581              
30
4.2508              
1
 4.251
0
TEXT
8
CO_ORDS
62
3
7
STD
40
0.25
41
1.0
50
0.0
51
0.0
10
0.2145              
20
8.8581              
30
4.2508              
1
 0.215 8.858
0
INSERT
8
POINT
62
2
2
CROSS
10
-1.8281             
20
8.9083              
30
1.5134              
41
0.002
42
0.002
43
0.002
50
0.0
0
TEXT
8
CODE
62
3
7
STD
40
0.25
41
1.0
50
0.0
51
0.0
10
-1.8281             
20
8.9083              
30
1.5134              
1
 BH
0
TEXT
8
PT_ID
62
3
7
STD
40
0.25
41
1.0
50
0.0
51
0.0
10
-1.8281             
20
8.9083              
30
1.5134              
1
 B43
0
TEXT
8
HEIGHT
62
3
7
STD
40
0.25
41
1.0
50
0.0
51
0.0
10
-1.8281             
20
8.9083              
30
1.5134              
1
 1.513
0
TEXT
8
CO_ORDS
62
3
7
STD
40
0.25
41
1.0
50
0.0
51
0.0
10
-1.8281             
20
8.9083              
30
1.5134              
1
 -1.828 8.908
0
INSERT
8
POINT
62
2
2
CROSS
10
0.4085              
20
8.2009              
30
1.5171              
41
0.002
42
0.002
43
0.002
50
0.0
0
TEXT
8
CODE
62
3
7
STD
40
0.25
41
1.0
50
0.0
51
0.0
10
0.4085              
20
8.2009              
30
1.5171              
1
 BH
0
TEXT
8
PT_ID
62
3
7
STD
40
0.25
41
1.0
50
0.0
51
0.0
10
0.4085              
20
8.2009              
30
1.5171              
1
 B44
0
TEXT
8
HEIGHT
62
3
7
STD
40
0.25
41
1.0
50
0.0
51
0.0
10
0.4085              
20
8.2009              
30
1.5171              
1
 1.517
0
TEXT
8
CO_ORDS
62
3
7
STD
40
0.25
41
1.0
50
0.0
51
0.0
10
0.4085              
20
8.2009              
30
1.5171              
1
 0.408 8.201
0
INSERT
8
POINT
62
2
2
CROSS
10
0.8361              
20
11.9695             
30
1.5143              
41
0.002
42
0.002
43
0.002
50
0.0
0
TEXT
8
CODE
62
3
7
STD
40
0.25
41
1.0
50
0.0
51
0.0
10
0.8361              
20
11.9695             
30
1.5143              
1
 BH
0
TEXT
8
PT_ID
62
3
7
STD
40
0.25
41
1.0
50
0.0
51
0.0
10
0.8361              
20
11.9695             
30
1.5143              
1
 B45
0
TEXT
8
HEIGHT
62
3
7
STD
40
0.25
41
1.0
50
0.0
51
0.0
10
0.8361              
20
11.9695             
30
1.5143              
1
 1.514
0
TEXT
8
CO_ORDS
62
3
7
STD
40
0.25
41
1.0
50
0.0
51
0.0
10
0.8361              
20
11.9695             
30
1.5143              
1
 0.836 11.970
0
INSERT
8
POINT
62
2
2
CROSS
10
3.0017              
20
3.5396              
30
1.6586              
41
0.002
42
0.002
43
0.002
50
0.0
0
TEXT
8
CODE
62
3
7
STD
40
0.25
41
1.0
50
0.0
51
0.0
10
3.0017              
20
3.5396              
30
1.6586              
1
 STIEGE
0
TEXT
8
PT_ID
62
3
7
STD
40
0.25
41
1.0
50
0.0
51
0.0
10
3.0017              
20
3.5396              
30
1.6586              
1
 B46
0
TEXT
8
HEIGHT
62
3
7
STD
40
0.25
41
1.0
50
0.0
51
0.0
10
3.0017              
20
3.5396              
30
1.6586              
1
 1.659
0
TEXT
8
CO_ORDS
62
3
7
STD
40
0.25
41
1.0
50
0.0
51
0.0
10
3.0017              
20
3.5396              
30
1.6586              
1
 3.002 3.540
0
INSERT
8
POINT
62
2
2
CROSS
10
1.8087              
20
3.5513              
30
1.6670              
41
0.002
42
0.002
43
0.002
50
0.0
0
TEXT
8
CODE
62
3
7
STD
40
0.25
41
1.0
50
0.0
51
0.0
10
1.8087              
20
3.5513              
30
1.6670              
1
 STIEGE
0
TEXT
8
PT_ID
62
3
7
STD
40
0.25
41
1.0
50
0.0
51
0.0
10
1.8087              
20
3.5513              
30
1.6670              
1
 B47
0
TEXT
8
HEIGHT
62
3
7
STD
40
0.25
41
1.0
50
0.0
51
0.0
10
1.8087              
20
3.5513              
30
1.6670              
1
 1.667
0
TEXT
8
CO_ORDS
62
3
7
STD
40
0.25
41
1.0
50
0.0
51
0.0
10
1.8087              
20
3.5513              
30
1.6670              
1
 1.809 3.551
0
INSERT
8
POINT
62
2
2
CROSS
10
1.6397              
20
3.5413              
30
1.6763              
41
0.002
42
0.002
43
0.002
50
0.0
0
TEXT
8
CODE
62
3
7
STD
40
0.25
41
1.0
50
0.0
51
0.0
10
1.6397              
20
3.5413              
30
1.6763              
1
 STIEGE
0
TEXT
8
PT_ID
62
3
7
STD
40
0.25
41
1.0
50
0.0
51
0.0
10
1.6397              
20
3.5413              
30
1.6763              
1
 B48
0
TEXT
8
HEIGHT
62
3
7
STD
40
0.25
41
1.0
50
0.0
51
0.0
10
1.6397              
20
3.5413              
30
1.6763              
1
 1.676
0
TEXT
8
CO_ORDS
62
3
7
STD
40
0.25
41
1.0
50
0.0
51
0.0
10
1.6397              
20
3.5413              
30
1.6763              
1
 1.640 3.541
0
INSERT
8
POINT
62
2
2
CROSS
10
1.5648              
20
3.5080              
30
1.6762              
41
0.002
42
0.002
43
0.002
50
0.0
0
TEXT
8
CODE
62
3
7
STD
40
0.25
41
1.0
50
0.0
51
0.0
10
1.5648              
20
3.5080              
30
1.6762              
1
 STIEGE
0
TEXT
8
PT_ID
62
3
7
STD
40
0.25
41
1.0
50
0.0
51
0.0
10
1.5648              
20
3.5080              
30
1.6762              
1
 B49
0
TEXT
8
HEIGHT
62
3
7
STD
40
0.25
41
1.0
50
0.0
51
0.0
10
1.5648              
20
3.5080              
30
1.6762              
1
 1.676
0
TEXT
8
CO_ORDS
62
3
7
STD
40
0.25
41
1.0
50
0.0
51
0.0
10
1.5648              
20
3.5080              
30
1.6762              
1
 1.565 3.508
0
INSERT
8
POINT
62
2
2
CROSS
10
1.5312              
20
3.4648              
30
1.6735              
41
0.002
42
0.002
43
0.002
50
0.0
0
TEXT
8
CODE
62
3
7
STD
40
0.25
41
1.0
50
0.0
51
0.0
10
1.5312              
20
3.4648              
30
1.6735              
1
 STIEGE
0
TEXT
8
PT_ID
62
3
7
STD
40
0.25
41
1.0
50
0.0
51
0.0
10
1.5312              
20
3.4648              
30
1.6735              
1
 B50
0
TEXT
8
HEIGHT
62
3
7
STD
40
0.25
41
1.0
50
0.0
51
0.0
10
1.5312              
20
3.4648              
30
1.6735              
1
 1.673
0
TEXT
8
CO_ORDS
62
3
7
STD
40
0.25
41
1.0
50
0.0
51
0.0
10
1.5312              
20
3.4648              
30
1.6735              
1
 1.531 3.465
0
INSERT
8
POINT
62
2
2
CROSS
10
1.7570              
20
3.2487              
30
1.8380              
41
0.002
42
0.002
43
0.002
50
0.0
0
TEXT
8
CODE
62
3
7
STD
40
0.25
41
1.0
50
0.0
51
0.0
10
1.7570              
20
3.2487              
30
1.8380              
1
 STIEGE
0
TEXT
8
PT_ID
62
3
7
STD
40
0.25
41
1.0
50
0.0
51
0.0
10
1.7570              
20
3.2487              
30
1.8380              
1
 B51
0
TEXT
8
HEIGHT
62
3
7
STD
40
0.25
41
1.0
50
0.0
51
0.0
10
1.7570              
20
3.2487              
30
1.8380              
1
 1.838
0
TEXT
8
CO_ORDS
62
3
7
STD
40
0.25
41
1.0
50
0.0
51
0.0
10
1.7570              
20
3.2487              
30
1.8380              
1
 1.757 3.249
0
INSERT
8
POINT
62
2
2
CROSS
10
2.9829              
20
3.2314              
30
1.8280              
41
0.002
42
0.002
43
0.002
50
0.0
0
TEXT
8
CODE
62
3
7
STD
40
0.25
41
1.0
50
0.0
51
0.0
10
2.9829              
20
3.2314              
30
1.8280              
1
 STIEGE
0
TEXT
8
PT_ID
62
3
7
STD
40
0.25
41
1.0
50
0.0
51
0.0
10
2.9829              
20
3.2314              
30
1.8280              
1
 B52
0
TEXT
8
HEIGHT
62
3
7
STD
40
0.25
41
1.0
50
0.0
51
0.0
10
2.9829              
20
3.2314              
30
1.8280              
1
 1.828
0
TEXT
8
CO_ORDS
62
3
7
STD
40
0.25
41
1.0
50
0.0
51
0.0
10
2.9829              
20
3.2314              
30
1.8280              
1
 2.983 3.231
0
INSERT
8
POINT
62
2
2
CROSS
10
2.3910              
20
2.9384              
30
1.9966              
41
0.002
42
0.002
43
0.002
50
0.0
0
TEXT
8
CODE
62
3
7
STD
40
0.25
41
1.0
50
0.0
51
0.0
10
2.3910              
20
2.9384              
30
1.9966              
1
 STIEGE
0
TEXT
8
PT_ID
62
3
7
STD
40
0.25
41
1.0
50
0.0
51
0.0
10
2.3910              
20
2.9384              
30
1.9966              
1
 B53
0
TEXT
8
HEIGHT
62
3
7
STD
40
0.25
41
1.0
50
0.0
51
0.0
10
2.3910              
20
2.9384              
30
1.9966              
1
 1.997
0
TEXT
8
CO_ORDS
62
3
7
STD
40
0.25
41
1.0
50
0.0
51
0.0
10
2.3910              
20
2.9384              
30
1.9966              
1
 2.391 2.938
0
INSERT
8
POINT
62
2
2
CROSS
10
2.4139              
20
2.6380              
30
2.1664              
41
0.002
42
0.002
43
0.002
50
0.0
0
TEXT
8
CODE
62
3
7
STD
40
0.25
41
1.0
50
0.0
51
0.0
10
2.4139              
20
2.6380              
30
2.1664              
1
 STIEGE
0
TEXT
8
PT_ID
62
3
7
STD
40
0.25
41
1.0
50
0.0
51
0.0
10
2.4139              
20
2.6380              
30
2.1664              
1
 B54
0
TEXT
8
HEIGHT
62
3
7
STD
40
0.25
41
1.0
50
0.0
51
0.0
10
2.4139              
20
2.6380              
30
2.1664              
1
 2.166
0
TEXT
8
CO_ORDS
62
3
7
STD
40
0.25
41
1.0
50
0.0
51
0.0
10
2.4139              
20
2.6380              
30
2.1664              
1
 2.414 2.638
0
INSERT
8
POINT
62
2
2
CROSS
10
2.3922              
20
2.3416              
30
2.3258              
41
0.002
42
0.002
43
0.002
50
0.0
0
TEXT
8
CODE
62
3
7
STD
40
0.25
41
1.0
50
0.0
51
0.0
10
2.3922              
20
2.3416              
30
2.3258              
1
 STIEGE
0
TEXT
8
PT_ID
62
3
7
STD
40
0.25
41
1.0
50
0.0
51
0.0
10
2.3922              
20
2.3416              
30
2.3258              
1
 B55
0
TEXT
8
HEIGHT
62
3
7
STD
40
0.25
41
1.0
50
0.0
51
0.0
10
2.3922              
20
2.3416              
30
2.3258              
1
 2.326
0
TEXT
8
CO_ORDS
62
3
7
STD
40
0.25
41
1.0
50
0.0
51
0.0
10
2.3922              
20
2.3416              
30
2.3258              
1
 2.392 2.342
0
INSERT
8
POINT
62
2
2
CROSS
10
2.3872              
20
2.0400              
30
2.4866              
41
0.002
42
0.002
43
0.002
50
0.0
0
TEXT
8
CODE
62
3
7
STD
40
0.25
41
1.0
50
0.0
51
0.0
10
2.3872              
20
2.0400              
30
2.4866              
1
 STIEGE
0
TEXT
8
PT_ID
62
3
7
STD
40
0.25
41
1.0
50
0.0
51
0.0
10
2.3872              
20
2.0400              
30
2.4866              
1
 B56
0
TEXT
8
HEIGHT
62
3
7
STD
40
0.25
41
1.0
50
0.0
51
0.0
10
2.3872              
20
2.0400              
30
2.4866              
1
 2.487
0
TEXT
8
CO_ORDS
62
3
7
STD
40
0.25
41
1.0
50
0.0
51
0.0
10
2.3872              
20
2.0400              
30
2.4866              
1
 2.387 2.040
0
INSERT
8
POINT
62
2
2
CROSS
10
2.4213              
20
1.7328              
30
2.6531              
41
0.002
42
0.002
43
0.002
50
0.0
0
TEXT
8
CODE
62
3
7
STD
40
0.25
41
1.0
50
0.0
51
0.0
10
2.4213              
20
1.7328              
30
2.6531              
1
 STIEGE
0
TEXT
8
PT_ID
62
3
7
STD
40
0.25
41
1.0
50
0.0
51
0.0
10
2.4213              
20
1.7328              
30
2.6531              
1
 B57
0
TEXT
8
HEIGHT
62
3
7
STD
40
0.25
41
1.0
50
0.0
51
0.0
10
2.4213              
20
1.7328              
30
2.6531              
1
 2.653
0
TEXT
8
CO_ORDS
62
3
7
STD
40
0.25
41
1.0
50
0.0
51
0.0
10
2.4213              
20
1.7328              
30
2.6531              
1
 2.421 1.733
0
INSERT
8
POINT
62
2
2
CROSS
10
2.3851              
20
1.4442              
30
2.8181              
41
0.002
42
0.002
43
0.002
50
0.0
0
TEXT
8
CODE
62
3
7
STD
40
0.25
41
1.0
50
0.0
51
0.0
10
2.3851              
20
1.4442              
30
2.8181              
1
 STIEGE
0
TEXT
8
PT_ID
62
3
7
STD
40
0.25
41
1.0
50
0.0
51
0.0
10
2.3851              
20
1.4442              
30
2.8181              
1
 B58
0
TEXT
8
HEIGHT
62
3
7
STD
40
0.25
41
1.0
50
0.0
51
0.0
10
2.3851              
20
1.4442              
30
2.8181              
1
 2.818
0
TEXT
8
CO_ORDS
62
3
7
STD
40
0.25
41
1.0
50
0.0
51
0.0
10
2.3851              
20
1.4442              
30
2.8181              
1
 2.385 1.444
0
INSERT
8
POINT
62
2
2
CROSS
10
2.3651              
20
1.1434              
30
2.9806              
41
0.002
42
0.002
43
0.002
50
0.0
0
TEXT
8
CODE
62
3
7
STD
40
0.25
41
1.0
50
0.0
51
0.0
10
2.3651              
20
1.1434              
30
2.9806              
1
 STIEGE
0
TEXT
8
PT_ID
62
3
7
STD
40
0.25
41
1.0
50
0.0
51
0.0
10
2.3651              
20
1.1434              
30
2.9806              
1
 B59
0
TEXT
8
HEIGHT
62
3
7
STD
40
0.25
41
1.0
50
0.0
51
0.0
10
2.3651              
20
1.1434              
30
2.9806              
1
 2.981
0
TEXT
8
CO_ORDS
62
3
7
STD
40
0.25
41
1.0
50
0.0
51
0.0
10
2.3651              
20
1.1434              
30
2.9806              
1
 2.365 1.143
0
INSERT
8
POINT
62
2
2
CROSS
10
2.3945              
20
0.8370              
30
3.1476              
41
0.002
42
0.002
43
0.002
50
0.0
0
TEXT
8
CODE
62
3
7
STD
40
0.25
41
1.0
50
0.0
51
0.0
10
2.3945              
20
0.8370              
30
3.1476              
1
 STIEGE
0
TEXT
8
PT_ID
62
3
7
STD
40
0.25
41
1.0
50
0.0
51
0.0
10
2.3945              
20
0.8370              
30
3.1476              
1
 B60
0
TEXT
8
HEIGHT
62
3
7
STD
40
0.25
41
1.0
50
0.0
51
0.0
10
2.3945              
20
0.8370              
30
3.1476              
1
 3.148
0
TEXT
8
CO_ORDS
62
3
7
STD
40
0.25
41
1.0
50
0.0
51
0.0
10
2.3945              
20
0.8370              
30
3.1476              
1
 2.394 0.837
0
INSERT
8
POINT
62
2
2
CROSS
10
2.3730              
20
0.5376              
30
3.3105              
41
0.002
42
0.002
43
0.002
50
0.0
0
TEXT
8
CODE
62
3
7
STD
40
0.25
41
1.0
50
0.0
51
0.0
10
2.3730              
20
0.5376              
30
3.3105              
1
 STIEGE
0
TEXT
8
PT_ID
62
3
7
STD
40
0.25
41
1.0
50
0.0
51
0.0
10
2.3730              
20
0.5376              
30
3.3105              
1
 B61
0
TEXT
8
HEIGHT
62
3
7
STD
40
0.25
41
1.0
50
0.0
51
0.0
10
2.3730              
20
0.5376              
30
3.3105              
1
 3.311
0
TEXT
8
CO_ORDS
62
3
7
STD
40
0.25
41
1.0
50
0.0
51
0.0
10
2.3730              
20
0.5376              
30
3.3105              
1
 2.373 0.538
0
INSERT
8
POINT
62
2
2
CROSS
10
2.9985              
20
0.2287              
30
3.4681              
41
0.002
42
0.002
43
0.002
50
0.0
0
TEXT
8
CODE
62
3
7
STD
40
0.25
41
1.0
50
0.0
51
0.0
10
2.9985              
20
0.2287              
30
3.4681              
1
 STIEGE
0
TEXT
8
PT_ID
62
3
7
STD
40
0.25
41
1.0
50
0.0
51
0.0
10
2.9985              
20
0.2287              
30
3.4681              
1
 B62
0
TEXT
8
HEIGHT
62
3
7
STD
40
0.25
41
1.0
50
0.0
51
0.0
10
2.9985              
20
0.2287              
30
3.4681              
1
 3.468
0
TEXT
8
CO_ORDS
62
3
7
STD
40
0.25
41
1.0
50
0.0
51
0.0
10
2.9985              
20
0.2287              
30
3.4681              
1
 2.999 0.229
0
INSERT
8
POINT
62
2
2
CROSS
10
1.7622              
20
0.2390              
30
3.4744              
41
0.002
42
0.002
43
0.002
50
0.0
0
TEXT
8
CODE
62
3
7
STD
40
0.25
41
1.0
50
0.0
51
0.0
10
1.7622              
20
0.2390              
30
3.4744              
1
 STIEGE
0
TEXT
8
PT_ID
62
3
7
STD
40
0.25
41
1.0
50
0.0
51
0.0
10
1.7622              
20
0.2390              
30
3.4744              
1
 B63
0
TEXT
8
HEIGHT
62
3
7
STD
40
0.25
41
1.0
50
0.0
51
0.0
10
1.7622              
20
0.2390              
30
3.4744              
1
 3.474
0
TEXT
8
CO_ORDS
62
3
7
STD
40
0.25
41
1.0
50
0.0
51
0.0
10
1.7622              
20
0.2390              
30
3.4744              
1
 1.762 0.239
0
INSERT
8
POINT
62
2
2
CROSS
10
1.6865              
20
0.2351              
30
3.4739              
41
0.002
42
0.002
43
0.002
50
0.0
0
TEXT
8
CODE
62
3
7
STD
40
0.25
41
1.0
50
0.0
51
0.0
10
1.6865              
20
0.2351              
30
3.4739              
1
 STIEGE
0
TEXT
8
PT_ID
62
3
7
STD
40
0.25
41
1.0
50
0.0
51
0.0
10
1.6865              
20
0.2351              
30
3.4739              
1
 B64
0
TEXT
8
HEIGHT
62
3
7
STD
40
0.25
41
1.0
50
0.0
51
0.0
10
1.6865              
20
0.2351              
30
3.4739              
1
 3.474
0
TEXT
8
CO_ORDS
62
3
7
STD
40
0.25
41
1.0
50
0.0
51
0.0
10
1.6865              
20
0.2351              
30
3.4739              
1
 1.686 0.235
0
INSERT
8
POINT
62
2
2
CROSS
10
1.6992              
20
1.4458              
30
2.8110              
41
0.002
42
0.002
43
0.002
50
0.0
0
TEXT
8
CODE
62
3
7
STD
40
0.25
41
1.0
50
0.0
51
0.0
10
1.6992              
20
1.4458              
30
2.8110              
1
 STIEGE
0
TEXT
8
PT_ID
62
3
7
STD
40
0.25
41
1.0
50
0.0
51
0.0
10
1.6992              
20
1.4458              
30
2.8110              
1
 B65
0
TEXT
8
HEIGHT
62
3
7
STD
40
0.25
41
1.0
50
0.0
51
0.0
10
1.6992              
20
1.4458              
30
2.8110              
1
 2.811
0
TEXT
8
CO_ORDS
62
3
7
STD
40
0.25
41
1.0
50
0.0
51
0.0
10
1.6992              
20
1.4458              
30
2.8110              
1
 1.699 1.446
0
INSERT
8
POINT
62
2
2
CROSS
10
1.7104              
20
2.6412              
30
2.1738              
41
0.002
42
0.002
43
0.002
50
0.0
0
TEXT
8
CODE
62
3
7
STD
40
0.25
41
1.0
50
0.0
51
0.0
10
1.7104              
20
2.6412              
30
2.1738              
1
 STIEGE
0
TEXT
8
PT_ID
62
3
7
STD
40
0.25
41
1.0
50
0.0
51
0.0
10
1.7104              
20
2.6412              
30
2.1738              
1
 B66
0
TEXT
8
HEIGHT
62
3
7
STD
40
0.25
41
1.0
50
0.0
51
0.0
10
1.7104              
20
2.6412              
30
2.1738              
1
 2.174
0
TEXT
8
CO_ORDS
62
3
7
STD
40
0.25
41
1.0
50
0.0
51
0.0
10
1.7104              
20
2.6412              
30
2.1738              
1
 1.710 2.641
0
INSERT
8
POINT
62
2
2
CROSS
10
1.2071              
20
2.8880              
30
5.0870              
41
0.002
42
0.002
43
0.002
50
0.0
0
TEXT
8
CODE
62
3
7
STD
40
0.25
41
1.0
50
0.0
51
0.0
10
1.2071              
20
2.8880              
30
5.0870              
1
 UK_STIEGE
0
TEXT
8
PT_ID
62
3
7
STD
40
0.25
41
1.0
50
0.0
51
0.0
10
1.2071              
20
2.8880              
30
5.0870              
1
 B67
0
TEXT
8
HEIGHT
62
3
7
STD
40
0.25
41
1.0
50
0.0
51
0.0
10
1.2071              
20
2.8880              
30
5.0870              
1
 5.087
0
TEXT
8
CO_ORDS
62
3
7
STD
40
0.25
41
1.0
50
0.0
51
0.0
10
1.2071              
20
2.8880              
30
5.0870              
1
 1.207 2.888
0
INSERT
8
POINT
62
2
2
CROSS
10
0.2093              
20
2.0457              
30
4.6031              
41
0.002
42
0.002
43
0.002
50
0.0
0
TEXT
8
CODE
62
3
7
STD
40
0.25
41
1.0
50
0.0
51
0.0
10
0.2093              
20
2.0457              
30
4.6031              
1
 UK_STIEGE
0
TEXT
8
PT_ID
62
3
7
STD
40
0.25
41
1.0
50
0.0
51
0.0
10
0.2093              
20
2.0457              
30
4.6031              
1
 B68
0
TEXT
8
HEIGHT
62
3
7
STD
40
0.25
41
1.0
50
0.0
51
0.0
10
0.2093              
20
2.0457              
30
4.6031              
1
 4.603
0
TEXT
8
CO_ORDS
62
3
7
STD
40
0.25
41
1.0
50
0.0
51
0.0
10
0.2093              
20
2.0457              
30
4.6031              
1
 0.209 2.046
0
INSERT
8
POINT
62
2
2
CROSS
10
0.6380              
20
0.6312              
30
3.8372              
41
0.002
42
0.002
43
0.002
50
0.0
0
TEXT
8
CODE
62
3
7
STD
40
0.25
41
1.0
50
0.0
51
0.0
10
0.6380              
20
0.6312              
30
3.8372              
1
 UK_STIEGE
0
TEXT
8
PT_ID
62
3
7
STD
40
0.25
41
1.0
50
0.0
51
0.0
10
0.6380              
20
0.6312              
30
3.8372              
1
 B69
0
TEXT
8
HEIGHT
62
3
7
STD
40
0.25
41
1.0
50
0.0
51
0.0
10
0.6380              
20
0.6312              
30
3.8372              
1
 3.837
0
TEXT
8
CO_ORDS
62
3
7
STD
40
0.25
41
1.0
50
0.0
51
0.0
10
0.6380              
20
0.6312              
30
3.8372              
1
 0.638 0.631
0
INSERT
8
POINT
62
2
2
CROSS
10
1.1093              
20
0.0206              
30
3.5030              
41
0.002
42
0.002
43
0.002
50
0.0
0
TEXT
8
CODE
62
3
7
STD
40
0.25
41
1.0
50
0.0
51
0.0
10
1.1093              
20
0.0206              
30
3.5030              
1
 UK_STIEGE
0
TEXT
8
PT_ID
62
3
7
STD
40
0.25
41
1.0
50
0.0
51
0.0
10
1.1093              
20
0.0206              
30
3.5030              
1
 B70
0
TEXT
8
HEIGHT
62
3
7
STD
40
0.25
41
1.0
50
0.0
51
0.0
10
1.1093              
20
0.0206              
30
3.5030              
1
 3.503
0
TEXT
8
CO_ORDS
62
3
7
STD
40
0.25
41
1.0
50
0.0
51
0.0
10
1.1093              
20
0.0206              
30
3.5030              
1
 1.109 0.021
0
INSERT
8
POINT
62
2
2
CROSS
10
0.1281              
20
-0.0302             
30
3.3147              
41
0.002
42
0.002
43
0.002
50
0.0
0
TEXT
8
CODE
62
3
7
STD
40
0.25
41
1.0
50
0.0
51
0.0
10
0.1281              
20
-0.0302             
30
3.3147              
1
 UZ_SEITL
0
TEXT
8
PT_ID
62
3
7
STD
40
0.25
41
1.0
50
0.0
51
0.0
10
0.1281              
20
-0.0302             
30
3.3147              
1
 B71
0
TEXT
8
HEIGHT
62
3
7
STD
40
0.25
41
1.0
50
0.0
51
0.0
10
0.1281              
20
-0.0302             
30
3.3147              
1
 3.315
0
TEXT
8
CO_ORDS
62
3
7
STD
40
0.25
41
1.0
50
0.0
51
0.0
10
0.1281              
20
-0.0302             
30
3.3147              
1
 0.128 -0.030
0
INSERT
8
POINT
62
2
2
CROSS
10
1.2901              
20
-0.0376             
30
3.2739              
41
0.002
42
0.002
43
0.002
50
0.0
0
TEXT
8
CODE
62
3
7
STD
40
0.25
41
1.0
50
0.0
51
0.0
10
1.2901              
20
-0.0376             
30
3.2739              
1
 UZ_SEITL
0
TEXT
8
PT_ID
62
3
7
STD
40
0.25
41
1.0
50
0.0
51
0.0
10
1.2901              
20
-0.0376             
30
3.2739              
1
 B72
0
TEXT
8
HEIGHT
62
3
7
STD
40
0.25
41
1.0
50
0.0
51
0.0
10
1.2901              
20
-0.0376             
30
3.2739              
1
 3.274
0
TEXT
8
CO_ORDS
62
3
7
STD
40
0.25
41
1.0
50
0.0
51
0.0
10
1.2901              
20
-0.0376             
30
3.2739              
1
 1.290 -0.038
0
INSERT
8
POINT
62
2
2
CROSS
10
1.3334              
20
-0.0128             
30
3.3075              
41
0.002
42
0.002
43
0.002
50
0.0
0
TEXT
8
CODE
62
3
7
STD
40
0.25
41
1.0
50
0.0
51
0.0
10
1.3334              
20
-0.0128             
30
3.3075              
1
 UK_STST
0
TEXT
8
PT_ID
62
3
7
STD
40
0.25
41
1.0
50
0.0
51
0.0
10
1.3334              
20
-0.0128             
30
3.3075              
1
 B73
0
TEXT
8
HEIGHT
62
3
7
STD
40
0.25
41
1.0
50
0.0
51
0.0
10
1.3334              
20
-0.0128             
30
3.3075              
1
 3.308
0
TEXT
8
CO_ORDS
62
3
7
STD
40
0.25
41
1.0
50
0.0
51
0.0
10
1.3334              
20
-0.0128             
30
3.3075              
1
 1.333 -0.013
0
INSERT
8
POINT
62
2
2
CROSS
10
1.3401              
20
3.0827              
30
5.0194              
41
0.002
42
0.002
43
0.002
50
0.0
0
TEXT
8
CODE
62
3
7
STD
40
0.25
41
1.0
50
0.0
51
0.0
10
1.3401              
20
3.0827              
30
5.0194              
1
 UK_STST
0
TEXT
8
PT_ID
62
3
7
STD
40
0.25
41
1.0
50
0.0
51
0.0
10
1.3401              
20
3.0827              
30
5.0194              
1
 B74
0
TEXT
8
HEIGHT
62
3
7
STD
40
0.25
41
1.0
50
0.0
51
0.0
10
1.3401              
20
3.0827              
30
5.0194              
1
 5.019
0
TEXT
8
CO_ORDS
62
3
7
STD
40
0.25
41
1.0
50
0.0
51
0.0
10
1.3401              
20
3.0827              
30
5.0194              
1
 1.340 3.083
0
INSERT
8
POINT
62
2
2
CROSS
10
-1.4818             
20
3.8477              
30
3.6700              
41
0.002
42
0.002
43
0.002
50
0.0
0
TEXT
8
CODE
62
3
7
STD
40
0.25
41
1.0
50
0.0
51
0.0
10
-1.4818             
20
3.8477              
30
3.6700              
1
 WAND
0
TEXT
8
PT_ID
62
3
7
STD
40
0.25
41
1.0
50
0.0
51
0.0
10
-1.4818             
20
3.8477              
30
3.6700              
1
 B75
0
TEXT
8
HEIGHT
62
3
7
STD
40
0.25
41
1.0
50
0.0
51
0.0
10
-1.4818             
20
3.8477              
30
3.6700              
1
 3.670
0
TEXT
8
CO_ORDS
62
3
7
STD
40
0.25
41
1.0
50
0.0
51
0.0
10
-1.4818             
20
3.8477              
30
3.6700              
1
 -1.482 3.848
0
INSERT
8
POINT
62
2
2
CROSS
10
-2.5176             
20
3.8594              
30
3.6998              
41
0.002
42
0.002
43
0.002
50
0.0
0
TEXT
8
CODE
62
3
7
STD
40
0.25
41
1.0
50
0.0
51
0.0
10
-2.5176             
20
3.8594              
30
3.6998              
1
 WAND
0
TEXT
8
PT_ID
62
3
7
STD
40
0.25
41
1.0
50
0.0
51
0.0
10
-2.5176             
20
3.8594              
30
3.6998              
1
 B76
0
TEXT
8
HEIGHT
62
3
7
STD
40
0.25
41
1.0
50
0.0
51
0.0
10
-2.5176             
20
3.8594              
30
3.6998              
1
 3.700
0
TEXT
8
CO_ORDS
62
3
7
STD
40
0.25
41
1.0
50
0.0
51
0.0
10
-2.5176             
20
3.8594              
30
3.6998              
1
 -2.518 3.859
0
INSERT
8
POINT
62
2
2
CROSS
10
-2.6462             
20
3.8926              
30
3.7671              
41
0.002
42
0.002
43
0.002
50
0.0
0
TEXT
8
CODE
62
3
7
STD
40
0.25
41
1.0
50
0.0
51
0.0
10
-2.6462             
20
3.8926              
30
3.7671              
1
 WAND
0
TEXT
8
PT_ID
62
3
7
STD
40
0.25
41
1.0
50
0.0
51
0.0
10
-2.6462             
20
3.8926              
30
3.7671              
1
 B77
0
TEXT
8
HEIGHT
62
3
7
STD
40
0.25
41
1.0
50
0.0
51
0.0
10
-2.6462             
20
3.8926              
30
3.7671              
1
 3.767
0
TEXT
8
CO_ORDS
62
3
7
STD
40
0.25
41
1.0
50
0.0
51
0.0
10
-2.6462             
20
3.8926              
30
3.7671              
1
 -2.646 3.893
0
INSERT
8
POINT
62
2
2
CROSS
10
-2.6535             
20
4.6093              
30
3.7489              
41
0.002
42
0.002
43
0.002
50
0.0
0
TEXT
8
CODE
62
3
7
STD
40
0.25
41
1.0
50
0.0
51
0.0
10
-2.6535             
20
4.6093              
30
3.7489              
1
 WAND
0
TEXT
8
PT_ID
62
3
7
STD
40
0.25
41
1.0
50
0.0
51
0.0
10
-2.6535             
20
4.6093              
30
3.7489              
1
 B78
0
TEXT
8
HEIGHT
62
3
7
STD
40
0.25
41
1.0
50
0.0
51
0.0
10
-2.6535             
20
4.6093              
30
3.7489              
1
 3.749
0
TEXT
8
CO_ORDS
62
3
7
STD
40
0.25
41
1.0
50
0.0
51
0.0
10
-2.6535             
20
4.6093              
30
3.7489              
1
 -2.653 4.609
 0
ENDSEC
 0
EOF
