999
Dxf file generated by netDxf, Copyright(C) 2009 Daniel Carvajal, Licensed under LGPL
0
SECTION
2
HEADER
9
$ACADVER
1
AC1021
9
$DWGCODEPAGE
  3
ANSI_1252
9
$HANDSEED
5
166e
0
ENDSEC
0
SECTION
2
TABLES
0
TABLE
2
VPORT
5
10
100
AcDbSymbolTable
0
VPORT
5
64
100
AcDbSymbolTableRecord
100
AcDbViewportTableRecord
2
*Active
70
0
10
0
20
0
11
1
21
1
12
-1
22
1
13
0
23
0
14
0.5
24
0.5
15
10
25
10
16
0
26
0
36
1
17
0
27
0
37
0
0
ENDTAB
0
TABLE
2
LTYPE
5
11
100
AcDbSymbolTable
0
LTYPE
5
68
100
AcDbSymbolTableRecord
100
AcDbLinetypeTableRecord
70
0
2
Continuous
3
Solid line
72
65
73
0
40
0
0
LTYPE
5
69
100
AcDbSymbolTableRecord
100
AcDbLinetypeTableRecord
70
0
2
ByLayer
3

72
65
73
0
40
0
0
LTYPE
5
6a
100
AcDbSymbolTableRecord
100
AcDbLinetypeTableRecord
70
0
2
ByBlock
3

72
65
73
0
40
0
0
ENDTAB
0
TABLE
2
LAYER
5
12
100
AcDbSymbolTable
0
LAYER
5
66
100
AcDbSymbolTableRecord
100
AcDbLayerTableRecord
70
0
2
default
62
7
6
Continuous
390
65
0
LAYER
5
67
100
AcDbSymbolTableRecord
100
AcDbLayerTableRecord
70
0
2
0
62
7
6
Continuous
390
65
0
ENDTAB
0
TABLE
2
STYLE
5
13
100
AcDbSymbolTable
0
STYLE
5
6b
100
AcDbSymbolTableRecord
100
AcDbTextStyleTableRecord
2
Standard
3
simplex
70
0
71
0
40
0
41
1
42
0
50
0
0
ENDTAB
0
TABLE
2
VIEW
5
14
100
AcDbSymbolTable
0
ENDTAB
0
TABLE
2
UCS
5
15
100
AcDbSymbolTable
0
ENDTAB
0
TABLE
2
APPID
5
16
100
AcDbSymbolTable
0
APPID
5
fe0
100
AcDbSymbolTableRecord
100
AcDbRegAppTableRecord
2
ACAD
70
0
0
ENDTAB
0
TABLE
2
DIMSTYLE
5
17
100
AcDbSymbolTable
100
AcDbDimStyleTable
0
DIMSTYLE
105
fe1
100
AcDbSymbolTableRecord
100
AcDbDimStyleTableRecord
2
Standard
70
0
0
ENDTAB
0
TABLE
2
BLOCK_RECORD
5
18
100
AcDbSymbolTable
0
BLOCK_RECORD
5
6c
100
AcDbSymbolTableRecord
100
AcDbBlockTableRecord
2
be89aa51-98f6-4d96-8f75-3e0310448c45
0
BLOCK_RECORD
5
80
100
AcDbSymbolTableRecord
100
AcDbBlockTableRecord
2
526db93f-dd2c-4713-bce0-f06e949a3ff1
0
BLOCK_RECORD
5
aa
100
AcDbSymbolTableRecord
100
AcDbBlockTableRecord
2
9d039fe4-a6ca-49d3-bf56-684eacf46ff8
0
BLOCK_RECORD
5
de
100
AcDbSymbolTableRecord
100
AcDbBlockTableRecord
2
895f50db-a0ae-46b2-adab-4578e9a78e49
0
BLOCK_RECORD
5
fb
100
AcDbSymbolTableRecord
100
AcDbBlockTableRecord
2
0adcfef7-25e2-45fa-9609-fe7decaa88a8
0
BLOCK_RECORD
5
11d
100
AcDbSymbolTableRecord
100
AcDbBlockTableRecord
2
cde1a014-73c5-46dc-b09e-a22d0d54068d
0
BLOCK_RECORD
5
13a
100
AcDbSymbolTableRecord
100
AcDbBlockTableRecord
2
6a7b1412-4446-4bec-8c51-ca9dfd943083
0
BLOCK_RECORD
5
15c
100
AcDbSymbolTableRecord
100
AcDbBlockTableRecord
2
7d73439b-bd78-4ffa-b668-63e591e3d93c
0
BLOCK_RECORD
5
186
100
AcDbSymbolTableRecord
100
AcDbBlockTableRecord
2
cad3d988-37e4-49e5-bb1c-de104b94568b
0
BLOCK_RECORD
5
18d
100
AcDbSymbolTableRecord
100
AcDbBlockTableRecord
2
e9614847-6626-4e2b-8000-39ebe49d89e5
0
BLOCK_RECORD
5
1af
100
AcDbSymbolTableRecord
100
AcDbBlockTableRecord
2
1d506a6a-c0a9-4d05-93d6-1ac08b216035
0
BLOCK_RECORD
5
1d3
100
AcDbSymbolTableRecord
100
AcDbBlockTableRecord
2
42396a63-c2ad-49b8-9126-18af058ff05d
0
BLOCK_RECORD
5
1f5
100
AcDbSymbolTableRecord
100
AcDbBlockTableRecord
2
a1692166-0bd1-442d-ae9f-33c065661077
0
BLOCK_RECORD
5
210
100
AcDbSymbolTableRecord
100
AcDbBlockTableRecord
2
ae8e7236-ecc6-4cb6-a417-cda0c5345c0e
0
BLOCK_RECORD
5
22d
100
AcDbSymbolTableRecord
100
AcDbBlockTableRecord
2
ddaf38c1-1efe-48bb-a378-50a8d7690faf
0
BLOCK_RECORD
5
24a
100
AcDbSymbolTableRecord
100
AcDbBlockTableRecord
2
28d4d8b3-4b5b-41c2-a3af-008143fd0d2e
0
BLOCK_RECORD
5
251
100
AcDbSymbolTableRecord
100
AcDbBlockTableRecord
2
feacfca8-9bb2-4b47-89fc-f68e56a43cbf
0
BLOCK_RECORD
5
27b
100
AcDbSymbolTableRecord
100
AcDbBlockTableRecord
2
e4a86acb-daf6-47de-a0d4-94a93654fed1
0
BLOCK_RECORD
5
29d
100
AcDbSymbolTableRecord
100
AcDbBlockTableRecord
2
04186c7f-7d1a-49f0-94d8-4085767258f2
0
BLOCK_RECORD
5
2b9
100
AcDbSymbolTableRecord
100
AcDbBlockTableRecord
2
44c54b5b-fc05-45f3-b58c-9db3d59a1a58
0
BLOCK_RECORD
5
2dd
100
AcDbSymbolTableRecord
100
AcDbBlockTableRecord
2
dbf47fa6-e1f9-440a-b4b6-ab50d25606fc
0
BLOCK_RECORD
5
2f9
100
AcDbSymbolTableRecord
100
AcDbBlockTableRecord
2
31ea8935-6fcf-4c69-8dde-da6d8eea4ce2
0
BLOCK_RECORD
5
31b
100
AcDbSymbolTableRecord
100
AcDbBlockTableRecord
2
6697dbd2-2d62-4db4-87b7-132145e7f5b4
0
BLOCK_RECORD
5
33f
100
AcDbSymbolTableRecord
100
AcDbBlockTableRecord
2
092e6e55-0c5c-4bf1-aa7e-99723692431e
0
BLOCK_RECORD
5
363
100
AcDbSymbolTableRecord
100
AcDbBlockTableRecord
2
60c1f26b-4b5c-4d17-9df4-007c362891a7
0
BLOCK_RECORD
5
385
100
AcDbSymbolTableRecord
100
AcDbBlockTableRecord
2
861ed187-dcf6-4e72-984c-61f33357de7d
0
BLOCK_RECORD
5
3a1
100
AcDbSymbolTableRecord
100
AcDbBlockTableRecord
2
0d67e088-bdaa-4643-bbe9-9a9ae0020b4f
0
BLOCK_RECORD
5
3c5
100
AcDbSymbolTableRecord
100
AcDbBlockTableRecord
2
fae15d7a-95b0-4b59-847c-40a4bca4252e
0
BLOCK_RECORD
5
3e7
100
AcDbSymbolTableRecord
100
AcDbBlockTableRecord
2
13e09386-3c14-4e40-9da3-15d9d57ed02a
0
BLOCK_RECORD
5
402
100
AcDbSymbolTableRecord
100
AcDbBlockTableRecord
2
10ec75a2-7b98-49c9-9261-45bba7a8f8f0
0
BLOCK_RECORD
5
426
100
AcDbSymbolTableRecord
100
AcDbBlockTableRecord
2
45a0fb31-38db-4308-a6d6-49d9c663684e
0
BLOCK_RECORD
5
448
100
AcDbSymbolTableRecord
100
AcDbBlockTableRecord
2
8b6c0005-3a03-44c0-b39c-168c10d08dcb
0
BLOCK_RECORD
5
468
100
AcDbSymbolTableRecord
100
AcDbBlockTableRecord
2
e00c3985-6f6e-49ef-9de3-94b488aa4877
0
BLOCK_RECORD
5
48c
100
AcDbSymbolTableRecord
100
AcDbBlockTableRecord
2
79a61741-3e41-4420-8e86-d8f7dc42bebd
0
BLOCK_RECORD
5
4ae
100
AcDbSymbolTableRecord
100
AcDbBlockTableRecord
2
310af931-c798-4fe4-bf64-637c483b13d2
0
BLOCK_RECORD
5
4b5
100
AcDbSymbolTableRecord
100
AcDbBlockTableRecord
2
65e9200d-c402-4ffd-b464-5299861168f4
0
BLOCK_RECORD
5
4d2
100
AcDbSymbolTableRecord
100
AcDbBlockTableRecord
2
88360a4d-7a53-4a1e-9952-d4154e10a8e6
0
BLOCK_RECORD
5
4ee
100
AcDbSymbolTableRecord
100
AcDbBlockTableRecord
2
825b51e1-9588-4999-83b0-c447e160a5e2
0
BLOCK_RECORD
5
510
100
AcDbSymbolTableRecord
100
AcDbBlockTableRecord
2
294ef0c6-d20f-4b4d-8928-5889a1befbc9
0
BLOCK_RECORD
5
534
100
AcDbSymbolTableRecord
100
AcDbBlockTableRecord
2
62eec415-8dea-4087-aec7-fce4a35aa499
0
BLOCK_RECORD
5
556
100
AcDbSymbolTableRecord
100
AcDbBlockTableRecord
2
1feefc05-e9f8-4b3b-aade-dce5ed086c35
0
BLOCK_RECORD
5
55d
100
AcDbSymbolTableRecord
100
AcDbBlockTableRecord
2
c37e9387-d286-4bb6-86b8-eac65488b322
0
BLOCK_RECORD
5
581
100
AcDbSymbolTableRecord
100
AcDbBlockTableRecord
2
886e43c9-7ad4-44f3-9fc9-e65065215f2f
0
BLOCK_RECORD
5
5a3
100
AcDbSymbolTableRecord
100
AcDbBlockTableRecord
2
6d2027b8-b9f8-4382-8be4-b7043426cef4
0
BLOCK_RECORD
5
5bf
100
AcDbSymbolTableRecord
100
AcDbBlockTableRecord
2
866d516b-cd1a-47a2-a9d8-2e50efa14974
0
BLOCK_RECORD
5
5db
100
AcDbSymbolTableRecord
100
AcDbBlockTableRecord
2
b6ae86cb-3ce2-48f2-b1ad-546ef3b9bc93
0
BLOCK_RECORD
5
5fd
100
AcDbSymbolTableRecord
100
AcDbBlockTableRecord
2
4b2acd39-69ed-4951-a828-6398640ae70c
0
BLOCK_RECORD
5
621
100
AcDbSymbolTableRecord
100
AcDbBlockTableRecord
2
89282bc9-c6ba-4de9-9b0f-ea8e8f9309c9
0
BLOCK_RECORD
5
643
100
AcDbSymbolTableRecord
100
AcDbBlockTableRecord
2
f948c4b7-b218-4ecb-8086-666f8b23372f
0
BLOCK_RECORD
5
66d
100
AcDbSymbolTableRecord
100
AcDbBlockTableRecord
2
31a3f662-e287-4739-88c8-5d468b742587
0
BLOCK_RECORD
5
674
100
AcDbSymbolTableRecord
100
AcDbBlockTableRecord
2
a0e5e2cc-6256-448a-9703-bf663aa112a6
0
BLOCK_RECORD
5
691
100
AcDbSymbolTableRecord
100
AcDbBlockTableRecord
2
791c6df0-4c6e-4204-a17f-8162864d4a34
0
BLOCK_RECORD
5
6b5
100
AcDbSymbolTableRecord
100
AcDbBlockTableRecord
2
cba41661-0211-43e0-87cb-1d92a18acd9d
0
BLOCK_RECORD
5
6d7
100
AcDbSymbolTableRecord
100
AcDbBlockTableRecord
2
9135de2b-8dc0-4310-a7b5-c68203d64b47
0
BLOCK_RECORD
5
6f2
100
AcDbSymbolTableRecord
100
AcDbBlockTableRecord
2
bca9d28e-b865-40e2-952f-abfdea76da51
0
BLOCK_RECORD
5
716
100
AcDbSymbolTableRecord
100
AcDbBlockTableRecord
2
de810dd4-8ac4-472e-a726-0a680ae80327
0
BLOCK_RECORD
5
740
100
AcDbSymbolTableRecord
100
AcDbBlockTableRecord
2
8d5e63ac-b3f1-44ee-8fe3-9d1776cd5b19
0
BLOCK_RECORD
5
75c
100
AcDbSymbolTableRecord
100
AcDbBlockTableRecord
2
68e8dc7b-1185-48fb-9868-a7130e635dbd
0
BLOCK_RECORD
5
780
100
AcDbSymbolTableRecord
100
AcDbBlockTableRecord
2
c1953c37-2163-478c-863b-9eee1edef272
0
BLOCK_RECORD
5
7a2
100
AcDbSymbolTableRecord
100
AcDbBlockTableRecord
2
e0d12c4a-ef7b-4903-811e-39fd62d26b6b
0
BLOCK_RECORD
5
7a9
100
AcDbSymbolTableRecord
100
AcDbBlockTableRecord
2
87fac24f-dbb0-4d1e-b206-4bcd0127a63a
0
BLOCK_RECORD
5
7cd
100
AcDbSymbolTableRecord
100
AcDbBlockTableRecord
2
c19a7850-d1e3-4d90-88c3-22fccd839b2c
0
BLOCK_RECORD
5
7ef
100
AcDbSymbolTableRecord
100
AcDbBlockTableRecord
2
913da518-6cae-4804-9d8c-af239907d5de
0
BLOCK_RECORD
5
80f
100
AcDbSymbolTableRecord
100
AcDbBlockTableRecord
2
5e88c01b-9d1c-42bb-bfcf-500482ddf41b
0
BLOCK_RECORD
5
831
100
AcDbSymbolTableRecord
100
AcDbBlockTableRecord
2
8c0eef5b-107f-4868-8d17-1f280868c755
0
BLOCK_RECORD
5
85b
100
AcDbSymbolTableRecord
100
AcDbBlockTableRecord
2
f1b415ac-4516-4234-9e16-72f24f7993ef
0
BLOCK_RECORD
5
862
100
AcDbSymbolTableRecord
100
AcDbBlockTableRecord
2
efd38545-6d50-4700-8da8-89e23fbf7364
0
BLOCK_RECORD
5
87f
100
AcDbSymbolTableRecord
100
AcDbBlockTableRecord
2
29e31009-4b2e-4b66-ad68-5128be585a5e
0
BLOCK_RECORD
5
89b
100
AcDbSymbolTableRecord
100
AcDbBlockTableRecord
2
ca7237ad-eb97-4c76-a7ee-a433fccf742a
0
BLOCK_RECORD
5
8bd
100
AcDbSymbolTableRecord
100
AcDbBlockTableRecord
2
e6b6ddb9-7713-4e6a-832d-cc2d78ddc460
0
BLOCK_RECORD
5
8e1
100
AcDbSymbolTableRecord
100
AcDbBlockTableRecord
2
2936d25f-f129-4f37-ae98-715893c44b76
0
BLOCK_RECORD
5
905
100
AcDbSymbolTableRecord
100
AcDbBlockTableRecord
2
3a2ba764-c77e-441d-8e59-aedbdaa4552b
0
BLOCK_RECORD
5
927
100
AcDbSymbolTableRecord
100
AcDbBlockTableRecord
2
339b64ee-d636-4b8b-a586-392847210ac2
0
BLOCK_RECORD
5
942
100
AcDbSymbolTableRecord
100
AcDbBlockTableRecord
2
ec30fbdf-47a8-4e44-b1c1-c6c213a040a9
0
BLOCK_RECORD
5
966
100
AcDbSymbolTableRecord
100
AcDbBlockTableRecord
2
bd4b13f2-530c-43a3-bdfa-209a42add41c
0
BLOCK_RECORD
5
991
100
AcDbSymbolTableRecord
100
AcDbBlockTableRecord
2
691d3087-2f1a-44d4-96a4-0ff16487097d
0
BLOCK_RECORD
5
998
100
AcDbSymbolTableRecord
100
AcDbBlockTableRecord
2
89aa61f9-6a77-4ff1-bcb3-7f839205a78c
0
BLOCK_RECORD
5
99f
100
AcDbSymbolTableRecord
100
AcDbBlockTableRecord
2
86eada99-514a-4b93-b8b0-6a13032f6446
0
BLOCK_RECORD
5
9ca
100
AcDbSymbolTableRecord
100
AcDbBlockTableRecord
2
016581b0-406b-4163-8101-9e98719808a5
0
BLOCK_RECORD
5
9ee
100
AcDbSymbolTableRecord
100
AcDbBlockTableRecord
2
8d4a8770-e19e-4bb2-bdb7-27662091e55a
0
BLOCK_RECORD
5
a19
100
AcDbSymbolTableRecord
100
AcDbBlockTableRecord
2
ff34c147-d22d-4d5e-97b3-97b117b2da0d
0
BLOCK_RECORD
5
a20
100
AcDbSymbolTableRecord
100
AcDbBlockTableRecord
2
70df5802-ff41-4606-b515-7cb0aedb4b34
0
BLOCK_RECORD
5
a44
100
AcDbSymbolTableRecord
100
AcDbBlockTableRecord
2
82f7596c-7182-400a-b867-35518662b710
0
BLOCK_RECORD
5
a60
100
AcDbSymbolTableRecord
100
AcDbBlockTableRecord
2
e18da91d-21f4-4470-b754-ef56eebcb02a
0
BLOCK_RECORD
5
a82
100
AcDbSymbolTableRecord
100
AcDbBlockTableRecord
2
87fac259-b163-41f8-b49e-3e0c3b178f7b
0
BLOCK_RECORD
5
aa6
100
AcDbSymbolTableRecord
100
AcDbBlockTableRecord
2
3ac44f5b-bc21-4cd6-8ffb-9028a6e87c35
0
BLOCK_RECORD
5
aca
100
AcDbSymbolTableRecord
100
AcDbBlockTableRecord
2
ff38466c-9f4a-430c-8b25-ec9eb47e0b8f
0
BLOCK_RECORD
5
af5
100
AcDbSymbolTableRecord
100
AcDbBlockTableRecord
2
b3bfcc42-0753-4d58-a819-b192483080bf
0
BLOCK_RECORD
5
afc
100
AcDbSymbolTableRecord
100
AcDbBlockTableRecord
2
f1f4d747-b986-43e3-81d4-57d30b459176
0
BLOCK_RECORD
5
b20
100
AcDbSymbolTableRecord
100
AcDbBlockTableRecord
2
e7b177d7-2e8f-409a-9dd1-db15f540b88e
0
BLOCK_RECORD
5
b4b
100
AcDbSymbolTableRecord
100
AcDbBlockTableRecord
2
a1f3740f-fd47-4c15-88b3-59461c9dfa39
0
BLOCK_RECORD
5
b52
100
AcDbSymbolTableRecord
100
AcDbBlockTableRecord
2
390e9d6f-59ea-4e1c-8125-b3a7424b4266
0
BLOCK_RECORD
5
b76
100
AcDbSymbolTableRecord
100
AcDbBlockTableRecord
2
ff938797-01b9-4560-b3ed-7a46a46e2a32
0
BLOCK_RECORD
5
b98
100
AcDbSymbolTableRecord
100
AcDbBlockTableRecord
2
576b2534-58e6-477b-9ecf-4f547e9a7dea
0
BLOCK_RECORD
5
bb4
100
AcDbSymbolTableRecord
100
AcDbBlockTableRecord
2
abc7f15e-5877-475a-ad5d-67e9e08a4dcf
0
BLOCK_RECORD
5
bd1
100
AcDbSymbolTableRecord
100
AcDbBlockTableRecord
2
a9f46ed0-4a5c-422a-89fe-b482da0f7aa0
0
BLOCK_RECORD
5
bf5
100
AcDbSymbolTableRecord
100
AcDbBlockTableRecord
2
686cd373-596d-451e-b906-a109d033f12b
0
BLOCK_RECORD
5
c17
100
AcDbSymbolTableRecord
100
AcDbBlockTableRecord
2
02de0568-2eb6-4eee-807d-e592da863e14
0
BLOCK_RECORD
5
c33
100
AcDbSymbolTableRecord
100
AcDbBlockTableRecord
2
07c4e808-00dc-4a26-beff-123ee0c4711c
0
BLOCK_RECORD
5
c4f
100
AcDbSymbolTableRecord
100
AcDbBlockTableRecord
2
07b37e7d-3aec-4521-b5d6-9d62b6a4bb40
0
BLOCK_RECORD
5
c73
100
AcDbSymbolTableRecord
100
AcDbBlockTableRecord
2
6467f67e-a721-44fb-ae13-171b22f3aab4
0
BLOCK_RECORD
5
c95
100
AcDbSymbolTableRecord
100
AcDbBlockTableRecord
2
d61bd77b-2e1a-418d-bd09-dbeb6334251d
0
BLOCK_RECORD
5
cb1
100
AcDbSymbolTableRecord
100
AcDbBlockTableRecord
2
5473eeee-73d9-45be-9d38-efd2ca777567
0
BLOCK_RECORD
5
cce
100
AcDbSymbolTableRecord
100
AcDbBlockTableRecord
2
4a984c3a-eb22-4817-908f-7d6da1571802
0
BLOCK_RECORD
5
cea
100
AcDbSymbolTableRecord
100
AcDbBlockTableRecord
2
fc893396-0a5d-4a2a-aa55-00928480e65c
0
BLOCK_RECORD
5
d0c
100
AcDbSymbolTableRecord
100
AcDbBlockTableRecord
2
9bb76129-4006-4f7b-98a4-65f8b902cc85
0
BLOCK_RECORD
5
d30
100
AcDbSymbolTableRecord
100
AcDbBlockTableRecord
2
f5082af0-38e0-4e32-8b15-4e7ad5f1a99d
0
BLOCK_RECORD
5
d52
100
AcDbSymbolTableRecord
100
AcDbBlockTableRecord
2
9eb9c6cc-8bc9-4f13-bbd8-7af3587cc144
0
BLOCK_RECORD
5
d76
100
AcDbSymbolTableRecord
100
AcDbBlockTableRecord
2
7e981bc2-a5b9-4518-bd52-3b9a8c010ce8
0
BLOCK_RECORD
5
d92
100
AcDbSymbolTableRecord
100
AcDbBlockTableRecord
2
5ecbd018-26b4-4064-8a89-02705d0ec99c
0
BLOCK_RECORD
5
db4
100
AcDbSymbolTableRecord
100
AcDbBlockTableRecord
2
ff66d7da-87f9-48f8-8b86-5ce0947320a1
0
BLOCK_RECORD
5
dd8
100
AcDbSymbolTableRecord
100
AcDbBlockTableRecord
2
1be0b523-0025-4331-94a9-ad0ebe3a4b3f
0
BLOCK_RECORD
5
dfa
100
AcDbSymbolTableRecord
100
AcDbBlockTableRecord
2
dc3258b5-0f16-4033-bc2d-338e02e4aa31
0
BLOCK_RECORD
5
e24
100
AcDbSymbolTableRecord
100
AcDbBlockTableRecord
2
35595bef-e5e5-41b8-9f65-fb61342defdd
0
BLOCK_RECORD
5
e2b
100
AcDbSymbolTableRecord
100
AcDbBlockTableRecord
2
0960ed9b-0e4a-4483-ad16-614a2498ebde
0
BLOCK_RECORD
5
e48
100
AcDbSymbolTableRecord
100
AcDbBlockTableRecord
2
6c2847cf-8d0e-45ab-b613-b909ca0ba83e
0
BLOCK_RECORD
5
e6c
100
AcDbSymbolTableRecord
100
AcDbBlockTableRecord
2
62cdaab7-ea96-4afc-980b-ba65d6d31655
0
BLOCK_RECORD
5
e8e
100
AcDbSymbolTableRecord
100
AcDbBlockTableRecord
2
5cd321a7-583a-4b4f-9bf5-c450d81f00bc
0
BLOCK_RECORD
5
eae
100
AcDbSymbolTableRecord
100
AcDbBlockTableRecord
2
78b237f0-e6f7-4245-8873-cca67b56b654
0
BLOCK_RECORD
5
ed2
100
AcDbSymbolTableRecord
100
AcDbBlockTableRecord
2
4a0dd194-394c-4616-a761-704fcfee3ea5
0
BLOCK_RECORD
5
efc
100
AcDbSymbolTableRecord
100
AcDbBlockTableRecord
2
430527f9-b476-4c87-8332-4e3506eed079
0
BLOCK_RECORD
5
f1c
100
AcDbSymbolTableRecord
100
AcDbBlockTableRecord
2
f9be3e1c-6e6a-4750-b1f8-34157883f071
0
BLOCK_RECORD
5
f40
100
AcDbSymbolTableRecord
100
AcDbBlockTableRecord
2
6f44c8fd-e41c-45cd-b350-8f955dd743bd
0
BLOCK_RECORD
5
f6b
100
AcDbSymbolTableRecord
100
AcDbBlockTableRecord
2
d5fc0507-8b05-47ec-b161-734ccd3edc2e
0
BLOCK_RECORD
5
f72
100
AcDbSymbolTableRecord
100
AcDbBlockTableRecord
2
5071cacb-0858-4e45-9e39-bd31a14a98b9
0
BLOCK_RECORD
5
f79
100
AcDbSymbolTableRecord
100
AcDbBlockTableRecord
2
d191cd63-c97d-4a27-8e4a-3d19d1151734
0
BLOCK_RECORD
5
f9b
100
AcDbSymbolTableRecord
100
AcDbBlockTableRecord
2
f4b15e71-4330-4860-8c5b-69dcebd4b9cb
0
BLOCK_RECORD
5
fbd
100
AcDbSymbolTableRecord
100
AcDbBlockTableRecord
2
9bc58525-f098-478e-9e6f-7a839fbe1e63
0
BLOCK_RECORD
5
fda
100
AcDbSymbolTableRecord
100
AcDbBlockTableRecord
2
*Model_Space
0
BLOCK_RECORD
5
fdd
100
AcDbSymbolTableRecord
100
AcDbBlockTableRecord
2
*Paper_Space
0
ENDTAB
0
ENDSEC
0
SECTION
2
BLOCKS
0
BLOCK
5
7f
100
AcDbEntity
8
0
100
AcDbBlockBegin
2
be89aa51-98f6-4d96-8f75-3e0310448c45
70
0
10
0
20
0
30
0
3
be89aa51-98f6-4d96-8f75-3e0310448c45
0
TEXT
100
AcDbEntity
8
0
62
7
6
ByLayer
5
6e
100
AcDbText
1
\U+0047\U+0020\U+0033\U+0020
10
45
20
-1
30
0
40
5
41
1
50
0
51
0
7
Standard
11
45
21
-1
31
0
210
0
220
0
230
1
72
0
100
AcDbText
73
0
0
TEXT
100
AcDbEntity
8
0
62
7
6
ByLayer
5
6f
100
AcDbText
1
\U+0034\U+0035\U+0020\U+006b\U+0056\U+0041
10
45
20
-7
30
0
40
5
41
1
50
0
51
0
7
Standard
11
45
21
-7
31
0
210
0
220
0
230
1
72
0
100
AcDbText
73
0
0
TEXT
100
AcDbEntity
8
0
62
7
6
ByLayer
5
70
100
AcDbText
1
\U+0034\U+0030\U+0030\U+0020\U+0056
10
45
20
-13
30
0
40
5
41
1
50
0
51
0
7
Standard
11
45
21
-13
31
0
210
0
220
0
230
1
72
0
100
AcDbText
73
0
0
TEXT
100
AcDbEntity
8
0
62
7
6
ByLayer
5
71
100
AcDbText
1
\U+0054\U+004e\U+002d\U+0053\U+0020
10
45
20
-19
30
0
40
5
41
1
50
0
51
0
7
Standard
11
45
21
-19
31
0
210
0
220
0
230
1
72
0
100
AcDbText
73
0
0
LWPOLYLINE
100
AcDbEntity
8
0
62
9
6
ByLayer
5
13c7
100
AcDbPolyline
90
4
70
1
38
0
39
0
10
43
20
7
40
0
41
0
42
0
10
114.2
20
7
40
0
41
0
42
0
10
114.2
20
-22
40
0
41
0
42
0
10
43
20
-22
40
0
41
0
42
0
210
0
220
0
230
1
0
ELLIPSE
5
78
100
AcDbEntity
8
0
62
0
6
ByLayer
100
AcDbEllipse
10
20
20
-15
30
0
11
15
21
0
31
0
210
0
220
0
230
1
40
1
41
0
42
6.28318530717959
0
LWPOLYLINE
100
AcDbEntity
8
0
62
0
6
ByLayer
5
13c8
100
AcDbPolyline
90
2
70
1
38
0
39
0
10
20
20
-30
40
0
41
0
42
0
10
20
20
-50
40
0
41
0
42
0
210
0
220
0
230
1
0
SPLINE
100
AcDbEntity
8
0
62
0
6
ByLayer
5
7e
100
AcDbSpline
210
0
220
0
230
1
70
0
71
3
72
0
73
0
74
4
42
1E-10
43
1E-10
44
1E-10
11
15
21
-15
31
-15
11
18
21
-12
31
-12
11
22
21
-18
31
-18
11
25
21
-15
31
-15
0
SEQEND
5
7d
100
AcDbEntity
8
0
0
ENDBLK
5
6d
100
AcDbEntity
8
0
100
AcDbBlockEnd
0
BLOCK
5
a9
100
AcDbEntity
8
0
100
AcDbBlockBegin
2
526db93f-dd2c-4713-bce0-f06e949a3ff1
70
0
10
0
20
0
30
0
3
526db93f-dd2c-4713-bce0-f06e949a3ff1
0
TEXT
100
AcDbEntity
8
0
62
7
6
ByLayer
5
82
100
AcDbText
1
\U+005a\U+0075\U+006c\U+0065\U+0069\U+0074\U+0075\U+006e\U+0067\U+0020\U+0047\U+0065\U+006e\U+0065\U+0072\U+0061\U+0074\U+006f\U+0072\U+0020\U+0020
10
45
20
-11
30
0
40
5
41
1
50
0
51
0
7
Standard
11
45
21
-11
31
0
210
0
220
0
230
1
72
0
100
AcDbText
73
0
0
TEXT
100
AcDbEntity
8
0
62
7
6
ByLayer
5
83
100
AcDbText
1
\U+0031\U+0034\U+0020\U+006d
10
45
20
-17
30
0
40
5
41
1
50
0
51
0
7
Standard
11
45
21
-17
31
0
210
0
220
0
230
1
72
0
100
AcDbText
73
0
0
LWPOLYLINE
100
AcDbEntity
8
0
62
9
6
ByLayer
5
13c9
100
AcDbPolyline
90
4
70
1
38
0
39
0
10
43
20
-3
40
0
41
0
42
0
10
131
20
-3
40
0
41
0
42
0
10
131
20
-22
40
0
41
0
42
0
10
43
20
-22
40
0
41
0
42
0
210
0
220
0
230
1
0
ELLIPSE
5
8a
100
AcDbEntity
8
0
62
0
6
ByLayer
100
AcDbEllipse
10
20
20
-2
30
0
11
2
21
0
31
0
210
0
220
0
230
1
40
1
41
0
42
6.28318530717959
0
ELLIPSE
5
8b
100
AcDbEntity
8
0
62
0
6
ByLayer
100
AcDbEllipse
10
20
20
-58
30
0
11
2
21
0
31
0
210
0
220
0
230
1
40
1
41
0
42
6.28318530717959
0
LWPOLYLINE
100
AcDbEntity
8
0
62
0
6
ByLayer
5
13ca
100
AcDbPolyline
90
2
70
1
38
0
39
0
10
20
20
-4
40
0
41
0
42
0
10
20
20
-56
40
0
41
0
42
0
210
0
220
0
230
1
0
LWPOLYLINE
100
AcDbEntity
8
0
62
0
6
ByLayer
5
13cb
100
AcDbPolyline
90
2
70
1
38
0
39
0
10
10
20
-16.5
40
0
41
0
42
0
10
30
20
-22.5
40
0
41
0
42
0
210
0
220
0
230
1
0
LWPOLYLINE
100
AcDbEntity
8
0
62
0
6
ByLayer
5
13cc
100
AcDbPolyline
90
2
70
1
38
0
39
0
10
10
20
-19.5
40
0
41
0
42
0
10
30
20
-25.5
40
0
41
0
42
0
210
0
220
0
230
1
0
LWPOLYLINE
100
AcDbEntity
8
0
62
0
6
ByLayer
5
13cd
100
AcDbPolyline
90
2
70
1
38
0
39
0
10
10
20
-22.5
40
0
41
0
42
0
10
30
20
-28.5
40
0
41
0
42
0
210
0
220
0
230
1
0
LWPOLYLINE
100
AcDbEntity
8
0
62
0
6
ByLayer
5
13ce
100
AcDbPolyline
90
2
70
1
38
0
39
0
10
10
20
-28.5
40
0
41
0
42
0
10
30
20
-34.5
40
0
41
0
42
0
210
0
220
0
230
1
0
ELLIPSE
5
a0
100
AcDbEntity
8
0
62
0
6
ByLayer
100
AcDbEllipse
10
30
20
-34.5
30
0
11
1
21
0
31
0
210
0
220
0
230
1
40
1
41
0
42
6.28318530717959
0
LWPOLYLINE
100
AcDbEntity
8
0
62
0
6
ByLayer
5
13cf
100
AcDbPolyline
90
2
70
1
38
0
39
0
10
10
20
-37.5
40
0
41
0
42
0
10
30
20
-43.5
40
0
41
0
42
0
210
0
220
0
230
1
0
LWPOLYLINE
100
AcDbEntity
8
0
62
0
6
ByLayer
5
13d0
100
AcDbPolyline
90
2
70
1
38
0
39
0
10
30
20
-41.5
40
0
41
0
42
0
10
30
20
-45.5
40
0
41
0
42
0
210
0
220
0
230
1
0
ENDBLK
5
81
100
AcDbEntity
8
0
100
AcDbBlockEnd
0
BLOCK
5
dd
100
AcDbEntity
8
0
100
AcDbBlockBegin
2
9d039fe4-a6ca-49d3-bf56-684eacf46ff8
70
0
10
0
20
0
30
0
3
9d039fe4-a6ca-49d3-bf56-684eacf46ff8
0
TEXT
100
AcDbEntity
8
0
62
7
6
ByLayer
5
ac
100
AcDbText
1
\U+0051\U+0041\U+0020\U+0033\U+0020
10
45
20
-16
30
0
40
5
41
1
50
0
51
0
7
Standard
11
45
21
-16
31
0
210
0
220
0
230
1
72
0
100
AcDbText
73
0
0
LWPOLYLINE
100
AcDbEntity
8
0
62
9
6
ByLayer
5
13d1
100
AcDbPolyline
90
4
70
1
38
0
39
0
10
43
20
-8
40
0
41
0
42
0
10
114.2
20
-8
40
0
41
0
42
0
10
114.2
20
-22
40
0
41
0
42
0
10
43
20
-22
40
0
41
0
42
0
210
0
220
0
230
1
0
LWPOLYLINE
100
AcDbEntity
8
0
62
0
6
ByLayer
5
13d2
100
AcDbPolyline
90
2
70
1
38
0
39
0
10
20
20
0
40
0
41
0
42
0
10
20
20
-20
40
0
41
0
42
0
210
0
220
0
230
1
0
LWPOLYLINE
100
AcDbEntity
8
0
62
0
6
ByLayer
5
13d3
100
AcDbPolyline
90
2
70
1
38
0
39
0
10
15
20
-5
40
0
41
0
42
0
10
25
20
-15
40
0
41
0
42
0
210
0
220
0
230
1
0
LWPOLYLINE
100
AcDbEntity
8
0
62
0
6
ByLayer
5
13d4
100
AcDbPolyline
90
2
70
1
38
0
39
0
10
15
20
-15
40
0
41
0
42
0
10
25
20
-5
40
0
41
0
42
0
210
0
220
0
230
1
0
LWPOLYLINE
100
AcDbEntity
8
0
62
0
6
ByLayer
5
13d5
100
AcDbPolyline
90
2
70
1
38
0
39
0
10
15
20
-20
40
0
41
0
42
0
10
25
20
-20
40
0
41
0
42
0
210
0
220
0
230
1
0
LWPOLYLINE
100
AcDbEntity
8
0
62
0
6
ByLayer
5
13d6
100
AcDbPolyline
90
2
70
1
38
0
39
0
10
10
20
-20
40
0
41
0
42
0
10
20
20
-40
40
0
41
0
42
0
210
0
220
0
230
1
0
LWPOLYLINE
100
AcDbEntity
8
0
62
0
6
ByLayer
5
13d7
100
AcDbPolyline
90
2
70
1
38
0
39
0
10
20
20
-40
40
0
41
0
42
0
10
20
20
-60
40
0
41
0
42
0
210
0
220
0
230
1
0
ELLIPSE
5
cb
100
AcDbEntity
8
0
62
0
6
ByLayer
100
AcDbEllipse
10
20
20
-50
30
0
11
8
21
0
31
0
210
0
220
0
230
1
40
0.5
41
0
42
6.28318530717959
0
LWPOLYLINE
100
AcDbEntity
8
0
62
0
6
ByLayer
5
13d8
100
AcDbPolyline
90
2
70
1
38
0
39
0
10
28
20
-50
40
0
41
0
42
0
10
32
20
-50
40
0
41
0
42
0
210
0
220
0
230
1
0
LWPOLYLINE
100
AcDbEntity
8
0
62
0
6
ByLayer
5
13d9
100
AcDbPolyline
90
2
70
1
38
0
39
0
10
32
20
-50
40
0
41
0
42
0
10
32
20
-30
40
0
41
0
42
0
210
0
220
0
230
1
0
LWPOLYLINE
100
AcDbEntity
8
0
62
0
6
ByLayer
5
13da
100
AcDbPolyline
90
2
70
1
38
0
39
0
10
32
20
-30
40
0
41
0
42
0
10
20
20
-30
40
0
41
0
42
0
210
0
220
0
230
1
0
LWPOLYLINE
100
AcDbEntity
8
0
62
0
6
ByLayer
5
13db
100
AcDbPolyline
90
3
70
1
38
0
39
0
10
16
20
-30
40
0
41
0
42
0
10
20
20
-32
40
0
41
0
42
0
10
20
20
-28
40
0
41
0
42
0
210
0
220
0
230
1
0
ENDBLK
5
ab
100
AcDbEntity
8
0
100
AcDbBlockEnd
0
BLOCK
5
fa
100
AcDbEntity
8
0
100
AcDbBlockBegin
2
895f50db-a0ae-46b2-adab-4578e9a78e49
70
0
10
0
20
0
30
0
3
895f50db-a0ae-46b2-adab-4578e9a78e49
0
TEXT
100
AcDbEntity
8
0
62
7
6
ByLayer
5
e0
100
AcDbText
1
\U+0057\U+0043\U+0020\U+0034\U+0020
10
850
20
39
30
0
40
5
41
1
50
0
51
0
7
Standard
11
850
21
39
31
0
210
0
220
0
230
1
72
0
100
AcDbText
73
0
0
TEXT
100
AcDbEntity
8
0
62
7
6
ByLayer
5
e1
100
AcDbText
1
\U+0033\U+0030\U+002c\U+0031\U+0020\U+006b\U+0056\U+0041
10
850
20
33
30
0
40
5
41
1
50
0
51
0
7
Standard
11
850
21
33
31
0
210
0
220
0
230
1
72
0
100
AcDbText
73
0
0
TEXT
100
AcDbEntity
8
0
62
7
6
ByLayer
5
e2
100
AcDbText
1
\U+0031\U+0031\U+002c\U+0038\U+0020\U+006b\U+0076\U+0061\U+0072
10
850
20
27
30
0
40
5
41
1
50
0
51
0
7
Standard
11
850
21
27
31
0
210
0
220
0
230
1
72
0
100
AcDbText
73
0
0
TEXT
100
AcDbEntity
8
0
62
7
6
ByLayer
5
e3
100
AcDbText
1
\U+004b\U+0073\U+0020\U+003a\U+0020\U+0030\U+002c\U+0037\U+0020
10
850
20
21
30
0
40
5
41
1
50
0
51
0
7
Standard
11
850
21
21
31
0
210
0
220
0
230
1
72
0
100
AcDbText
73
0
0
LWPOLYLINE
100
AcDbEntity
8
0
62
9
6
ByLayer
5
13dc
100
AcDbPolyline
90
4
70
1
38
0
39
0
10
848
20
47
40
0
41
0
42
0
10
919.2
20
47
40
0
41
0
42
0
10
919.2
20
18
40
0
41
0
42
0
10
848
20
18
40
0
41
0
42
0
210
0
220
0
230
1
0
TEXT
100
AcDbEntity
8
0
62
7
6
ByLayer
5
ea
100
AcDbText
1
\U+0048\U+0056\U+0020\U+0053\U+0056\U+0020
10
-45
20
59
30
0
40
5
41
1
50
0
51
0
7
Standard
11
-45
21
59
31
0
210
0
220
0
230
1
72
0
100
AcDbText
73
0
0
TEXT
100
AcDbEntity
8
0
62
7
6
ByLayer
5
eb
100
AcDbText
1
\U+0041\U+0075\U+0073\U+0077\U+0061\U+0068\U+006c\U+0020
10
-45
20
53
30
0
40
5
41
1
50
0
51
0
7
Standard
11
-45
21
53
31
0
210
0
220
0
230
1
72
0
100
AcDbText
73
0
0
TEXT
100
AcDbEntity
8
0
62
7
6
ByLayer
5
ec
100
AcDbText
1
\U+004e\U+0069\U+0063\U+0068\U+0074\U+0020\U+0061\U+006e\U+0067\U+0065\U+0067\U+0065\U+0062\U+0065\U+006e\U+0020
10
-45
20
47
30
0
40
5
41
1
50
0
51
0
7
Standard
11
-45
21
47
31
0
210
0
220
0
230
1
72
0
100
AcDbText
73
0
0
TEXT
100
AcDbEntity
8
0
62
7
6
ByLayer
5
ed
100
AcDbText
1
\U+0030\U+0020\U+0041
10
-45
20
41
30
0
40
5
41
1
50
0
51
0
7
Standard
11
-45
21
41
31
0
210
0
220
0
230
1
72
0
100
AcDbText
73
0
0
LWPOLYLINE
100
AcDbEntity
8
0
62
9
6
ByLayer
5
13dd
100
AcDbPolyline
90
4
70
1
38
0
39
0
10
-47
20
67
40
0
41
0
42
0
10
40.2
20
67
40
0
41
0
42
0
10
40.2
20
38
40
0
41
0
42
0
10
-47
20
38
40
0
41
0
42
0
210
0
220
0
230
1
0
LWPOLYLINE
100
AcDbEntity
8
0
62
0
6
ByLayer
5
13de
100
AcDbPolyline
90
4
70
1
38
0
39
0
10
0
20
0
40
0
41
0
42
0
10
840
20
0
40
0
41
0
42
0
10
840
20
-5
40
0
41
0
42
0
10
0
20
-5
40
0
41
0
42
0
210
0
220
0
230
1
0
ENDBLK
5
df
100
AcDbEntity
8
0
100
AcDbBlockEnd
0
BLOCK
5
11c
100
AcDbEntity
8
0
100
AcDbBlockBegin
2
0adcfef7-25e2-45fa-9609-fe7decaa88a8
70
0
10
0
20
0
30
0
3
0adcfef7-25e2-45fa-9609-fe7decaa88a8
0
TEXT
100
AcDbEntity
8
0
62
7
6
ByLayer
5
fd
100
AcDbText
1
\U+002d\U+0046\U+0020\U+0055\U+0056\U+0020\U+004b\U+0047\U+0020
10
45
20
-16
30
0
40
5
41
1
50
0
51
0
7
Standard
11
45
21
-16
31
0
210
0
220
0
230
1
72
0
100
AcDbText
73
0
0
TEXT
100
AcDbEntity
8
0
62
7
6
ByLayer
5
fe
100
AcDbText
1
\U+0054\U+004e\U+002d\U+0053\U+0020
10
45
20
-22
30
0
40
5
41
1
50
0
51
0
7
Standard
11
45
21
-22
31
0
210
0
220
0
230
1
72
0
100
AcDbText
73
0
0
LWPOLYLINE
100
AcDbEntity
8
0
62
9
6
ByLayer
5
13df
100
AcDbPolyline
90
4
70
1
38
0
39
0
10
43
20
-8
40
0
41
0
42
0
10
114.2
20
-8
40
0
41
0
42
0
10
114.2
20
-27
40
0
41
0
42
0
10
43
20
-27
40
0
41
0
42
0
210
0
220
0
230
1
0
LWPOLYLINE
100
AcDbEntity
8
0
62
0
6
ByLayer
5
13e0
100
AcDbPolyline
90
2
70
1
38
0
39
0
10
20
20
0
40
0
41
0
42
0
10
20
20
-5
40
0
41
0
42
0
210
0
220
0
230
1
0
LWPOLYLINE
100
AcDbEntity
8
0
62
0
6
ByLayer
5
13e1
100
AcDbPolyline
90
2
70
1
38
0
39
0
10
10
20
-5
40
0
41
0
42
0
10
20
20
-25
40
0
41
0
42
0
210
0
220
0
230
1
0
LWPOLYLINE
100
AcDbEntity
8
0
62
0
6
ByLayer
5
13e2
100
AcDbPolyline
90
2
70
1
38
0
39
0
10
20
20
-25
40
0
41
0
42
0
10
20
20
-60
40
0
41
0
42
0
210
0
220
0
230
1
0
LWPOLYLINE
100
AcDbEntity
8
0
62
0
6
ByLayer
5
13e3
100
AcDbPolyline
90
2
70
1
38
0
39
0
10
16
20
-5
40
0
41
0
42
0
10
24
20
-5
40
0
41
0
42
0
210
0
220
0
230
1
0
ELLIPSE
5
115
100
AcDbEntity
8
0
62
0
6
ByLayer
100
AcDbEllipse
10
20
20
-7
30
0
11
1.5
21
0
31
0
210
0
220
0
230
1
40
1
41
0
42
6.28318530717959
0
LWPOLYLINE
100
AcDbEntity
8
0
62
0
6
ByLayer
5
13e4
100
AcDbPolyline
90
4
70
1
38
0
39
0
10
16
20
-38
40
0
41
0
42
0
10
24
20
-38
40
0
41
0
42
0
10
24
20
-54
40
0
41
0
42
0
10
16
20
-54
40
0
41
0
42
0
210
0
220
0
230
1
0
ENDBLK
5
fc
100
AcDbEntity
8
0
100
AcDbBlockEnd
0
BLOCK
5
139
100
AcDbEntity
8
0
100
AcDbBlockBegin
2
cde1a014-73c5-46dc-b09e-a22d0d54068d
70
0
10
0
20
0
30
0
3
cde1a014-73c5-46dc-b09e-a22d0d54068d
0
TEXT
100
AcDbEntity
8
0
62
7
6
ByLayer
5
11f
100
AcDbText
1
\U+0057\U+0043\U+0020\U+0031\U+0031\U+0032\U+0020
10
1170
20
39
30
0
40
5
41
1
50
0
51
0
7
Standard
11
1170
21
39
31
0
210
0
220
0
230
1
72
0
100
AcDbText
73
0
0
TEXT
100
AcDbEntity
8
0
62
7
6
ByLayer
5
120
100
AcDbText
1
\U+0031\U+0037\U+002c\U+0032\U+0020\U+006b\U+0056\U+0041
10
1170
20
33
30
0
40
5
41
1
50
0
51
0
7
Standard
11
1170
21
33
31
0
210
0
220
0
230
1
72
0
100
AcDbText
73
0
0
TEXT
100
AcDbEntity
8
0
62
7
6
ByLayer
5
121
100
AcDbText
1
\U+0036\U+002c\U+0037\U+0035\U+0020\U+006b\U+0076\U+0061\U+0072
10
1170
20
27
30
0
40
5
41
1
50
0
51
0
7
Standard
11
1170
21
27
31
0
210
0
220
0
230
1
72
0
100
AcDbText
73
0
0
TEXT
100
AcDbEntity
8
0
62
7
6
ByLayer
5
122
100
AcDbText
1
\U+004b\U+0073\U+0020\U+003a\U+0020\U+0030\U+002c\U+0038\U+0020
10
1170
20
21
30
0
40
5
41
1
50
0
51
0
7
Standard
11
1170
21
21
31
0
210
0
220
0
230
1
72
0
100
AcDbText
73
0
0
LWPOLYLINE
100
AcDbEntity
8
0
62
9
6
ByLayer
5
13e5
100
AcDbPolyline
90
4
70
1
38
0
39
0
10
1168
20
47
40
0
41
0
42
0
10
1239.2
20
47
40
0
41
0
42
0
10
1239.2
20
18
40
0
41
0
42
0
10
1168
20
18
40
0
41
0
42
0
210
0
220
0
230
1
0
TEXT
100
AcDbEntity
8
0
62
7
6
ByLayer
5
129
100
AcDbText
1
\U+0055\U+0056\U+0020\U+0053\U+0056\U+0020\U+0045\U+0047\U+0020
10
-45
20
59
30
0
40
5
41
1
50
0
51
0
7
Standard
11
-45
21
59
31
0
210
0
220
0
230
1
72
0
100
AcDbText
73
0
0
TEXT
100
AcDbEntity
8
0
62
7
6
ByLayer
5
12a
100
AcDbText
1
\U+0041\U+0075\U+0073\U+0077\U+0061\U+0068\U+006c\U+0020
10
-45
20
53
30
0
40
5
41
1
50
0
51
0
7
Standard
11
-45
21
53
31
0
210
0
220
0
230
1
72
0
100
AcDbText
73
0
0
TEXT
100
AcDbEntity
8
0
62
7
6
ByLayer
5
12b
100
AcDbText
1
\U+004e\U+0069\U+0063\U+0068\U+0074\U+0020\U+0061\U+006e\U+0067\U+0065\U+0067\U+0065\U+0062\U+0065\U+006e\U+0020
10
-45
20
47
30
0
40
5
41
1
50
0
51
0
7
Standard
11
-45
21
47
31
0
210
0
220
0
230
1
72
0
100
AcDbText
73
0
0
TEXT
100
AcDbEntity
8
0
62
7
6
ByLayer
5
12c
100
AcDbText
1
\U+0030\U+0020\U+0041
10
-45
20
41
30
0
40
5
41
1
50
0
51
0
7
Standard
11
-45
21
41
31
0
210
0
220
0
230
1
72
0
100
AcDbText
73
0
0
LWPOLYLINE
100
AcDbEntity
8
0
62
9
6
ByLayer
5
13e6
100
AcDbPolyline
90
4
70
1
38
0
39
0
10
-47
20
67
40
0
41
0
42
0
10
40.2
20
67
40
0
41
0
42
0
10
40.2
20
38
40
0
41
0
42
0
10
-47
20
38
40
0
41
0
42
0
210
0
220
0
230
1
0
LWPOLYLINE
100
AcDbEntity
8
0
62
0
6
ByLayer
5
13e7
100
AcDbPolyline
90
4
70
1
38
0
39
0
10
0
20
0
40
0
41
0
42
0
10
1160
20
0
40
0
41
0
42
0
10
1160
20
-5
40
0
41
0
42
0
10
0
20
-5
40
0
41
0
42
0
210
0
220
0
230
1
0
ENDBLK
5
11e
100
AcDbEntity
8
0
100
AcDbBlockEnd
0
BLOCK
5
15b
100
AcDbEntity
8
0
100
AcDbBlockBegin
2
6a7b1412-4446-4bec-8c51-ca9dfd943083
70
0
10
0
20
0
30
0
3
6a7b1412-4446-4bec-8c51-ca9dfd943083
0
TEXT
100
AcDbEntity
8
0
62
7
6
ByLayer
5
13c
100
AcDbText
1
\U+002d\U+0046\U+0020\U+0055\U+0056\U+0020\U+0045\U+0047\U+0020
10
45
20
-16
30
0
40
5
41
1
50
0
51
0
7
Standard
11
45
21
-16
31
0
210
0
220
0
230
1
72
0
100
AcDbText
73
0
0
TEXT
100
AcDbEntity
8
0
62
7
6
ByLayer
5
13d
100
AcDbText
1
\U+0054\U+004e\U+002d\U+0053\U+0020
10
45
20
-22
30
0
40
5
41
1
50
0
51
0
7
Standard
11
45
21
-22
31
0
210
0
220
0
230
1
72
0
100
AcDbText
73
0
0
LWPOLYLINE
100
AcDbEntity
8
0
62
9
6
ByLayer
5
13e8
100
AcDbPolyline
90
4
70
1
38
0
39
0
10
43
20
-8
40
0
41
0
42
0
10
114.2
20
-8
40
0
41
0
42
0
10
114.2
20
-27
40
0
41
0
42
0
10
43
20
-27
40
0
41
0
42
0
210
0
220
0
230
1
0
LWPOLYLINE
100
AcDbEntity
8
0
62
0
6
ByLayer
5
13e9
100
AcDbPolyline
90
2
70
1
38
0
39
0
10
20
20
0
40
0
41
0
42
0
10
20
20
-5
40
0
41
0
42
0
210
0
220
0
230
1
0
LWPOLYLINE
100
AcDbEntity
8
0
62
0
6
ByLayer
5
13ea
100
AcDbPolyline
90
2
70
1
38
0
39
0
10
10
20
-5
40
0
41
0
42
0
10
20
20
-25
40
0
41
0
42
0
210
0
220
0
230
1
0
LWPOLYLINE
100
AcDbEntity
8
0
62
0
6
ByLayer
5
13eb
100
AcDbPolyline
90
2
70
1
38
0
39
0
10
20
20
-25
40
0
41
0
42
0
10
20
20
-60
40
0
41
0
42
0
210
0
220
0
230
1
0
LWPOLYLINE
100
AcDbEntity
8
0
62
0
6
ByLayer
5
13ec
100
AcDbPolyline
90
2
70
1
38
0
39
0
10
16
20
-5
40
0
41
0
42
0
10
24
20
-5
40
0
41
0
42
0
210
0
220
0
230
1
0
ELLIPSE
5
154
100
AcDbEntity
8
0
62
0
6
ByLayer
100
AcDbEllipse
10
20
20
-7
30
0
11
1.5
21
0
31
0
210
0
220
0
230
1
40
1
41
0
42
6.28318530717959
0
LWPOLYLINE
100
AcDbEntity
8
0
62
0
6
ByLayer
5
13ed
100
AcDbPolyline
90
4
70
1
38
0
39
0
10
16
20
-38
40
0
41
0
42
0
10
24
20
-38
40
0
41
0
42
0
10
24
20
-54
40
0
41
0
42
0
10
16
20
-54
40
0
41
0
42
0
210
0
220
0
230
1
0
ENDBLK
5
13b
100
AcDbEntity
8
0
100
AcDbBlockEnd
0
BLOCK
5
185
100
AcDbEntity
8
0
100
AcDbBlockBegin
2
7d73439b-bd78-4ffa-b668-63e591e3d93c
70
0
10
0
20
0
30
0
3
7d73439b-bd78-4ffa-b668-63e591e3d93c
0
TEXT
100
AcDbEntity
8
0
62
7
6
ByLayer
5
15e
100
AcDbText
1
\U+0057\U+0044\U+0020\U+0053\U+0032\U+0020
10
45
20
-11
30
0
40
5
41
1
50
0
51
0
7
Standard
11
45
21
-11
31
0
210
0
220
0
230
1
72
0
100
AcDbText
73
0
0
TEXT
100
AcDbEntity
8
0
62
7
6
ByLayer
5
15f
100
AcDbText
1
\U+0031\U+0035\U+0020\U+006d
10
45
20
-17
30
0
40
5
41
1
50
0
51
0
7
Standard
11
45
21
-17
31
0
210
0
220
0
230
1
72
0
100
AcDbText
73
0
0
LWPOLYLINE
100
AcDbEntity
8
0
62
9
6
ByLayer
5
13ee
100
AcDbPolyline
90
4
70
1
38
0
39
0
10
43
20
-3
40
0
41
0
42
0
10
114.2
20
-3
40
0
41
0
42
0
10
114.2
20
-22
40
0
41
0
42
0
10
43
20
-22
40
0
41
0
42
0
210
0
220
0
230
1
0
ELLIPSE
5
166
100
AcDbEntity
8
0
62
0
6
ByLayer
100
AcDbEllipse
10
20
20
-2
30
0
11
2
21
0
31
0
210
0
220
0
230
1
40
1
41
0
42
6.28318530717959
0
ELLIPSE
5
167
100
AcDbEntity
8
0
62
0
6
ByLayer
100
AcDbEllipse
10
20
20
-58
30
0
11
2
21
0
31
0
210
0
220
0
230
1
40
1
41
0
42
6.28318530717959
0
LWPOLYLINE
100
AcDbEntity
8
0
62
0
6
ByLayer
5
13ef
100
AcDbPolyline
90
2
70
1
38
0
39
0
10
20
20
-4
40
0
41
0
42
0
10
20
20
-56
40
0
41
0
42
0
210
0
220
0
230
1
0
LWPOLYLINE
100
AcDbEntity
8
0
62
0
6
ByLayer
5
13f0
100
AcDbPolyline
90
2
70
1
38
0
39
0
10
10
20
-16.5
40
0
41
0
42
0
10
30
20
-22.5
40
0
41
0
42
0
210
0
220
0
230
1
0
LWPOLYLINE
100
AcDbEntity
8
0
62
0
6
ByLayer
5
13f1
100
AcDbPolyline
90
2
70
1
38
0
39
0
10
10
20
-19.5
40
0
41
0
42
0
10
30
20
-25.5
40
0
41
0
42
0
210
0
220
0
230
1
0
LWPOLYLINE
100
AcDbEntity
8
0
62
0
6
ByLayer
5
13f2
100
AcDbPolyline
90
2
70
1
38
0
39
0
10
10
20
-22.5
40
0
41
0
42
0
10
30
20
-28.5
40
0
41
0
42
0
210
0
220
0
230
1
0
LWPOLYLINE
100
AcDbEntity
8
0
62
0
6
ByLayer
5
13f3
100
AcDbPolyline
90
2
70
1
38
0
39
0
10
10
20
-28.5
40
0
41
0
42
0
10
30
20
-34.5
40
0
41
0
42
0
210
0
220
0
230
1
0
ELLIPSE
5
17c
100
AcDbEntity
8
0
62
0
6
ByLayer
100
AcDbEllipse
10
30
20
-34.5
30
0
11
1
21
0
31
0
210
0
220
0
230
1
40
1
41
0
42
6.28318530717959
0
LWPOLYLINE
100
AcDbEntity
8
0
62
0
6
ByLayer
5
13f4
100
AcDbPolyline
90
2
70
1
38
0
39
0
10
10
20
-37.5
40
0
41
0
42
0
10
30
20
-43.5
40
0
41
0
42
0
210
0
220
0
230
1
0
LWPOLYLINE
100
AcDbEntity
8
0
62
0
6
ByLayer
5
13f5
100
AcDbPolyline
90
2
70
1
38
0
39
0
10
30
20
-41.5
40
0
41
0
42
0
10
30
20
-45.5
40
0
41
0
42
0
210
0
220
0
230
1
0
ENDBLK
5
15d
100
AcDbEntity
8
0
100
AcDbBlockEnd
0
BLOCK
5
18c
100
AcDbEntity
8
0
100
AcDbBlockBegin
2
cad3d988-37e4-49e5-bb1c-de104b94568b
70
0
10
0
20
0
30
0
3
cad3d988-37e4-49e5-bb1c-de104b94568b
0
LWPOLYLINE
100
AcDbEntity
8
0
62
0
6
ByLayer
5
13f6
100
AcDbPolyline
90
2
70
1
38
0
39
0
10
20
20
0
40
0
41
0
42
0
10
20
20
-10
40
0
41
0
42
0
210
0
220
0
230
1
0
ENDBLK
5
187
100
AcDbEntity
8
0
100
AcDbBlockEnd
0
BLOCK
5
1ae
100
AcDbEntity
8
0
100
AcDbBlockBegin
2
e9614847-6626-4e2b-8000-39ebe49d89e5
70
0
10
0
20
0
30
0
3
e9614847-6626-4e2b-8000-39ebe49d89e5
0
TEXT
100
AcDbEntity
8
0
62
7
6
ByLayer
5
18f
100
AcDbText
1
\U+0028\U+0032\U+0051\U+0031\U+002d\U+0044\U+0030\U+0032\U+002d\U+0032\U+0035\U+0041\U+0029\U+0020
10
45
20
-16
30
0
40
5
41
1
50
0
51
0
7
Standard
11
45
21
-16
31
0
210
0
220
0
230
1
72
0
100
AcDbText
73
0
0
TEXT
100
AcDbEntity
8
0
62
7
6
ByLayer
5
190
100
AcDbText
1
\U+0054\U+004e\U+002d\U+0053\U+0020
10
45
20
-22
30
0
40
5
41
1
50
0
51
0
7
Standard
11
45
21
-22
31
0
210
0
220
0
230
1
72
0
100
AcDbText
73
0
0
LWPOLYLINE
100
AcDbEntity
8
0
62
9
6
ByLayer
5
13f7
100
AcDbPolyline
90
4
70
1
38
0
39
0
10
43
20
-8
40
0
41
0
42
0
10
114.2
20
-8
40
0
41
0
42
0
10
114.2
20
-27
40
0
41
0
42
0
10
43
20
-27
40
0
41
0
42
0
210
0
220
0
230
1
0
LWPOLYLINE
100
AcDbEntity
8
0
62
0
6
ByLayer
5
13f8
100
AcDbPolyline
90
2
70
1
38
0
39
0
10
20
20
0
40
0
41
0
42
0
10
20
20
-5
40
0
41
0
42
0
210
0
220
0
230
1
0
LWPOLYLINE
100
AcDbEntity
8
0
62
0
6
ByLayer
5
13f9
100
AcDbPolyline
90
2
70
1
38
0
39
0
10
10
20
-5
40
0
41
0
42
0
10
20
20
-25
40
0
41
0
42
0
210
0
220
0
230
1
0
LWPOLYLINE
100
AcDbEntity
8
0
62
0
6
ByLayer
5
13fa
100
AcDbPolyline
90
2
70
1
38
0
39
0
10
20
20
-25
40
0
41
0
42
0
10
20
20
-60
40
0
41
0
42
0
210
0
220
0
230
1
0
LWPOLYLINE
100
AcDbEntity
8
0
62
0
6
ByLayer
5
13fb
100
AcDbPolyline
90
2
70
1
38
0
39
0
10
16
20
-5
40
0
41
0
42
0
10
24
20
-5
40
0
41
0
42
0
210
0
220
0
230
1
0
ELLIPSE
5
1a7
100
AcDbEntity
8
0
62
0
6
ByLayer
100
AcDbEllipse
10
20
20
-7
30
0
11
1.5
21
0
31
0
210
0
220
0
230
1
40
1
41
0
42
6.28318530717959
0
LWPOLYLINE
100
AcDbEntity
8
0
62
0
6
ByLayer
5
13fc
100
AcDbPolyline
90
4
70
1
38
0
39
0
10
16
20
-38
40
0
41
0
42
0
10
24
20
-38
40
0
41
0
42
0
10
24
20
-54
40
0
41
0
42
0
10
16
20
-54
40
0
41
0
42
0
210
0
220
0
230
1
0
ENDBLK
5
18e
100
AcDbEntity
8
0
100
AcDbBlockEnd
0
BLOCK
5
1d2
100
AcDbEntity
8
0
100
AcDbBlockBegin
2
1d506a6a-c0a9-4d05-93d6-1ac08b216035
70
0
10
0
20
0
30
0
3
1d506a6a-c0a9-4d05-93d6-1ac08b216035
0
TEXT
100
AcDbEntity
8
0
62
7
6
ByLayer
5
1b1
100
AcDbText
1
\U+0051\U+0041\U+0020\U+0031\U+0031\U+0031\U+0020
10
45
20
-16
30
0
40
5
41
1
50
0
51
0
7
Standard
11
45
21
-16
31
0
210
0
220
0
230
1
72
0
100
AcDbText
73
0
0
TEXT
100
AcDbEntity
8
0
62
7
6
ByLayer
5
1b2
100
AcDbText
1
\U+0054\U+004e\U+002d\U+0053\U+0020
10
45
20
-22
30
0
40
5
41
1
50
0
51
0
7
Standard
11
45
21
-22
31
0
210
0
220
0
230
1
72
0
100
AcDbText
73
0
0
TEXT
100
AcDbEntity
8
0
62
7
6
ByLayer
5
1b3
100
AcDbText
1
\U+0049\U+0062\U+0020\U+003a\U+0020\U+0030\U+002c\U+0035\U+0037\U+0032\U+0020\U+0041
10
45
20
-28
30
0
40
5
41
1
50
0
51
0
7
Standard
11
45
21
-28
31
0
210
0
220
0
230
1
72
0
100
AcDbText
73
0
0
LWPOLYLINE
100
AcDbEntity
8
0
62
9
6
ByLayer
5
13fd
100
AcDbPolyline
90
4
70
1
38
0
39
0
10
43
20
-8
40
0
41
0
42
0
10
114.2
20
-8
40
0
41
0
42
0
10
114.2
20
-32
40
0
41
0
42
0
10
43
20
-32
40
0
41
0
42
0
210
0
220
0
230
1
0
LWPOLYLINE
100
AcDbEntity
8
0
62
0
6
ByLayer
5
13fe
100
AcDbPolyline
90
2
70
1
38
0
39
0
10
20
20
0
40
0
41
0
42
0
10
20
20
-20
40
0
41
0
42
0
210
0
220
0
230
1
0
LWPOLYLINE
100
AcDbEntity
8
0
62
0
6
ByLayer
5
13ff
100
AcDbPolyline
90
2
70
1
38
0
39
0
10
15
20
-5
40
0
41
0
42
0
10
25
20
-15
40
0
41
0
42
0
210
0
220
0
230
1
0
LWPOLYLINE
100
AcDbEntity
8
0
62
0
6
ByLayer
5
1400
100
AcDbPolyline
90
2
70
1
38
0
39
0
10
15
20
-15
40
0
41
0
42
0
10
25
20
-5
40
0
41
0
42
0
210
0
220
0
230
1
0
LWPOLYLINE
100
AcDbEntity
8
0
62
0
6
ByLayer
5
1401
100
AcDbPolyline
90
2
70
1
38
0
39
0
10
15
20
-20
40
0
41
0
42
0
10
25
20
-20
40
0
41
0
42
0
210
0
220
0
230
1
0
LWPOLYLINE
100
AcDbEntity
8
0
62
0
6
ByLayer
5
1402
100
AcDbPolyline
90
2
70
1
38
0
39
0
10
10
20
-20
40
0
41
0
42
0
10
20
20
-40
40
0
41
0
42
0
210
0
220
0
230
1
0
LWPOLYLINE
100
AcDbEntity
8
0
62
0
6
ByLayer
5
1403
100
AcDbPolyline
90
2
70
1
38
0
39
0
10
20
20
-40
40
0
41
0
42
0
10
20
20
-60
40
0
41
0
42
0
210
0
220
0
230
1
0
ENDBLK
5
1b0
100
AcDbEntity
8
0
100
AcDbBlockEnd
0
BLOCK
5
1f4
100
AcDbEntity
8
0
100
AcDbBlockBegin
2
42396a63-c2ad-49b8-9126-18af058ff05d
70
0
10
0
20
0
30
0
3
42396a63-c2ad-49b8-9126-18af058ff05d
0
TEXT
100
AcDbEntity
8
0
62
7
6
ByLayer
5
1d5
100
AcDbText
1
\U+0057\U+0044\U+0020\U+0031\U+0031\U+0031\U+0020
10
45
20
-11
30
0
40
5
41
1
50
0
51
0
7
Standard
11
45
21
-11
31
0
210
0
220
0
230
1
72
0
100
AcDbText
73
0
0
TEXT
100
AcDbEntity
8
0
62
7
6
ByLayer
5
1d6
100
AcDbText
1
\U+0031\U+0035\U+0020\U+006d
10
45
20
-17
30
0
40
5
41
1
50
0
51
0
7
Standard
11
45
21
-17
31
0
210
0
220
0
230
1
72
0
100
AcDbText
73
0
0
LWPOLYLINE
100
AcDbEntity
8
0
62
9
6
ByLayer
5
1404
100
AcDbPolyline
90
4
70
1
38
0
39
0
10
43
20
-3
40
0
41
0
42
0
10
114.2
20
-3
40
0
41
0
42
0
10
114.2
20
-22
40
0
41
0
42
0
10
43
20
-22
40
0
41
0
42
0
210
0
220
0
230
1
0
ELLIPSE
5
1dd
100
AcDbEntity
8
0
62
0
6
ByLayer
100
AcDbEllipse
10
20
20
-2
30
0
11
2
21
0
31
0
210
0
220
0
230
1
40
1
41
0
42
6.28318530717959
0
ELLIPSE
5
1de
100
AcDbEntity
8
0
62
0
6
ByLayer
100
AcDbEllipse
10
20
20
-58
30
0
11
2
21
0
31
0
210
0
220
0
230
1
40
1
41
0
42
6.28318530717959
0
LWPOLYLINE
100
AcDbEntity
8
0
62
0
6
ByLayer
5
1405
100
AcDbPolyline
90
2
70
1
38
0
39
0
10
20
20
-4
40
0
41
0
42
0
10
20
20
-56
40
0
41
0
42
0
210
0
220
0
230
1
0
LWPOLYLINE
100
AcDbEntity
8
0
62
0
6
ByLayer
5
1406
100
AcDbPolyline
90
2
70
1
38
0
39
0
10
10
20
-19.5
40
0
41
0
42
0
10
30
20
-25.5
40
0
41
0
42
0
210
0
220
0
230
1
0
LWPOLYLINE
100
AcDbEntity
8
0
62
0
6
ByLayer
5
1407
100
AcDbPolyline
90
2
70
1
38
0
39
0
10
10
20
-25.5
40
0
41
0
42
0
10
30
20
-31.5
40
0
41
0
42
0
210
0
220
0
230
1
0
ELLIPSE
5
1eb
100
AcDbEntity
8
0
62
0
6
ByLayer
100
AcDbEllipse
10
30
20
-31.5
30
0
11
1
21
0
31
0
210
0
220
0
230
1
40
1
41
0
42
6.28318530717959
0
LWPOLYLINE
100
AcDbEntity
8
0
62
0
6
ByLayer
5
1408
100
AcDbPolyline
90
2
70
1
38
0
39
0
10
10
20
-34.5
40
0
41
0
42
0
10
30
20
-40.5
40
0
41
0
42
0
210
0
220
0
230
1
0
LWPOLYLINE
100
AcDbEntity
8
0
62
0
6
ByLayer
5
1409
100
AcDbPolyline
90
2
70
1
38
0
39
0
10
30
20
-38.5
40
0
41
0
42
0
10
30
20
-42.5
40
0
41
0
42
0
210
0
220
0
230
1
0
ENDBLK
5
1d4
100
AcDbEntity
8
0
100
AcDbBlockEnd
0
BLOCK
5
20f
100
AcDbEntity
8
0
100
AcDbBlockBegin
2
a1692166-0bd1-442d-ae9f-33c065661077
70
0
10
0
20
0
30
0
3
a1692166-0bd1-442d-ae9f-33c065661077
0
TEXT
100
AcDbEntity
8
0
62
7
6
ByLayer
5
1f7
100
AcDbText
1
\U+0045\U+0041\U+0020\U+0031\U+0031\U+0031\U+0020
10
45
20
-11
30
0
40
5
41
1
50
0
51
0
7
Standard
11
45
21
-11
31
0
210
0
220
0
230
1
72
0
100
AcDbText
73
0
0
TEXT
100
AcDbEntity
8
0
62
7
6
ByLayer
5
1f8
100
AcDbText
1
\U+0030\U+002c\U+0035\U+0037\U+0032\U+0020\U+0041
10
45
20
-17
30
0
40
5
41
1
50
0
51
0
7
Standard
11
45
21
-17
31
0
210
0
220
0
230
1
72
0
100
AcDbText
73
0
0
TEXT
100
AcDbEntity
8
0
62
7
6
ByLayer
5
1f9
100
AcDbText
1
\U+0043\U+006f\U+0073\U+03c6\U+0020\U+003a\U+0020\U+0030\U+002c\U+0039\U+0032\U+0020
10
45
20
-23
30
0
40
5
41
1
50
0
51
0
7
Standard
11
45
21
-23
31
0
210
0
220
0
230
1
72
0
100
AcDbText
73
0
0
TEXT
100
AcDbEntity
8
0
62
7
6
ByLayer
5
1fa
100
AcDbText
1
\U+004d\U+0065\U+006e\U+0067\U+0065\U+0020\U+003a\U+0020\U+003a\U+0020\U+0035\U+0020
10
45
20
-29
30
0
40
5
41
1
50
0
51
0
7
Standard
11
45
21
-29
31
0
210
0
220
0
230
1
72
0
100
AcDbText
73
0
0
TEXT
100
AcDbEntity
8
0
62
7
6
ByLayer
5
1fb
100
AcDbText
1
\U+004b\U+0075\U+0020\U+003a\U+0020\U+0031\U+0020
10
45
20
-35
30
0
40
5
41
1
50
0
51
0
7
Standard
11
45
21
-35
31
0
210
0
220
0
230
1
72
0
100
AcDbText
73
0
0
LWPOLYLINE
100
AcDbEntity
8
0
62
9
6
ByLayer
5
140a
100
AcDbPolyline
90
4
70
1
38
0
39
0
10
43
20
-3
40
0
41
0
42
0
10
114.2
20
-3
40
0
41
0
42
0
10
114.2
20
-37
40
0
41
0
42
0
10
43
20
-37
40
0
41
0
42
0
210
0
220
0
230
1
0
LWPOLYLINE
100
AcDbEntity
8
0
62
0
6
ByLayer
5
140b
100
AcDbPolyline
90
2
70
1
38
0
39
0
10
20
20
0
40
0
41
0
42
0
10
20
20
-15
40
0
41
0
42
0
210
0
220
0
230
1
0
LWPOLYLINE
100
AcDbEntity
8
0
62
0
6
ByLayer
5
140c
100
AcDbPolyline
90
2
70
1
38
0
39
0
10
9
20
-19
40
0
41
0
42
0
10
31
20
-41
40
0
41
0
42
0
210
0
220
0
230
1
0
LWPOLYLINE
100
AcDbEntity
8
0
62
0
6
ByLayer
5
140d
100
AcDbPolyline
90
2
70
1
38
0
39
0
10
31
20
-19
40
0
41
0
42
0
10
9
20
-41
40
0
41
0
42
0
210
0
220
0
230
1
0
ELLIPSE
5
20e
100
AcDbEntity
8
0
62
0
6
ByLayer
100
AcDbEllipse
10
20
20
-30
30
0
11
15
21
0
31
0
210
0
220
0
230
1
40
1
41
0
42
6.28318530717959
0
ENDBLK
5
1f6
100
AcDbEntity
8
0
100
AcDbBlockEnd
0
BLOCK
5
22c
100
AcDbEntity
8
0
100
AcDbBlockBegin
2
ae8e7236-ecc6-4cb6-a417-cda0c5345c0e
70
0
10
0
20
0
30
0
3
ae8e7236-ecc6-4cb6-a417-cda0c5345c0e
0
TEXT
100
AcDbEntity
8
0
62
7
6
ByLayer
5
212
100
AcDbText
1
\U+0057\U+0043\U+0020\U+0032\U+0033\U+0033\U+0020
10
370
20
39
30
0
40
5
41
1
50
0
51
0
7
Standard
11
370
21
39
31
0
210
0
220
0
230
1
72
0
100
AcDbText
73
0
0
TEXT
100
AcDbEntity
8
0
62
7
6
ByLayer
5
213
100
AcDbText
1
\U+0032\U+002c\U+0039\U+0036\U+0020\U+006b\U+0056\U+0041
10
370
20
33
30
0
40
5
41
1
50
0
51
0
7
Standard
11
370
21
33
31
0
210
0
220
0
230
1
72
0
100
AcDbText
73
0
0
TEXT
100
AcDbEntity
8
0
62
7
6
ByLayer
5
214
100
AcDbText
1
\U+0031\U+002c\U+0031\U+0036\U+0020\U+006b\U+0076\U+0061\U+0072
10
370
20
27
30
0
40
5
41
1
50
0
51
0
7
Standard
11
370
21
27
31
0
210
0
220
0
230
1
72
0
100
AcDbText
73
0
0
TEXT
100
AcDbEntity
8
0
62
7
6
ByLayer
5
215
100
AcDbText
1
\U+004b\U+0073\U+0020\U+003a\U+0020\U+0030\U+002c\U+0038\U+0020
10
370
20
21
30
0
40
5
41
1
50
0
51
0
7
Standard
11
370
21
21
31
0
210
0
220
0
230
1
72
0
100
AcDbText
73
0
0
LWPOLYLINE
100
AcDbEntity
8
0
62
9
6
ByLayer
5
140e
100
AcDbPolyline
90
4
70
1
38
0
39
0
10
368
20
47
40
0
41
0
42
0
10
439.2
20
47
40
0
41
0
42
0
10
439.2
20
18
40
0
41
0
42
0
10
368
20
18
40
0
41
0
42
0
210
0
220
0
230
1
0
TEXT
100
AcDbEntity
8
0
62
7
6
ByLayer
5
21c
100
AcDbText
1
\U+0055\U+0056\U+0020\U+0055\U+0053\U+0056\U+0020\U+0042\U+0020
10
-45
20
59
30
0
40
5
41
1
50
0
51
0
7
Standard
11
-45
21
59
31
0
210
0
220
0
230
1
72
0
100
AcDbText
73
0
0
TEXT
100
AcDbEntity
8
0
62
7
6
ByLayer
5
21d
100
AcDbText
1
\U+0041\U+0075\U+0073\U+0077\U+0061\U+0068\U+006c\U+0020
10
-45
20
53
30
0
40
5
41
1
50
0
51
0
7
Standard
11
-45
21
53
31
0
210
0
220
0
230
1
72
0
100
AcDbText
73
0
0
TEXT
100
AcDbEntity
8
0
62
7
6
ByLayer
5
21e
100
AcDbText
1
\U+004e\U+0069\U+0063\U+0068\U+0074\U+0020\U+0061\U+006e\U+0067\U+0065\U+0067\U+0065\U+0062\U+0065\U+006e\U+0020
10
-45
20
47
30
0
40
5
41
1
50
0
51
0
7
Standard
11
-45
21
47
31
0
210
0
220
0
230
1
72
0
100
AcDbText
73
0
0
TEXT
100
AcDbEntity
8
0
62
7
6
ByLayer
5
21f
100
AcDbText
1
\U+0030\U+0020\U+0041
10
-45
20
41
30
0
40
5
41
1
50
0
51
0
7
Standard
11
-45
21
41
31
0
210
0
220
0
230
1
72
0
100
AcDbText
73
0
0
LWPOLYLINE
100
AcDbEntity
8
0
62
9
6
ByLayer
5
140f
100
AcDbPolyline
90
4
70
1
38
0
39
0
10
-47
20
67
40
0
41
0
42
0
10
40.2
20
67
40
0
41
0
42
0
10
40.2
20
38
40
0
41
0
42
0
10
-47
20
38
40
0
41
0
42
0
210
0
220
0
230
1
0
LWPOLYLINE
100
AcDbEntity
8
0
62
0
6
ByLayer
5
1410
100
AcDbPolyline
90
4
70
1
38
0
39
0
10
0
20
0
40
0
41
0
42
0
10
360
20
0
40
0
41
0
42
0
10
360
20
-5
40
0
41
0
42
0
10
0
20
-5
40
0
41
0
42
0
210
0
220
0
230
1
0
ENDBLK
5
211
100
AcDbEntity
8
0
100
AcDbBlockEnd
0
BLOCK
5
249
100
AcDbEntity
8
0
100
AcDbBlockBegin
2
ddaf38c1-1efe-48bb-a378-50a8d7690faf
70
0
10
0
20
0
30
0
3
ddaf38c1-1efe-48bb-a378-50a8d7690faf
0
TEXT
100
AcDbEntity
8
0
62
7
6
ByLayer
5
22f
100
AcDbText
1
\U+0057\U+0043\U+0020\U+0039\U+0039\U+0020
10
210
20
39
30
0
40
5
41
1
50
0
51
0
7
Standard
11
210
21
39
31
0
210
0
220
0
230
1
72
0
100
AcDbText
73
0
0
TEXT
100
AcDbEntity
8
0
62
7
6
ByLayer
5
230
100
AcDbText
1
\U+0030\U+002c\U+0035\U+0032\U+0038\U+0020\U+006b\U+0056\U+0041
10
210
20
33
30
0
40
5
41
1
50
0
51
0
7
Standard
11
210
21
33
31
0
210
0
220
0
230
1
72
0
100
AcDbText
73
0
0
TEXT
100
AcDbEntity
8
0
62
7
6
ByLayer
5
231
100
AcDbText
1
\U+0030\U+002c\U+0032\U+0030\U+0037\U+0020\U+006b\U+0076\U+0061\U+0072
10
210
20
27
30
0
40
5
41
1
50
0
51
0
7
Standard
11
210
21
27
31
0
210
0
220
0
230
1
72
0
100
AcDbText
73
0
0
TEXT
100
AcDbEntity
8
0
62
7
6
ByLayer
5
232
100
AcDbText
1
\U+004b\U+0073\U+0020\U+003a\U+0020\U+0030\U+002c\U+0038\U+0020
10
210
20
21
30
0
40
5
41
1
50
0
51
0
7
Standard
11
210
21
21
31
0
210
0
220
0
230
1
72
0
100
AcDbText
73
0
0
LWPOLYLINE
100
AcDbEntity
8
0
62
9
6
ByLayer
5
1411
100
AcDbPolyline
90
4
70
1
38
0
39
0
10
208
20
47
40
0
41
0
42
0
10
279.2
20
47
40
0
41
0
42
0
10
279.2
20
18
40
0
41
0
42
0
10
208
20
18
40
0
41
0
42
0
210
0
220
0
230
1
0
TEXT
100
AcDbEntity
8
0
62
7
6
ByLayer
5
239
100
AcDbText
1
\U+0055\U+0056\U+0020\U+0053\U+0056\U+0020\U+004b\U+0047\U+0020
10
-45
20
59
30
0
40
5
41
1
50
0
51
0
7
Standard
11
-45
21
59
31
0
210
0
220
0
230
1
72
0
100
AcDbText
73
0
0
TEXT
100
AcDbEntity
8
0
62
7
6
ByLayer
5
23a
100
AcDbText
1
\U+0041\U+0075\U+0073\U+0077\U+0061\U+0068\U+006c\U+0020
10
-45
20
53
30
0
40
5
41
1
50
0
51
0
7
Standard
11
-45
21
53
31
0
210
0
220
0
230
1
72
0
100
AcDbText
73
0
0
TEXT
100
AcDbEntity
8
0
62
7
6
ByLayer
5
23b
100
AcDbText
1
\U+004e\U+0069\U+0063\U+0068\U+0074\U+0020\U+0061\U+006e\U+0067\U+0065\U+0067\U+0065\U+0062\U+0065\U+006e\U+0020
10
-45
20
47
30
0
40
5
41
1
50
0
51
0
7
Standard
11
-45
21
47
31
0
210
0
220
0
230
1
72
0
100
AcDbText
73
0
0
TEXT
100
AcDbEntity
8
0
62
7
6
ByLayer
5
23c
100
AcDbText
1
\U+0030\U+0020\U+0041
10
-45
20
41
30
0
40
5
41
1
50
0
51
0
7
Standard
11
-45
21
41
31
0
210
0
220
0
230
1
72
0
100
AcDbText
73
0
0
LWPOLYLINE
100
AcDbEntity
8
0
62
9
6
ByLayer
5
1412
100
AcDbPolyline
90
4
70
1
38
0
39
0
10
-47
20
67
40
0
41
0
42
0
10
40.2
20
67
40
0
41
0
42
0
10
40.2
20
38
40
0
41
0
42
0
10
-47
20
38
40
0
41
0
42
0
210
0
220
0
230
1
0
LWPOLYLINE
100
AcDbEntity
8
0
62
0
6
ByLayer
5
1413
100
AcDbPolyline
90
4
70
1
38
0
39
0
10
0
20
0
40
0
41
0
42
0
10
200
20
0
40
0
41
0
42
0
10
200
20
-5
40
0
41
0
42
0
10
0
20
-5
40
0
41
0
42
0
210
0
220
0
230
1
0
ENDBLK
5
22e
100
AcDbEntity
8
0
100
AcDbBlockEnd
0
BLOCK
5
250
100
AcDbEntity
8
0
100
AcDbBlockBegin
2
28d4d8b3-4b5b-41c2-a3af-008143fd0d2e
70
0
10
0
20
0
30
0
3
28d4d8b3-4b5b-41c2-a3af-008143fd0d2e
0
LWPOLYLINE
100
AcDbEntity
8
0
62
0
6
ByLayer
5
1414
100
AcDbPolyline
90
2
70
1
38
0
39
0
10
20
20
0
40
0
41
0
42
0
10
20
20
-10
40
0
41
0
42
0
210
0
220
0
230
1
0
ENDBLK
5
24b
100
AcDbEntity
8
0
100
AcDbBlockEnd
0
BLOCK
5
27a
100
AcDbEntity
8
0
100
AcDbBlockBegin
2
feacfca8-9bb2-4b47-89fc-f68e56a43cbf
70
0
10
0
20
0
30
0
3
feacfca8-9bb2-4b47-89fc-f68e56a43cbf
0
TEXT
100
AcDbEntity
8
0
62
7
6
ByLayer
5
253
100
AcDbText
1
\U+0057\U+0044\U+0020\U+0053\U+0031\U+0020
10
45
20
-11
30
0
40
5
41
1
50
0
51
0
7
Standard
11
45
21
-11
31
0
210
0
220
0
230
1
72
0
100
AcDbText
73
0
0
TEXT
100
AcDbEntity
8
0
62
7
6
ByLayer
5
254
100
AcDbText
1
\U+0031\U+0035\U+0020\U+006d
10
45
20
-17
30
0
40
5
41
1
50
0
51
0
7
Standard
11
45
21
-17
31
0
210
0
220
0
230
1
72
0
100
AcDbText
73
0
0
LWPOLYLINE
100
AcDbEntity
8
0
62
9
6
ByLayer
5
1415
100
AcDbPolyline
90
4
70
1
38
0
39
0
10
43
20
-3
40
0
41
0
42
0
10
114.2
20
-3
40
0
41
0
42
0
10
114.2
20
-22
40
0
41
0
42
0
10
43
20
-22
40
0
41
0
42
0
210
0
220
0
230
1
0
ELLIPSE
5
25b
100
AcDbEntity
8
0
62
0
6
ByLayer
100
AcDbEllipse
10
20
20
-2
30
0
11
2
21
0
31
0
210
0
220
0
230
1
40
1
41
0
42
6.28318530717959
0
ELLIPSE
5
25c
100
AcDbEntity
8
0
62
0
6
ByLayer
100
AcDbEllipse
10
20
20
-58
30
0
11
2
21
0
31
0
210
0
220
0
230
1
40
1
41
0
42
6.28318530717959
0
LWPOLYLINE
100
AcDbEntity
8
0
62
0
6
ByLayer
5
1416
100
AcDbPolyline
90
2
70
1
38
0
39
0
10
20
20
-4
40
0
41
0
42
0
10
20
20
-56
40
0
41
0
42
0
210
0
220
0
230
1
0
LWPOLYLINE
100
AcDbEntity
8
0
62
0
6
ByLayer
5
1417
100
AcDbPolyline
90
2
70
1
38
0
39
0
10
10
20
-16.5
40
0
41
0
42
0
10
30
20
-22.5
40
0
41
0
42
0
210
0
220
0
230
1
0
LWPOLYLINE
100
AcDbEntity
8
0
62
0
6
ByLayer
5
1418
100
AcDbPolyline
90
2
70
1
38
0
39
0
10
10
20
-19.5
40
0
41
0
42
0
10
30
20
-25.5
40
0
41
0
42
0
210
0
220
0
230
1
0
LWPOLYLINE
100
AcDbEntity
8
0
62
0
6
ByLayer
5
1419
100
AcDbPolyline
90
2
70
1
38
0
39
0
10
10
20
-22.5
40
0
41
0
42
0
10
30
20
-28.5
40
0
41
0
42
0
210
0
220
0
230
1
0
LWPOLYLINE
100
AcDbEntity
8
0
62
0
6
ByLayer
5
141a
100
AcDbPolyline
90
2
70
1
38
0
39
0
10
10
20
-28.5
40
0
41
0
42
0
10
30
20
-34.5
40
0
41
0
42
0
210
0
220
0
230
1
0
ELLIPSE
5
271
100
AcDbEntity
8
0
62
0
6
ByLayer
100
AcDbEllipse
10
30
20
-34.5
30
0
11
1
21
0
31
0
210
0
220
0
230
1
40
1
41
0
42
6.28318530717959
0
LWPOLYLINE
100
AcDbEntity
8
0
62
0
6
ByLayer
5
141b
100
AcDbPolyline
90
2
70
1
38
0
39
0
10
10
20
-37.5
40
0
41
0
42
0
10
30
20
-43.5
40
0
41
0
42
0
210
0
220
0
230
1
0
LWPOLYLINE
100
AcDbEntity
8
0
62
0
6
ByLayer
5
141c
100
AcDbPolyline
90
2
70
1
38
0
39
0
10
30
20
-41.5
40
0
41
0
42
0
10
30
20
-45.5
40
0
41
0
42
0
210
0
220
0
230
1
0
ENDBLK
5
252
100
AcDbEntity
8
0
100
AcDbBlockEnd
0
BLOCK
5
29c
100
AcDbEntity
8
0
100
AcDbBlockBegin
2
e4a86acb-daf6-47de-a0d4-94a93654fed1
70
0
10
0
20
0
30
0
3
e4a86acb-daf6-47de-a0d4-94a93654fed1
0
TEXT
100
AcDbEntity
8
0
62
7
6
ByLayer
5
27d
100
AcDbText
1
\U+0057\U+0044\U+0020\U+0031\U+0035\U+0032\U+0020\U+0028\U+0031\U+0029\U+0020\U+0028\U+0031\U+0029\U+0020
10
45
20
-11
30
0
40
5
41
1
50
0
51
0
7
Standard
11
45
21
-11
31
0
210
0
220
0
230
1
72
0
100
AcDbText
73
0
0
TEXT
100
AcDbEntity
8
0
62
7
6
ByLayer
5
27e
100
AcDbText
1
\U+0031\U+0035\U+0020\U+006d
10
45
20
-17
30
0
40
5
41
1
50
0
51
0
7
Standard
11
45
21
-17
31
0
210
0
220
0
230
1
72
0
100
AcDbText
73
0
0
LWPOLYLINE
100
AcDbEntity
8
0
62
9
6
ByLayer
5
141d
100
AcDbPolyline
90
4
70
1
38
0
39
0
10
43
20
-3
40
0
41
0
42
0
10
114.2
20
-3
40
0
41
0
42
0
10
114.2
20
-22
40
0
41
0
42
0
10
43
20
-22
40
0
41
0
42
0
210
0
220
0
230
1
0
ELLIPSE
5
285
100
AcDbEntity
8
0
62
0
6
ByLayer
100
AcDbEllipse
10
20
20
-2
30
0
11
2
21
0
31
0
210
0
220
0
230
1
40
1
41
0
42
6.28318530717959
0
ELLIPSE
5
286
100
AcDbEntity
8
0
62
0
6
ByLayer
100
AcDbEllipse
10
20
20
-58
30
0
11
2
21
0
31
0
210
0
220
0
230
1
40
1
41
0
42
6.28318530717959
0
LWPOLYLINE
100
AcDbEntity
8
0
62
0
6
ByLayer
5
141e
100
AcDbPolyline
90
2
70
1
38
0
39
0
10
20
20
-4
40
0
41
0
42
0
10
20
20
-56
40
0
41
0
42
0
210
0
220
0
230
1
0
LWPOLYLINE
100
AcDbEntity
8
0
62
0
6
ByLayer
5
141f
100
AcDbPolyline
90
2
70
1
38
0
39
0
10
10
20
-19.5
40
0
41
0
42
0
10
30
20
-25.5
40
0
41
0
42
0
210
0
220
0
230
1
0
LWPOLYLINE
100
AcDbEntity
8
0
62
0
6
ByLayer
5
1420
100
AcDbPolyline
90
2
70
1
38
0
39
0
10
10
20
-25.5
40
0
41
0
42
0
10
30
20
-31.5
40
0
41
0
42
0
210
0
220
0
230
1
0
ELLIPSE
5
293
100
AcDbEntity
8
0
62
0
6
ByLayer
100
AcDbEllipse
10
30
20
-31.5
30
0
11
1
21
0
31
0
210
0
220
0
230
1
40
1
41
0
42
6.28318530717959
0
LWPOLYLINE
100
AcDbEntity
8
0
62
0
6
ByLayer
5
1421
100
AcDbPolyline
90
2
70
1
38
0
39
0
10
10
20
-34.5
40
0
41
0
42
0
10
30
20
-40.5
40
0
41
0
42
0
210
0
220
0
230
1
0
LWPOLYLINE
100
AcDbEntity
8
0
62
0
6
ByLayer
5
1422
100
AcDbPolyline
90
2
70
1
38
0
39
0
10
30
20
-38.5
40
0
41
0
42
0
10
30
20
-42.5
40
0
41
0
42
0
210
0
220
0
230
1
0
ENDBLK
5
27c
100
AcDbEntity
8
0
100
AcDbBlockEnd
0
BLOCK
5
2b8
100
AcDbEntity
8
0
100
AcDbBlockBegin
2
04186c7f-7d1a-49f0-94d8-4085767258f2
70
0
10
0
20
0
30
0
3
04186c7f-7d1a-49f0-94d8-4085767258f2
0
TEXT
100
AcDbEntity
8
0
62
7
6
ByLayer
5
29f
100
AcDbText
1
\U+0054\U+0069\U+0073\U+0063\U+0068\U+0065\U+0020
10
45
20
-11
30
0
40
5
41
1
50
0
51
0
7
Standard
11
45
21
-11
31
0
210
0
220
0
230
1
72
0
100
AcDbText
73
0
0
TEXT
100
AcDbEntity
8
0
62
7
6
ByLayer
5
2a0
100
AcDbText
1
\U+0030\U+002c\U+0035\U+0020\U+006b\U+0057
10
45
20
-17
30
0
40
5
41
1
50
0
51
0
7
Standard
11
45
21
-17
31
0
210
0
220
0
230
1
72
0
100
AcDbText
73
0
0
TEXT
100
AcDbEntity
8
0
62
7
6
ByLayer
5
2a1
100
AcDbText
1
\U+0043\U+006f\U+0073\U+03c6\U+0020\U+003a\U+0020\U+0030\U+002c\U+0039\U+0032\U+0020
10
45
20
-23
30
0
40
5
41
1
50
0
51
0
7
Standard
11
45
21
-23
31
0
210
0
220
0
230
1
72
0
100
AcDbText
73
0
0
TEXT
100
AcDbEntity
8
0
62
7
6
ByLayer
5
2a2
100
AcDbText
1
\U+004d\U+0065\U+006e\U+0067\U+0065\U+0020\U+003a\U+0020\U+003a\U+0020\U+0032\U+0020
10
45
20
-29
30
0
40
5
41
1
50
0
51
0
7
Standard
11
45
21
-29
31
0
210
0
220
0
230
1
72
0
100
AcDbText
73
0
0
TEXT
100
AcDbEntity
8
0
62
7
6
ByLayer
5
2a3
100
AcDbText
1
\U+004b\U+0075\U+0020\U+003a\U+0020\U+0031\U+0020
10
45
20
-35
30
0
40
5
41
1
50
0
51
0
7
Standard
11
45
21
-35
31
0
210
0
220
0
230
1
72
0
100
AcDbText
73
0
0
LWPOLYLINE
100
AcDbEntity
8
0
62
9
6
ByLayer
5
1423
100
AcDbPolyline
90
4
70
1
38
0
39
0
10
43
20
-3
40
0
41
0
42
0
10
114.2
20
-3
40
0
41
0
42
0
10
114.2
20
-37
40
0
41
0
42
0
10
43
20
-37
40
0
41
0
42
0
210
0
220
0
230
1
0
LWPOLYLINE
100
AcDbEntity
8
0
62
0
6
ByLayer
5
1424
100
AcDbPolyline
90
2
70
1
38
0
39
0
10
0
20
-20
40
0
41
0
42
0
10
0
20
0
40
0
41
0
42
0
210
0
220
0
230
1
0
LWPOLYLINE
100
AcDbEntity
8
0
62
0
6
ByLayer
5
1425
100
AcDbPolyline
90
2
70
1
38
0
39
0
10
0
20
0
40
0
41
0
42
0
10
40
20
0
40
0
41
0
42
0
210
0
220
0
230
1
0
LWPOLYLINE
100
AcDbEntity
8
0
62
0
6
ByLayer
5
1426
100
AcDbPolyline
90
2
70
1
38
0
39
0
10
40
20
0
40
0
41
0
42
0
10
40
20
-20
40
0
41
0
42
0
210
0
220
0
230
1
0
SPLINE
100
AcDbEntity
8
0
62
0
6
ByLayer
5
2b7
100
AcDbSpline
210
0
220
0
230
1
70
0
71
3
72
0
73
0
74
3
42
1E-10
43
1E-10
44
1E-10
11
0
21
-20
31
-20
11
20
21
0
31
0
11
40
21
-20
31
-20
0
SEQEND
5
2b6
100
AcDbEntity
8
0
0
ENDBLK
5
29e
100
AcDbEntity
8
0
100
AcDbBlockEnd
0
BLOCK
5
2dc
100
AcDbEntity
8
0
100
AcDbBlockBegin
2
44c54b5b-fc05-45f3-b58c-9db3d59a1a58
70
0
10
0
20
0
30
0
3
44c54b5b-fc05-45f3-b58c-9db3d59a1a58
0
TEXT
100
AcDbEntity
8
0
62
7
6
ByLayer
5
2bb
100
AcDbText
1
\U+0054\U+0069\U+0073\U+0063\U+0068\U+0065\U+0020\U+0032\U+0078\U+0020
10
45
20
-16
30
0
40
5
41
1
50
0
51
0
7
Standard
11
45
21
-16
31
0
210
0
220
0
230
1
72
0
100
AcDbText
73
0
0
TEXT
100
AcDbEntity
8
0
62
7
6
ByLayer
5
2bc
100
AcDbText
1
\U+0054\U+004e\U+002d\U+0053\U+0020
10
45
20
-22
30
0
40
5
41
1
50
0
51
0
7
Standard
11
45
21
-22
31
0
210
0
220
0
230
1
72
0
100
AcDbText
73
0
0
TEXT
100
AcDbEntity
8
0
62
7
6
ByLayer
5
2bd
100
AcDbText
1
\U+0049\U+0062\U+0020\U+003a\U+0020\U+0032\U+002c\U+0033\U+0035\U+0020\U+0041
10
45
20
-28
30
0
40
5
41
1
50
0
51
0
7
Standard
11
45
21
-28
31
0
210
0
220
0
230
1
72
0
100
AcDbText
73
0
0
LWPOLYLINE
100
AcDbEntity
8
0
62
9
6
ByLayer
5
1427
100
AcDbPolyline
90
4
70
1
38
0
39
0
10
43
20
-8
40
0
41
0
42
0
10
114.2
20
-8
40
0
41
0
42
0
10
114.2
20
-32
40
0
41
0
42
0
10
43
20
-32
40
0
41
0
42
0
210
0
220
0
230
1
0
LWPOLYLINE
100
AcDbEntity
8
0
62
0
6
ByLayer
5
1428
100
AcDbPolyline
90
2
70
1
38
0
39
0
10
20
20
0
40
0
41
0
42
0
10
20
20
-20
40
0
41
0
42
0
210
0
220
0
230
1
0
LWPOLYLINE
100
AcDbEntity
8
0
62
0
6
ByLayer
5
1429
100
AcDbPolyline
90
2
70
1
38
0
39
0
10
15
20
-5
40
0
41
0
42
0
10
25
20
-15
40
0
41
0
42
0
210
0
220
0
230
1
0
LWPOLYLINE
100
AcDbEntity
8
0
62
0
6
ByLayer
5
142a
100
AcDbPolyline
90
2
70
1
38
0
39
0
10
15
20
-15
40
0
41
0
42
0
10
25
20
-5
40
0
41
0
42
0
210
0
220
0
230
1
0
LWPOLYLINE
100
AcDbEntity
8
0
62
0
6
ByLayer
5
142b
100
AcDbPolyline
90
2
70
1
38
0
39
0
10
15
20
-20
40
0
41
0
42
0
10
25
20
-20
40
0
41
0
42
0
210
0
220
0
230
1
0
LWPOLYLINE
100
AcDbEntity
8
0
62
0
6
ByLayer
5
142c
100
AcDbPolyline
90
2
70
1
38
0
39
0
10
10
20
-20
40
0
41
0
42
0
10
20
20
-40
40
0
41
0
42
0
210
0
220
0
230
1
0
LWPOLYLINE
100
AcDbEntity
8
0
62
0
6
ByLayer
5
142d
100
AcDbPolyline
90
2
70
1
38
0
39
0
10
20
20
-40
40
0
41
0
42
0
10
20
20
-60
40
0
41
0
42
0
210
0
220
0
230
1
0
ENDBLK
5
2ba
100
AcDbEntity
8
0
100
AcDbBlockEnd
0
BLOCK
5
2f8
100
AcDbEntity
8
0
100
AcDbBlockBegin
2
dbf47fa6-e1f9-440a-b4b6-ab50d25606fc
70
0
10
0
20
0
30
0
3
dbf47fa6-e1f9-440a-b4b6-ab50d25606fc
0
TEXT
100
AcDbEntity
8
0
62
7
6
ByLayer
5
2df
100
AcDbText
1
\U+0044\U+0061\U+0074\U+0065\U+006e\U+002d\U+0053\U+0063\U+0068\U+0072\U+0061\U+006e\U+006b\U+0020
10
45
20
-11
30
0
40
5
41
1
50
0
51
0
7
Standard
11
45
21
-11
31
0
210
0
220
0
230
1
72
0
100
AcDbText
73
0
0
TEXT
100
AcDbEntity
8
0
62
7
6
ByLayer
5
2e0
100
AcDbText
1
\U+0030\U+002c\U+0036\U+0020\U+006b\U+0057
10
45
20
-17
30
0
40
5
41
1
50
0
51
0
7
Standard
11
45
21
-17
31
0
210
0
220
0
230
1
72
0
100
AcDbText
73
0
0
TEXT
100
AcDbEntity
8
0
62
7
6
ByLayer
5
2e1
100
AcDbText
1
\U+0043\U+006f\U+0073\U+03c6\U+0020\U+003a\U+0020\U+0030\U+002c\U+0039\U+0032\U+0020
10
45
20
-23
30
0
40
5
41
1
50
0
51
0
7
Standard
11
45
21
-23
31
0
210
0
220
0
230
1
72
0
100
AcDbText
73
0
0
TEXT
100
AcDbEntity
8
0
62
7
6
ByLayer
5
2e2
100
AcDbText
1
\U+004d\U+0065\U+006e\U+0067\U+0065\U+0020\U+003a\U+0020\U+003a\U+0020\U+0033\U+0020
10
45
20
-29
30
0
40
5
41
1
50
0
51
0
7
Standard
11
45
21
-29
31
0
210
0
220
0
230
1
72
0
100
AcDbText
73
0
0
TEXT
100
AcDbEntity
8
0
62
7
6
ByLayer
5
2e3
100
AcDbText
1
\U+004b\U+0075\U+0020\U+003a\U+0020\U+0031\U+0020
10
45
20
-35
30
0
40
5
41
1
50
0
51
0
7
Standard
11
45
21
-35
31
0
210
0
220
0
230
1
72
0
100
AcDbText
73
0
0
LWPOLYLINE
100
AcDbEntity
8
0
62
9
6
ByLayer
5
142e
100
AcDbPolyline
90
4
70
1
38
0
39
0
10
43
20
-3
40
0
41
0
42
0
10
114.2
20
-3
40
0
41
0
42
0
10
114.2
20
-37
40
0
41
0
42
0
10
43
20
-37
40
0
41
0
42
0
210
0
220
0
230
1
0
LWPOLYLINE
100
AcDbEntity
8
0
62
0
6
ByLayer
5
142f
100
AcDbPolyline
90
2
70
1
38
0
39
0
10
0
20
-20
40
0
41
0
42
0
10
0
20
0
40
0
41
0
42
0
210
0
220
0
230
1
0
LWPOLYLINE
100
AcDbEntity
8
0
62
0
6
ByLayer
5
1430
100
AcDbPolyline
90
2
70
1
38
0
39
0
10
0
20
0
40
0
41
0
42
0
10
40
20
0
40
0
41
0
42
0
210
0
220
0
230
1
0
LWPOLYLINE
100
AcDbEntity
8
0
62
0
6
ByLayer
5
1431
100
AcDbPolyline
90
2
70
1
38
0
39
0
10
40
20
0
40
0
41
0
42
0
10
40
20
-20
40
0
41
0
42
0
210
0
220
0
230
1
0
SPLINE
100
AcDbEntity
8
0
62
0
6
ByLayer
5
2f7
100
AcDbSpline
210
0
220
0
230
1
70
0
71
3
72
0
73
0
74
3
42
1E-10
43
1E-10
44
1E-10
11
0
21
-20
31
-20
11
20
21
0
31
0
11
40
21
-20
31
-20
0
SEQEND
5
2f6
100
AcDbEntity
8
0
0
ENDBLK
5
2de
100
AcDbEntity
8
0
100
AcDbBlockEnd
0
BLOCK
5
31a
100
AcDbEntity
8
0
100
AcDbBlockBegin
2
31ea8935-6fcf-4c69-8dde-da6d8eea4ce2
70
0
10
0
20
0
30
0
3
31ea8935-6fcf-4c69-8dde-da6d8eea4ce2
0
TEXT
100
AcDbEntity
8
0
62
7
6
ByLayer
5
2fb
100
AcDbText
1
\U+0057\U+0044\U+0020\U+0031\U+0035\U+0032\U+0020\U+0028\U+0032\U+0029\U+0020
10
45
20
-11
30
0
40
5
41
1
50
0
51
0
7
Standard
11
45
21
-11
31
0
210
0
220
0
230
1
72
0
100
AcDbText
73
0
0
TEXT
100
AcDbEntity
8
0
62
7
6
ByLayer
5
2fc
100
AcDbText
1
\U+0031\U+0035\U+0020\U+006d
10
45
20
-17
30
0
40
5
41
1
50
0
51
0
7
Standard
11
45
21
-17
31
0
210
0
220
0
230
1
72
0
100
AcDbText
73
0
0
LWPOLYLINE
100
AcDbEntity
8
0
62
9
6
ByLayer
5
1432
100
AcDbPolyline
90
4
70
1
38
0
39
0
10
43
20
-3
40
0
41
0
42
0
10
114.2
20
-3
40
0
41
0
42
0
10
114.2
20
-22
40
0
41
0
42
0
10
43
20
-22
40
0
41
0
42
0
210
0
220
0
230
1
0
ELLIPSE
5
303
100
AcDbEntity
8
0
62
0
6
ByLayer
100
AcDbEllipse
10
20
20
-2
30
0
11
2
21
0
31
0
210
0
220
0
230
1
40
1
41
0
42
6.28318530717959
0
ELLIPSE
5
304
100
AcDbEntity
8
0
62
0
6
ByLayer
100
AcDbEllipse
10
20
20
-58
30
0
11
2
21
0
31
0
210
0
220
0
230
1
40
1
41
0
42
6.28318530717959
0
LWPOLYLINE
100
AcDbEntity
8
0
62
0
6
ByLayer
5
1433
100
AcDbPolyline
90
2
70
1
38
0
39
0
10
20
20
-4
40
0
41
0
42
0
10
20
20
-56
40
0
41
0
42
0
210
0
220
0
230
1
0
LWPOLYLINE
100
AcDbEntity
8
0
62
0
6
ByLayer
5
1434
100
AcDbPolyline
90
2
70
1
38
0
39
0
10
10
20
-19.5
40
0
41
0
42
0
10
30
20
-25.5
40
0
41
0
42
0
210
0
220
0
230
1
0
LWPOLYLINE
100
AcDbEntity
8
0
62
0
6
ByLayer
5
1435
100
AcDbPolyline
90
2
70
1
38
0
39
0
10
10
20
-25.5
40
0
41
0
42
0
10
30
20
-31.5
40
0
41
0
42
0
210
0
220
0
230
1
0
ELLIPSE
5
311
100
AcDbEntity
8
0
62
0
6
ByLayer
100
AcDbEllipse
10
30
20
-31.5
30
0
11
1
21
0
31
0
210
0
220
0
230
1
40
1
41
0
42
6.28318530717959
0
LWPOLYLINE
100
AcDbEntity
8
0
62
0
6
ByLayer
5
1436
100
AcDbPolyline
90
2
70
1
38
0
39
0
10
10
20
-34.5
40
0
41
0
42
0
10
30
20
-40.5
40
0
41
0
42
0
210
0
220
0
230
1
0
LWPOLYLINE
100
AcDbEntity
8
0
62
0
6
ByLayer
5
1437
100
AcDbPolyline
90
2
70
1
38
0
39
0
10
30
20
-38.5
40
0
41
0
42
0
10
30
20
-42.5
40
0
41
0
42
0
210
0
220
0
230
1
0
ENDBLK
5
2fa
100
AcDbEntity
8
0
100
AcDbBlockEnd
0
BLOCK
5
33e
100
AcDbEntity
8
0
100
AcDbBlockBegin
2
6697dbd2-2d62-4db4-87b7-132145e7f5b4
70
0
10
0
20
0
30
0
3
6697dbd2-2d62-4db4-87b7-132145e7f5b4
0
TEXT
100
AcDbEntity
8
0
62
7
6
ByLayer
5
31d
100
AcDbText
1
\U+0051\U+0041\U+0020\U+0031\U+0035\U+0032\U+0020\U+0028\U+0032\U+0029\U+0020
10
45
20
-16
30
0
40
5
41
1
50
0
51
0
7
Standard
11
45
21
-16
31
0
210
0
220
0
230
1
72
0
100
AcDbText
73
0
0
TEXT
100
AcDbEntity
8
0
62
7
6
ByLayer
5
31e
100
AcDbText
1
\U+0054\U+004e\U+002d\U+0053\U+0020
10
45
20
-22
30
0
40
5
41
1
50
0
51
0
7
Standard
11
45
21
-22
31
0
210
0
220
0
230
1
72
0
100
AcDbText
73
0
0
TEXT
100
AcDbEntity
8
0
62
7
6
ByLayer
5
31f
100
AcDbText
1
\U+0049\U+0062\U+0020\U+003a\U+0020\U+0032\U+002c\U+0038\U+0032\U+0020\U+0041
10
45
20
-28
30
0
40
5
41
1
50
0
51
0
7
Standard
11
45
21
-28
31
0
210
0
220
0
230
1
72
0
100
AcDbText
73
0
0
LWPOLYLINE
100
AcDbEntity
8
0
62
9
6
ByLayer
5
1438
100
AcDbPolyline
90
4
70
1
38
0
39
0
10
43
20
-8
40
0
41
0
42
0
10
114.2
20
-8
40
0
41
0
42
0
10
114.2
20
-32
40
0
41
0
42
0
10
43
20
-32
40
0
41
0
42
0
210
0
220
0
230
1
0
LWPOLYLINE
100
AcDbEntity
8
0
62
0
6
ByLayer
5
1439
100
AcDbPolyline
90
2
70
1
38
0
39
0
10
20
20
0
40
0
41
0
42
0
10
20
20
-20
40
0
41
0
42
0
210
0
220
0
230
1
0
LWPOLYLINE
100
AcDbEntity
8
0
62
0
6
ByLayer
5
143a
100
AcDbPolyline
90
2
70
1
38
0
39
0
10
15
20
-5
40
0
41
0
42
0
10
25
20
-15
40
0
41
0
42
0
210
0
220
0
230
1
0
LWPOLYLINE
100
AcDbEntity
8
0
62
0
6
ByLayer
5
143b
100
AcDbPolyline
90
2
70
1
38
0
39
0
10
15
20
-15
40
0
41
0
42
0
10
25
20
-5
40
0
41
0
42
0
210
0
220
0
230
1
0
LWPOLYLINE
100
AcDbEntity
8
0
62
0
6
ByLayer
5
143c
100
AcDbPolyline
90
2
70
1
38
0
39
0
10
15
20
-20
40
0
41
0
42
0
10
25
20
-20
40
0
41
0
42
0
210
0
220
0
230
1
0
LWPOLYLINE
100
AcDbEntity
8
0
62
0
6
ByLayer
5
143d
100
AcDbPolyline
90
2
70
1
38
0
39
0
10
10
20
-20
40
0
41
0
42
0
10
20
20
-40
40
0
41
0
42
0
210
0
220
0
230
1
0
LWPOLYLINE
100
AcDbEntity
8
0
62
0
6
ByLayer
5
143e
100
AcDbPolyline
90
2
70
1
38
0
39
0
10
20
20
-40
40
0
41
0
42
0
10
20
20
-60
40
0
41
0
42
0
210
0
220
0
230
1
0
ENDBLK
5
31c
100
AcDbEntity
8
0
100
AcDbBlockEnd
0
BLOCK
5
362
100
AcDbEntity
8
0
100
AcDbBlockBegin
2
092e6e55-0c5c-4bf1-aa7e-99723692431e
70
0
10
0
20
0
30
0
3
092e6e55-0c5c-4bf1-aa7e-99723692431e
0
TEXT
100
AcDbEntity
8
0
62
7
6
ByLayer
5
341
100
AcDbText
1
\U+0028\U+0046\U+0033\U+0031\U+002e\U+0031\U+002d\U+0035\U+002c\U+0020
10
45
20
-16
30
0
40
5
41
1
50
0
51
0
7
Standard
11
45
21
-16
31
0
210
0
220
0
230
1
72
0
100
AcDbText
73
0
0
TEXT
100
AcDbEntity
8
0
62
7
6
ByLayer
5
342
100
AcDbText
1
\U+0054\U+004e\U+002d\U+0053\U+0020
10
45
20
-22
30
0
40
5
41
1
50
0
51
0
7
Standard
11
45
21
-22
31
0
210
0
220
0
230
1
72
0
100
AcDbText
73
0
0
TEXT
100
AcDbEntity
8
0
62
7
6
ByLayer
5
343
100
AcDbText
1
\U+0049\U+0062\U+0020\U+003a\U+0020\U+0033\U+002c\U+0037\U+0037\U+0020\U+0041
10
45
20
-28
30
0
40
5
41
1
50
0
51
0
7
Standard
11
45
21
-28
31
0
210
0
220
0
230
1
72
0
100
AcDbText
73
0
0
LWPOLYLINE
100
AcDbEntity
8
0
62
9
6
ByLayer
5
143f
100
AcDbPolyline
90
4
70
1
38
0
39
0
10
43
20
-8
40
0
41
0
42
0
10
114.2
20
-8
40
0
41
0
42
0
10
114.2
20
-32
40
0
41
0
42
0
10
43
20
-32
40
0
41
0
42
0
210
0
220
0
230
1
0
LWPOLYLINE
100
AcDbEntity
8
0
62
0
6
ByLayer
5
1440
100
AcDbPolyline
90
2
70
1
38
0
39
0
10
20
20
0
40
0
41
0
42
0
10
20
20
-20
40
0
41
0
42
0
210
0
220
0
230
1
0
LWPOLYLINE
100
AcDbEntity
8
0
62
0
6
ByLayer
5
1441
100
AcDbPolyline
90
2
70
1
38
0
39
0
10
15
20
-5
40
0
41
0
42
0
10
25
20
-15
40
0
41
0
42
0
210
0
220
0
230
1
0
LWPOLYLINE
100
AcDbEntity
8
0
62
0
6
ByLayer
5
1442
100
AcDbPolyline
90
2
70
1
38
0
39
0
10
15
20
-15
40
0
41
0
42
0
10
25
20
-5
40
0
41
0
42
0
210
0
220
0
230
1
0
LWPOLYLINE
100
AcDbEntity
8
0
62
0
6
ByLayer
5
1443
100
AcDbPolyline
90
2
70
1
38
0
39
0
10
15
20
-20
40
0
41
0
42
0
10
25
20
-20
40
0
41
0
42
0
210
0
220
0
230
1
0
LWPOLYLINE
100
AcDbEntity
8
0
62
0
6
ByLayer
5
1444
100
AcDbPolyline
90
2
70
1
38
0
39
0
10
10
20
-20
40
0
41
0
42
0
10
20
20
-40
40
0
41
0
42
0
210
0
220
0
230
1
0
LWPOLYLINE
100
AcDbEntity
8
0
62
0
6
ByLayer
5
1445
100
AcDbPolyline
90
2
70
1
38
0
39
0
10
20
20
-40
40
0
41
0
42
0
10
20
20
-60
40
0
41
0
42
0
210
0
220
0
230
1
0
ENDBLK
5
340
100
AcDbEntity
8
0
100
AcDbBlockEnd
0
BLOCK
5
384
100
AcDbEntity
8
0
100
AcDbBlockBegin
2
60c1f26b-4b5c-4d17-9df4-007c362891a7
70
0
10
0
20
0
30
0
3
60c1f26b-4b5c-4d17-9df4-007c362891a7
0
TEXT
100
AcDbEntity
8
0
62
7
6
ByLayer
5
365
100
AcDbText
1
\U+0057\U+0044\U+0020\U+0031\U+0033\U+0034\U+0020
10
45
20
-11
30
0
40
5
41
1
50
0
51
0
7
Standard
11
45
21
-11
31
0
210
0
220
0
230
1
72
0
100
AcDbText
73
0
0
TEXT
100
AcDbEntity
8
0
62
7
6
ByLayer
5
366
100
AcDbText
1
\U+0032\U+0035\U+0020\U+006d
10
45
20
-17
30
0
40
5
41
1
50
0
51
0
7
Standard
11
45
21
-17
31
0
210
0
220
0
230
1
72
0
100
AcDbText
73
0
0
LWPOLYLINE
100
AcDbEntity
8
0
62
9
6
ByLayer
5
1446
100
AcDbPolyline
90
4
70
1
38
0
39
0
10
43
20
-3
40
0
41
0
42
0
10
114.2
20
-3
40
0
41
0
42
0
10
114.2
20
-22
40
0
41
0
42
0
10
43
20
-22
40
0
41
0
42
0
210
0
220
0
230
1
0
ELLIPSE
5
36d
100
AcDbEntity
8
0
62
0
6
ByLayer
100
AcDbEllipse
10
20
20
-2
30
0
11
2
21
0
31
0
210
0
220
0
230
1
40
1
41
0
42
6.28318530717959
0
ELLIPSE
5
36e
100
AcDbEntity
8
0
62
0
6
ByLayer
100
AcDbEllipse
10
20
20
-58
30
0
11
2
21
0
31
0
210
0
220
0
230
1
40
1
41
0
42
6.28318530717959
0
LWPOLYLINE
100
AcDbEntity
8
0
62
0
6
ByLayer
5
1447
100
AcDbPolyline
90
2
70
1
38
0
39
0
10
20
20
-4
40
0
41
0
42
0
10
20
20
-56
40
0
41
0
42
0
210
0
220
0
230
1
0
LWPOLYLINE
100
AcDbEntity
8
0
62
0
6
ByLayer
5
1448
100
AcDbPolyline
90
2
70
1
38
0
39
0
10
10
20
-19.5
40
0
41
0
42
0
10
30
20
-25.5
40
0
41
0
42
0
210
0
220
0
230
1
0
LWPOLYLINE
100
AcDbEntity
8
0
62
0
6
ByLayer
5
1449
100
AcDbPolyline
90
2
70
1
38
0
39
0
10
10
20
-25.5
40
0
41
0
42
0
10
30
20
-31.5
40
0
41
0
42
0
210
0
220
0
230
1
0
ELLIPSE
5
37b
100
AcDbEntity
8
0
62
0
6
ByLayer
100
AcDbEllipse
10
30
20
-31.5
30
0
11
1
21
0
31
0
210
0
220
0
230
1
40
1
41
0
42
6.28318530717959
0
LWPOLYLINE
100
AcDbEntity
8
0
62
0
6
ByLayer
5
144a
100
AcDbPolyline
90
2
70
1
38
0
39
0
10
10
20
-34.5
40
0
41
0
42
0
10
30
20
-40.5
40
0
41
0
42
0
210
0
220
0
230
1
0
LWPOLYLINE
100
AcDbEntity
8
0
62
0
6
ByLayer
5
144b
100
AcDbPolyline
90
2
70
1
38
0
39
0
10
30
20
-38.5
40
0
41
0
42
0
10
30
20
-42.5
40
0
41
0
42
0
210
0
220
0
230
1
0
ENDBLK
5
364
100
AcDbEntity
8
0
100
AcDbBlockEnd
0
BLOCK
5
3a0
100
AcDbEntity
8
0
100
AcDbBlockBegin
2
861ed187-dcf6-4e72-984c-61f33357de7d
70
0
10
0
20
0
30
0
3
861ed187-dcf6-4e72-984c-61f33357de7d
0
TEXT
100
AcDbEntity
8
0
62
7
6
ByLayer
5
387
100
AcDbText
1
\U+0053\U+0056\U+0020\U+0045\U+0047\U+0020\U+0061\U+006c\U+006c\U+0067\U+0020
10
45
20
-11
30
0
40
5
41
1
50
0
51
0
7
Standard
11
45
21
-11
31
0
210
0
220
0
230
1
72
0
100
AcDbText
73
0
0
TEXT
100
AcDbEntity
8
0
62
7
6
ByLayer
5
388
100
AcDbText
1
\U+0030\U+002c\U+0038\U+0020\U+006b\U+0057
10
45
20
-17
30
0
40
5
41
1
50
0
51
0
7
Standard
11
45
21
-17
31
0
210
0
220
0
230
1
72
0
100
AcDbText
73
0
0
TEXT
100
AcDbEntity
8
0
62
7
6
ByLayer
5
389
100
AcDbText
1
\U+0043\U+006f\U+0073\U+03c6\U+0020\U+003a\U+0020\U+0030\U+002c\U+0039\U+0032\U+0020
10
45
20
-23
30
0
40
5
41
1
50
0
51
0
7
Standard
11
45
21
-23
31
0
210
0
220
0
230
1
72
0
100
AcDbText
73
0
0
TEXT
100
AcDbEntity
8
0
62
7
6
ByLayer
5
38a
100
AcDbText
1
\U+004d\U+0065\U+006e\U+0067\U+0065\U+0020\U+003a\U+0020\U+003a\U+0020\U+0034\U+0020
10
45
20
-29
30
0
40
5
41
1
50
0
51
0
7
Standard
11
45
21
-29
31
0
210
0
220
0
230
1
72
0
100
AcDbText
73
0
0
TEXT
100
AcDbEntity
8
0
62
7
6
ByLayer
5
38b
100
AcDbText
1
\U+004b\U+0075\U+0020\U+003a\U+0020\U+0031\U+0020
10
45
20
-35
30
0
40
5
41
1
50
0
51
0
7
Standard
11
45
21
-35
31
0
210
0
220
0
230
1
72
0
100
AcDbText
73
0
0
LWPOLYLINE
100
AcDbEntity
8
0
62
9
6
ByLayer
5
144c
100
AcDbPolyline
90
4
70
1
38
0
39
0
10
43
20
-3
40
0
41
0
42
0
10
114.2
20
-3
40
0
41
0
42
0
10
114.2
20
-37
40
0
41
0
42
0
10
43
20
-37
40
0
41
0
42
0
210
0
220
0
230
1
0
LWPOLYLINE
100
AcDbEntity
8
0
62
0
6
ByLayer
5
144d
100
AcDbPolyline
90
2
70
1
38
0
39
0
10
0
20
-20
40
0
41
0
42
0
10
0
20
0
40
0
41
0
42
0
210
0
220
0
230
1
0
LWPOLYLINE
100
AcDbEntity
8
0
62
0
6
ByLayer
5
144e
100
AcDbPolyline
90
2
70
1
38
0
39
0
10
0
20
0
40
0
41
0
42
0
10
40
20
0
40
0
41
0
42
0
210
0
220
0
230
1
0
LWPOLYLINE
100
AcDbEntity
8
0
62
0
6
ByLayer
5
144f
100
AcDbPolyline
90
2
70
1
38
0
39
0
10
40
20
0
40
0
41
0
42
0
10
40
20
-20
40
0
41
0
42
0
210
0
220
0
230
1
0
SPLINE
100
AcDbEntity
8
0
62
0
6
ByLayer
5
39f
100
AcDbSpline
210
0
220
0
230
1
70
0
71
3
72
0
73
0
74
3
42
1E-10
43
1E-10
44
1E-10
11
0
21
-20
31
-20
11
20
21
0
31
0
11
40
21
-20
31
-20
0
SEQEND
5
39e
100
AcDbEntity
8
0
0
ENDBLK
5
386
100
AcDbEntity
8
0
100
AcDbBlockEnd
0
BLOCK
5
3c4
100
AcDbEntity
8
0
100
AcDbBlockBegin
2
0d67e088-bdaa-4643-bbe9-9a9ae0020b4f
70
0
10
0
20
0
30
0
3
0d67e088-bdaa-4643-bbe9-9a9ae0020b4f
0
TEXT
100
AcDbEntity
8
0
62
7
6
ByLayer
5
3a3
100
AcDbText
1
\U+0051\U+0041\U+0020\U+0031\U+0033\U+0035\U+0020
10
45
20
-16
30
0
40
5
41
1
50
0
51
0
7
Standard
11
45
21
-16
31
0
210
0
220
0
230
1
72
0
100
AcDbText
73
0
0
TEXT
100
AcDbEntity
8
0
62
7
6
ByLayer
5
3a4
100
AcDbText
1
\U+0054\U+004e\U+002d\U+0053\U+0020
10
45
20
-22
30
0
40
5
41
1
50
0
51
0
7
Standard
11
45
21
-22
31
0
210
0
220
0
230
1
72
0
100
AcDbText
73
0
0
TEXT
100
AcDbEntity
8
0
62
7
6
ByLayer
5
3a5
100
AcDbText
1
\U+0049\U+0062\U+0020\U+003a\U+0020\U+0031\U+002c\U+0035\U+0034\U+0020\U+0041
10
45
20
-28
30
0
40
5
41
1
50
0
51
0
7
Standard
11
45
21
-28
31
0
210
0
220
0
230
1
72
0
100
AcDbText
73
0
0
LWPOLYLINE
100
AcDbEntity
8
0
62
9
6
ByLayer
5
1450
100
AcDbPolyline
90
4
70
1
38
0
39
0
10
43
20
-8
40
0
41
0
42
0
10
114.2
20
-8
40
0
41
0
42
0
10
114.2
20
-32
40
0
41
0
42
0
10
43
20
-32
40
0
41
0
42
0
210
0
220
0
230
1
0
LWPOLYLINE
100
AcDbEntity
8
0
62
0
6
ByLayer
5
1451
100
AcDbPolyline
90
2
70
1
38
0
39
0
10
20
20
0
40
0
41
0
42
0
10
20
20
-20
40
0
41
0
42
0
210
0
220
0
230
1
0
LWPOLYLINE
100
AcDbEntity
8
0
62
0
6
ByLayer
5
1452
100
AcDbPolyline
90
2
70
1
38
0
39
0
10
15
20
-5
40
0
41
0
42
0
10
25
20
-15
40
0
41
0
42
0
210
0
220
0
230
1
0
LWPOLYLINE
100
AcDbEntity
8
0
62
0
6
ByLayer
5
1453
100
AcDbPolyline
90
2
70
1
38
0
39
0
10
15
20
-15
40
0
41
0
42
0
10
25
20
-5
40
0
41
0
42
0
210
0
220
0
230
1
0
LWPOLYLINE
100
AcDbEntity
8
0
62
0
6
ByLayer
5
1454
100
AcDbPolyline
90
2
70
1
38
0
39
0
10
15
20
-20
40
0
41
0
42
0
10
25
20
-20
40
0
41
0
42
0
210
0
220
0
230
1
0
LWPOLYLINE
100
AcDbEntity
8
0
62
0
6
ByLayer
5
1455
100
AcDbPolyline
90
2
70
1
38
0
39
0
10
10
20
-20
40
0
41
0
42
0
10
20
20
-40
40
0
41
0
42
0
210
0
220
0
230
1
0
LWPOLYLINE
100
AcDbEntity
8
0
62
0
6
ByLayer
5
1456
100
AcDbPolyline
90
2
70
1
38
0
39
0
10
20
20
-40
40
0
41
0
42
0
10
20
20
-60
40
0
41
0
42
0
210
0
220
0
230
1
0
ENDBLK
5
3a2
100
AcDbEntity
8
0
100
AcDbBlockEnd
0
BLOCK
5
3e6
100
AcDbEntity
8
0
100
AcDbBlockBegin
2
fae15d7a-95b0-4b59-847c-40a4bca4252e
70
0
10
0
20
0
30
0
3
fae15d7a-95b0-4b59-847c-40a4bca4252e
0
TEXT
100
AcDbEntity
8
0
62
7
6
ByLayer
5
3c7
100
AcDbText
1
\U+0057\U+0044\U+0020\U+0031\U+0033\U+0035\U+0020
10
45
20
-11
30
0
40
5
41
1
50
0
51
0
7
Standard
11
45
21
-11
31
0
210
0
220
0
230
1
72
0
100
AcDbText
73
0
0
TEXT
100
AcDbEntity
8
0
62
7
6
ByLayer
5
3c8
100
AcDbText
1
\U+0031\U+0035\U+0020\U+006d
10
45
20
-17
30
0
40
5
41
1
50
0
51
0
7
Standard
11
45
21
-17
31
0
210
0
220
0
230
1
72
0
100
AcDbText
73
0
0
LWPOLYLINE
100
AcDbEntity
8
0
62
9
6
ByLayer
5
1457
100
AcDbPolyline
90
4
70
1
38
0
39
0
10
43
20
-3
40
0
41
0
42
0
10
114.2
20
-3
40
0
41
0
42
0
10
114.2
20
-22
40
0
41
0
42
0
10
43
20
-22
40
0
41
0
42
0
210
0
220
0
230
1
0
ELLIPSE
5
3cf
100
AcDbEntity
8
0
62
0
6
ByLayer
100
AcDbEllipse
10
20
20
-2
30
0
11
2
21
0
31
0
210
0
220
0
230
1
40
1
41
0
42
6.28318530717959
0
ELLIPSE
5
3d0
100
AcDbEntity
8
0
62
0
6
ByLayer
100
AcDbEllipse
10
20
20
-58
30
0
11
2
21
0
31
0
210
0
220
0
230
1
40
1
41
0
42
6.28318530717959
0
LWPOLYLINE
100
AcDbEntity
8
0
62
0
6
ByLayer
5
1458
100
AcDbPolyline
90
2
70
1
38
0
39
0
10
20
20
-4
40
0
41
0
42
0
10
20
20
-56
40
0
41
0
42
0
210
0
220
0
230
1
0
LWPOLYLINE
100
AcDbEntity
8
0
62
0
6
ByLayer
5
1459
100
AcDbPolyline
90
2
70
1
38
0
39
0
10
10
20
-19.5
40
0
41
0
42
0
10
30
20
-25.5
40
0
41
0
42
0
210
0
220
0
230
1
0
LWPOLYLINE
100
AcDbEntity
8
0
62
0
6
ByLayer
5
145a
100
AcDbPolyline
90
2
70
1
38
0
39
0
10
10
20
-25.5
40
0
41
0
42
0
10
30
20
-31.5
40
0
41
0
42
0
210
0
220
0
230
1
0
ELLIPSE
5
3dd
100
AcDbEntity
8
0
62
0
6
ByLayer
100
AcDbEllipse
10
30
20
-31.5
30
0
11
1
21
0
31
0
210
0
220
0
230
1
40
1
41
0
42
6.28318530717959
0
LWPOLYLINE
100
AcDbEntity
8
0
62
0
6
ByLayer
5
145b
100
AcDbPolyline
90
2
70
1
38
0
39
0
10
10
20
-34.5
40
0
41
0
42
0
10
30
20
-40.5
40
0
41
0
42
0
210
0
220
0
230
1
0
LWPOLYLINE
100
AcDbEntity
8
0
62
0
6
ByLayer
5
145c
100
AcDbPolyline
90
2
70
1
38
0
39
0
10
30
20
-38.5
40
0
41
0
42
0
10
30
20
-42.5
40
0
41
0
42
0
210
0
220
0
230
1
0
ENDBLK
5
3c6
100
AcDbEntity
8
0
100
AcDbBlockEnd
0
BLOCK
5
401
100
AcDbEntity
8
0
100
AcDbBlockBegin
2
13e09386-3c14-4e40-9da3-15d9d57ed02a
70
0
10
0
20
0
30
0
3
13e09386-3c14-4e40-9da3-15d9d57ed02a
0
TEXT
100
AcDbEntity
8
0
62
7
6
ByLayer
5
3e9
100
AcDbText
1
\U+0042\U+0065\U+006c\U+002e\U+0020\U+0053\U+0056\U+0020\U+0045\U+0047\U+0020\U+0061\U+006c\U+006c\U+0067\U+0020
10
45
20
-11
30
0
40
5
41
1
50
0
51
0
7
Standard
11
45
21
-11
31
0
210
0
220
0
230
1
72
0
100
AcDbText
73
0
0
TEXT
100
AcDbEntity
8
0
62
7
6
ByLayer
5
3ea
100
AcDbText
1
\U+0031\U+002c\U+0035\U+0034\U+0020\U+0041
10
45
20
-17
30
0
40
5
41
1
50
0
51
0
7
Standard
11
45
21
-17
31
0
210
0
220
0
230
1
72
0
100
AcDbText
73
0
0
TEXT
100
AcDbEntity
8
0
62
7
6
ByLayer
5
3eb
100
AcDbText
1
\U+0043\U+006f\U+0073\U+03c6\U+0020\U+003a\U+0020\U+0030\U+002c\U+0039\U+0032\U+0020
10
45
20
-23
30
0
40
5
41
1
50
0
51
0
7
Standard
11
45
21
-23
31
0
210
0
220
0
230
1
72
0
100
AcDbText
73
0
0
TEXT
100
AcDbEntity
8
0
62
7
6
ByLayer
5
3ec
100
AcDbText
1
\U+004d\U+0065\U+006e\U+0067\U+0065\U+0020\U+003a\U+0020\U+003a\U+0020\U+0033\U+0020
10
45
20
-29
30
0
40
5
41
1
50
0
51
0
7
Standard
11
45
21
-29
31
0
210
0
220
0
230
1
72
0
100
AcDbText
73
0
0
TEXT
100
AcDbEntity
8
0
62
7
6
ByLayer
5
3ed
100
AcDbText
1
\U+004b\U+0075\U+0020\U+003a\U+0020\U+0031\U+0020
10
45
20
-35
30
0
40
5
41
1
50
0
51
0
7
Standard
11
45
21
-35
31
0
210
0
220
0
230
1
72
0
100
AcDbText
73
0
0
LWPOLYLINE
100
AcDbEntity
8
0
62
9
6
ByLayer
5
145d
100
AcDbPolyline
90
4
70
1
38
0
39
0
10
43
20
-3
40
0
41
0
42
0
10
114.2
20
-3
40
0
41
0
42
0
10
114.2
20
-37
40
0
41
0
42
0
10
43
20
-37
40
0
41
0
42
0
210
0
220
0
230
1
0
LWPOLYLINE
100
AcDbEntity
8
0
62
0
6
ByLayer
5
145e
100
AcDbPolyline
90
2
70
1
38
0
39
0
10
20
20
0
40
0
41
0
42
0
10
20
20
-15
40
0
41
0
42
0
210
0
220
0
230
1
0
LWPOLYLINE
100
AcDbEntity
8
0
62
0
6
ByLayer
5
145f
100
AcDbPolyline
90
2
70
1
38
0
39
0
10
9
20
-19
40
0
41
0
42
0
10
31
20
-41
40
0
41
0
42
0
210
0
220
0
230
1
0
LWPOLYLINE
100
AcDbEntity
8
0
62
0
6
ByLayer
5
1460
100
AcDbPolyline
90
2
70
1
38
0
39
0
10
31
20
-19
40
0
41
0
42
0
10
9
20
-41
40
0
41
0
42
0
210
0
220
0
230
1
0
ELLIPSE
5
400
100
AcDbEntity
8
0
62
0
6
ByLayer
100
AcDbEllipse
10
20
20
-30
30
0
11
15
21
0
31
0
210
0
220
0
230
1
40
1
41
0
42
6.28318530717959
0
ENDBLK
5
3e8
100
AcDbEntity
8
0
100
AcDbBlockEnd
0
BLOCK
5
425
100
AcDbEntity
8
0
100
AcDbBlockBegin
2
10ec75a2-7b98-49c9-9261-45bba7a8f8f0
70
0
10
0
20
0
30
0
3
10ec75a2-7b98-49c9-9261-45bba7a8f8f0
0
TEXT
100
AcDbEntity
8
0
62
7
6
ByLayer
5
404
100
AcDbText
1
\U+0028\U+0031\U+0032\U+0046\U+0031\U+002d\U+0031\U+0037\U+0046\U+0031\U+0029\U+0020
10
45
20
-16
30
0
40
5
41
1
50
0
51
0
7
Standard
11
45
21
-16
31
0
210
0
220
0
230
1
72
0
100
AcDbText
73
0
0
TEXT
100
AcDbEntity
8
0
62
7
6
ByLayer
5
405
100
AcDbText
1
\U+0054\U+004e\U+002d\U+0053\U+0020
10
45
20
-22
30
0
40
5
41
1
50
0
51
0
7
Standard
11
45
21
-22
31
0
210
0
220
0
230
1
72
0
100
AcDbText
73
0
0
TEXT
100
AcDbEntity
8
0
62
7
6
ByLayer
5
406
100
AcDbText
1
\U+0049\U+0062\U+0020\U+003a\U+0020\U+0032\U+002c\U+0038\U+0032\U+0020\U+0041
10
45
20
-28
30
0
40
5
41
1
50
0
51
0
7
Standard
11
45
21
-28
31
0
210
0
220
0
230
1
72
0
100
AcDbText
73
0
0
LWPOLYLINE
100
AcDbEntity
8
0
62
9
6
ByLayer
5
1461
100
AcDbPolyline
90
4
70
1
38
0
39
0
10
43
20
-8
40
0
41
0
42
0
10
114.2
20
-8
40
0
41
0
42
0
10
114.2
20
-32
40
0
41
0
42
0
10
43
20
-32
40
0
41
0
42
0
210
0
220
0
230
1
0
LWPOLYLINE
100
AcDbEntity
8
0
62
0
6
ByLayer
5
1462
100
AcDbPolyline
90
2
70
1
38
0
39
0
10
20
20
0
40
0
41
0
42
0
10
20
20
-20
40
0
41
0
42
0
210
0
220
0
230
1
0
LWPOLYLINE
100
AcDbEntity
8
0
62
0
6
ByLayer
5
1463
100
AcDbPolyline
90
2
70
1
38
0
39
0
10
15
20
-5
40
0
41
0
42
0
10
25
20
-15
40
0
41
0
42
0
210
0
220
0
230
1
0
LWPOLYLINE
100
AcDbEntity
8
0
62
0
6
ByLayer
5
1464
100
AcDbPolyline
90
2
70
1
38
0
39
0
10
15
20
-15
40
0
41
0
42
0
10
25
20
-5
40
0
41
0
42
0
210
0
220
0
230
1
0
LWPOLYLINE
100
AcDbEntity
8
0
62
0
6
ByLayer
5
1465
100
AcDbPolyline
90
2
70
1
38
0
39
0
10
15
20
-20
40
0
41
0
42
0
10
25
20
-20
40
0
41
0
42
0
210
0
220
0
230
1
0
LWPOLYLINE
100
AcDbEntity
8
0
62
0
6
ByLayer
5
1466
100
AcDbPolyline
90
2
70
1
38
0
39
0
10
10
20
-20
40
0
41
0
42
0
10
20
20
-40
40
0
41
0
42
0
210
0
220
0
230
1
0
LWPOLYLINE
100
AcDbEntity
8
0
62
0
6
ByLayer
5
1467
100
AcDbPolyline
90
2
70
1
38
0
39
0
10
20
20
-40
40
0
41
0
42
0
10
20
20
-60
40
0
41
0
42
0
210
0
220
0
230
1
0
ENDBLK
5
403
100
AcDbEntity
8
0
100
AcDbBlockEnd
0
BLOCK
5
447
100
AcDbEntity
8
0
100
AcDbBlockBegin
2
45a0fb31-38db-4308-a6d6-49d9c663684e
70
0
10
0
20
0
30
0
3
45a0fb31-38db-4308-a6d6-49d9c663684e
0
TEXT
100
AcDbEntity
8
0
62
7
6
ByLayer
5
428
100
AcDbText
1
\U+0057\U+0044\U+0020\U+0031\U+0033\U+0036\U+0020
10
45
20
-11
30
0
40
5
41
1
50
0
51
0
7
Standard
11
45
21
-11
31
0
210
0
220
0
230
1
72
0
100
AcDbText
73
0
0
TEXT
100
AcDbEntity
8
0
62
7
6
ByLayer
5
429
100
AcDbText
1
\U+0031\U+0035\U+0020\U+006d
10
45
20
-17
30
0
40
5
41
1
50
0
51
0
7
Standard
11
45
21
-17
31
0
210
0
220
0
230
1
72
0
100
AcDbText
73
0
0
LWPOLYLINE
100
AcDbEntity
8
0
62
9
6
ByLayer
5
1468
100
AcDbPolyline
90
4
70
1
38
0
39
0
10
43
20
-3
40
0
41
0
42
0
10
114.2
20
-3
40
0
41
0
42
0
10
114.2
20
-22
40
0
41
0
42
0
10
43
20
-22
40
0
41
0
42
0
210
0
220
0
230
1
0
ELLIPSE
5
430
100
AcDbEntity
8
0
62
0
6
ByLayer
100
AcDbEllipse
10
20
20
-2
30
0
11
2
21
0
31
0
210
0
220
0
230
1
40
1
41
0
42
6.28318530717959
0
ELLIPSE
5
431
100
AcDbEntity
8
0
62
0
6
ByLayer
100
AcDbEllipse
10
20
20
-58
30
0
11
2
21
0
31
0
210
0
220
0
230
1
40
1
41
0
42
6.28318530717959
0
LWPOLYLINE
100
AcDbEntity
8
0
62
0
6
ByLayer
5
1469
100
AcDbPolyline
90
2
70
1
38
0
39
0
10
20
20
-4
40
0
41
0
42
0
10
20
20
-56
40
0
41
0
42
0
210
0
220
0
230
1
0
LWPOLYLINE
100
AcDbEntity
8
0
62
0
6
ByLayer
5
146a
100
AcDbPolyline
90
2
70
1
38
0
39
0
10
10
20
-19.5
40
0
41
0
42
0
10
30
20
-25.5
40
0
41
0
42
0
210
0
220
0
230
1
0
LWPOLYLINE
100
AcDbEntity
8
0
62
0
6
ByLayer
5
146b
100
AcDbPolyline
90
2
70
1
38
0
39
0
10
10
20
-25.5
40
0
41
0
42
0
10
30
20
-31.5
40
0
41
0
42
0
210
0
220
0
230
1
0
ELLIPSE
5
43e
100
AcDbEntity
8
0
62
0
6
ByLayer
100
AcDbEllipse
10
30
20
-31.5
30
0
11
1
21
0
31
0
210
0
220
0
230
1
40
1
41
0
42
6.28318530717959
0
LWPOLYLINE
100
AcDbEntity
8
0
62
0
6
ByLayer
5
146c
100
AcDbPolyline
90
2
70
1
38
0
39
0
10
10
20
-34.5
40
0
41
0
42
0
10
30
20
-40.5
40
0
41
0
42
0
210
0
220
0
230
1
0
LWPOLYLINE
100
AcDbEntity
8
0
62
0
6
ByLayer
5
146d
100
AcDbPolyline
90
2
70
1
38
0
39
0
10
30
20
-38.5
40
0
41
0
42
0
10
30
20
-42.5
40
0
41
0
42
0
210
0
220
0
230
1
0
ENDBLK
5
427
100
AcDbEntity
8
0
100
AcDbBlockEnd
0
BLOCK
5
467
100
AcDbEntity
8
0
100
AcDbBlockBegin
2
8b6c0005-3a03-44c0-b39c-168c10d08dcb
70
0
10
0
20
0
30
0
3
8b6c0005-3a03-44c0-b39c-168c10d08dcb
0
TEXT
100
AcDbEntity
8
0
62
7
6
ByLayer
5
44a
100
AcDbText
1
\U+0044\U+0061\U+0074\U+0065\U+006e\U+0073\U+0063\U+0068\U+0072\U+00e4\U+006e\U+006b\U+0065\U+0020\U+0053\U+0056\U+0020\U+0045\U+0047\U+0020
10
45
20
-11
30
0
40
5
41
1
50
0
51
0
7
Standard
11
45
21
-11
31
0
210
0
220
0
230
1
72
0
100
AcDbText
73
0
0
TEXT
100
AcDbEntity
8
0
62
7
6
ByLayer
5
44b
100
AcDbText
1
\U+0030\U+002c\U+0036\U+0020\U+006b\U+0057
10
45
20
-17
30
0
40
5
41
1
50
0
51
0
7
Standard
11
45
21
-17
31
0
210
0
220
0
230
1
72
0
100
AcDbText
73
0
0
TEXT
100
AcDbEntity
8
0
62
7
6
ByLayer
5
44c
100
AcDbText
1
\U+0043\U+006f\U+0073\U+03c6\U+0020\U+003a\U+0020\U+0030\U+002c\U+0039\U+0032\U+0020
10
45
20
-23
30
0
40
5
41
1
50
0
51
0
7
Standard
11
45
21
-23
31
0
210
0
220
0
230
1
72
0
100
AcDbText
73
0
0
TEXT
100
AcDbEntity
8
0
62
7
6
ByLayer
5
44d
100
AcDbText
1
\U+004d\U+0065\U+006e\U+0067\U+0065\U+0020\U+003a\U+0020\U+003a\U+0020\U+0034\U+0020
10
45
20
-29
30
0
40
5
41
1
50
0
51
0
7
Standard
11
45
21
-29
31
0
210
0
220
0
230
1
72
0
100
AcDbText
73
0
0
TEXT
100
AcDbEntity
8
0
62
7
6
ByLayer
5
44e
100
AcDbText
1
\U+004b\U+0075\U+0020\U+003a\U+0020\U+0030\U+002c\U+0037\U+0020
10
45
20
-35
30
0
40
5
41
1
50
0
51
0
7
Standard
11
45
21
-35
31
0
210
0
220
0
230
1
72
0
100
AcDbText
73
0
0
LWPOLYLINE
100
AcDbEntity
8
0
62
9
6
ByLayer
5
146e
100
AcDbPolyline
90
4
70
1
38
0
39
0
10
43
20
-3
40
0
41
0
42
0
10
127
20
-3
40
0
41
0
42
0
10
127
20
-37
40
0
41
0
42
0
10
43
20
-37
40
0
41
0
42
0
210
0
220
0
230
1
0
LWPOLYLINE
100
AcDbEntity
8
0
62
0
6
ByLayer
5
146f
100
AcDbPolyline
90
4
70
1
38
0
39
0
10
5
20
-15
40
0
41
0
42
0
10
35
20
-15
40
0
41
0
42
0
10
35
20
-45
40
0
41
0
42
0
10
5
20
-45
40
0
41
0
42
0
210
0
220
0
230
1
0
LWPOLYLINE
100
AcDbEntity
8
0
62
0
6
ByLayer
5
1470
100
AcDbPolyline
90
2
70
1
38
0
39
0
10
20
20
0
40
0
41
0
42
0
10
20
20
-15
40
0
41
0
42
0
210
0
220
0
230
1
0
LWPOLYLINE
100
AcDbEntity
8
0
62
0
6
ByLayer
5
1471
100
AcDbPolyline
90
2
70
1
38
0
39
0
10
5
20
-15
40
0
41
0
42
0
10
35
20
-45
40
0
41
0
42
0
210
0
220
0
230
1
0
LWPOLYLINE
100
AcDbEntity
8
0
62
0
6
ByLayer
5
1472
100
AcDbPolyline
90
2
70
1
38
0
39
0
10
5
20
-45
40
0
41
0
42
0
10
35
20
-15
40
0
41
0
42
0
210
0
220
0
230
1
0
ENDBLK
5
449
100
AcDbEntity
8
0
100
AcDbBlockEnd
0
BLOCK
5
48b
100
AcDbEntity
8
0
100
AcDbBlockBegin
2
e00c3985-6f6e-49ef-9de3-94b488aa4877
70
0
10
0
20
0
30
0
3
e00c3985-6f6e-49ef-9de3-94b488aa4877
0
TEXT
100
AcDbEntity
8
0
62
7
6
ByLayer
5
46a
100
AcDbText
1
\U+0028\U+0033\U+0031\U+0046\U+0037\U+0029\U+0020
10
45
20
-16
30
0
40
5
41
1
50
0
51
0
7
Standard
11
45
21
-16
31
0
210
0
220
0
230
1
72
0
100
AcDbText
73
0
0
TEXT
100
AcDbEntity
8
0
62
7
6
ByLayer
5
46b
100
AcDbText
1
\U+0054\U+004e\U+002d\U+0053\U+0020
10
45
20
-22
30
0
40
5
41
1
50
0
51
0
7
Standard
11
45
21
-22
31
0
210
0
220
0
230
1
72
0
100
AcDbText
73
0
0
TEXT
100
AcDbEntity
8
0
62
7
6
ByLayer
5
46c
100
AcDbText
1
\U+0049\U+0062\U+0020\U+003a\U+0020\U+0031\U+0030\U+002c\U+0036\U+0020\U+0041
10
45
20
-28
30
0
40
5
41
1
50
0
51
0
7
Standard
11
45
21
-28
31
0
210
0
220
0
230
1
72
0
100
AcDbText
73
0
0
LWPOLYLINE
100
AcDbEntity
8
0
62
9
6
ByLayer
5
1473
100
AcDbPolyline
90
4
70
1
38
0
39
0
10
43
20
-8
40
0
41
0
42
0
10
114.2
20
-8
40
0
41
0
42
0
10
114.2
20
-32
40
0
41
0
42
0
10
43
20
-32
40
0
41
0
42
0
210
0
220
0
230
1
0
LWPOLYLINE
100
AcDbEntity
8
0
62
0
6
ByLayer
5
1474
100
AcDbPolyline
90
2
70
1
38
0
39
0
10
20
20
0
40
0
41
0
42
0
10
20
20
-20
40
0
41
0
42
0
210
0
220
0
230
1
0
LWPOLYLINE
100
AcDbEntity
8
0
62
0
6
ByLayer
5
1475
100
AcDbPolyline
90
2
70
1
38
0
39
0
10
15
20
-5
40
0
41
0
42
0
10
25
20
-15
40
0
41
0
42
0
210
0
220
0
230
1
0
LWPOLYLINE
100
AcDbEntity
8
0
62
0
6
ByLayer
5
1476
100
AcDbPolyline
90
2
70
1
38
0
39
0
10
15
20
-15
40
0
41
0
42
0
10
25
20
-5
40
0
41
0
42
0
210
0
220
0
230
1
0
LWPOLYLINE
100
AcDbEntity
8
0
62
0
6
ByLayer
5
1477
100
AcDbPolyline
90
2
70
1
38
0
39
0
10
15
20
-20
40
0
41
0
42
0
10
25
20
-20
40
0
41
0
42
0
210
0
220
0
230
1
0
LWPOLYLINE
100
AcDbEntity
8
0
62
0
6
ByLayer
5
1478
100
AcDbPolyline
90
2
70
1
38
0
39
0
10
10
20
-20
40
0
41
0
42
0
10
20
20
-40
40
0
41
0
42
0
210
0
220
0
230
1
0
LWPOLYLINE
100
AcDbEntity
8
0
62
0
6
ByLayer
5
1479
100
AcDbPolyline
90
2
70
1
38
0
39
0
10
20
20
-40
40
0
41
0
42
0
10
20
20
-60
40
0
41
0
42
0
210
0
220
0
230
1
0
ENDBLK
5
469
100
AcDbEntity
8
0
100
AcDbBlockEnd
0
BLOCK
5
4ad
100
AcDbEntity
8
0
100
AcDbBlockBegin
2
79a61741-3e41-4420-8e86-d8f7dc42bebd
70
0
10
0
20
0
30
0
3
79a61741-3e41-4420-8e86-d8f7dc42bebd
0
TEXT
100
AcDbEntity
8
0
62
7
6
ByLayer
5
48e
100
AcDbText
1
\U+0057\U+0044\U+0020\U+0031\U+0033\U+0037\U+0020
10
45
20
-11
30
0
40
5
41
1
50
0
51
0
7
Standard
11
45
21
-11
31
0
210
0
220
0
230
1
72
0
100
AcDbText
73
0
0
TEXT
100
AcDbEntity
8
0
62
7
6
ByLayer
5
48f
100
AcDbText
1
\U+0031\U+0030\U+0020\U+006d
10
45
20
-17
30
0
40
5
41
1
50
0
51
0
7
Standard
11
45
21
-17
31
0
210
0
220
0
230
1
72
0
100
AcDbText
73
0
0
LWPOLYLINE
100
AcDbEntity
8
0
62
9
6
ByLayer
5
147a
100
AcDbPolyline
90
4
70
1
38
0
39
0
10
43
20
-3
40
0
41
0
42
0
10
114.2
20
-3
40
0
41
0
42
0
10
114.2
20
-22
40
0
41
0
42
0
10
43
20
-22
40
0
41
0
42
0
210
0
220
0
230
1
0
ELLIPSE
5
496
100
AcDbEntity
8
0
62
0
6
ByLayer
100
AcDbEllipse
10
20
20
-2
30
0
11
2
21
0
31
0
210
0
220
0
230
1
40
1
41
0
42
6.28318530717959
0
ELLIPSE
5
497
100
AcDbEntity
8
0
62
0
6
ByLayer
100
AcDbEllipse
10
20
20
-58
30
0
11
2
21
0
31
0
210
0
220
0
230
1
40
1
41
0
42
6.28318530717959
0
LWPOLYLINE
100
AcDbEntity
8
0
62
0
6
ByLayer
5
147b
100
AcDbPolyline
90
2
70
1
38
0
39
0
10
20
20
-4
40
0
41
0
42
0
10
20
20
-56
40
0
41
0
42
0
210
0
220
0
230
1
0
LWPOLYLINE
100
AcDbEntity
8
0
62
0
6
ByLayer
5
147c
100
AcDbPolyline
90
2
70
1
38
0
39
0
10
10
20
-19.5
40
0
41
0
42
0
10
30
20
-25.5
40
0
41
0
42
0
210
0
220
0
230
1
0
LWPOLYLINE
100
AcDbEntity
8
0
62
0
6
ByLayer
5
147d
100
AcDbPolyline
90
2
70
1
38
0
39
0
10
10
20
-25.5
40
0
41
0
42
0
10
30
20
-31.5
40
0
41
0
42
0
210
0
220
0
230
1
0
ELLIPSE
5
4a4
100
AcDbEntity
8
0
62
0
6
ByLayer
100
AcDbEllipse
10
30
20
-31.5
30
0
11
1
21
0
31
0
210
0
220
0
230
1
40
1
41
0
42
6.28318530717959
0
LWPOLYLINE
100
AcDbEntity
8
0
62
0
6
ByLayer
5
147e
100
AcDbPolyline
90
2
70
1
38
0
39
0
10
10
20
-34.5
40
0
41
0
42
0
10
30
20
-40.5
40
0
41
0
42
0
210
0
220
0
230
1
0
LWPOLYLINE
100
AcDbEntity
8
0
62
0
6
ByLayer
5
147f
100
AcDbPolyline
90
2
70
1
38
0
39
0
10
30
20
-38.5
40
0
41
0
42
0
10
30
20
-42.5
40
0
41
0
42
0
210
0
220
0
230
1
0
ENDBLK
5
48d
100
AcDbEntity
8
0
100
AcDbBlockEnd
0
BLOCK
5
4b4
100
AcDbEntity
8
0
100
AcDbBlockBegin
2
310af931-c798-4fe4-bf64-637c483b13d2
70
0
10
0
20
0
30
0
3
310af931-c798-4fe4-bf64-637c483b13d2
0
LWPOLYLINE
100
AcDbEntity
8
0
62
0
6
ByLayer
5
1480
100
AcDbPolyline
90
2
70
1
38
0
39
0
10
20
20
0
40
0
41
0
42
0
10
20
20
-10
40
0
41
0
42
0
210
0
220
0
230
1
0
ENDBLK
5
4af
100
AcDbEntity
8
0
100
AcDbBlockEnd
0
BLOCK
5
4d1
100
AcDbEntity
8
0
100
AcDbBlockBegin
2
65e9200d-c402-4ffd-b464-5299861168f4
70
0
10
0
20
0
30
0
3
65e9200d-c402-4ffd-b464-5299861168f4
0
TEXT
100
AcDbEntity
8
0
62
7
6
ByLayer
5
4b7
100
AcDbText
1
\U+0055\U+0053\U+0056\U+0020\U+0042\U+00fc\U+0072\U+006f\U+0020\U+0045\U+0047\U+0020
10
210
20
39
30
0
40
5
41
1
50
0
51
0
7
Standard
11
210
21
39
31
0
210
0
220
0
230
1
72
0
100
AcDbText
73
0
0
TEXT
100
AcDbEntity
8
0
62
7
6
ByLayer
5
4b8
100
AcDbText
1
\U+0032\U+002c\U+0034\U+0035\U+0020\U+006b\U+0056\U+0041
10
210
20
33
30
0
40
5
41
1
50
0
51
0
7
Standard
11
210
21
33
31
0
210
0
220
0
230
1
72
0
100
AcDbText
73
0
0
TEXT
100
AcDbEntity
8
0
62
7
6
ByLayer
5
4b9
100
AcDbText
1
\U+0030\U+002c\U+0039\U+0035\U+0038\U+0020\U+006b\U+0076\U+0061\U+0072
10
210
20
27
30
0
40
5
41
1
50
0
51
0
7
Standard
11
210
21
27
31
0
210
0
220
0
230
1
72
0
100
AcDbText
73
0
0
TEXT
100
AcDbEntity
8
0
62
7
6
ByLayer
5
4ba
100
AcDbText
1
\U+004b\U+0073\U+0020\U+003a\U+0020\U+0030\U+002c\U+0037\U+0035\U+0020
10
210
20
21
30
0
40
5
41
1
50
0
51
0
7
Standard
11
210
21
21
31
0
210
0
220
0
230
1
72
0
100
AcDbText
73
0
0
LWPOLYLINE
100
AcDbEntity
8
0
62
9
6
ByLayer
5
1481
100
AcDbPolyline
90
4
70
1
38
0
39
0
10
208
20
47
40
0
41
0
42
0
10
279.2
20
47
40
0
41
0
42
0
10
279.2
20
18
40
0
41
0
42
0
10
208
20
18
40
0
41
0
42
0
210
0
220
0
230
1
0
TEXT
100
AcDbEntity
8
0
62
7
6
ByLayer
5
4c1
100
AcDbText
1
\U+0055\U+0053\U+0056\U+0020\U+0032\U+0020\U+0045\U+0047\U+0020\U+0042\U+00fc\U+0072\U+006f\U+0020
10
-45
20
59
30
0
40
5
41
1
50
0
51
0
7
Standard
11
-45
21
59
31
0
210
0
220
0
230
1
72
0
100
AcDbText
73
0
0
TEXT
100
AcDbEntity
8
0
62
7
6
ByLayer
5
4c2
100
AcDbText
1
\U+0041\U+0075\U+0073\U+0077\U+0061\U+0068\U+006c\U+0020
10
-45
20
53
30
0
40
5
41
1
50
0
51
0
7
Standard
11
-45
21
53
31
0
210
0
220
0
230
1
72
0
100
AcDbText
73
0
0
TEXT
100
AcDbEntity
8
0
62
7
6
ByLayer
5
4c3
100
AcDbText
1
\U+004e\U+0069\U+0063\U+0068\U+0074\U+0020\U+0061\U+006e\U+0067\U+0065\U+0067\U+0065\U+0062\U+0065\U+006e\U+0020
10
-45
20
47
30
0
40
5
41
1
50
0
51
0
7
Standard
11
-45
21
47
31
0
210
0
220
0
230
1
72
0
100
AcDbText
73
0
0
TEXT
100
AcDbEntity
8
0
62
7
6
ByLayer
5
4c4
100
AcDbText
1
\U+0030\U+0020\U+0041
10
-45
20
41
30
0
40
5
41
1
50
0
51
0
7
Standard
11
-45
21
41
31
0
210
0
220
0
230
1
72
0
100
AcDbText
73
0
0
LWPOLYLINE
100
AcDbEntity
8
0
62
9
6
ByLayer
5
1482
100
AcDbPolyline
90
4
70
1
38
0
39
0
10
-47
20
67
40
0
41
0
42
0
10
40.2
20
67
40
0
41
0
42
0
10
40.2
20
38
40
0
41
0
42
0
10
-47
20
38
40
0
41
0
42
0
210
0
220
0
230
1
0
LWPOLYLINE
100
AcDbEntity
8
0
62
0
6
ByLayer
5
1483
100
AcDbPolyline
90
4
70
1
38
0
39
0
10
0
20
0
40
0
41
0
42
0
10
200
20
0
40
0
41
0
42
0
10
200
20
-5
40
0
41
0
42
0
10
0
20
-5
40
0
41
0
42
0
210
0
220
0
230
1
0
ENDBLK
5
4b6
100
AcDbEntity
8
0
100
AcDbBlockEnd
0
BLOCK
5
4ed
100
AcDbEntity
8
0
100
AcDbBlockBegin
2
88360a4d-7a53-4a1e-9952-d4154e10a8e6
70
0
10
0
20
0
30
0
3
88360a4d-7a53-4a1e-9952-d4154e10a8e6
0
TEXT
100
AcDbEntity
8
0
62
7
6
ByLayer
5
4d4
100
AcDbText
1
\U+0041\U+0041\U+0020\U+0031\U+0035\U+0030\U+0020
10
45
20
-11
30
0
40
5
41
1
50
0
51
0
7
Standard
11
45
21
-11
31
0
210
0
220
0
230
1
72
0
100
AcDbText
73
0
0
TEXT
100
AcDbEntity
8
0
62
7
6
ByLayer
5
4d5
100
AcDbText
1
\U+0030\U+002c\U+0035\U+0020\U+006b\U+0057
10
45
20
-17
30
0
40
5
41
1
50
0
51
0
7
Standard
11
45
21
-17
31
0
210
0
220
0
230
1
72
0
100
AcDbText
73
0
0
TEXT
100
AcDbEntity
8
0
62
7
6
ByLayer
5
4d6
100
AcDbText
1
\U+0043\U+006f\U+0073\U+03c6\U+0020\U+003a\U+0020\U+0030\U+002c\U+0039\U+0032\U+0020
10
45
20
-23
30
0
40
5
41
1
50
0
51
0
7
Standard
11
45
21
-23
31
0
210
0
220
0
230
1
72
0
100
AcDbText
73
0
0
TEXT
100
AcDbEntity
8
0
62
7
6
ByLayer
5
4d7
100
AcDbText
1
\U+004d\U+0065\U+006e\U+0067\U+0065\U+0020\U+003a\U+0020\U+003a\U+0020\U+0036\U+0020
10
45
20
-29
30
0
40
5
41
1
50
0
51
0
7
Standard
11
45
21
-29
31
0
210
0
220
0
230
1
72
0
100
AcDbText
73
0
0
TEXT
100
AcDbEntity
8
0
62
7
6
ByLayer
5
4d8
100
AcDbText
1
\U+004b\U+0075\U+0020\U+003a\U+0020\U+0031\U+0020
10
45
20
-35
30
0
40
5
41
1
50
0
51
0
7
Standard
11
45
21
-35
31
0
210
0
220
0
230
1
72
0
100
AcDbText
73
0
0
LWPOLYLINE
100
AcDbEntity
8
0
62
9
6
ByLayer
5
1484
100
AcDbPolyline
90
4
70
1
38
0
39
0
10
43
20
-3
40
0
41
0
42
0
10
114.2
20
-3
40
0
41
0
42
0
10
114.2
20
-37
40
0
41
0
42
0
10
43
20
-37
40
0
41
0
42
0
210
0
220
0
230
1
0
LWPOLYLINE
100
AcDbEntity
8
0
62
0
6
ByLayer
5
1485
100
AcDbPolyline
90
2
70
1
38
0
39
0
10
0
20
-20
40
0
41
0
42
0
10
0
20
0
40
0
41
0
42
0
210
0
220
0
230
1
0
LWPOLYLINE
100
AcDbEntity
8
0
62
0
6
ByLayer
5
1486
100
AcDbPolyline
90
2
70
1
38
0
39
0
10
0
20
0
40
0
41
0
42
0
10
40
20
0
40
0
41
0
42
0
210
0
220
0
230
1
0
LWPOLYLINE
100
AcDbEntity
8
0
62
0
6
ByLayer
5
1487
100
AcDbPolyline
90
2
70
1
38
0
39
0
10
40
20
0
40
0
41
0
42
0
10
40
20
-20
40
0
41
0
42
0
210
0
220
0
230
1
0
SPLINE
100
AcDbEntity
8
0
62
0
6
ByLayer
5
4ec
100
AcDbSpline
210
0
220
0
230
1
70
0
71
3
72
0
73
0
74
3
42
1E-10
43
1E-10
44
1E-10
11
0
21
-20
31
-20
11
20
21
0
31
0
11
40
21
-20
31
-20
0
SEQEND
5
4eb
100
AcDbEntity
8
0
0
ENDBLK
5
4d3
100
AcDbEntity
8
0
100
AcDbBlockEnd
0
BLOCK
5
50f
100
AcDbEntity
8
0
100
AcDbBlockBegin
2
825b51e1-9588-4999-83b0-c447e160a5e2
70
0
10
0
20
0
30
0
3
825b51e1-9588-4999-83b0-c447e160a5e2
0
TEXT
100
AcDbEntity
8
0
62
7
6
ByLayer
5
4f0
100
AcDbText
1
\U+0057\U+0044\U+0020\U+0031\U+0035\U+0030\U+0020
10
45
20
-11
30
0
40
5
41
1
50
0
51
0
7
Standard
11
45
21
-11
31
0
210
0
220
0
230
1
72
0
100
AcDbText
73
0
0
TEXT
100
AcDbEntity
8
0
62
7
6
ByLayer
5
4f1
100
AcDbText
1
\U+0031\U+0035\U+0020\U+006d
10
45
20
-17
30
0
40
5
41
1
50
0
51
0
7
Standard
11
45
21
-17
31
0
210
0
220
0
230
1
72
0
100
AcDbText
73
0
0
LWPOLYLINE
100
AcDbEntity
8
0
62
9
6
ByLayer
5
1488
100
AcDbPolyline
90
4
70
1
38
0
39
0
10
43
20
-3
40
0
41
0
42
0
10
114.2
20
-3
40
0
41
0
42
0
10
114.2
20
-22
40
0
41
0
42
0
10
43
20
-22
40
0
41
0
42
0
210
0
220
0
230
1
0
ELLIPSE
5
4f8
100
AcDbEntity
8
0
62
0
6
ByLayer
100
AcDbEllipse
10
20
20
-2
30
0
11
2
21
0
31
0
210
0
220
0
230
1
40
1
41
0
42
6.28318530717959
0
ELLIPSE
5
4f9
100
AcDbEntity
8
0
62
0
6
ByLayer
100
AcDbEllipse
10
20
20
-58
30
0
11
2
21
0
31
0
210
0
220
0
230
1
40
1
41
0
42
6.28318530717959
0
LWPOLYLINE
100
AcDbEntity
8
0
62
0
6
ByLayer
5
1489
100
AcDbPolyline
90
2
70
1
38
0
39
0
10
20
20
-4
40
0
41
0
42
0
10
20
20
-56
40
0
41
0
42
0
210
0
220
0
230
1
0
LWPOLYLINE
100
AcDbEntity
8
0
62
0
6
ByLayer
5
148a
100
AcDbPolyline
90
2
70
1
38
0
39
0
10
10
20
-19.5
40
0
41
0
42
0
10
30
20
-25.5
40
0
41
0
42
0
210
0
220
0
230
1
0
LWPOLYLINE
100
AcDbEntity
8
0
62
0
6
ByLayer
5
148b
100
AcDbPolyline
90
2
70
1
38
0
39
0
10
10
20
-25.5
40
0
41
0
42
0
10
30
20
-31.5
40
0
41
0
42
0
210
0
220
0
230
1
0
ELLIPSE
5
506
100
AcDbEntity
8
0
62
0
6
ByLayer
100
AcDbEllipse
10
30
20
-31.5
30
0
11
1
21
0
31
0
210
0
220
0
230
1
40
1
41
0
42
6.28318530717959
0
LWPOLYLINE
100
AcDbEntity
8
0
62
0
6
ByLayer
5
148c
100
AcDbPolyline
90
2
70
1
38
0
39
0
10
10
20
-34.5
40
0
41
0
42
0
10
30
20
-40.5
40
0
41
0
42
0
210
0
220
0
230
1
0
LWPOLYLINE
100
AcDbEntity
8
0
62
0
6
ByLayer
5
148d
100
AcDbPolyline
90
2
70
1
38
0
39
0
10
30
20
-38.5
40
0
41
0
42
0
10
30
20
-42.5
40
0
41
0
42
0
210
0
220
0
230
1
0
ENDBLK
5
4ef
100
AcDbEntity
8
0
100
AcDbBlockEnd
0
BLOCK
5
533
100
AcDbEntity
8
0
100
AcDbBlockBegin
2
294ef0c6-d20f-4b4d-8928-5889a1befbc9
70
0
10
0
20
0
30
0
3
294ef0c6-d20f-4b4d-8928-5889a1befbc9
0
TEXT
100
AcDbEntity
8
0
62
7
6
ByLayer
5
512
100
AcDbText
1
\U+0051\U+0041\U+0020\U+0031\U+0035\U+0030\U+0020
10
45
20
-16
30
0
40
5
41
1
50
0
51
0
7
Standard
11
45
21
-16
31
0
210
0
220
0
230
1
72
0
100
AcDbText
73
0
0
TEXT
100
AcDbEntity
8
0
62
7
6
ByLayer
5
513
100
AcDbText
1
\U+0054\U+004e\U+002d\U+0053\U+0020
10
45
20
-22
30
0
40
5
41
1
50
0
51
0
7
Standard
11
45
21
-22
31
0
210
0
220
0
230
1
72
0
100
AcDbText
73
0
0
TEXT
100
AcDbEntity
8
0
62
7
6
ByLayer
5
514
100
AcDbText
1
\U+0049\U+0062\U+0020\U+003a\U+0020\U+0032\U+002c\U+0033\U+0035\U+0020\U+0041
10
45
20
-28
30
0
40
5
41
1
50
0
51
0
7
Standard
11
45
21
-28
31
0
210
0
220
0
230
1
72
0
100
AcDbText
73
0
0
LWPOLYLINE
100
AcDbEntity
8
0
62
9
6
ByLayer
5
148e
100
AcDbPolyline
90
4
70
1
38
0
39
0
10
43
20
-8
40
0
41
0
42
0
10
114.2
20
-8
40
0
41
0
42
0
10
114.2
20
-32
40
0
41
0
42
0
10
43
20
-32
40
0
41
0
42
0
210
0
220
0
230
1
0
LWPOLYLINE
100
AcDbEntity
8
0
62
0
6
ByLayer
5
148f
100
AcDbPolyline
90
2
70
1
38
0
39
0
10
20
20
0
40
0
41
0
42
0
10
20
20
-20
40
0
41
0
42
0
210
0
220
0
230
1
0
LWPOLYLINE
100
AcDbEntity
8
0
62
0
6
ByLayer
5
1490
100
AcDbPolyline
90
2
70
1
38
0
39
0
10
15
20
-5
40
0
41
0
42
0
10
25
20
-15
40
0
41
0
42
0
210
0
220
0
230
1
0
LWPOLYLINE
100
AcDbEntity
8
0
62
0
6
ByLayer
5
1491
100
AcDbPolyline
90
2
70
1
38
0
39
0
10
15
20
-15
40
0
41
0
42
0
10
25
20
-5
40
0
41
0
42
0
210
0
220
0
230
1
0
LWPOLYLINE
100
AcDbEntity
8
0
62
0
6
ByLayer
5
1492
100
AcDbPolyline
90
2
70
1
38
0
39
0
10
15
20
-20
40
0
41
0
42
0
10
25
20
-20
40
0
41
0
42
0
210
0
220
0
230
1
0
LWPOLYLINE
100
AcDbEntity
8
0
62
0
6
ByLayer
5
1493
100
AcDbPolyline
90
2
70
1
38
0
39
0
10
10
20
-20
40
0
41
0
42
0
10
20
20
-40
40
0
41
0
42
0
210
0
220
0
230
1
0
LWPOLYLINE
100
AcDbEntity
8
0
62
0
6
ByLayer
5
1494
100
AcDbPolyline
90
2
70
1
38
0
39
0
10
20
20
-40
40
0
41
0
42
0
10
20
20
-60
40
0
41
0
42
0
210
0
220
0
230
1
0
ENDBLK
5
511
100
AcDbEntity
8
0
100
AcDbBlockEnd
0
BLOCK
5
555
100
AcDbEntity
8
0
100
AcDbBlockBegin
2
62eec415-8dea-4087-aec7-fce4a35aa499
70
0
10
0
20
0
30
0
3
62eec415-8dea-4087-aec7-fce4a35aa499
0
TEXT
100
AcDbEntity
8
0
62
7
6
ByLayer
5
536
100
AcDbText
1
\U+0057\U+0044\U+0020\U+0055\U+0053\U+0056\U+0020\U+0042\U+0020
10
45
20
-11
30
0
40
5
41
1
50
0
51
0
7
Standard
11
45
21
-11
31
0
210
0
220
0
230
1
72
0
100
AcDbText
73
0
0
TEXT
100
AcDbEntity
8
0
62
7
6
ByLayer
5
537
100
AcDbText
1
\U+0036\U+0020\U+006d
10
45
20
-17
30
0
40
5
41
1
50
0
51
0
7
Standard
11
45
21
-17
31
0
210
0
220
0
230
1
72
0
100
AcDbText
73
0
0
LWPOLYLINE
100
AcDbEntity
8
0
62
9
6
ByLayer
5
1495
100
AcDbPolyline
90
4
70
1
38
0
39
0
10
43
20
-3
40
0
41
0
42
0
10
114.2
20
-3
40
0
41
0
42
0
10
114.2
20
-22
40
0
41
0
42
0
10
43
20
-22
40
0
41
0
42
0
210
0
220
0
230
1
0
ELLIPSE
5
53e
100
AcDbEntity
8
0
62
0
6
ByLayer
100
AcDbEllipse
10
20
20
-2
30
0
11
2
21
0
31
0
210
0
220
0
230
1
40
1
41
0
42
6.28318530717959
0
ELLIPSE
5
53f
100
AcDbEntity
8
0
62
0
6
ByLayer
100
AcDbEllipse
10
20
20
-58
30
0
11
2
21
0
31
0
210
0
220
0
230
1
40
1
41
0
42
6.28318530717959
0
LWPOLYLINE
100
AcDbEntity
8
0
62
0
6
ByLayer
5
1496
100
AcDbPolyline
90
2
70
1
38
0
39
0
10
20
20
-4
40
0
41
0
42
0
10
20
20
-56
40
0
41
0
42
0
210
0
220
0
230
1
0
LWPOLYLINE
100
AcDbEntity
8
0
62
0
6
ByLayer
5
1497
100
AcDbPolyline
90
2
70
1
38
0
39
0
10
10
20
-19.5
40
0
41
0
42
0
10
30
20
-25.5
40
0
41
0
42
0
210
0
220
0
230
1
0
LWPOLYLINE
100
AcDbEntity
8
0
62
0
6
ByLayer
5
1498
100
AcDbPolyline
90
2
70
1
38
0
39
0
10
10
20
-25.5
40
0
41
0
42
0
10
30
20
-31.5
40
0
41
0
42
0
210
0
220
0
230
1
0
ELLIPSE
5
54c
100
AcDbEntity
8
0
62
0
6
ByLayer
100
AcDbEllipse
10
30
20
-31.5
30
0
11
1
21
0
31
0
210
0
220
0
230
1
40
1
41
0
42
6.28318530717959
0
LWPOLYLINE
100
AcDbEntity
8
0
62
0
6
ByLayer
5
1499
100
AcDbPolyline
90
2
70
1
38
0
39
0
10
10
20
-34.5
40
0
41
0
42
0
10
30
20
-40.5
40
0
41
0
42
0
210
0
220
0
230
1
0
LWPOLYLINE
100
AcDbEntity
8
0
62
0
6
ByLayer
5
149a
100
AcDbPolyline
90
2
70
1
38
0
39
0
10
30
20
-38.5
40
0
41
0
42
0
10
30
20
-42.5
40
0
41
0
42
0
210
0
220
0
230
1
0
ENDBLK
5
535
100
AcDbEntity
8
0
100
AcDbBlockEnd
0
BLOCK
5
55c
100
AcDbEntity
8
0
100
AcDbBlockBegin
2
1feefc05-e9f8-4b3b-aade-dce5ed086c35
70
0
10
0
20
0
30
0
3
1feefc05-e9f8-4b3b-aade-dce5ed086c35
0
LWPOLYLINE
100
AcDbEntity
8
0
62
0
6
ByLayer
5
149b
100
AcDbPolyline
90
2
70
1
38
0
39
0
10
20
20
0
40
0
41
0
42
0
10
20
20
-10
40
0
41
0
42
0
210
0
220
0
230
1
0
ENDBLK
5
557
100
AcDbEntity
8
0
100
AcDbBlockEnd
0
BLOCK
5
580
100
AcDbEntity
8
0
100
AcDbBlockBegin
2
c37e9387-d286-4bb6-86b8-eac65488b322
70
0
10
0
20
0
30
0
3
c37e9387-d286-4bb6-86b8-eac65488b322
0
TEXT
100
AcDbEntity
8
0
62
7
6
ByLayer
5
55f
100
AcDbText
1
\U+0051\U+0041\U+0020\U+0031\U+0035\U+0032\U+0020
10
45
20
-16
30
0
40
5
41
1
50
0
51
0
7
Standard
11
45
21
-16
31
0
210
0
220
0
230
1
72
0
100
AcDbText
73
0
0
TEXT
100
AcDbEntity
8
0
62
7
6
ByLayer
5
560
100
AcDbText
1
\U+0054\U+004e\U+002d\U+0053\U+0020
10
45
20
-22
30
0
40
5
41
1
50
0
51
0
7
Standard
11
45
21
-22
31
0
210
0
220
0
230
1
72
0
100
AcDbText
73
0
0
TEXT
100
AcDbEntity
8
0
62
7
6
ByLayer
5
561
100
AcDbText
1
\U+0049\U+0062\U+0020\U+003a\U+0020\U+0032\U+002c\U+0033\U+0035\U+0020\U+0041
10
45
20
-28
30
0
40
5
41
1
50
0
51
0
7
Standard
11
45
21
-28
31
0
210
0
220
0
230
1
72
0
100
AcDbText
73
0
0
LWPOLYLINE
100
AcDbEntity
8
0
62
9
6
ByLayer
5
149c
100
AcDbPolyline
90
4
70
1
38
0
39
0
10
43
20
-8
40
0
41
0
42
0
10
114.2
20
-8
40
0
41
0
42
0
10
114.2
20
-32
40
0
41
0
42
0
10
43
20
-32
40
0
41
0
42
0
210
0
220
0
230
1
0
LWPOLYLINE
100
AcDbEntity
8
0
62
0
6
ByLayer
5
149d
100
AcDbPolyline
90
2
70
1
38
0
39
0
10
20
20
0
40
0
41
0
42
0
10
20
20
-20
40
0
41
0
42
0
210
0
220
0
230
1
0
LWPOLYLINE
100
AcDbEntity
8
0
62
0
6
ByLayer
5
149e
100
AcDbPolyline
90
2
70
1
38
0
39
0
10
15
20
-5
40
0
41
0
42
0
10
25
20
-15
40
0
41
0
42
0
210
0
220
0
230
1
0
LWPOLYLINE
100
AcDbEntity
8
0
62
0
6
ByLayer
5
149f
100
AcDbPolyline
90
2
70
1
38
0
39
0
10
15
20
-15
40
0
41
0
42
0
10
25
20
-5
40
0
41
0
42
0
210
0
220
0
230
1
0
LWPOLYLINE
100
AcDbEntity
8
0
62
0
6
ByLayer
5
14a0
100
AcDbPolyline
90
2
70
1
38
0
39
0
10
15
20
-20
40
0
41
0
42
0
10
25
20
-20
40
0
41
0
42
0
210
0
220
0
230
1
0
LWPOLYLINE
100
AcDbEntity
8
0
62
0
6
ByLayer
5
14a1
100
AcDbPolyline
90
2
70
1
38
0
39
0
10
10
20
-20
40
0
41
0
42
0
10
20
20
-40
40
0
41
0
42
0
210
0
220
0
230
1
0
LWPOLYLINE
100
AcDbEntity
8
0
62
0
6
ByLayer
5
14a2
100
AcDbPolyline
90
2
70
1
38
0
39
0
10
20
20
-40
40
0
41
0
42
0
10
20
20
-60
40
0
41
0
42
0
210
0
220
0
230
1
0
ENDBLK
5
55e
100
AcDbEntity
8
0
100
AcDbBlockEnd
0
BLOCK
5
5a2
100
AcDbEntity
8
0
100
AcDbBlockBegin
2
886e43c9-7ad4-44f3-9fc9-e65065215f2f
70
0
10
0
20
0
30
0
3
886e43c9-7ad4-44f3-9fc9-e65065215f2f
0
TEXT
100
AcDbEntity
8
0
62
7
6
ByLayer
5
583
100
AcDbText
1
\U+0057\U+0044\U+0020\U+0031\U+0035\U+0032\U+0020
10
45
20
-11
30
0
40
5
41
1
50
0
51
0
7
Standard
11
45
21
-11
31
0
210
0
220
0
230
1
72
0
100
AcDbText
73
0
0
TEXT
100
AcDbEntity
8
0
62
7
6
ByLayer
5
584
100
AcDbText
1
\U+0031\U+0035\U+0020\U+006d
10
45
20
-17
30
0
40
5
41
1
50
0
51
0
7
Standard
11
45
21
-17
31
0
210
0
220
0
230
1
72
0
100
AcDbText
73
0
0
LWPOLYLINE
100
AcDbEntity
8
0
62
9
6
ByLayer
5
14a3
100
AcDbPolyline
90
4
70
1
38
0
39
0
10
43
20
-3
40
0
41
0
42
0
10
114.2
20
-3
40
0
41
0
42
0
10
114.2
20
-22
40
0
41
0
42
0
10
43
20
-22
40
0
41
0
42
0
210
0
220
0
230
1
0
ELLIPSE
5
58b
100
AcDbEntity
8
0
62
0
6
ByLayer
100
AcDbEllipse
10
20
20
-2
30
0
11
2
21
0
31
0
210
0
220
0
230
1
40
1
41
0
42
6.28318530717959
0
ELLIPSE
5
58c
100
AcDbEntity
8
0
62
0
6
ByLayer
100
AcDbEllipse
10
20
20
-58
30
0
11
2
21
0
31
0
210
0
220
0
230
1
40
1
41
0
42
6.28318530717959
0
LWPOLYLINE
100
AcDbEntity
8
0
62
0
6
ByLayer
5
14a4
100
AcDbPolyline
90
2
70
1
38
0
39
0
10
20
20
-4
40
0
41
0
42
0
10
20
20
-56
40
0
41
0
42
0
210
0
220
0
230
1
0
LWPOLYLINE
100
AcDbEntity
8
0
62
0
6
ByLayer
5
14a5
100
AcDbPolyline
90
2
70
1
38
0
39
0
10
10
20
-19.5
40
0
41
0
42
0
10
30
20
-25.5
40
0
41
0
42
0
210
0
220
0
230
1
0
LWPOLYLINE
100
AcDbEntity
8
0
62
0
6
ByLayer
5
14a6
100
AcDbPolyline
90
2
70
1
38
0
39
0
10
10
20
-25.5
40
0
41
0
42
0
10
30
20
-31.5
40
0
41
0
42
0
210
0
220
0
230
1
0
ELLIPSE
5
599
100
AcDbEntity
8
0
62
0
6
ByLayer
100
AcDbEllipse
10
30
20
-31.5
30
0
11
1
21
0
31
0
210
0
220
0
230
1
40
1
41
0
42
6.28318530717959
0
LWPOLYLINE
100
AcDbEntity
8
0
62
0
6
ByLayer
5
14a7
100
AcDbPolyline
90
2
70
1
38
0
39
0
10
10
20
-34.5
40
0
41
0
42
0
10
30
20
-40.5
40
0
41
0
42
0
210
0
220
0
230
1
0
LWPOLYLINE
100
AcDbEntity
8
0
62
0
6
ByLayer
5
14a8
100
AcDbPolyline
90
2
70
1
38
0
39
0
10
30
20
-38.5
40
0
41
0
42
0
10
30
20
-42.5
40
0
41
0
42
0
210
0
220
0
230
1
0
ENDBLK
5
582
100
AcDbEntity
8
0
100
AcDbBlockEnd
0
BLOCK
5
5be
100
AcDbEntity
8
0
100
AcDbBlockBegin
2
6d2027b8-b9f8-4382-8be4-b7043426cef4
70
0
10
0
20
0
30
0
3
6d2027b8-b9f8-4382-8be4-b7043426cef4
0
TEXT
100
AcDbEntity
8
0
62
7
6
ByLayer
5
5a5
100
AcDbText
1
\U+004c\U+0065\U+0069\U+0074\U+0073\U+0074\U+0065\U+006c\U+006c\U+0065\U+0020
10
45
20
-11
30
0
40
5
41
1
50
0
51
0
7
Standard
11
45
21
-11
31
0
210
0
220
0
230
1
72
0
100
AcDbText
73
0
0
TEXT
100
AcDbEntity
8
0
62
7
6
ByLayer
5
5a6
100
AcDbText
1
\U+0030\U+002c\U+0035\U+0020\U+006b\U+0057
10
45
20
-17
30
0
40
5
41
1
50
0
51
0
7
Standard
11
45
21
-17
31
0
210
0
220
0
230
1
72
0
100
AcDbText
73
0
0
TEXT
100
AcDbEntity
8
0
62
7
6
ByLayer
5
5a7
100
AcDbText
1
\U+0043\U+006f\U+0073\U+03c6\U+0020\U+003a\U+0020\U+0030\U+002c\U+0039\U+0032\U+0020
10
45
20
-23
30
0
40
5
41
1
50
0
51
0
7
Standard
11
45
21
-23
31
0
210
0
220
0
230
1
72
0
100
AcDbText
73
0
0
TEXT
100
AcDbEntity
8
0
62
7
6
ByLayer
5
5a8
100
AcDbText
1
\U+004d\U+0065\U+006e\U+0067\U+0065\U+0020\U+003a\U+0020\U+003a\U+0020\U+0031\U+0030\U+0020
10
45
20
-29
30
0
40
5
41
1
50
0
51
0
7
Standard
11
45
21
-29
31
0
210
0
220
0
230
1
72
0
100
AcDbText
73
0
0
TEXT
100
AcDbEntity
8
0
62
7
6
ByLayer
5
5a9
100
AcDbText
1
\U+004b\U+0075\U+0020\U+003a\U+0020\U+0031\U+0020
10
45
20
-35
30
0
40
5
41
1
50
0
51
0
7
Standard
11
45
21
-35
31
0
210
0
220
0
230
1
72
0
100
AcDbText
73
0
0
LWPOLYLINE
100
AcDbEntity
8
0
62
9
6
ByLayer
5
14a9
100
AcDbPolyline
90
4
70
1
38
0
39
0
10
43
20
-3
40
0
41
0
42
0
10
114.2
20
-3
40
0
41
0
42
0
10
114.2
20
-37
40
0
41
0
42
0
10
43
20
-37
40
0
41
0
42
0
210
0
220
0
230
1
0
LWPOLYLINE
100
AcDbEntity
8
0
62
0
6
ByLayer
5
14aa
100
AcDbPolyline
90
2
70
1
38
0
39
0
10
0
20
-20
40
0
41
0
42
0
10
0
20
0
40
0
41
0
42
0
210
0
220
0
230
1
0
LWPOLYLINE
100
AcDbEntity
8
0
62
0
6
ByLayer
5
14ab
100
AcDbPolyline
90
2
70
1
38
0
39
0
10
0
20
0
40
0
41
0
42
0
10
40
20
0
40
0
41
0
42
0
210
0
220
0
230
1
0
LWPOLYLINE
100
AcDbEntity
8
0
62
0
6
ByLayer
5
14ac
100
AcDbPolyline
90
2
70
1
38
0
39
0
10
40
20
0
40
0
41
0
42
0
10
40
20
-20
40
0
41
0
42
0
210
0
220
0
230
1
0
SPLINE
100
AcDbEntity
8
0
62
0
6
ByLayer
5
5bd
100
AcDbSpline
210
0
220
0
230
1
70
0
71
3
72
0
73
0
74
3
42
1E-10
43
1E-10
44
1E-10
11
0
21
-20
31
-20
11
20
21
0
31
0
11
40
21
-20
31
-20
0
SEQEND
5
5bc
100
AcDbEntity
8
0
0
ENDBLK
5
5a4
100
AcDbEntity
8
0
100
AcDbBlockEnd
0
BLOCK
5
5da
100
AcDbEntity
8
0
100
AcDbBlockBegin
2
866d516b-cd1a-47a2-a9d8-2e50efa14974
70
0
10
0
20
0
30
0
3
866d516b-cd1a-47a2-a9d8-2e50efa14974
0
TEXT
100
AcDbEntity
8
0
62
7
6
ByLayer
5
5c1
100
AcDbText
1
\U+004c\U+0065\U+0069\U+0074\U+0073\U+0074\U+0065\U+006c\U+006c\U+0065\U+0020\U+0041\U+0020
10
45
20
-11
30
0
40
5
41
1
50
0
51
0
7
Standard
11
45
21
-11
31
0
210
0
220
0
230
1
72
0
100
AcDbText
73
0
0
TEXT
100
AcDbEntity
8
0
62
7
6
ByLayer
5
5c2
100
AcDbText
1
\U+0030\U+002c\U+0032\U+0035\U+0020\U+006b\U+0057
10
45
20
-17
30
0
40
5
41
1
50
0
51
0
7
Standard
11
45
21
-17
31
0
210
0
220
0
230
1
72
0
100
AcDbText
73
0
0
TEXT
100
AcDbEntity
8
0
62
7
6
ByLayer
5
5c3
100
AcDbText
1
\U+0043\U+006f\U+0073\U+03c6\U+0020\U+003a\U+0020\U+0030\U+002c\U+0039\U+0032\U+0020
10
45
20
-23
30
0
40
5
41
1
50
0
51
0
7
Standard
11
45
21
-23
31
0
210
0
220
0
230
1
72
0
100
AcDbText
73
0
0
TEXT
100
AcDbEntity
8
0
62
7
6
ByLayer
5
5c4
100
AcDbText
1
\U+004d\U+0065\U+006e\U+0067\U+0065\U+0020\U+003a\U+0020\U+003a\U+0020\U+0031\U+0030\U+0020
10
45
20
-29
30
0
40
5
41
1
50
0
51
0
7
Standard
11
45
21
-29
31
0
210
0
220
0
230
1
72
0
100
AcDbText
73
0
0
TEXT
100
AcDbEntity
8
0
62
7
6
ByLayer
5
5c5
100
AcDbText
1
\U+004b\U+0075\U+0020\U+003a\U+0020\U+0031\U+0020
10
45
20
-35
30
0
40
5
41
1
50
0
51
0
7
Standard
11
45
21
-35
31
0
210
0
220
0
230
1
72
0
100
AcDbText
73
0
0
LWPOLYLINE
100
AcDbEntity
8
0
62
9
6
ByLayer
5
14ad
100
AcDbPolyline
90
4
70
1
38
0
39
0
10
43
20
-3
40
0
41
0
42
0
10
114.2
20
-3
40
0
41
0
42
0
10
114.2
20
-37
40
0
41
0
42
0
10
43
20
-37
40
0
41
0
42
0
210
0
220
0
230
1
0
LWPOLYLINE
100
AcDbEntity
8
0
62
0
6
ByLayer
5
14ae
100
AcDbPolyline
90
2
70
1
38
0
39
0
10
0
20
-20
40
0
41
0
42
0
10
0
20
0
40
0
41
0
42
0
210
0
220
0
230
1
0
LWPOLYLINE
100
AcDbEntity
8
0
62
0
6
ByLayer
5
14af
100
AcDbPolyline
90
2
70
1
38
0
39
0
10
0
20
0
40
0
41
0
42
0
10
40
20
0
40
0
41
0
42
0
210
0
220
0
230
1
0
LWPOLYLINE
100
AcDbEntity
8
0
62
0
6
ByLayer
5
14b0
100
AcDbPolyline
90
2
70
1
38
0
39
0
10
40
20
0
40
0
41
0
42
0
10
40
20
-20
40
0
41
0
42
0
210
0
220
0
230
1
0
SPLINE
100
AcDbEntity
8
0
62
0
6
ByLayer
5
5d9
100
AcDbSpline
210
0
220
0
230
1
70
0
71
3
72
0
73
0
74
3
42
1E-10
43
1E-10
44
1E-10
11
0
21
-20
31
-20
11
20
21
0
31
0
11
40
21
-20
31
-20
0
SEQEND
5
5d8
100
AcDbEntity
8
0
0
ENDBLK
5
5c0
100
AcDbEntity
8
0
100
AcDbBlockEnd
0
BLOCK
5
5fc
100
AcDbEntity
8
0
100
AcDbBlockBegin
2
b6ae86cb-3ce2-48f2-b1ad-546ef3b9bc93
70
0
10
0
20
0
30
0
3
b6ae86cb-3ce2-48f2-b1ad-546ef3b9bc93
0
TEXT
100
AcDbEntity
8
0
62
7
6
ByLayer
5
5dd
100
AcDbText
1
\U+0057\U+0044\U+0020\U+0031\U+0035\U+0032\U+0020\U+0028\U+0031\U+0029\U+0020
10
45
20
-11
30
0
40
5
41
1
50
0
51
0
7
Standard
11
45
21
-11
31
0
210
0
220
0
230
1
72
0
100
AcDbText
73
0
0
TEXT
100
AcDbEntity
8
0
62
7
6
ByLayer
5
5de
100
AcDbText
1
\U+0031\U+0035\U+0020\U+006d
10
45
20
-17
30
0
40
5
41
1
50
0
51
0
7
Standard
11
45
21
-17
31
0
210
0
220
0
230
1
72
0
100
AcDbText
73
0
0
LWPOLYLINE
100
AcDbEntity
8
0
62
9
6
ByLayer
5
14b1
100
AcDbPolyline
90
4
70
1
38
0
39
0
10
43
20
-3
40
0
41
0
42
0
10
114.2
20
-3
40
0
41
0
42
0
10
114.2
20
-22
40
0
41
0
42
0
10
43
20
-22
40
0
41
0
42
0
210
0
220
0
230
1
0
ELLIPSE
5
5e5
100
AcDbEntity
8
0
62
0
6
ByLayer
100
AcDbEllipse
10
20
20
-2
30
0
11
2
21
0
31
0
210
0
220
0
230
1
40
1
41
0
42
6.28318530717959
0
ELLIPSE
5
5e6
100
AcDbEntity
8
0
62
0
6
ByLayer
100
AcDbEllipse
10
20
20
-58
30
0
11
2
21
0
31
0
210
0
220
0
230
1
40
1
41
0
42
6.28318530717959
0
LWPOLYLINE
100
AcDbEntity
8
0
62
0
6
ByLayer
5
14b2
100
AcDbPolyline
90
2
70
1
38
0
39
0
10
20
20
-4
40
0
41
0
42
0
10
20
20
-56
40
0
41
0
42
0
210
0
220
0
230
1
0
LWPOLYLINE
100
AcDbEntity
8
0
62
0
6
ByLayer
5
14b3
100
AcDbPolyline
90
2
70
1
38
0
39
0
10
10
20
-19.5
40
0
41
0
42
0
10
30
20
-25.5
40
0
41
0
42
0
210
0
220
0
230
1
0
LWPOLYLINE
100
AcDbEntity
8
0
62
0
6
ByLayer
5
14b4
100
AcDbPolyline
90
2
70
1
38
0
39
0
10
10
20
-25.5
40
0
41
0
42
0
10
30
20
-31.5
40
0
41
0
42
0
210
0
220
0
230
1
0
ELLIPSE
5
5f3
100
AcDbEntity
8
0
62
0
6
ByLayer
100
AcDbEllipse
10
30
20
-31.5
30
0
11
1
21
0
31
0
210
0
220
0
230
1
40
1
41
0
42
6.28318530717959
0
LWPOLYLINE
100
AcDbEntity
8
0
62
0
6
ByLayer
5
14b5
100
AcDbPolyline
90
2
70
1
38
0
39
0
10
10
20
-34.5
40
0
41
0
42
0
10
30
20
-40.5
40
0
41
0
42
0
210
0
220
0
230
1
0
LWPOLYLINE
100
AcDbEntity
8
0
62
0
6
ByLayer
5
14b6
100
AcDbPolyline
90
2
70
1
38
0
39
0
10
30
20
-38.5
40
0
41
0
42
0
10
30
20
-42.5
40
0
41
0
42
0
210
0
220
0
230
1
0
ENDBLK
5
5dc
100
AcDbEntity
8
0
100
AcDbBlockEnd
0
BLOCK
5
620
100
AcDbEntity
8
0
100
AcDbBlockBegin
2
4b2acd39-69ed-4951-a828-6398640ae70c
70
0
10
0
20
0
30
0
3
4b2acd39-69ed-4951-a828-6398640ae70c
0
TEXT
100
AcDbEntity
8
0
62
7
6
ByLayer
5
5ff
100
AcDbText
1
\U+0051\U+0041\U+0020\U+0031\U+0035\U+0032\U+0020\U+0028\U+0031\U+0029\U+0020
10
45
20
-16
30
0
40
5
41
1
50
0
51
0
7
Standard
11
45
21
-16
31
0
210
0
220
0
230
1
72
0
100
AcDbText
73
0
0
TEXT
100
AcDbEntity
8
0
62
7
6
ByLayer
5
600
100
AcDbText
1
\U+0054\U+004e\U+002d\U+0053\U+0020
10
45
20
-22
30
0
40
5
41
1
50
0
51
0
7
Standard
11
45
21
-22
31
0
210
0
220
0
230
1
72
0
100
AcDbText
73
0
0
TEXT
100
AcDbEntity
8
0
62
7
6
ByLayer
5
601
100
AcDbText
1
\U+0049\U+0062\U+0020\U+003a\U+0020\U+0031\U+002c\U+0031\U+0038\U+0020\U+0041
10
45
20
-28
30
0
40
5
41
1
50
0
51
0
7
Standard
11
45
21
-28
31
0
210
0
220
0
230
1
72
0
100
AcDbText
73
0
0
LWPOLYLINE
100
AcDbEntity
8
0
62
9
6
ByLayer
5
14b7
100
AcDbPolyline
90
4
70
1
38
0
39
0
10
43
20
-8
40
0
41
0
42
0
10
114.2
20
-8
40
0
41
0
42
0
10
114.2
20
-32
40
0
41
0
42
0
10
43
20
-32
40
0
41
0
42
0
210
0
220
0
230
1
0
LWPOLYLINE
100
AcDbEntity
8
0
62
0
6
ByLayer
5
14b8
100
AcDbPolyline
90
2
70
1
38
0
39
0
10
20
20
0
40
0
41
0
42
0
10
20
20
-20
40
0
41
0
42
0
210
0
220
0
230
1
0
LWPOLYLINE
100
AcDbEntity
8
0
62
0
6
ByLayer
5
14b9
100
AcDbPolyline
90
2
70
1
38
0
39
0
10
15
20
-5
40
0
41
0
42
0
10
25
20
-15
40
0
41
0
42
0
210
0
220
0
230
1
0
LWPOLYLINE
100
AcDbEntity
8
0
62
0
6
ByLayer
5
14ba
100
AcDbPolyline
90
2
70
1
38
0
39
0
10
15
20
-15
40
0
41
0
42
0
10
25
20
-5
40
0
41
0
42
0
210
0
220
0
230
1
0
LWPOLYLINE
100
AcDbEntity
8
0
62
0
6
ByLayer
5
14bb
100
AcDbPolyline
90
2
70
1
38
0
39
0
10
15
20
-20
40
0
41
0
42
0
10
25
20
-20
40
0
41
0
42
0
210
0
220
0
230
1
0
LWPOLYLINE
100
AcDbEntity
8
0
62
0
6
ByLayer
5
14bc
100
AcDbPolyline
90
2
70
1
38
0
39
0
10
10
20
-20
40
0
41
0
42
0
10
20
20
-40
40
0
41
0
42
0
210
0
220
0
230
1
0
LWPOLYLINE
100
AcDbEntity
8
0
62
0
6
ByLayer
5
14bd
100
AcDbPolyline
90
2
70
1
38
0
39
0
10
20
20
-40
40
0
41
0
42
0
10
20
20
-60
40
0
41
0
42
0
210
0
220
0
230
1
0
ENDBLK
5
5fe
100
AcDbEntity
8
0
100
AcDbBlockEnd
0
BLOCK
5
642
100
AcDbEntity
8
0
100
AcDbBlockBegin
2
89282bc9-c6ba-4de9-9b0f-ea8e8f9309c9
70
0
10
0
20
0
30
0
3
89282bc9-c6ba-4de9-9b0f-ea8e8f9309c9
0
TEXT
100
AcDbEntity
8
0
62
7
6
ByLayer
5
623
100
AcDbText
1
\U+002d\U+0046\U+0020\U+0055\U+0056\U+0020\U+0031\U+004f\U+0047\U+0020
10
45
20
-16
30
0
40
5
41
1
50
0
51
0
7
Standard
11
45
21
-16
31
0
210
0
220
0
230
1
72
0
100
AcDbText
73
0
0
TEXT
100
AcDbEntity
8
0
62
7
6
ByLayer
5
624
100
AcDbText
1
\U+0054\U+004e\U+002d\U+0053\U+0020
10
45
20
-22
30
0
40
5
41
1
50
0
51
0
7
Standard
11
45
21
-22
31
0
210
0
220
0
230
1
72
0
100
AcDbText
73
0
0
LWPOLYLINE
100
AcDbEntity
8
0
62
9
6
ByLayer
5
14be
100
AcDbPolyline
90
4
70
1
38
0
39
0
10
43
20
-8
40
0
41
0
42
0
10
114.2
20
-8
40
0
41
0
42
0
10
114.2
20
-27
40
0
41
0
42
0
10
43
20
-27
40
0
41
0
42
0
210
0
220
0
230
1
0
LWPOLYLINE
100
AcDbEntity
8
0
62
0
6
ByLayer
5
14bf
100
AcDbPolyline
90
2
70
1
38
0
39
0
10
20
20
0
40
0
41
0
42
0
10
20
20
-5
40
0
41
0
42
0
210
0
220
0
230
1
0
LWPOLYLINE
100
AcDbEntity
8
0
62
0
6
ByLayer
5
14c0
100
AcDbPolyline
90
2
70
1
38
0
39
0
10
10
20
-5
40
0
41
0
42
0
10
20
20
-25
40
0
41
0
42
0
210
0
220
0
230
1
0
LWPOLYLINE
100
AcDbEntity
8
0
62
0
6
ByLayer
5
14c1
100
AcDbPolyline
90
2
70
1
38
0
39
0
10
20
20
-25
40
0
41
0
42
0
10
20
20
-60
40
0
41
0
42
0
210
0
220
0
230
1
0
LWPOLYLINE
100
AcDbEntity
8
0
62
0
6
ByLayer
5
14c2
100
AcDbPolyline
90
2
70
1
38
0
39
0
10
16
20
-5
40
0
41
0
42
0
10
24
20
-5
40
0
41
0
42
0
210
0
220
0
230
1
0
ELLIPSE
5
63b
100
AcDbEntity
8
0
62
0
6
ByLayer
100
AcDbEllipse
10
20
20
-7
30
0
11
1.5
21
0
31
0
210
0
220
0
230
1
40
1
41
0
42
6.28318530717959
0
LWPOLYLINE
100
AcDbEntity
8
0
62
0
6
ByLayer
5
14c3
100
AcDbPolyline
90
4
70
1
38
0
39
0
10
16
20
-38
40
0
41
0
42
0
10
24
20
-38
40
0
41
0
42
0
10
24
20
-54
40
0
41
0
42
0
10
16
20
-54
40
0
41
0
42
0
210
0
220
0
230
1
0
ENDBLK
5
622
100
AcDbEntity
8
0
100
AcDbBlockEnd
0
BLOCK
5
66c
100
AcDbEntity
8
0
100
AcDbBlockBegin
2
f948c4b7-b218-4ecb-8086-666f8b23372f
70
0
10
0
20
0
30
0
3
f948c4b7-b218-4ecb-8086-666f8b23372f
0
TEXT
100
AcDbEntity
8
0
62
7
6
ByLayer
5
645
100
AcDbText
1
\U+0057\U+0044\U+0020\U+0053\U+0033\U+0020
10
45
20
-11
30
0
40
5
41
1
50
0
51
0
7
Standard
11
45
21
-11
31
0
210
0
220
0
230
1
72
0
100
AcDbText
73
0
0
TEXT
100
AcDbEntity
8
0
62
7
6
ByLayer
5
646
100
AcDbText
1
\U+0033\U+0035\U+0020\U+006d
10
45
20
-17
30
0
40
5
41
1
50
0
51
0
7
Standard
11
45
21
-17
31
0
210
0
220
0
230
1
72
0
100
AcDbText
73
0
0
LWPOLYLINE
100
AcDbEntity
8
0
62
9
6
ByLayer
5
14c4
100
AcDbPolyline
90
4
70
1
38
0
39
0
10
43
20
-3
40
0
41
0
42
0
10
114.2
20
-3
40
0
41
0
42
0
10
114.2
20
-22
40
0
41
0
42
0
10
43
20
-22
40
0
41
0
42
0
210
0
220
0
230
1
0
ELLIPSE
5
64d
100
AcDbEntity
8
0
62
0
6
ByLayer
100
AcDbEllipse
10
20
20
-2
30
0
11
2
21
0
31
0
210
0
220
0
230
1
40
1
41
0
42
6.28318530717959
0
ELLIPSE
5
64e
100
AcDbEntity
8
0
62
0
6
ByLayer
100
AcDbEllipse
10
20
20
-58
30
0
11
2
21
0
31
0
210
0
220
0
230
1
40
1
41
0
42
6.28318530717959
0
LWPOLYLINE
100
AcDbEntity
8
0
62
0
6
ByLayer
5
14c5
100
AcDbPolyline
90
2
70
1
38
0
39
0
10
20
20
-4
40
0
41
0
42
0
10
20
20
-56
40
0
41
0
42
0
210
0
220
0
230
1
0
LWPOLYLINE
100
AcDbEntity
8
0
62
0
6
ByLayer
5
14c6
100
AcDbPolyline
90
2
70
1
38
0
39
0
10
10
20
-16.5
40
0
41
0
42
0
10
30
20
-22.5
40
0
41
0
42
0
210
0
220
0
230
1
0
LWPOLYLINE
100
AcDbEntity
8
0
62
0
6
ByLayer
5
14c7
100
AcDbPolyline
90
2
70
1
38
0
39
0
10
10
20
-19.5
40
0
41
0
42
0
10
30
20
-25.5
40
0
41
0
42
0
210
0
220
0
230
1
0
LWPOLYLINE
100
AcDbEntity
8
0
62
0
6
ByLayer
5
14c8
100
AcDbPolyline
90
2
70
1
38
0
39
0
10
10
20
-22.5
40
0
41
0
42
0
10
30
20
-28.5
40
0
41
0
42
0
210
0
220
0
230
1
0
LWPOLYLINE
100
AcDbEntity
8
0
62
0
6
ByLayer
5
14c9
100
AcDbPolyline
90
2
70
1
38
0
39
0
10
10
20
-28.5
40
0
41
0
42
0
10
30
20
-34.5
40
0
41
0
42
0
210
0
220
0
230
1
0
ELLIPSE
5
663
100
AcDbEntity
8
0
62
0
6
ByLayer
100
AcDbEllipse
10
30
20
-34.5
30
0
11
1
21
0
31
0
210
0
220
0
230
1
40
1
41
0
42
6.28318530717959
0
LWPOLYLINE
100
AcDbEntity
8
0
62
0
6
ByLayer
5
14ca
100
AcDbPolyline
90
2
70
1
38
0
39
0
10
10
20
-37.5
40
0
41
0
42
0
10
30
20
-43.5
40
0
41
0
42
0
210
0
220
0
230
1
0
LWPOLYLINE
100
AcDbEntity
8
0
62
0
6
ByLayer
5
14cb
100
AcDbPolyline
90
2
70
1
38
0
39
0
10
30
20
-41.5
40
0
41
0
42
0
10
30
20
-45.5
40
0
41
0
42
0
210
0
220
0
230
1
0
ENDBLK
5
644
100
AcDbEntity
8
0
100
AcDbBlockEnd
0
BLOCK
5
673
100
AcDbEntity
8
0
100
AcDbBlockBegin
2
31a3f662-e287-4739-88c8-5d468b742587
70
0
10
0
20
0
30
0
3
31a3f662-e287-4739-88c8-5d468b742587
0
LWPOLYLINE
100
AcDbEntity
8
0
62
0
6
ByLayer
5
14cc
100
AcDbPolyline
90
2
70
1
38
0
39
0
10
20
20
0
40
0
41
0
42
0
10
20
20
-10
40
0
41
0
42
0
210
0
220
0
230
1
0
ENDBLK
5
66e
100
AcDbEntity
8
0
100
AcDbBlockEnd
0
BLOCK
5
690
100
AcDbEntity
8
0
100
AcDbBlockBegin
2
a0e5e2cc-6256-448a-9703-bf663aa112a6
70
0
10
0
20
0
30
0
3
a0e5e2cc-6256-448a-9703-bf663aa112a6
0
TEXT
100
AcDbEntity
8
0
62
7
6
ByLayer
5
676
100
AcDbText
1
\U+0057\U+0043\U+0020\U+0031\U+0035\U+0034\U+0020
10
530
20
39
30
0
40
5
41
1
50
0
51
0
7
Standard
11
530
21
39
31
0
210
0
220
0
230
1
72
0
100
AcDbText
73
0
0
TEXT
100
AcDbEntity
8
0
62
7
6
ByLayer
5
677
100
AcDbText
1
\U+0034\U+002c\U+0036\U+0035\U+0020\U+006b\U+0056\U+0041
10
530
20
33
30
0
40
5
41
1
50
0
51
0
7
Standard
11
530
21
33
31
0
210
0
220
0
230
1
72
0
100
AcDbText
73
0
0
TEXT
100
AcDbEntity
8
0
62
7
6
ByLayer
5
678
100
AcDbText
1
\U+0031\U+002c\U+0038\U+0032\U+0020\U+006b\U+0076\U+0061\U+0072
10
530
20
27
30
0
40
5
41
1
50
0
51
0
7
Standard
11
530
21
27
31
0
210
0
220
0
230
1
72
0
100
AcDbText
73
0
0
TEXT
100
AcDbEntity
8
0
62
7
6
ByLayer
5
679
100
AcDbText
1
\U+004b\U+0073\U+0020\U+003a\U+0020\U+0030\U+002c\U+0038\U+0020
10
530
20
21
30
0
40
5
41
1
50
0
51
0
7
Standard
11
530
21
21
31
0
210
0
220
0
230
1
72
0
100
AcDbText
73
0
0
LWPOLYLINE
100
AcDbEntity
8
0
62
9
6
ByLayer
5
14cd
100
AcDbPolyline
90
4
70
1
38
0
39
0
10
528
20
47
40
0
41
0
42
0
10
599.2
20
47
40
0
41
0
42
0
10
599.2
20
18
40
0
41
0
42
0
10
528
20
18
40
0
41
0
42
0
210
0
220
0
230
1
0
TEXT
100
AcDbEntity
8
0
62
7
6
ByLayer
5
680
100
AcDbText
1
\U+0055\U+0056\U+0020\U+0053\U+0056\U+0020\U+0031\U+002e\U+004f\U+0047\U+0020
10
-45
20
59
30
0
40
5
41
1
50
0
51
0
7
Standard
11
-45
21
59
31
0
210
0
220
0
230
1
72
0
100
AcDbText
73
0
0
TEXT
100
AcDbEntity
8
0
62
7
6
ByLayer
5
681
100
AcDbText
1
\U+0041\U+0075\U+0073\U+0077\U+0061\U+0068\U+006c\U+0020
10
-45
20
53
30
0
40
5
41
1
50
0
51
0
7
Standard
11
-45
21
53
31
0
210
0
220
0
230
1
72
0
100
AcDbText
73
0
0
TEXT
100
AcDbEntity
8
0
62
7
6
ByLayer
5
682
100
AcDbText
1
\U+004e\U+0069\U+0063\U+0068\U+0074\U+0020\U+0061\U+006e\U+0067\U+0065\U+0067\U+0065\U+0062\U+0065\U+006e\U+0020
10
-45
20
47
30
0
40
5
41
1
50
0
51
0
7
Standard
11
-45
21
47
31
0
210
0
220
0
230
1
72
0
100
AcDbText
73
0
0
TEXT
100
AcDbEntity
8
0
62
7
6
ByLayer
5
683
100
AcDbText
1
\U+0030\U+0020\U+0041
10
-45
20
41
30
0
40
5
41
1
50
0
51
0
7
Standard
11
-45
21
41
31
0
210
0
220
0
230
1
72
0
100
AcDbText
73
0
0
LWPOLYLINE
100
AcDbEntity
8
0
62
9
6
ByLayer
5
14ce
100
AcDbPolyline
90
4
70
1
38
0
39
0
10
-47
20
67
40
0
41
0
42
0
10
40.2
20
67
40
0
41
0
42
0
10
40.2
20
38
40
0
41
0
42
0
10
-47
20
38
40
0
41
0
42
0
210
0
220
0
230
1
0
LWPOLYLINE
100
AcDbEntity
8
0
62
0
6
ByLayer
5
14cf
100
AcDbPolyline
90
4
70
1
38
0
39
0
10
0
20
0
40
0
41
0
42
0
10
520
20
0
40
0
41
0
42
0
10
520
20
-5
40
0
41
0
42
0
10
0
20
-5
40
0
41
0
42
0
210
0
220
0
230
1
0
ENDBLK
5
675
100
AcDbEntity
8
0
100
AcDbBlockEnd
0
BLOCK
5
6b4
100
AcDbEntity
8
0
100
AcDbBlockBegin
2
791c6df0-4c6e-4204-a17f-8162864d4a34
70
0
10
0
20
0
30
0
3
791c6df0-4c6e-4204-a17f-8162864d4a34
0
TEXT
100
AcDbEntity
8
0
62
7
6
ByLayer
5
693
100
AcDbText
1
\U+0051\U+0041\U+0020\U+0031\U+0035\U+0036\U+0020
10
45
20
-16
30
0
40
5
41
1
50
0
51
0
7
Standard
11
45
21
-16
31
0
210
0
220
0
230
1
72
0
100
AcDbText
73
0
0
TEXT
100
AcDbEntity
8
0
62
7
6
ByLayer
5
694
100
AcDbText
1
\U+0054\U+004e\U+002d\U+0053\U+0020
10
45
20
-22
30
0
40
5
41
1
50
0
51
0
7
Standard
11
45
21
-22
31
0
210
0
220
0
230
1
72
0
100
AcDbText
73
0
0
TEXT
100
AcDbEntity
8
0
62
7
6
ByLayer
5
695
100
AcDbText
1
\U+0049\U+0062\U+0020\U+003a\U+0020\U+0030\U+002c\U+0033\U+0038\U+0031\U+0020\U+0041
10
45
20
-28
30
0
40
5
41
1
50
0
51
0
7
Standard
11
45
21
-28
31
0
210
0
220
0
230
1
72
0
100
AcDbText
73
0
0
LWPOLYLINE
100
AcDbEntity
8
0
62
9
6
ByLayer
5
14d0
100
AcDbPolyline
90
4
70
1
38
0
39
0
10
43
20
-8
40
0
41
0
42
0
10
114.2
20
-8
40
0
41
0
42
0
10
114.2
20
-32
40
0
41
0
42
0
10
43
20
-32
40
0
41
0
42
0
210
0
220
0
230
1
0
LWPOLYLINE
100
AcDbEntity
8
0
62
0
6
ByLayer
5
14d1
100
AcDbPolyline
90
2
70
1
38
0
39
0
10
20
20
0
40
0
41
0
42
0
10
20
20
-20
40
0
41
0
42
0
210
0
220
0
230
1
0
LWPOLYLINE
100
AcDbEntity
8
0
62
0
6
ByLayer
5
14d2
100
AcDbPolyline
90
2
70
1
38
0
39
0
10
15
20
-5
40
0
41
0
42
0
10
25
20
-15
40
0
41
0
42
0
210
0
220
0
230
1
0
LWPOLYLINE
100
AcDbEntity
8
0
62
0
6
ByLayer
5
14d3
100
AcDbPolyline
90
2
70
1
38
0
39
0
10
15
20
-15
40
0
41
0
42
0
10
25
20
-5
40
0
41
0
42
0
210
0
220
0
230
1
0
LWPOLYLINE
100
AcDbEntity
8
0
62
0
6
ByLayer
5
14d4
100
AcDbPolyline
90
2
70
1
38
0
39
0
10
15
20
-20
40
0
41
0
42
0
10
25
20
-20
40
0
41
0
42
0
210
0
220
0
230
1
0
LWPOLYLINE
100
AcDbEntity
8
0
62
0
6
ByLayer
5
14d5
100
AcDbPolyline
90
2
70
1
38
0
39
0
10
10
20
-20
40
0
41
0
42
0
10
20
20
-40
40
0
41
0
42
0
210
0
220
0
230
1
0
LWPOLYLINE
100
AcDbEntity
8
0
62
0
6
ByLayer
5
14d6
100
AcDbPolyline
90
2
70
1
38
0
39
0
10
20
20
-40
40
0
41
0
42
0
10
20
20
-60
40
0
41
0
42
0
210
0
220
0
230
1
0
ENDBLK
5
692
100
AcDbEntity
8
0
100
AcDbBlockEnd
0
BLOCK
5
6d6
100
AcDbEntity
8
0
100
AcDbBlockBegin
2
cba41661-0211-43e0-87cb-1d92a18acd9d
70
0
10
0
20
0
30
0
3
cba41661-0211-43e0-87cb-1d92a18acd9d
0
TEXT
100
AcDbEntity
8
0
62
7
6
ByLayer
5
6b7
100
AcDbText
1
\U+0057\U+0044\U+0020\U+0031\U+0035\U+0036\U+0020
10
45
20
-11
30
0
40
5
41
1
50
0
51
0
7
Standard
11
45
21
-11
31
0
210
0
220
0
230
1
72
0
100
AcDbText
73
0
0
TEXT
100
AcDbEntity
8
0
62
7
6
ByLayer
5
6b8
100
AcDbText
1
\U+0031\U+0037\U+0020\U+006d
10
45
20
-17
30
0
40
5
41
1
50
0
51
0
7
Standard
11
45
21
-17
31
0
210
0
220
0
230
1
72
0
100
AcDbText
73
0
0
LWPOLYLINE
100
AcDbEntity
8
0
62
9
6
ByLayer
5
14d7
100
AcDbPolyline
90
4
70
1
38
0
39
0
10
43
20
-3
40
0
41
0
42
0
10
114.2
20
-3
40
0
41
0
42
0
10
114.2
20
-22
40
0
41
0
42
0
10
43
20
-22
40
0
41
0
42
0
210
0
220
0
230
1
0
ELLIPSE
5
6bf
100
AcDbEntity
8
0
62
0
6
ByLayer
100
AcDbEllipse
10
20
20
-2
30
0
11
2
21
0
31
0
210
0
220
0
230
1
40
1
41
0
42
6.28318530717959
0
ELLIPSE
5
6c0
100
AcDbEntity
8
0
62
0
6
ByLayer
100
AcDbEllipse
10
20
20
-58
30
0
11
2
21
0
31
0
210
0
220
0
230
1
40
1
41
0
42
6.28318530717959
0
LWPOLYLINE
100
AcDbEntity
8
0
62
0
6
ByLayer
5
14d8
100
AcDbPolyline
90
2
70
1
38
0
39
0
10
20
20
-4
40
0
41
0
42
0
10
20
20
-56
40
0
41
0
42
0
210
0
220
0
230
1
0
LWPOLYLINE
100
AcDbEntity
8
0
62
0
6
ByLayer
5
14d9
100
AcDbPolyline
90
2
70
1
38
0
39
0
10
10
20
-19.5
40
0
41
0
42
0
10
30
20
-25.5
40
0
41
0
42
0
210
0
220
0
230
1
0
LWPOLYLINE
100
AcDbEntity
8
0
62
0
6
ByLayer
5
14da
100
AcDbPolyline
90
2
70
1
38
0
39
0
10
10
20
-25.5
40
0
41
0
42
0
10
30
20
-31.5
40
0
41
0
42
0
210
0
220
0
230
1
0
ELLIPSE
5
6cd
100
AcDbEntity
8
0
62
0
6
ByLayer
100
AcDbEllipse
10
30
20
-31.5
30
0
11
1
21
0
31
0
210
0
220
0
230
1
40
1
41
0
42
6.28318530717959
0
LWPOLYLINE
100
AcDbEntity
8
0
62
0
6
ByLayer
5
14db
100
AcDbPolyline
90
2
70
1
38
0
39
0
10
10
20
-34.5
40
0
41
0
42
0
10
30
20
-40.5
40
0
41
0
42
0
210
0
220
0
230
1
0
LWPOLYLINE
100
AcDbEntity
8
0
62
0
6
ByLayer
5
14dc
100
AcDbPolyline
90
2
70
1
38
0
39
0
10
30
20
-38.5
40
0
41
0
42
0
10
30
20
-42.5
40
0
41
0
42
0
210
0
220
0
230
1
0
ENDBLK
5
6b6
100
AcDbEntity
8
0
100
AcDbBlockEnd
0
BLOCK
5
6f1
100
AcDbEntity
8
0
100
AcDbBlockBegin
2
9135de2b-8dc0-4310-a7b5-c68203d64b47
70
0
10
0
20
0
30
0
3
9135de2b-8dc0-4310-a7b5-c68203d64b47
0
TEXT
100
AcDbEntity
8
0
62
7
6
ByLayer
5
6d9
100
AcDbText
1
\U+0045\U+0041\U+0020\U+0031\U+0035\U+0036\U+0020
10
45
20
-11
30
0
40
5
41
1
50
0
51
0
7
Standard
11
45
21
-11
31
0
210
0
220
0
230
1
72
0
100
AcDbText
73
0
0
TEXT
100
AcDbEntity
8
0
62
7
6
ByLayer
5
6da
100
AcDbText
1
\U+0030\U+002c\U+0033\U+0038\U+0031\U+0020\U+0041
10
45
20
-17
30
0
40
5
41
1
50
0
51
0
7
Standard
11
45
21
-17
31
0
210
0
220
0
230
1
72
0
100
AcDbText
73
0
0
TEXT
100
AcDbEntity
8
0
62
7
6
ByLayer
5
6db
100
AcDbText
1
\U+0043\U+006f\U+0073\U+03c6\U+0020\U+003a\U+0020\U+0030\U+002c\U+0039\U+0032\U+0020
10
45
20
-23
30
0
40
5
41
1
50
0
51
0
7
Standard
11
45
21
-23
31
0
210
0
220
0
230
1
72
0
100
AcDbText
73
0
0
TEXT
100
AcDbEntity
8
0
62
7
6
ByLayer
5
6dc
100
AcDbText
1
\U+004d\U+0065\U+006e\U+0067\U+0065\U+0020\U+003a\U+0020\U+003a\U+0020\U+0031\U+0033\U+0020
10
45
20
-29
30
0
40
5
41
1
50
0
51
0
7
Standard
11
45
21
-29
31
0
210
0
220
0
230
1
72
0
100
AcDbText
73
0
0
TEXT
100
AcDbEntity
8
0
62
7
6
ByLayer
5
6dd
100
AcDbText
1
\U+004b\U+0075\U+0020\U+003a\U+0020\U+0031\U+0020
10
45
20
-35
30
0
40
5
41
1
50
0
51
0
7
Standard
11
45
21
-35
31
0
210
0
220
0
230
1
72
0
100
AcDbText
73
0
0
LWPOLYLINE
100
AcDbEntity
8
0
62
9
6
ByLayer
5
14dd
100
AcDbPolyline
90
4
70
1
38
0
39
0
10
43
20
-3
40
0
41
0
42
0
10
114.2
20
-3
40
0
41
0
42
0
10
114.2
20
-37
40
0
41
0
42
0
10
43
20
-37
40
0
41
0
42
0
210
0
220
0
230
1
0
LWPOLYLINE
100
AcDbEntity
8
0
62
0
6
ByLayer
5
14de
100
AcDbPolyline
90
2
70
1
38
0
39
0
10
20
20
0
40
0
41
0
42
0
10
20
20
-15
40
0
41
0
42
0
210
0
220
0
230
1
0
LWPOLYLINE
100
AcDbEntity
8
0
62
0
6
ByLayer
5
14df
100
AcDbPolyline
90
2
70
1
38
0
39
0
10
9
20
-19
40
0
41
0
42
0
10
31
20
-41
40
0
41
0
42
0
210
0
220
0
230
1
0
LWPOLYLINE
100
AcDbEntity
8
0
62
0
6
ByLayer
5
14e0
100
AcDbPolyline
90
2
70
1
38
0
39
0
10
31
20
-19
40
0
41
0
42
0
10
9
20
-41
40
0
41
0
42
0
210
0
220
0
230
1
0
ELLIPSE
5
6f0
100
AcDbEntity
8
0
62
0
6
ByLayer
100
AcDbEllipse
10
20
20
-30
30
0
11
15
21
0
31
0
210
0
220
0
230
1
40
1
41
0
42
6.28318530717959
0
ENDBLK
5
6d8
100
AcDbEntity
8
0
100
AcDbBlockEnd
0
BLOCK
5
715
100
AcDbEntity
8
0
100
AcDbBlockBegin
2
bca9d28e-b865-40e2-952f-abfdea76da51
70
0
10
0
20
0
30
0
3
bca9d28e-b865-40e2-952f-abfdea76da51
0
TEXT
100
AcDbEntity
8
0
62
7
6
ByLayer
5
6f4
100
AcDbText
1
\U+0051\U+0041\U+0020\U+0031\U+0035\U+0037\U+0020
10
45
20
-16
30
0
40
5
41
1
50
0
51
0
7
Standard
11
45
21
-16
31
0
210
0
220
0
230
1
72
0
100
AcDbText
73
0
0
TEXT
100
AcDbEntity
8
0
62
7
6
ByLayer
5
6f5
100
AcDbText
1
\U+0054\U+004e\U+002d\U+0053\U+0020
10
45
20
-22
30
0
40
5
41
1
50
0
51
0
7
Standard
11
45
21
-22
31
0
210
0
220
0
230
1
72
0
100
AcDbText
73
0
0
TEXT
100
AcDbEntity
8
0
62
7
6
ByLayer
5
6f6
100
AcDbText
1
\U+0049\U+0062\U+0020\U+003a\U+0020\U+0034\U+002c\U+0037\U+0031\U+0020\U+0041
10
45
20
-28
30
0
40
5
41
1
50
0
51
0
7
Standard
11
45
21
-28
31
0
210
0
220
0
230
1
72
0
100
AcDbText
73
0
0
LWPOLYLINE
100
AcDbEntity
8
0
62
9
6
ByLayer
5
14e1
100
AcDbPolyline
90
4
70
1
38
0
39
0
10
43
20
-8
40
0
41
0
42
0
10
114.2
20
-8
40
0
41
0
42
0
10
114.2
20
-32
40
0
41
0
42
0
10
43
20
-32
40
0
41
0
42
0
210
0
220
0
230
1
0
LWPOLYLINE
100
AcDbEntity
8
0
62
0
6
ByLayer
5
14e2
100
AcDbPolyline
90
2
70
1
38
0
39
0
10
20
20
0
40
0
41
0
42
0
10
20
20
-20
40
0
41
0
42
0
210
0
220
0
230
1
0
LWPOLYLINE
100
AcDbEntity
8
0
62
0
6
ByLayer
5
14e3
100
AcDbPolyline
90
2
70
1
38
0
39
0
10
15
20
-5
40
0
41
0
42
0
10
25
20
-15
40
0
41
0
42
0
210
0
220
0
230
1
0
LWPOLYLINE
100
AcDbEntity
8
0
62
0
6
ByLayer
5
14e4
100
AcDbPolyline
90
2
70
1
38
0
39
0
10
15
20
-15
40
0
41
0
42
0
10
25
20
-5
40
0
41
0
42
0
210
0
220
0
230
1
0
LWPOLYLINE
100
AcDbEntity
8
0
62
0
6
ByLayer
5
14e5
100
AcDbPolyline
90
2
70
1
38
0
39
0
10
15
20
-20
40
0
41
0
42
0
10
25
20
-20
40
0
41
0
42
0
210
0
220
0
230
1
0
LWPOLYLINE
100
AcDbEntity
8
0
62
0
6
ByLayer
5
14e6
100
AcDbPolyline
90
2
70
1
38
0
39
0
10
10
20
-20
40
0
41
0
42
0
10
20
20
-40
40
0
41
0
42
0
210
0
220
0
230
1
0
LWPOLYLINE
100
AcDbEntity
8
0
62
0
6
ByLayer
5
14e7
100
AcDbPolyline
90
2
70
1
38
0
39
0
10
20
20
-40
40
0
41
0
42
0
10
20
20
-60
40
0
41
0
42
0
210
0
220
0
230
1
0
ENDBLK
5
6f3
100
AcDbEntity
8
0
100
AcDbBlockEnd
0
BLOCK
5
73f
100
AcDbEntity
8
0
100
AcDbBlockBegin
2
de810dd4-8ac4-472e-a726-0a680ae80327
70
0
10
0
20
0
30
0
3
de810dd4-8ac4-472e-a726-0a680ae80327
0
TEXT
100
AcDbEntity
8
0
62
7
6
ByLayer
5
718
100
AcDbText
1
\U+0057\U+0044\U+0020\U+0031\U+0035\U+0037\U+0020
10
45
20
-11
30
0
40
5
41
1
50
0
51
0
7
Standard
11
45
21
-11
31
0
210
0
220
0
230
1
72
0
100
AcDbText
73
0
0
TEXT
100
AcDbEntity
8
0
62
7
6
ByLayer
5
719
100
AcDbText
1
\U+0031\U+0035\U+0020\U+006d
10
45
20
-17
30
0
40
5
41
1
50
0
51
0
7
Standard
11
45
21
-17
31
0
210
0
220
0
230
1
72
0
100
AcDbText
73
0
0
LWPOLYLINE
100
AcDbEntity
8
0
62
9
6
ByLayer
5
14e8
100
AcDbPolyline
90
4
70
1
38
0
39
0
10
43
20
-3
40
0
41
0
42
0
10
114.2
20
-3
40
0
41
0
42
0
10
114.2
20
-22
40
0
41
0
42
0
10
43
20
-22
40
0
41
0
42
0
210
0
220
0
230
1
0
ELLIPSE
5
720
100
AcDbEntity
8
0
62
0
6
ByLayer
100
AcDbEllipse
10
20
20
-2
30
0
11
2
21
0
31
0
210
0
220
0
230
1
40
1
41
0
42
6.28318530717959
0
ELLIPSE
5
721
100
AcDbEntity
8
0
62
0
6
ByLayer
100
AcDbEllipse
10
20
20
-58
30
0
11
2
21
0
31
0
210
0
220
0
230
1
40
1
41
0
42
6.28318530717959
0
LWPOLYLINE
100
AcDbEntity
8
0
62
0
6
ByLayer
5
14e9
100
AcDbPolyline
90
2
70
1
38
0
39
0
10
20
20
-4
40
0
41
0
42
0
10
20
20
-56
40
0
41
0
42
0
210
0
220
0
230
1
0
LWPOLYLINE
100
AcDbEntity
8
0
62
0
6
ByLayer
5
14ea
100
AcDbPolyline
90
2
70
1
38
0
39
0
10
10
20
-16.5
40
0
41
0
42
0
10
30
20
-22.5
40
0
41
0
42
0
210
0
220
0
230
1
0
LWPOLYLINE
100
AcDbEntity
8
0
62
0
6
ByLayer
5
14eb
100
AcDbPolyline
90
2
70
1
38
0
39
0
10
10
20
-19.5
40
0
41
0
42
0
10
30
20
-25.5
40
0
41
0
42
0
210
0
220
0
230
1
0
LWPOLYLINE
100
AcDbEntity
8
0
62
0
6
ByLayer
5
14ec
100
AcDbPolyline
90
2
70
1
38
0
39
0
10
10
20
-22.5
40
0
41
0
42
0
10
30
20
-28.5
40
0
41
0
42
0
210
0
220
0
230
1
0
LWPOLYLINE
100
AcDbEntity
8
0
62
0
6
ByLayer
5
14ed
100
AcDbPolyline
90
2
70
1
38
0
39
0
10
10
20
-28.5
40
0
41
0
42
0
10
30
20
-34.5
40
0
41
0
42
0
210
0
220
0
230
1
0
ELLIPSE
5
736
100
AcDbEntity
8
0
62
0
6
ByLayer
100
AcDbEllipse
10
30
20
-34.5
30
0
11
1
21
0
31
0
210
0
220
0
230
1
40
1
41
0
42
6.28318530717959
0
LWPOLYLINE
100
AcDbEntity
8
0
62
0
6
ByLayer
5
14ee
100
AcDbPolyline
90
2
70
1
38
0
39
0
10
10
20
-37.5
40
0
41
0
42
0
10
30
20
-43.5
40
0
41
0
42
0
210
0
220
0
230
1
0
LWPOLYLINE
100
AcDbEntity
8
0
62
0
6
ByLayer
5
14ef
100
AcDbPolyline
90
2
70
1
38
0
39
0
10
30
20
-41.5
40
0
41
0
42
0
10
30
20
-45.5
40
0
41
0
42
0
210
0
220
0
230
1
0
ENDBLK
5
717
100
AcDbEntity
8
0
100
AcDbBlockEnd
0
BLOCK
5
75b
100
AcDbEntity
8
0
100
AcDbBlockBegin
2
8d5e63ac-b3f1-44ee-8fe3-9d1776cd5b19
70
0
10
0
20
0
30
0
3
8d5e63ac-b3f1-44ee-8fe3-9d1776cd5b19
0
TEXT
100
AcDbEntity
8
0
62
7
6
ByLayer
5
742
100
AcDbText
1
\U+0041\U+006e\U+0073\U+0063\U+0068\U+006c\U+002e\U+0020\U+0054\U+0065\U+0065\U+006b\U+00fc\U+0063\U+0068\U+0065\U+0020
10
45
20
-11
30
0
40
5
41
1
50
0
51
0
7
Standard
11
45
21
-11
31
0
210
0
220
0
230
1
72
0
100
AcDbText
73
0
0
TEXT
100
AcDbEntity
8
0
62
7
6
ByLayer
5
743
100
AcDbText
1
\U+0033\U+0020\U+006b\U+0057
10
45
20
-17
30
0
40
5
41
1
50
0
51
0
7
Standard
11
45
21
-17
31
0
210
0
220
0
230
1
72
0
100
AcDbText
73
0
0
TEXT
100
AcDbEntity
8
0
62
7
6
ByLayer
5
744
100
AcDbText
1
\U+0043\U+006f\U+0073\U+03c6\U+0020\U+003a\U+0020\U+0030\U+002c\U+0039\U+0032\U+0020
10
45
20
-23
30
0
40
5
41
1
50
0
51
0
7
Standard
11
45
21
-23
31
0
210
0
220
0
230
1
72
0
100
AcDbText
73
0
0
TEXT
100
AcDbEntity
8
0
62
7
6
ByLayer
5
745
100
AcDbText
1
\U+004d\U+0065\U+006e\U+0067\U+0065\U+0020\U+003a\U+0020\U+003a\U+0020\U+0031\U+0020
10
45
20
-29
30
0
40
5
41
1
50
0
51
0
7
Standard
11
45
21
-29
31
0
210
0
220
0
230
1
72
0
100
AcDbText
73
0
0
TEXT
100
AcDbEntity
8
0
62
7
6
ByLayer
5
746
100
AcDbText
1
\U+004b\U+0075\U+0020\U+003a\U+0020\U+0030\U+002c\U+0035\U+0020
10
45
20
-35
30
0
40
5
41
1
50
0
51
0
7
Standard
11
45
21
-35
31
0
210
0
220
0
230
1
72
0
100
AcDbText
73
0
0
LWPOLYLINE
100
AcDbEntity
8
0
62
9
6
ByLayer
5
14f0
100
AcDbPolyline
90
4
70
1
38
0
39
0
10
43
20
-3
40
0
41
0
42
0
10
115
20
-3
40
0
41
0
42
0
10
115
20
-37
40
0
41
0
42
0
10
43
20
-37
40
0
41
0
42
0
210
0
220
0
230
1
0
LWPOLYLINE
100
AcDbEntity
8
0
62
0
6
ByLayer
5
14f1
100
AcDbPolyline
90
2
70
1
38
0
39
0
10
0
20
-20
40
0
41
0
42
0
10
0
20
0
40
0
41
0
42
0
210
0
220
0
230
1
0
LWPOLYLINE
100
AcDbEntity
8
0
62
0
6
ByLayer
5
14f2
100
AcDbPolyline
90
2
70
1
38
0
39
0
10
0
20
0
40
0
41
0
42
0
10
40
20
0
40
0
41
0
42
0
210
0
220
0
230
1
0
LWPOLYLINE
100
AcDbEntity
8
0
62
0
6
ByLayer
5
14f3
100
AcDbPolyline
90
2
70
1
38
0
39
0
10
40
20
0
40
0
41
0
42
0
10
40
20
-20
40
0
41
0
42
0
210
0
220
0
230
1
0
SPLINE
100
AcDbEntity
8
0
62
0
6
ByLayer
5
75a
100
AcDbSpline
210
0
220
0
230
1
70
0
71
3
72
0
73
0
74
3
42
1E-10
43
1E-10
44
1E-10
11
0
21
-20
31
-20
11
20
21
0
31
0
11
40
21
-20
31
-20
0
SEQEND
5
759
100
AcDbEntity
8
0
0
ENDBLK
5
741
100
AcDbEntity
8
0
100
AcDbBlockEnd
0
BLOCK
5
77f
100
AcDbEntity
8
0
100
AcDbBlockBegin
2
68e8dc7b-1185-48fb-9868-a7130e635dbd
70
0
10
0
20
0
30
0
3
68e8dc7b-1185-48fb-9868-a7130e635dbd
0
TEXT
100
AcDbEntity
8
0
62
7
6
ByLayer
5
75e
100
AcDbText
1
\U+0051\U+0041\U+0020\U+0032\U+0033\U+0036\U+0020
10
45
20
-16
30
0
40
5
41
1
50
0
51
0
7
Standard
11
45
21
-16
31
0
210
0
220
0
230
1
72
0
100
AcDbText
73
0
0
TEXT
100
AcDbEntity
8
0
62
7
6
ByLayer
5
75f
100
AcDbText
1
\U+0054\U+004e\U+002d\U+0053\U+0020
10
45
20
-22
30
0
40
5
41
1
50
0
51
0
7
Standard
11
45
21
-22
31
0
210
0
220
0
230
1
72
0
100
AcDbText
73
0
0
TEXT
100
AcDbEntity
8
0
62
7
6
ByLayer
5
760
100
AcDbText
1
\U+0049\U+0062\U+0020\U+003a\U+0020\U+0031\U+0035\U+002c\U+0031\U+0020\U+0041
10
45
20
-28
30
0
40
5
41
1
50
0
51
0
7
Standard
11
45
21
-28
31
0
210
0
220
0
230
1
72
0
100
AcDbText
73
0
0
LWPOLYLINE
100
AcDbEntity
8
0
62
9
6
ByLayer
5
14f4
100
AcDbPolyline
90
4
70
1
38
0
39
0
10
43
20
-8
40
0
41
0
42
0
10
114.2
20
-8
40
0
41
0
42
0
10
114.2
20
-32
40
0
41
0
42
0
10
43
20
-32
40
0
41
0
42
0
210
0
220
0
230
1
0
LWPOLYLINE
100
AcDbEntity
8
0
62
0
6
ByLayer
5
14f5
100
AcDbPolyline
90
2
70
1
38
0
39
0
10
20
20
0
40
0
41
0
42
0
10
20
20
-20
40
0
41
0
42
0
210
0
220
0
230
1
0
LWPOLYLINE
100
AcDbEntity
8
0
62
0
6
ByLayer
5
14f6
100
AcDbPolyline
90
2
70
1
38
0
39
0
10
15
20
-5
40
0
41
0
42
0
10
25
20
-15
40
0
41
0
42
0
210
0
220
0
230
1
0
LWPOLYLINE
100
AcDbEntity
8
0
62
0
6
ByLayer
5
14f7
100
AcDbPolyline
90
2
70
1
38
0
39
0
10
15
20
-15
40
0
41
0
42
0
10
25
20
-5
40
0
41
0
42
0
210
0
220
0
230
1
0
LWPOLYLINE
100
AcDbEntity
8
0
62
0
6
ByLayer
5
14f8
100
AcDbPolyline
90
2
70
1
38
0
39
0
10
15
20
-20
40
0
41
0
42
0
10
25
20
-20
40
0
41
0
42
0
210
0
220
0
230
1
0
LWPOLYLINE
100
AcDbEntity
8
0
62
0
6
ByLayer
5
14f9
100
AcDbPolyline
90
2
70
1
38
0
39
0
10
10
20
-20
40
0
41
0
42
0
10
20
20
-40
40
0
41
0
42
0
210
0
220
0
230
1
0
LWPOLYLINE
100
AcDbEntity
8
0
62
0
6
ByLayer
5
14fa
100
AcDbPolyline
90
2
70
1
38
0
39
0
10
20
20
-40
40
0
41
0
42
0
10
20
20
-60
40
0
41
0
42
0
210
0
220
0
230
1
0
ENDBLK
5
75d
100
AcDbEntity
8
0
100
AcDbBlockEnd
0
BLOCK
5
7a1
100
AcDbEntity
8
0
100
AcDbBlockBegin
2
c1953c37-2163-478c-863b-9eee1edef272
70
0
10
0
20
0
30
0
3
c1953c37-2163-478c-863b-9eee1edef272
0
TEXT
100
AcDbEntity
8
0
62
7
6
ByLayer
5
782
100
AcDbText
1
\U+0057\U+0044\U+0020\U+0032\U+0033\U+0036\U+0020
10
45
20
-11
30
0
40
5
41
1
50
0
51
0
7
Standard
11
45
21
-11
31
0
210
0
220
0
230
1
72
0
100
AcDbText
73
0
0
TEXT
100
AcDbEntity
8
0
62
7
6
ByLayer
5
783
100
AcDbText
1
\U+0031\U+0036\U+0020\U+006d
10
45
20
-17
30
0
40
5
41
1
50
0
51
0
7
Standard
11
45
21
-17
31
0
210
0
220
0
230
1
72
0
100
AcDbText
73
0
0
LWPOLYLINE
100
AcDbEntity
8
0
62
9
6
ByLayer
5
14fb
100
AcDbPolyline
90
4
70
1
38
0
39
0
10
43
20
-3
40
0
41
0
42
0
10
114.2
20
-3
40
0
41
0
42
0
10
114.2
20
-22
40
0
41
0
42
0
10
43
20
-22
40
0
41
0
42
0
210
0
220
0
230
1
0
ELLIPSE
5
78a
100
AcDbEntity
8
0
62
0
6
ByLayer
100
AcDbEllipse
10
20
20
-2
30
0
11
2
21
0
31
0
210
0
220
0
230
1
40
1
41
0
42
6.28318530717959
0
ELLIPSE
5
78b
100
AcDbEntity
8
0
62
0
6
ByLayer
100
AcDbEllipse
10
20
20
-58
30
0
11
2
21
0
31
0
210
0
220
0
230
1
40
1
41
0
42
6.28318530717959
0
LWPOLYLINE
100
AcDbEntity
8
0
62
0
6
ByLayer
5
14fc
100
AcDbPolyline
90
2
70
1
38
0
39
0
10
20
20
-4
40
0
41
0
42
0
10
20
20
-56
40
0
41
0
42
0
210
0
220
0
230
1
0
LWPOLYLINE
100
AcDbEntity
8
0
62
0
6
ByLayer
5
14fd
100
AcDbPolyline
90
2
70
1
38
0
39
0
10
10
20
-19.5
40
0
41
0
42
0
10
30
20
-25.5
40
0
41
0
42
0
210
0
220
0
230
1
0
LWPOLYLINE
100
AcDbEntity
8
0
62
0
6
ByLayer
5
14fe
100
AcDbPolyline
90
2
70
1
38
0
39
0
10
10
20
-25.5
40
0
41
0
42
0
10
30
20
-31.5
40
0
41
0
42
0
210
0
220
0
230
1
0
ELLIPSE
5
798
100
AcDbEntity
8
0
62
0
6
ByLayer
100
AcDbEllipse
10
30
20
-31.5
30
0
11
1
21
0
31
0
210
0
220
0
230
1
40
1
41
0
42
6.28318530717959
0
LWPOLYLINE
100
AcDbEntity
8
0
62
0
6
ByLayer
5
14ff
100
AcDbPolyline
90
2
70
1
38
0
39
0
10
10
20
-34.5
40
0
41
0
42
0
10
30
20
-40.5
40
0
41
0
42
0
210
0
220
0
230
1
0
LWPOLYLINE
100
AcDbEntity
8
0
62
0
6
ByLayer
5
1500
100
AcDbPolyline
90
2
70
1
38
0
39
0
10
30
20
-38.5
40
0
41
0
42
0
10
30
20
-42.5
40
0
41
0
42
0
210
0
220
0
230
1
0
ENDBLK
5
781
100
AcDbEntity
8
0
100
AcDbBlockEnd
0
BLOCK
5
7a8
100
AcDbEntity
8
0
100
AcDbBlockBegin
2
e0d12c4a-ef7b-4903-811e-39fd62d26b6b
70
0
10
0
20
0
30
0
3
e0d12c4a-ef7b-4903-811e-39fd62d26b6b
0
LWPOLYLINE
100
AcDbEntity
8
0
62
0
6
ByLayer
5
1501
100
AcDbPolyline
90
2
70
1
38
0
39
0
10
20
20
0
40
0
41
0
42
0
10
20
20
-10
40
0
41
0
42
0
210
0
220
0
230
1
0
ENDBLK
5
7a3
100
AcDbEntity
8
0
100
AcDbBlockEnd
0
BLOCK
5
7cc
100
AcDbEntity
8
0
100
AcDbBlockBegin
2
87fac24f-dbb0-4d1e-b206-4bcd0127a63a
70
0
10
0
20
0
30
0
3
87fac24f-dbb0-4d1e-b206-4bcd0127a63a
0
TEXT
100
AcDbEntity
8
0
62
7
6
ByLayer
5
7ab
100
AcDbText
1
\U+0028\U+0065\U+0068\U+0065\U+006d\U+0020\U+0055\U+0056\U+0020\U+0053\U+0056\U+0020\U+004f\U+0047\U+0020\U+0046\U+0031\U+002e\U+0032\U+0029\U+0020
10
45
20
-16
30
0
40
5
41
1
50
0
51
0
7
Standard
11
45
21
-16
31
0
210
0
220
0
230
1
72
0
100
AcDbText
73
0
0
TEXT
100
AcDbEntity
8
0
62
7
6
ByLayer
5
7ac
100
AcDbText
1
\U+0054\U+004e\U+002d\U+0053\U+0020
10
45
20
-22
30
0
40
5
41
1
50
0
51
0
7
Standard
11
45
21
-22
31
0
210
0
220
0
230
1
72
0
100
AcDbText
73
0
0
TEXT
100
AcDbEntity
8
0
62
7
6
ByLayer
5
7ad
100
AcDbText
1
\U+0049\U+0062\U+0020\U+003a\U+0020\U+0036\U+0020\U+0041
10
45
20
-28
30
0
40
5
41
1
50
0
51
0
7
Standard
11
45
21
-28
31
0
210
0
220
0
230
1
72
0
100
AcDbText
73
0
0
LWPOLYLINE
100
AcDbEntity
8
0
62
9
6
ByLayer
5
1502
100
AcDbPolyline
90
4
70
1
38
0
39
0
10
43
20
-8
40
0
41
0
42
0
10
131
20
-8
40
0
41
0
42
0
10
131
20
-32
40
0
41
0
42
0
10
43
20
-32
40
0
41
0
42
0
210
0
220
0
230
1
0
LWPOLYLINE
100
AcDbEntity
8
0
62
0
6
ByLayer
5
1503
100
AcDbPolyline
90
2
70
1
38
0
39
0
10
20
20
0
40
0
41
0
42
0
10
20
20
-20
40
0
41
0
42
0
210
0
220
0
230
1
0
LWPOLYLINE
100
AcDbEntity
8
0
62
0
6
ByLayer
5
1504
100
AcDbPolyline
90
2
70
1
38
0
39
0
10
15
20
-5
40
0
41
0
42
0
10
25
20
-15
40
0
41
0
42
0
210
0
220
0
230
1
0
LWPOLYLINE
100
AcDbEntity
8
0
62
0
6
ByLayer
5
1505
100
AcDbPolyline
90
2
70
1
38
0
39
0
10
15
20
-15
40
0
41
0
42
0
10
25
20
-5
40
0
41
0
42
0
210
0
220
0
230
1
0
LWPOLYLINE
100
AcDbEntity
8
0
62
0
6
ByLayer
5
1506
100
AcDbPolyline
90
2
70
1
38
0
39
0
10
15
20
-20
40
0
41
0
42
0
10
25
20
-20
40
0
41
0
42
0
210
0
220
0
230
1
0
LWPOLYLINE
100
AcDbEntity
8
0
62
0
6
ByLayer
5
1507
100
AcDbPolyline
90
2
70
1
38
0
39
0
10
10
20
-20
40
0
41
0
42
0
10
20
20
-40
40
0
41
0
42
0
210
0
220
0
230
1
0
LWPOLYLINE
100
AcDbEntity
8
0
62
0
6
ByLayer
5
1508
100
AcDbPolyline
90
2
70
1
38
0
39
0
10
20
20
-40
40
0
41
0
42
0
10
20
20
-60
40
0
41
0
42
0
210
0
220
0
230
1
0
ENDBLK
5
7aa
100
AcDbEntity
8
0
100
AcDbBlockEnd
0
BLOCK
5
7ee
100
AcDbEntity
8
0
100
AcDbBlockBegin
2
c19a7850-d1e3-4d90-88c3-22fccd839b2c
70
0
10
0
20
0
30
0
3
c19a7850-d1e3-4d90-88c3-22fccd839b2c
0
TEXT
100
AcDbEntity
8
0
62
7
6
ByLayer
5
7cf
100
AcDbText
1
\U+0057\U+0044\U+0020\U+0031\U+0035\U+0039\U+0020\U+0028\U+0031\U+0029\U+0020
10
45
20
-11
30
0
40
5
41
1
50
0
51
0
7
Standard
11
45
21
-11
31
0
210
0
220
0
230
1
72
0
100
AcDbText
73
0
0
TEXT
100
AcDbEntity
8
0
62
7
6
ByLayer
5
7d0
100
AcDbText
1
\U+0031\U+0030\U+0020\U+006d
10
45
20
-17
30
0
40
5
41
1
50
0
51
0
7
Standard
11
45
21
-17
31
0
210
0
220
0
230
1
72
0
100
AcDbText
73
0
0
LWPOLYLINE
100
AcDbEntity
8
0
62
9
6
ByLayer
5
1509
100
AcDbPolyline
90
4
70
1
38
0
39
0
10
43
20
-3
40
0
41
0
42
0
10
114.2
20
-3
40
0
41
0
42
0
10
114.2
20
-22
40
0
41
0
42
0
10
43
20
-22
40
0
41
0
42
0
210
0
220
0
230
1
0
ELLIPSE
5
7d7
100
AcDbEntity
8
0
62
0
6
ByLayer
100
AcDbEllipse
10
20
20
-2
30
0
11
2
21
0
31
0
210
0
220
0
230
1
40
1
41
0
42
6.28318530717959
0
ELLIPSE
5
7d8
100
AcDbEntity
8
0
62
0
6
ByLayer
100
AcDbEllipse
10
20
20
-58
30
0
11
2
21
0
31
0
210
0
220
0
230
1
40
1
41
0
42
6.28318530717959
0
LWPOLYLINE
100
AcDbEntity
8
0
62
0
6
ByLayer
5
150a
100
AcDbPolyline
90
2
70
1
38
0
39
0
10
20
20
-4
40
0
41
0
42
0
10
20
20
-56
40
0
41
0
42
0
210
0
220
0
230
1
0
LWPOLYLINE
100
AcDbEntity
8
0
62
0
6
ByLayer
5
150b
100
AcDbPolyline
90
2
70
1
38
0
39
0
10
10
20
-19.5
40
0
41
0
42
0
10
30
20
-25.5
40
0
41
0
42
0
210
0
220
0
230
1
0
LWPOLYLINE
100
AcDbEntity
8
0
62
0
6
ByLayer
5
150c
100
AcDbPolyline
90
2
70
1
38
0
39
0
10
10
20
-25.5
40
0
41
0
42
0
10
30
20
-31.5
40
0
41
0
42
0
210
0
220
0
230
1
0
ELLIPSE
5
7e5
100
AcDbEntity
8
0
62
0
6
ByLayer
100
AcDbEllipse
10
30
20
-31.5
30
0
11
1
21
0
31
0
210
0
220
0
230
1
40
1
41
0
42
6.28318530717959
0
LWPOLYLINE
100
AcDbEntity
8
0
62
0
6
ByLayer
5
150d
100
AcDbPolyline
90
2
70
1
38
0
39
0
10
10
20
-34.5
40
0
41
0
42
0
10
30
20
-40.5
40
0
41
0
42
0
210
0
220
0
230
1
0
LWPOLYLINE
100
AcDbEntity
8
0
62
0
6
ByLayer
5
150e
100
AcDbPolyline
90
2
70
1
38
0
39
0
10
30
20
-38.5
40
0
41
0
42
0
10
30
20
-42.5
40
0
41
0
42
0
210
0
220
0
230
1
0
ENDBLK
5
7ce
100
AcDbEntity
8
0
100
AcDbBlockEnd
0
BLOCK
5
80e
100
AcDbEntity
8
0
100
AcDbBlockBegin
2
913da518-6cae-4804-9d8c-af239907d5de
70
0
10
0
20
0
30
0
3
913da518-6cae-4804-9d8c-af239907d5de
0
TEXT
100
AcDbEntity
8
0
62
7
6
ByLayer
5
7f1
100
AcDbText
1
\U+0041\U+0041\U+0020\U+0031\U+0035\U+0039\U+0020\U+0028\U+0031\U+0029\U+0020
10
45
20
-11
30
0
40
5
41
1
50
0
51
0
7
Standard
11
45
21
-11
31
0
210
0
220
0
230
1
72
0
100
AcDbText
73
0
0
TEXT
100
AcDbEntity
8
0
62
7
6
ByLayer
5
7f2
100
AcDbText
1
\U+0036\U+0020\U+0041
10
45
20
-17
30
0
40
5
41
1
50
0
51
0
7
Standard
11
45
21
-17
31
0
210
0
220
0
230
1
72
0
100
AcDbText
73
0
0
TEXT
100
AcDbEntity
8
0
62
7
6
ByLayer
5
7f3
100
AcDbText
1
\U+0043\U+006f\U+0073\U+03c6\U+0020\U+003a\U+0020\U+0030\U+002c\U+0039\U+0032\U+0020
10
45
20
-23
30
0
40
5
41
1
50
0
51
0
7
Standard
11
45
21
-23
31
0
210
0
220
0
230
1
72
0
100
AcDbText
73
0
0
TEXT
100
AcDbEntity
8
0
62
7
6
ByLayer
5
7f4
100
AcDbText
1
\U+004d\U+0065\U+006e\U+0067\U+0065\U+0020\U+003a\U+0020\U+003a\U+0020\U+0031\U+0020
10
45
20
-29
30
0
40
5
41
1
50
0
51
0
7
Standard
11
45
21
-29
31
0
210
0
220
0
230
1
72
0
100
AcDbText
73
0
0
TEXT
100
AcDbEntity
8
0
62
7
6
ByLayer
5
7f5
100
AcDbText
1
\U+004b\U+0075\U+0020\U+003a\U+0020\U+0031\U+0020
10
45
20
-35
30
0
40
5
41
1
50
0
51
0
7
Standard
11
45
21
-35
31
0
210
0
220
0
230
1
72
0
100
AcDbText
73
0
0
LWPOLYLINE
100
AcDbEntity
8
0
62
9
6
ByLayer
5
150f
100
AcDbPolyline
90
4
70
1
38
0
39
0
10
43
20
-3
40
0
41
0
42
0
10
114.2
20
-3
40
0
41
0
42
0
10
114.2
20
-37
40
0
41
0
42
0
10
43
20
-37
40
0
41
0
42
0
210
0
220
0
230
1
0
LWPOLYLINE
100
AcDbEntity
8
0
62
0
6
ByLayer
5
1510
100
AcDbPolyline
90
4
70
1
38
0
39
0
10
5
20
-15
40
0
41
0
42
0
10
35
20
-15
40
0
41
0
42
0
10
35
20
-45
40
0
41
0
42
0
10
5
20
-45
40
0
41
0
42
0
210
0
220
0
230
1
0
LWPOLYLINE
100
AcDbEntity
8
0
62
0
6
ByLayer
5
1511
100
AcDbPolyline
90
2
70
1
38
0
39
0
10
20
20
0
40
0
41
0
42
0
10
20
20
-15
40
0
41
0
42
0
210
0
220
0
230
1
0
LWPOLYLINE
100
AcDbEntity
8
0
62
0
6
ByLayer
5
1512
100
AcDbPolyline
90
2
70
1
38
0
39
0
10
5
20
-15
40
0
41
0
42
0
10
35
20
-45
40
0
41
0
42
0
210
0
220
0
230
1
0
LWPOLYLINE
100
AcDbEntity
8
0
62
0
6
ByLayer
5
1513
100
AcDbPolyline
90
2
70
1
38
0
39
0
10
5
20
-45
40
0
41
0
42
0
10
35
20
-15
40
0
41
0
42
0
210
0
220
0
230
1
0
ENDBLK
5
7f0
100
AcDbEntity
8
0
100
AcDbBlockEnd
0
BLOCK
5
830
100
AcDbEntity
8
0
100
AcDbBlockBegin
2
5e88c01b-9d1c-42bb-bfcf-500482ddf41b
70
0
10
0
20
0
30
0
3
5e88c01b-9d1c-42bb-bfcf-500482ddf41b
0
TEXT
100
AcDbEntity
8
0
62
7
6
ByLayer
5
811
100
AcDbText
1
\U+002d\U+0046\U+0020\U+0055\U+0056\U+0020\U+0044\U+0047\U+0020
10
45
20
-16
30
0
40
5
41
1
50
0
51
0
7
Standard
11
45
21
-16
31
0
210
0
220
0
230
1
72
0
100
AcDbText
73
0
0
TEXT
100
AcDbEntity
8
0
62
7
6
ByLayer
5
812
100
AcDbText
1
\U+0054\U+004e\U+002d\U+0053\U+0020
10
45
20
-22
30
0
40
5
41
1
50
0
51
0
7
Standard
11
45
21
-22
31
0
210
0
220
0
230
1
72
0
100
AcDbText
73
0
0
LWPOLYLINE
100
AcDbEntity
8
0
62
9
6
ByLayer
5
1514
100
AcDbPolyline
90
4
70
1
38
0
39
0
10
43
20
-8
40
0
41
0
42
0
10
114.2
20
-8
40
0
41
0
42
0
10
114.2
20
-27
40
0
41
0
42
0
10
43
20
-27
40
0
41
0
42
0
210
0
220
0
230
1
0
LWPOLYLINE
100
AcDbEntity
8
0
62
0
6
ByLayer
5
1515
100
AcDbPolyline
90
2
70
1
38
0
39
0
10
20
20
0
40
0
41
0
42
0
10
20
20
-5
40
0
41
0
42
0
210
0
220
0
230
1
0
LWPOLYLINE
100
AcDbEntity
8
0
62
0
6
ByLayer
5
1516
100
AcDbPolyline
90
2
70
1
38
0
39
0
10
10
20
-5
40
0
41
0
42
0
10
20
20
-25
40
0
41
0
42
0
210
0
220
0
230
1
0
LWPOLYLINE
100
AcDbEntity
8
0
62
0
6
ByLayer
5
1517
100
AcDbPolyline
90
2
70
1
38
0
39
0
10
20
20
-25
40
0
41
0
42
0
10
20
20
-60
40
0
41
0
42
0
210
0
220
0
230
1
0
LWPOLYLINE
100
AcDbEntity
8
0
62
0
6
ByLayer
5
1518
100
AcDbPolyline
90
2
70
1
38
0
39
0
10
16
20
-5
40
0
41
0
42
0
10
24
20
-5
40
0
41
0
42
0
210
0
220
0
230
1
0
ELLIPSE
5
829
100
AcDbEntity
8
0
62
0
6
ByLayer
100
AcDbEllipse
10
20
20
-7
30
0
11
1.5
21
0
31
0
210
0
220
0
230
1
40
1
41
0
42
6.28318530717959
0
LWPOLYLINE
100
AcDbEntity
8
0
62
0
6
ByLayer
5
1519
100
AcDbPolyline
90
4
70
1
38
0
39
0
10
16
20
-38
40
0
41
0
42
0
10
24
20
-38
40
0
41
0
42
0
10
24
20
-54
40
0
41
0
42
0
10
16
20
-54
40
0
41
0
42
0
210
0
220
0
230
1
0
ENDBLK
5
810
100
AcDbEntity
8
0
100
AcDbBlockEnd
0
BLOCK
5
85a
100
AcDbEntity
8
0
100
AcDbBlockBegin
2
8c0eef5b-107f-4868-8d17-1f280868c755
70
0
10
0
20
0
30
0
3
8c0eef5b-107f-4868-8d17-1f280868c755
0
TEXT
100
AcDbEntity
8
0
62
7
6
ByLayer
5
833
100
AcDbText
1
\U+0057\U+0044\U+0020\U+0053\U+0034\U+0020
10
45
20
-11
30
0
40
5
41
1
50
0
51
0
7
Standard
11
45
21
-11
31
0
210
0
220
0
230
1
72
0
100
AcDbText
73
0
0
TEXT
100
AcDbEntity
8
0
62
7
6
ByLayer
5
834
100
AcDbText
1
\U+0033\U+0035\U+0020\U+006d
10
45
20
-17
30
0
40
5
41
1
50
0
51
0
7
Standard
11
45
21
-17
31
0
210
0
220
0
230
1
72
0
100
AcDbText
73
0
0
LWPOLYLINE
100
AcDbEntity
8
0
62
9
6
ByLayer
5
151a
100
AcDbPolyline
90
4
70
1
38
0
39
0
10
43
20
-3
40
0
41
0
42
0
10
114.2
20
-3
40
0
41
0
42
0
10
114.2
20
-22
40
0
41
0
42
0
10
43
20
-22
40
0
41
0
42
0
210
0
220
0
230
1
0
ELLIPSE
5
83b
100
AcDbEntity
8
0
62
0
6
ByLayer
100
AcDbEllipse
10
20
20
-2
30
0
11
2
21
0
31
0
210
0
220
0
230
1
40
1
41
0
42
6.28318530717959
0
ELLIPSE
5
83c
100
AcDbEntity
8
0
62
0
6
ByLayer
100
AcDbEllipse
10
20
20
-58
30
0
11
2
21
0
31
0
210
0
220
0
230
1
40
1
41
0
42
6.28318530717959
0
LWPOLYLINE
100
AcDbEntity
8
0
62
0
6
ByLayer
5
151b
100
AcDbPolyline
90
2
70
1
38
0
39
0
10
20
20
-4
40
0
41
0
42
0
10
20
20
-56
40
0
41
0
42
0
210
0
220
0
230
1
0
LWPOLYLINE
100
AcDbEntity
8
0
62
0
6
ByLayer
5
151c
100
AcDbPolyline
90
2
70
1
38
0
39
0
10
10
20
-16.5
40
0
41
0
42
0
10
30
20
-22.5
40
0
41
0
42
0
210
0
220
0
230
1
0
LWPOLYLINE
100
AcDbEntity
8
0
62
0
6
ByLayer
5
151d
100
AcDbPolyline
90
2
70
1
38
0
39
0
10
10
20
-19.5
40
0
41
0
42
0
10
30
20
-25.5
40
0
41
0
42
0
210
0
220
0
230
1
0
LWPOLYLINE
100
AcDbEntity
8
0
62
0
6
ByLayer
5
151e
100
AcDbPolyline
90
2
70
1
38
0
39
0
10
10
20
-22.5
40
0
41
0
42
0
10
30
20
-28.5
40
0
41
0
42
0
210
0
220
0
230
1
0
LWPOLYLINE
100
AcDbEntity
8
0
62
0
6
ByLayer
5
151f
100
AcDbPolyline
90
2
70
1
38
0
39
0
10
10
20
-28.5
40
0
41
0
42
0
10
30
20
-34.5
40
0
41
0
42
0
210
0
220
0
230
1
0
ELLIPSE
5
851
100
AcDbEntity
8
0
62
0
6
ByLayer
100
AcDbEllipse
10
30
20
-34.5
30
0
11
1
21
0
31
0
210
0
220
0
230
1
40
1
41
0
42
6.28318530717959
0
LWPOLYLINE
100
AcDbEntity
8
0
62
0
6
ByLayer
5
1520
100
AcDbPolyline
90
2
70
1
38
0
39
0
10
10
20
-37.5
40
0
41
0
42
0
10
30
20
-43.5
40
0
41
0
42
0
210
0
220
0
230
1
0
LWPOLYLINE
100
AcDbEntity
8
0
62
0
6
ByLayer
5
1521
100
AcDbPolyline
90
2
70
1
38
0
39
0
10
30
20
-41.5
40
0
41
0
42
0
10
30
20
-45.5
40
0
41
0
42
0
210
0
220
0
230
1
0
ENDBLK
5
832
100
AcDbEntity
8
0
100
AcDbBlockEnd
0
BLOCK
5
861
100
AcDbEntity
8
0
100
AcDbBlockBegin
2
f1b415ac-4516-4234-9e16-72f24f7993ef
70
0
10
0
20
0
30
0
3
f1b415ac-4516-4234-9e16-72f24f7993ef
0
LWPOLYLINE
100
AcDbEntity
8
0
62
0
6
ByLayer
5
1522
100
AcDbPolyline
90
2
70
1
38
0
39
0
10
20
20
0
40
0
41
0
42
0
10
20
20
-10
40
0
41
0
42
0
210
0
220
0
230
1
0
ENDBLK
5
85c
100
AcDbEntity
8
0
100
AcDbBlockEnd
0
BLOCK
5
87e
100
AcDbEntity
8
0
100
AcDbBlockBegin
2
efd38545-6d50-4700-8da8-89e23fbf7364
70
0
10
0
20
0
30
0
3
efd38545-6d50-4700-8da8-89e23fbf7364
0
TEXT
100
AcDbEntity
8
0
62
7
6
ByLayer
5
864
100
AcDbText
1
\U+0057\U+0043\U+0020\U+0031\U+0036\U+0031\U+0020
10
850
20
39
30
0
40
5
41
1
50
0
51
0
7
Standard
11
850
21
39
31
0
210
0
220
0
230
1
72
0
100
AcDbText
73
0
0
TEXT
100
AcDbEntity
8
0
62
7
6
ByLayer
5
865
100
AcDbText
1
\U+0038\U+002c\U+0035\U+0032\U+0020\U+006b\U+0056\U+0041
10
850
20
33
30
0
40
5
41
1
50
0
51
0
7
Standard
11
850
21
33
31
0
210
0
220
0
230
1
72
0
100
AcDbText
73
0
0
TEXT
100
AcDbEntity
8
0
62
7
6
ByLayer
5
866
100
AcDbText
1
\U+0033\U+002c\U+0033\U+0034\U+0020\U+006b\U+0076\U+0061\U+0072
10
850
20
27
30
0
40
5
41
1
50
0
51
0
7
Standard
11
850
21
27
31
0
210
0
220
0
230
1
72
0
100
AcDbText
73
0
0
TEXT
100
AcDbEntity
8
0
62
7
6
ByLayer
5
867
100
AcDbText
1
\U+004b\U+0073\U+0020\U+003a\U+0020\U+0030\U+002c\U+0038\U+0020
10
850
20
21
30
0
40
5
41
1
50
0
51
0
7
Standard
11
850
21
21
31
0
210
0
220
0
230
1
72
0
100
AcDbText
73
0
0
LWPOLYLINE
100
AcDbEntity
8
0
62
9
6
ByLayer
5
1523
100
AcDbPolyline
90
4
70
1
38
0
39
0
10
848
20
47
40
0
41
0
42
0
10
919.2
20
47
40
0
41
0
42
0
10
919.2
20
18
40
0
41
0
42
0
10
848
20
18
40
0
41
0
42
0
210
0
220
0
230
1
0
TEXT
100
AcDbEntity
8
0
62
7
6
ByLayer
5
86e
100
AcDbText
1
\U+0055\U+0056\U+0020\U+0053\U+0056\U+0020\U+0044\U+0047\U+0020
10
-45
20
59
30
0
40
5
41
1
50
0
51
0
7
Standard
11
-45
21
59
31
0
210
0
220
0
230
1
72
0
100
AcDbText
73
0
0
TEXT
100
AcDbEntity
8
0
62
7
6
ByLayer
5
86f
100
AcDbText
1
\U+0041\U+0075\U+0073\U+0077\U+0061\U+0068\U+006c\U+0020
10
-45
20
53
30
0
40
5
41
1
50
0
51
0
7
Standard
11
-45
21
53
31
0
210
0
220
0
230
1
72
0
100
AcDbText
73
0
0
TEXT
100
AcDbEntity
8
0
62
7
6
ByLayer
5
870
100
AcDbText
1
\U+004e\U+0069\U+0063\U+0068\U+0074\U+0020\U+0061\U+006e\U+0067\U+0065\U+0067\U+0065\U+0062\U+0065\U+006e\U+0020
10
-45
20
47
30
0
40
5
41
1
50
0
51
0
7
Standard
11
-45
21
47
31
0
210
0
220
0
230
1
72
0
100
AcDbText
73
0
0
TEXT
100
AcDbEntity
8
0
62
7
6
ByLayer
5
871
100
AcDbText
1
\U+0030\U+0020\U+0041
10
-45
20
41
30
0
40
5
41
1
50
0
51
0
7
Standard
11
-45
21
41
31
0
210
0
220
0
230
1
72
0
100
AcDbText
73
0
0
LWPOLYLINE
100
AcDbEntity
8
0
62
9
6
ByLayer
5
1524
100
AcDbPolyline
90
4
70
1
38
0
39
0
10
-47
20
67
40
0
41
0
42
0
10
40.2
20
67
40
0
41
0
42
0
10
40.2
20
38
40
0
41
0
42
0
10
-47
20
38
40
0
41
0
42
0
210
0
220
0
230
1
0
LWPOLYLINE
100
AcDbEntity
8
0
62
0
6
ByLayer
5
1525
100
AcDbPolyline
90
4
70
1
38
0
39
0
10
0
20
0
40
0
41
0
42
0
10
840
20
0
40
0
41
0
42
0
10
840
20
-5
40
0
41
0
42
0
10
0
20
-5
40
0
41
0
42
0
210
0
220
0
230
1
0
ENDBLK
5
863
100
AcDbEntity
8
0
100
AcDbBlockEnd
0
BLOCK
5
89a
100
AcDbEntity
8
0
100
AcDbBlockBegin
2
29e31009-4b2e-4b66-ad68-5128be585a5e
70
0
10
0
20
0
30
0
3
29e31009-4b2e-4b66-ad68-5128be585a5e
0
TEXT
100
AcDbEntity
8
0
62
7
6
ByLayer
5
881
100
AcDbText
1
\U+0041\U+0041\U+0020\U+0031\U+0036\U+0036\U+0020
10
45
20
-11
30
0
40
5
41
1
50
0
51
0
7
Standard
11
45
21
-11
31
0
210
0
220
0
230
1
72
0
100
AcDbText
73
0
0
TEXT
100
AcDbEntity
8
0
62
7
6
ByLayer
5
882
100
AcDbText
1
\U+0030\U+002c\U+0035\U+0020\U+006b\U+0057
10
45
20
-17
30
0
40
5
41
1
50
0
51
0
7
Standard
11
45
21
-17
31
0
210
0
220
0
230
1
72
0
100
AcDbText
73
0
0
TEXT
100
AcDbEntity
8
0
62
7
6
ByLayer
5
883
100
AcDbText
1
\U+0043\U+006f\U+0073\U+03c6\U+0020\U+003a\U+0020\U+0030\U+002c\U+0039\U+0032\U+0020
10
45
20
-23
30
0
40
5
41
1
50
0
51
0
7
Standard
11
45
21
-23
31
0
210
0
220
0
230
1
72
0
100
AcDbText
73
0
0
TEXT
100
AcDbEntity
8
0
62
7
6
ByLayer
5
884
100
AcDbText
1
\U+004d\U+0065\U+006e\U+0067\U+0065\U+0020\U+003a\U+0020\U+003a\U+0020\U+0037\U+0020
10
45
20
-29
30
0
40
5
41
1
50
0
51
0
7
Standard
11
45
21
-29
31
0
210
0
220
0
230
1
72
0
100
AcDbText
73
0
0
TEXT
100
AcDbEntity
8
0
62
7
6
ByLayer
5
885
100
AcDbText
1
\U+004b\U+0075\U+0020\U+003a\U+0020\U+0031\U+0020
10
45
20
-35
30
0
40
5
41
1
50
0
51
0
7
Standard
11
45
21
-35
31
0
210
0
220
0
230
1
72
0
100
AcDbText
73
0
0
LWPOLYLINE
100
AcDbEntity
8
0
62
9
6
ByLayer
5
1526
100
AcDbPolyline
90
4
70
1
38
0
39
0
10
43
20
-3
40
0
41
0
42
0
10
114.2
20
-3
40
0
41
0
42
0
10
114.2
20
-37
40
0
41
0
42
0
10
43
20
-37
40
0
41
0
42
0
210
0
220
0
230
1
0
LWPOLYLINE
100
AcDbEntity
8
0
62
0
6
ByLayer
5
1527
100
AcDbPolyline
90
2
70
1
38
0
39
0
10
0
20
-20
40
0
41
0
42
0
10
0
20
0
40
0
41
0
42
0
210
0
220
0
230
1
0
LWPOLYLINE
100
AcDbEntity
8
0
62
0
6
ByLayer
5
1528
100
AcDbPolyline
90
2
70
1
38
0
39
0
10
0
20
0
40
0
41
0
42
0
10
40
20
0
40
0
41
0
42
0
210
0
220
0
230
1
0
LWPOLYLINE
100
AcDbEntity
8
0
62
0
6
ByLayer
5
1529
100
AcDbPolyline
90
2
70
1
38
0
39
0
10
40
20
0
40
0
41
0
42
0
10
40
20
-20
40
0
41
0
42
0
210
0
220
0
230
1
0
SPLINE
100
AcDbEntity
8
0
62
0
6
ByLayer
5
899
100
AcDbSpline
210
0
220
0
230
1
70
0
71
3
72
0
73
0
74
3
42
1E-10
43
1E-10
44
1E-10
11
0
21
-20
31
-20
11
20
21
0
31
0
11
40
21
-20
31
-20
0
SEQEND
5
898
100
AcDbEntity
8
0
0
ENDBLK
5
880
100
AcDbEntity
8
0
100
AcDbBlockEnd
0
BLOCK
5
8bc
100
AcDbEntity
8
0
100
AcDbBlockBegin
2
ca7237ad-eb97-4c76-a7ee-a433fccf742a
70
0
10
0
20
0
30
0
3
ca7237ad-eb97-4c76-a7ee-a433fccf742a
0
TEXT
100
AcDbEntity
8
0
62
7
6
ByLayer
5
89d
100
AcDbText
1
\U+0057\U+0044\U+0020\U+0031\U+0036\U+0036\U+0020
10
45
20
-11
30
0
40
5
41
1
50
0
51
0
7
Standard
11
45
21
-11
31
0
210
0
220
0
230
1
72
0
100
AcDbText
73
0
0
TEXT
100
AcDbEntity
8
0
62
7
6
ByLayer
5
89e
100
AcDbText
1
\U+0031\U+0035\U+0020\U+006d
10
45
20
-17
30
0
40
5
41
1
50
0
51
0
7
Standard
11
45
21
-17
31
0
210
0
220
0
230
1
72
0
100
AcDbText
73
0
0
LWPOLYLINE
100
AcDbEntity
8
0
62
9
6
ByLayer
5
152a
100
AcDbPolyline
90
4
70
1
38
0
39
0
10
43
20
-3
40
0
41
0
42
0
10
114.2
20
-3
40
0
41
0
42
0
10
114.2
20
-22
40
0
41
0
42
0
10
43
20
-22
40
0
41
0
42
0
210
0
220
0
230
1
0
ELLIPSE
5
8a5
100
AcDbEntity
8
0
62
0
6
ByLayer
100
AcDbEllipse
10
20
20
-2
30
0
11
2
21
0
31
0
210
0
220
0
230
1
40
1
41
0
42
6.28318530717959
0
ELLIPSE
5
8a6
100
AcDbEntity
8
0
62
0
6
ByLayer
100
AcDbEllipse
10
20
20
-58
30
0
11
2
21
0
31
0
210
0
220
0
230
1
40
1
41
0
42
6.28318530717959
0
LWPOLYLINE
100
AcDbEntity
8
0
62
0
6
ByLayer
5
152b
100
AcDbPolyline
90
2
70
1
38
0
39
0
10
20
20
-4
40
0
41
0
42
0
10
20
20
-56
40
0
41
0
42
0
210
0
220
0
230
1
0
LWPOLYLINE
100
AcDbEntity
8
0
62
0
6
ByLayer
5
152c
100
AcDbPolyline
90
2
70
1
38
0
39
0
10
10
20
-19.5
40
0
41
0
42
0
10
30
20
-25.5
40
0
41
0
42
0
210
0
220
0
230
1
0
LWPOLYLINE
100
AcDbEntity
8
0
62
0
6
ByLayer
5
152d
100
AcDbPolyline
90
2
70
1
38
0
39
0
10
10
20
-25.5
40
0
41
0
42
0
10
30
20
-31.5
40
0
41
0
42
0
210
0
220
0
230
1
0
ELLIPSE
5
8b3
100
AcDbEntity
8
0
62
0
6
ByLayer
100
AcDbEllipse
10
30
20
-31.5
30
0
11
1
21
0
31
0
210
0
220
0
230
1
40
1
41
0
42
6.28318530717959
0
LWPOLYLINE
100
AcDbEntity
8
0
62
0
6
ByLayer
5
152e
100
AcDbPolyline
90
2
70
1
38
0
39
0
10
10
20
-34.5
40
0
41
0
42
0
10
30
20
-40.5
40
0
41
0
42
0
210
0
220
0
230
1
0
LWPOLYLINE
100
AcDbEntity
8
0
62
0
6
ByLayer
5
152f
100
AcDbPolyline
90
2
70
1
38
0
39
0
10
30
20
-38.5
40
0
41
0
42
0
10
30
20
-42.5
40
0
41
0
42
0
210
0
220
0
230
1
0
ENDBLK
5
89c
100
AcDbEntity
8
0
100
AcDbBlockEnd
0
BLOCK
5
8e0
100
AcDbEntity
8
0
100
AcDbBlockBegin
2
e6b6ddb9-7713-4e6a-832d-cc2d78ddc460
70
0
10
0
20
0
30
0
3
e6b6ddb9-7713-4e6a-832d-cc2d78ddc460
0
TEXT
100
AcDbEntity
8
0
62
7
6
ByLayer
5
8bf
100
AcDbText
1
\U+0051\U+0041\U+0020\U+0031\U+0036\U+0036\U+0020
10
45
20
-16
30
0
40
5
41
1
50
0
51
0
7
Standard
11
45
21
-16
31
0
210
0
220
0
230
1
72
0
100
AcDbText
73
0
0
TEXT
100
AcDbEntity
8
0
62
7
6
ByLayer
5
8c0
100
AcDbText
1
\U+0054\U+004e\U+002d\U+0053\U+0020
10
45
20
-22
30
0
40
5
41
1
50
0
51
0
7
Standard
11
45
21
-22
31
0
210
0
220
0
230
1
72
0
100
AcDbText
73
0
0
TEXT
100
AcDbEntity
8
0
62
7
6
ByLayer
5
8c1
100
AcDbText
1
\U+0049\U+0062\U+0020\U+003a\U+0020\U+0032\U+002c\U+0033\U+0035\U+0020\U+0041
10
45
20
-28
30
0
40
5
41
1
50
0
51
0
7
Standard
11
45
21
-28
31
0
210
0
220
0
230
1
72
0
100
AcDbText
73
0
0
LWPOLYLINE
100
AcDbEntity
8
0
62
9
6
ByLayer
5
1530
100
AcDbPolyline
90
4
70
1
38
0
39
0
10
43
20
-8
40
0
41
0
42
0
10
114.2
20
-8
40
0
41
0
42
0
10
114.2
20
-32
40
0
41
0
42
0
10
43
20
-32
40
0
41
0
42
0
210
0
220
0
230
1
0
LWPOLYLINE
100
AcDbEntity
8
0
62
0
6
ByLayer
5
1531
100
AcDbPolyline
90
2
70
1
38
0
39
0
10
20
20
0
40
0
41
0
42
0
10
20
20
-20
40
0
41
0
42
0
210
0
220
0
230
1
0
LWPOLYLINE
100
AcDbEntity
8
0
62
0
6
ByLayer
5
1532
100
AcDbPolyline
90
2
70
1
38
0
39
0
10
15
20
-5
40
0
41
0
42
0
10
25
20
-15
40
0
41
0
42
0
210
0
220
0
230
1
0
LWPOLYLINE
100
AcDbEntity
8
0
62
0
6
ByLayer
5
1533
100
AcDbPolyline
90
2
70
1
38
0
39
0
10
15
20
-15
40
0
41
0
42
0
10
25
20
-5
40
0
41
0
42
0
210
0
220
0
230
1
0
LWPOLYLINE
100
AcDbEntity
8
0
62
0
6
ByLayer
5
1534
100
AcDbPolyline
90
2
70
1
38
0
39
0
10
15
20
-20
40
0
41
0
42
0
10
25
20
-20
40
0
41
0
42
0
210
0
220
0
230
1
0
LWPOLYLINE
100
AcDbEntity
8
0
62
0
6
ByLayer
5
1535
100
AcDbPolyline
90
2
70
1
38
0
39
0
10
10
20
-20
40
0
41
0
42
0
10
20
20
-40
40
0
41
0
42
0
210
0
220
0
230
1
0
LWPOLYLINE
100
AcDbEntity
8
0
62
0
6
ByLayer
5
1536
100
AcDbPolyline
90
2
70
1
38
0
39
0
10
20
20
-40
40
0
41
0
42
0
10
20
20
-60
40
0
41
0
42
0
210
0
220
0
230
1
0
ENDBLK
5
8be
100
AcDbEntity
8
0
100
AcDbBlockEnd
0
BLOCK
5
904
100
AcDbEntity
8
0
100
AcDbBlockBegin
2
2936d25f-f129-4f37-ae98-715893c44b76
70
0
10
0
20
0
30
0
3
2936d25f-f129-4f37-ae98-715893c44b76
0
TEXT
100
AcDbEntity
8
0
62
7
6
ByLayer
5
8e3
100
AcDbText
1
\U+0051\U+0041\U+0020\U+0031\U+0033\U+0035\U+0020\U+0028\U+0031\U+0029\U+0020
10
45
20
-16
30
0
40
5
41
1
50
0
51
0
7
Standard
11
45
21
-16
31
0
210
0
220
0
230
1
72
0
100
AcDbText
73
0
0
TEXT
100
AcDbEntity
8
0
62
7
6
ByLayer
5
8e4
100
AcDbText
1
\U+0054\U+004e\U+002d\U+0053\U+0020
10
45
20
-22
30
0
40
5
41
1
50
0
51
0
7
Standard
11
45
21
-22
31
0
210
0
220
0
230
1
72
0
100
AcDbText
73
0
0
TEXT
100
AcDbEntity
8
0
62
7
6
ByLayer
5
8e5
100
AcDbText
1
\U+0049\U+0062\U+0020\U+003a\U+0020\U+0030\U+002c\U+0033\U+0038\U+0031\U+0020\U+0041
10
45
20
-28
30
0
40
5
41
1
50
0
51
0
7
Standard
11
45
21
-28
31
0
210
0
220
0
230
1
72
0
100
AcDbText
73
0
0
LWPOLYLINE
100
AcDbEntity
8
0
62
9
6
ByLayer
5
1537
100
AcDbPolyline
90
4
70
1
38
0
39
0
10
43
20
-8
40
0
41
0
42
0
10
114.2
20
-8
40
0
41
0
42
0
10
114.2
20
-32
40
0
41
0
42
0
10
43
20
-32
40
0
41
0
42
0
210
0
220
0
230
1
0
LWPOLYLINE
100
AcDbEntity
8
0
62
0
6
ByLayer
5
1538
100
AcDbPolyline
90
2
70
1
38
0
39
0
10
20
20
0
40
0
41
0
42
0
10
20
20
-20
40
0
41
0
42
0
210
0
220
0
230
1
0
LWPOLYLINE
100
AcDbEntity
8
0
62
0
6
ByLayer
5
1539
100
AcDbPolyline
90
2
70
1
38
0
39
0
10
15
20
-5
40
0
41
0
42
0
10
25
20
-15
40
0
41
0
42
0
210
0
220
0
230
1
0
LWPOLYLINE
100
AcDbEntity
8
0
62
0
6
ByLayer
5
153a
100
AcDbPolyline
90
2
70
1
38
0
39
0
10
15
20
-15
40
0
41
0
42
0
10
25
20
-5
40
0
41
0
42
0
210
0
220
0
230
1
0
LWPOLYLINE
100
AcDbEntity
8
0
62
0
6
ByLayer
5
153b
100
AcDbPolyline
90
2
70
1
38
0
39
0
10
15
20
-20
40
0
41
0
42
0
10
25
20
-20
40
0
41
0
42
0
210
0
220
0
230
1
0
LWPOLYLINE
100
AcDbEntity
8
0
62
0
6
ByLayer
5
153c
100
AcDbPolyline
90
2
70
1
38
0
39
0
10
10
20
-20
40
0
41
0
42
0
10
20
20
-40
40
0
41
0
42
0
210
0
220
0
230
1
0
LWPOLYLINE
100
AcDbEntity
8
0
62
0
6
ByLayer
5
153d
100
AcDbPolyline
90
2
70
1
38
0
39
0
10
20
20
-40
40
0
41
0
42
0
10
20
20
-60
40
0
41
0
42
0
210
0
220
0
230
1
0
ENDBLK
5
8e2
100
AcDbEntity
8
0
100
AcDbBlockEnd
0
BLOCK
5
926
100
AcDbEntity
8
0
100
AcDbBlockBegin
2
3a2ba764-c77e-441d-8e59-aedbdaa4552b
70
0
10
0
20
0
30
0
3
3a2ba764-c77e-441d-8e59-aedbdaa4552b
0
TEXT
100
AcDbEntity
8
0
62
7
6
ByLayer
5
907
100
AcDbText
1
\U+0057\U+0044\U+0020\U+0031\U+0033\U+0035\U+0020\U+0028\U+0031\U+0029\U+0020
10
45
20
-11
30
0
40
5
41
1
50
0
51
0
7
Standard
11
45
21
-11
31
0
210
0
220
0
230
1
72
0
100
AcDbText
73
0
0
TEXT
100
AcDbEntity
8
0
62
7
6
ByLayer
5
908
100
AcDbText
1
\U+0031\U+0035\U+0020\U+006d
10
45
20
-17
30
0
40
5
41
1
50
0
51
0
7
Standard
11
45
21
-17
31
0
210
0
220
0
230
1
72
0
100
AcDbText
73
0
0
LWPOLYLINE
100
AcDbEntity
8
0
62
9
6
ByLayer
5
153e
100
AcDbPolyline
90
4
70
1
38
0
39
0
10
43
20
-3
40
0
41
0
42
0
10
114.2
20
-3
40
0
41
0
42
0
10
114.2
20
-22
40
0
41
0
42
0
10
43
20
-22
40
0
41
0
42
0
210
0
220
0
230
1
0
ELLIPSE
5
90f
100
AcDbEntity
8
0
62
0
6
ByLayer
100
AcDbEllipse
10
20
20
-2
30
0
11
2
21
0
31
0
210
0
220
0
230
1
40
1
41
0
42
6.28318530717959
0
ELLIPSE
5
910
100
AcDbEntity
8
0
62
0
6
ByLayer
100
AcDbEllipse
10
20
20
-58
30
0
11
2
21
0
31
0
210
0
220
0
230
1
40
1
41
0
42
6.28318530717959
0
LWPOLYLINE
100
AcDbEntity
8
0
62
0
6
ByLayer
5
153f
100
AcDbPolyline
90
2
70
1
38
0
39
0
10
20
20
-4
40
0
41
0
42
0
10
20
20
-56
40
0
41
0
42
0
210
0
220
0
230
1
0
LWPOLYLINE
100
AcDbEntity
8
0
62
0
6
ByLayer
5
1540
100
AcDbPolyline
90
2
70
1
38
0
39
0
10
10
20
-19.5
40
0
41
0
42
0
10
30
20
-25.5
40
0
41
0
42
0
210
0
220
0
230
1
0
LWPOLYLINE
100
AcDbEntity
8
0
62
0
6
ByLayer
5
1541
100
AcDbPolyline
90
2
70
1
38
0
39
0
10
10
20
-25.5
40
0
41
0
42
0
10
30
20
-31.5
40
0
41
0
42
0
210
0
220
0
230
1
0
ELLIPSE
5
91d
100
AcDbEntity
8
0
62
0
6
ByLayer
100
AcDbEllipse
10
30
20
-31.5
30
0
11
1
21
0
31
0
210
0
220
0
230
1
40
1
41
0
42
6.28318530717959
0
LWPOLYLINE
100
AcDbEntity
8
0
62
0
6
ByLayer
5
1542
100
AcDbPolyline
90
2
70
1
38
0
39
0
10
10
20
-34.5
40
0
41
0
42
0
10
30
20
-40.5
40
0
41
0
42
0
210
0
220
0
230
1
0
LWPOLYLINE
100
AcDbEntity
8
0
62
0
6
ByLayer
5
1543
100
AcDbPolyline
90
2
70
1
38
0
39
0
10
30
20
-38.5
40
0
41
0
42
0
10
30
20
-42.5
40
0
41
0
42
0
210
0
220
0
230
1
0
ENDBLK
5
906
100
AcDbEntity
8
0
100
AcDbBlockEnd
0
BLOCK
5
941
100
AcDbEntity
8
0
100
AcDbBlockBegin
2
339b64ee-d636-4b8b-a586-392847210ac2
70
0
10
0
20
0
30
0
3
339b64ee-d636-4b8b-a586-392847210ac2
0
TEXT
100
AcDbEntity
8
0
62
7
6
ByLayer
5
929
100
AcDbText
1
\U+0045\U+0041\U+0020\U+0031\U+0033\U+0035\U+0020\U+0028\U+0031\U+0029\U+0020
10
45
20
-11
30
0
40
5
41
1
50
0
51
0
7
Standard
11
45
21
-11
31
0
210
0
220
0
230
1
72
0
100
AcDbText
73
0
0
TEXT
100
AcDbEntity
8
0
62
7
6
ByLayer
5
92a
100
AcDbText
1
\U+0030\U+002c\U+0033\U+0038\U+0031\U+0020\U+0041
10
45
20
-17
30
0
40
5
41
1
50
0
51
0
7
Standard
11
45
21
-17
31
0
210
0
220
0
230
1
72
0
100
AcDbText
73
0
0
TEXT
100
AcDbEntity
8
0
62
7
6
ByLayer
5
92b
100
AcDbText
1
\U+0043\U+006f\U+0073\U+03c6\U+0020\U+003a\U+0020\U+0030\U+002c\U+0039\U+0032\U+0020
10
45
20
-23
30
0
40
5
41
1
50
0
51
0
7
Standard
11
45
21
-23
31
0
210
0
220
0
230
1
72
0
100
AcDbText
73
0
0
TEXT
100
AcDbEntity
8
0
62
7
6
ByLayer
5
92c
100
AcDbText
1
\U+004d\U+0065\U+006e\U+0067\U+0065\U+0020\U+003a\U+0020\U+003a\U+0020\U+0034\U+0020
10
45
20
-29
30
0
40
5
41
1
50
0
51
0
7
Standard
11
45
21
-29
31
0
210
0
220
0
230
1
72
0
100
AcDbText
73
0
0
TEXT
100
AcDbEntity
8
0
62
7
6
ByLayer
5
92d
100
AcDbText
1
\U+004b\U+0075\U+0020\U+003a\U+0020\U+0031\U+0020
10
45
20
-35
30
0
40
5
41
1
50
0
51
0
7
Standard
11
45
21
-35
31
0
210
0
220
0
230
1
72
0
100
AcDbText
73
0
0
LWPOLYLINE
100
AcDbEntity
8
0
62
9
6
ByLayer
5
1544
100
AcDbPolyline
90
4
70
1
38
0
39
0
10
43
20
-3
40
0
41
0
42
0
10
114.2
20
-3
40
0
41
0
42
0
10
114.2
20
-37
40
0
41
0
42
0
10
43
20
-37
40
0
41
0
42
0
210
0
220
0
230
1
0
LWPOLYLINE
100
AcDbEntity
8
0
62
0
6
ByLayer
5
1545
100
AcDbPolyline
90
2
70
1
38
0
39
0
10
20
20
0
40
0
41
0
42
0
10
20
20
-15
40
0
41
0
42
0
210
0
220
0
230
1
0
LWPOLYLINE
100
AcDbEntity
8
0
62
0
6
ByLayer
5
1546
100
AcDbPolyline
90
2
70
1
38
0
39
0
10
9
20
-19
40
0
41
0
42
0
10
31
20
-41
40
0
41
0
42
0
210
0
220
0
230
1
0
LWPOLYLINE
100
AcDbEntity
8
0
62
0
6
ByLayer
5
1547
100
AcDbPolyline
90
2
70
1
38
0
39
0
10
31
20
-19
40
0
41
0
42
0
10
9
20
-41
40
0
41
0
42
0
210
0
220
0
230
1
0
ELLIPSE
5
940
100
AcDbEntity
8
0
62
0
6
ByLayer
100
AcDbEllipse
10
20
20
-30
30
0
11
15
21
0
31
0
210
0
220
0
230
1
40
1
41
0
42
6.28318530717959
0
ENDBLK
5
928
100
AcDbEntity
8
0
100
AcDbBlockEnd
0
BLOCK
5
965
100
AcDbEntity
8
0
100
AcDbBlockBegin
2
ec30fbdf-47a8-4e44-b1c1-c6c213a040a9
70
0
10
0
20
0
30
0
3
ec30fbdf-47a8-4e44-b1c1-c6c213a040a9
0
TEXT
100
AcDbEntity
8
0
62
7
6
ByLayer
5
944
100
AcDbText
1
\U+0051\U+0041\U+0020\U+0031\U+0037\U+0030\U+0020
10
45
20
-16
30
0
40
5
41
1
50
0
51
0
7
Standard
11
45
21
-16
31
0
210
0
220
0
230
1
72
0
100
AcDbText
73
0
0
TEXT
100
AcDbEntity
8
0
62
7
6
ByLayer
5
945
100
AcDbText
1
\U+0054\U+004e\U+002d\U+0053\U+0020
10
45
20
-22
30
0
40
5
41
1
50
0
51
0
7
Standard
11
45
21
-22
31
0
210
0
220
0
230
1
72
0
100
AcDbText
73
0
0
TEXT
100
AcDbEntity
8
0
62
7
6
ByLayer
5
946
100
AcDbText
1
\U+0049\U+0062\U+0020\U+003a\U+0020\U+0030\U+002c\U+0030\U+0031\U+0034\U+0020\U+0041
10
45
20
-28
30
0
40
5
41
1
50
0
51
0
7
Standard
11
45
21
-28
31
0
210
0
220
0
230
1
72
0
100
AcDbText
73
0
0
LWPOLYLINE
100
AcDbEntity
8
0
62
9
6
ByLayer
5
1548
100
AcDbPolyline
90
4
70
1
38
0
39
0
10
43
20
-8
40
0
41
0
42
0
10
114.2
20
-8
40
0
41
0
42
0
10
114.2
20
-32
40
0
41
0
42
0
10
43
20
-32
40
0
41
0
42
0
210
0
220
0
230
1
0
LWPOLYLINE
100
AcDbEntity
8
0
62
0
6
ByLayer
5
1549
100
AcDbPolyline
90
2
70
1
38
0
39
0
10
20
20
0
40
0
41
0
42
0
10
20
20
-20
40
0
41
0
42
0
210
0
220
0
230
1
0
LWPOLYLINE
100
AcDbEntity
8
0
62
0
6
ByLayer
5
154a
100
AcDbPolyline
90
2
70
1
38
0
39
0
10
15
20
-5
40
0
41
0
42
0
10
25
20
-15
40
0
41
0
42
0
210
0
220
0
230
1
0
LWPOLYLINE
100
AcDbEntity
8
0
62
0
6
ByLayer
5
154b
100
AcDbPolyline
90
2
70
1
38
0
39
0
10
15
20
-15
40
0
41
0
42
0
10
25
20
-5
40
0
41
0
42
0
210
0
220
0
230
1
0
LWPOLYLINE
100
AcDbEntity
8
0
62
0
6
ByLayer
5
154c
100
AcDbPolyline
90
2
70
1
38
0
39
0
10
15
20
-20
40
0
41
0
42
0
10
25
20
-20
40
0
41
0
42
0
210
0
220
0
230
1
0
LWPOLYLINE
100
AcDbEntity
8
0
62
0
6
ByLayer
5
154d
100
AcDbPolyline
90
2
70
1
38
0
39
0
10
10
20
-20
40
0
41
0
42
0
10
20
20
-40
40
0
41
0
42
0
210
0
220
0
230
1
0
LWPOLYLINE
100
AcDbEntity
8
0
62
0
6
ByLayer
5
154e
100
AcDbPolyline
90
2
70
1
38
0
39
0
10
20
20
-40
40
0
41
0
42
0
10
20
20
-60
40
0
41
0
42
0
210
0
220
0
230
1
0
ENDBLK
5
943
100
AcDbEntity
8
0
100
AcDbBlockEnd
0
BLOCK
5
990
100
AcDbEntity
8
0
100
AcDbBlockBegin
2
bd4b13f2-530c-43a3-bdfa-209a42add41c
70
0
10
0
20
0
30
0
3
bd4b13f2-530c-43a3-bdfa-209a42add41c
0
TEXT
100
AcDbEntity
8
0
62
7
6
ByLayer
5
968
100
AcDbText
1
\U+0046\U+0041\U+0020\U+0031\U+0037\U+0030\U+0020
10
45
20
-16
30
0
40
5
41
1
50
0
51
0
7
Standard
11
45
21
-16
31
0
210
0
220
0
230
1
72
0
100
AcDbText
73
0
0
TEXT
100
AcDbEntity
8
0
62
7
6
ByLayer
5
969
100
AcDbText
1
\U+0049\U+006d\U+0061\U+0078\U+0020\U+003a\U+0020\U+0038\U+0020\U+006b\U+0041
10
45
20
-22
30
0
40
5
41
1
50
0
51
0
7
Standard
11
45
21
-22
31
0
210
0
220
0
230
1
72
0
100
AcDbText
73
0
0
LWPOLYLINE
100
AcDbEntity
8
0
62
9
6
ByLayer
5
154f
100
AcDbPolyline
90
4
70
1
38
0
39
0
10
43
20
-8
40
0
41
0
42
0
10
114.2
20
-8
40
0
41
0
42
0
10
114.2
20
-27
40
0
41
0
42
0
10
43
20
-27
40
0
41
0
42
0
210
0
220
0
230
1
0
LWPOLYLINE
100
AcDbEntity
8
0
62
0
6
ByLayer
5
1550
100
AcDbPolyline
90
4
70
1
38
0
39
0
10
5
20
-15
40
0
41
0
42
0
10
35
20
-15
40
0
41
0
42
0
10
35
20
-45
40
0
41
0
42
0
10
5
20
-45
40
0
41
0
42
0
210
0
220
0
230
1
0
LWPOLYLINE
100
AcDbEntity
8
0
62
0
6
ByLayer
5
1551
100
AcDbPolyline
90
2
70
1
38
0
39
0
10
20
20
0
40
0
41
0
42
0
10
20
20
-25
40
0
41
0
42
0
210
0
220
0
230
1
0
LWPOLYLINE
100
AcDbEntity
8
0
62
0
6
ByLayer
5
1552
100
AcDbPolyline
90
4
70
1
38
0
39
0
10
17
20
-25
40
0
41
0
42
0
10
23
20
-25
40
0
41
0
42
0
10
20
20
-30
40
0
41
0
42
0
10
17
20
-25
40
0
41
0
42
0
210
0
220
0
230
1
0
LWPOLYLINE
100
AcDbEntity
8
0
62
0
6
ByLayer
5
1553
100
AcDbPolyline
90
2
70
1
38
0
39
0
10
20
20
-45
40
0
41
0
42
0
10
20
20
-55
40
0
41
0
42
0
210
0
220
0
230
1
0
LWPOLYLINE
100
AcDbEntity
8
0
62
0
6
ByLayer
5
1554
100
AcDbPolyline
90
2
70
1
38
0
39
0
10
10
20
-55
40
0
41
0
42
0
10
30
20
-55
40
0
41
0
42
0
210
0
220
0
230
1
0
LWPOLYLINE
100
AcDbEntity
8
0
62
0
6
ByLayer
5
1555
100
AcDbPolyline
90
2
70
1
38
0
39
0
10
14
20
-60
40
0
41
0
42
0
10
26
20
-60
40
0
41
0
42
0
210
0
220
0
230
1
0
LWPOLYLINE
100
AcDbEntity
8
0
62
0
6
ByLayer
5
1556
100
AcDbPolyline
90
2
70
1
38
0
39
0
10
18
20
-65
40
0
41
0
42
0
10
22
20
-65
40
0
41
0
42
0
210
0
220
0
230
1
0
ENDBLK
5
967
100
AcDbEntity
8
0
100
AcDbBlockEnd
0
BLOCK
5
997
100
AcDbEntity
8
0
100
AcDbBlockBegin
2
691d3087-2f1a-44d4-96a4-0ff16487097d
70
0
10
0
20
0
30
0
3
691d3087-2f1a-44d4-96a4-0ff16487097d
0
LWPOLYLINE
100
AcDbEntity
8
0
62
0
6
ByLayer
5
1557
100
AcDbPolyline
90
2
70
1
38
0
39
0
10
20
20
0
40
0
41
0
42
0
10
20
20
-10
40
0
41
0
42
0
210
0
220
0
230
1
0
ENDBLK
5
992
100
AcDbEntity
8
0
100
AcDbBlockEnd
0
BLOCK
5
99e
100
AcDbEntity
8
0
100
AcDbBlockBegin
2
89aa61f9-6a77-4ff1-bcb3-7f839205a78c
70
0
10
0
20
0
30
0
3
89aa61f9-6a77-4ff1-bcb3-7f839205a78c
0
LWPOLYLINE
100
AcDbEntity
8
0
62
0
6
ByLayer
5
1558
100
AcDbPolyline
90
2
70
1
38
0
39
0
10
20
20
0
40
0
41
0
42
0
10
20
20
-10
40
0
41
0
42
0
210
0
220
0
230
1
0
ENDBLK
5
999
100
AcDbEntity
8
0
100
AcDbBlockEnd
0
BLOCK
5
9c9
100
AcDbEntity
8
0
100
AcDbBlockBegin
2
86eada99-514a-4b93-b8b0-6a13032f6446
70
0
10
0
20
0
30
0
3
86eada99-514a-4b93-b8b0-6a13032f6446
0
TEXT
100
AcDbEntity
8
0
62
7
6
ByLayer
5
9a1
100
AcDbText
1
\U+0046\U+0041\U+0020\U+0031\U+0037\U+0030\U+0020\U+0028\U+0033\U+0029\U+0020
10
45
20
-16
30
0
40
5
41
1
50
0
51
0
7
Standard
11
45
21
-16
31
0
210
0
220
0
230
1
72
0
100
AcDbText
73
0
0
TEXT
100
AcDbEntity
8
0
62
7
6
ByLayer
5
9a2
100
AcDbText
1
\U+0049\U+006d\U+0061\U+0078\U+0020\U+003a\U+0020\U+0038\U+0020\U+006b\U+0041
10
45
20
-22
30
0
40
5
41
1
50
0
51
0
7
Standard
11
45
21
-22
31
0
210
0
220
0
230
1
72
0
100
AcDbText
73
0
0
LWPOLYLINE
100
AcDbEntity
8
0
62
9
6
ByLayer
5
1559
100
AcDbPolyline
90
4
70
1
38
0
39
0
10
43
20
-8
40
0
41
0
42
0
10
114.2
20
-8
40
0
41
0
42
0
10
114.2
20
-27
40
0
41
0
42
0
10
43
20
-27
40
0
41
0
42
0
210
0
220
0
230
1
0
LWPOLYLINE
100
AcDbEntity
8
0
62
0
6
ByLayer
5
155a
100
AcDbPolyline
90
4
70
1
38
0
39
0
10
5
20
-15
40
0
41
0
42
0
10
35
20
-15
40
0
41
0
42
0
10
35
20
-45
40
0
41
0
42
0
10
5
20
-45
40
0
41
0
42
0
210
0
220
0
230
1
0
LWPOLYLINE
100
AcDbEntity
8
0
62
0
6
ByLayer
5
155b
100
AcDbPolyline
90
2
70
1
38
0
39
0
10
20
20
0
40
0
41
0
42
0
10
20
20
-25
40
0
41
0
42
0
210
0
220
0
230
1
0
LWPOLYLINE
100
AcDbEntity
8
0
62
0
6
ByLayer
5
155c
100
AcDbPolyline
90
4
70
1
38
0
39
0
10
17
20
-25
40
0
41
0
42
0
10
23
20
-25
40
0
41
0
42
0
10
20
20
-30
40
0
41
0
42
0
10
17
20
-25
40
0
41
0
42
0
210
0
220
0
230
1
0
LWPOLYLINE
100
AcDbEntity
8
0
62
0
6
ByLayer
5
155d
100
AcDbPolyline
90
2
70
1
38
0
39
0
10
20
20
-45
40
0
41
0
42
0
10
20
20
-55
40
0
41
0
42
0
210
0
220
0
230
1
0
LWPOLYLINE
100
AcDbEntity
8
0
62
0
6
ByLayer
5
155e
100
AcDbPolyline
90
2
70
1
38
0
39
0
10
10
20
-55
40
0
41
0
42
0
10
30
20
-55
40
0
41
0
42
0
210
0
220
0
230
1
0
LWPOLYLINE
100
AcDbEntity
8
0
62
0
6
ByLayer
5
155f
100
AcDbPolyline
90
2
70
1
38
0
39
0
10
14
20
-60
40
0
41
0
42
0
10
26
20
-60
40
0
41
0
42
0
210
0
220
0
230
1
0
LWPOLYLINE
100
AcDbEntity
8
0
62
0
6
ByLayer
5
1560
100
AcDbPolyline
90
2
70
1
38
0
39
0
10
18
20
-65
40
0
41
0
42
0
10
22
20
-65
40
0
41
0
42
0
210
0
220
0
230
1
0
ENDBLK
5
9a0
100
AcDbEntity
8
0
100
AcDbBlockEnd
0
BLOCK
5
9ed
100
AcDbEntity
8
0
100
AcDbBlockBegin
2
016581b0-406b-4163-8101-9e98719808a5
70
0
10
0
20
0
30
0
3
016581b0-406b-4163-8101-9e98719808a5
0
TEXT
100
AcDbEntity
8
0
62
7
6
ByLayer
5
9cc
100
AcDbText
1
\U+0051\U+0041\U+0020\U+0031\U+0037\U+0030\U+0020\U+0028\U+0033\U+0029\U+0020
10
45
20
-16
30
0
40
5
41
1
50
0
51
0
7
Standard
11
45
21
-16
31
0
210
0
220
0
230
1
72
0
100
AcDbText
73
0
0
TEXT
100
AcDbEntity
8
0
62
7
6
ByLayer
5
9cd
100
AcDbText
1
\U+0054\U+004e\U+002d\U+0053\U+0020
10
45
20
-22
30
0
40
5
41
1
50
0
51
0
7
Standard
11
45
21
-22
31
0
210
0
220
0
230
1
72
0
100
AcDbText
73
0
0
TEXT
100
AcDbEntity
8
0
62
7
6
ByLayer
5
9ce
100
AcDbText
1
\U+0049\U+0062\U+0020\U+003a\U+0020\U+0030\U+002c\U+0030\U+0031\U+0034\U+0020\U+0041
10
45
20
-28
30
0
40
5
41
1
50
0
51
0
7
Standard
11
45
21
-28
31
0
210
0
220
0
230
1
72
0
100
AcDbText
73
0
0
LWPOLYLINE
100
AcDbEntity
8
0
62
9
6
ByLayer
5
1561
100
AcDbPolyline
90
4
70
1
38
0
39
0
10
43
20
-8
40
0
41
0
42
0
10
114.2
20
-8
40
0
41
0
42
0
10
114.2
20
-32
40
0
41
0
42
0
10
43
20
-32
40
0
41
0
42
0
210
0
220
0
230
1
0
LWPOLYLINE
100
AcDbEntity
8
0
62
0
6
ByLayer
5
1562
100
AcDbPolyline
90
2
70
1
38
0
39
0
10
20
20
0
40
0
41
0
42
0
10
20
20
-20
40
0
41
0
42
0
210
0
220
0
230
1
0
LWPOLYLINE
100
AcDbEntity
8
0
62
0
6
ByLayer
5
1563
100
AcDbPolyline
90
2
70
1
38
0
39
0
10
15
20
-5
40
0
41
0
42
0
10
25
20
-15
40
0
41
0
42
0
210
0
220
0
230
1
0
LWPOLYLINE
100
AcDbEntity
8
0
62
0
6
ByLayer
5
1564
100
AcDbPolyline
90
2
70
1
38
0
39
0
10
15
20
-15
40
0
41
0
42
0
10
25
20
-5
40
0
41
0
42
0
210
0
220
0
230
1
0
LWPOLYLINE
100
AcDbEntity
8
0
62
0
6
ByLayer
5
1565
100
AcDbPolyline
90
2
70
1
38
0
39
0
10
15
20
-20
40
0
41
0
42
0
10
25
20
-20
40
0
41
0
42
0
210
0
220
0
230
1
0
LWPOLYLINE
100
AcDbEntity
8
0
62
0
6
ByLayer
5
1566
100
AcDbPolyline
90
2
70
1
38
0
39
0
10
10
20
-20
40
0
41
0
42
0
10
20
20
-40
40
0
41
0
42
0
210
0
220
0
230
1
0
LWPOLYLINE
100
AcDbEntity
8
0
62
0
6
ByLayer
5
1567
100
AcDbPolyline
90
2
70
1
38
0
39
0
10
20
20
-40
40
0
41
0
42
0
10
20
20
-60
40
0
41
0
42
0
210
0
220
0
230
1
0
ENDBLK
5
9cb
100
AcDbEntity
8
0
100
AcDbBlockEnd
0
BLOCK
5
a18
100
AcDbEntity
8
0
100
AcDbBlockBegin
2
8d4a8770-e19e-4bb2-bdb7-27662091e55a
70
0
10
0
20
0
30
0
3
8d4a8770-e19e-4bb2-bdb7-27662091e55a
0
TEXT
100
AcDbEntity
8
0
62
7
6
ByLayer
5
9f0
100
AcDbText
1
\U+0046\U+0041\U+0020\U+0031\U+0037\U+0030\U+0020\U+0028\U+0032\U+0029\U+0020
10
45
20
-16
30
0
40
5
41
1
50
0
51
0
7
Standard
11
45
21
-16
31
0
210
0
220
0
230
1
72
0
100
AcDbText
73
0
0
TEXT
100
AcDbEntity
8
0
62
7
6
ByLayer
5
9f1
100
AcDbText
1
\U+0049\U+006d\U+0061\U+0078\U+0020\U+003a\U+0020\U+0038\U+0020\U+006b\U+0041
10
45
20
-22
30
0
40
5
41
1
50
0
51
0
7
Standard
11
45
21
-22
31
0
210
0
220
0
230
1
72
0
100
AcDbText
73
0
0
LWPOLYLINE
100
AcDbEntity
8
0
62
9
6
ByLayer
5
1568
100
AcDbPolyline
90
4
70
1
38
0
39
0
10
43
20
-8
40
0
41
0
42
0
10
114.2
20
-8
40
0
41
0
42
0
10
114.2
20
-27
40
0
41
0
42
0
10
43
20
-27
40
0
41
0
42
0
210
0
220
0
230
1
0
LWPOLYLINE
100
AcDbEntity
8
0
62
0
6
ByLayer
5
1569
100
AcDbPolyline
90
4
70
1
38
0
39
0
10
5
20
-15
40
0
41
0
42
0
10
35
20
-15
40
0
41
0
42
0
10
35
20
-45
40
0
41
0
42
0
10
5
20
-45
40
0
41
0
42
0
210
0
220
0
230
1
0
LWPOLYLINE
100
AcDbEntity
8
0
62
0
6
ByLayer
5
156a
100
AcDbPolyline
90
2
70
1
38
0
39
0
10
20
20
0
40
0
41
0
42
0
10
20
20
-25
40
0
41
0
42
0
210
0
220
0
230
1
0
LWPOLYLINE
100
AcDbEntity
8
0
62
0
6
ByLayer
5
156b
100
AcDbPolyline
90
4
70
1
38
0
39
0
10
17
20
-25
40
0
41
0
42
0
10
23
20
-25
40
0
41
0
42
0
10
20
20
-30
40
0
41
0
42
0
10
17
20
-25
40
0
41
0
42
0
210
0
220
0
230
1
0
LWPOLYLINE
100
AcDbEntity
8
0
62
0
6
ByLayer
5
156c
100
AcDbPolyline
90
2
70
1
38
0
39
0
10
20
20
-45
40
0
41
0
42
0
10
20
20
-55
40
0
41
0
42
0
210
0
220
0
230
1
0
LWPOLYLINE
100
AcDbEntity
8
0
62
0
6
ByLayer
5
156d
100
AcDbPolyline
90
2
70
1
38
0
39
0
10
10
20
-55
40
0
41
0
42
0
10
30
20
-55
40
0
41
0
42
0
210
0
220
0
230
1
0
LWPOLYLINE
100
AcDbEntity
8
0
62
0
6
ByLayer
5
156e
100
AcDbPolyline
90
2
70
1
38
0
39
0
10
14
20
-60
40
0
41
0
42
0
10
26
20
-60
40
0
41
0
42
0
210
0
220
0
230
1
0
LWPOLYLINE
100
AcDbEntity
8
0
62
0
6
ByLayer
5
156f
100
AcDbPolyline
90
2
70
1
38
0
39
0
10
18
20
-65
40
0
41
0
42
0
10
22
20
-65
40
0
41
0
42
0
210
0
220
0
230
1
0
ENDBLK
5
9ef
100
AcDbEntity
8
0
100
AcDbBlockEnd
0
BLOCK
5
a1f
100
AcDbEntity
8
0
100
AcDbBlockBegin
2
ff34c147-d22d-4d5e-97b3-97b117b2da0d
70
0
10
0
20
0
30
0
3
ff34c147-d22d-4d5e-97b3-97b117b2da0d
0
LWPOLYLINE
100
AcDbEntity
8
0
62
0
6
ByLayer
5
1570
100
AcDbPolyline
90
2
70
1
38
0
39
0
10
20
20
0
40
0
41
0
42
0
10
20
20
-10
40
0
41
0
42
0
210
0
220
0
230
1
0
ENDBLK
5
a1a
100
AcDbEntity
8
0
100
AcDbBlockEnd
0
BLOCK
5
a43
100
AcDbEntity
8
0
100
AcDbBlockBegin
2
70df5802-ff41-4606-b515-7cb0aedb4b34
70
0
10
0
20
0
30
0
3
70df5802-ff41-4606-b515-7cb0aedb4b34
0
TEXT
100
AcDbEntity
8
0
62
7
6
ByLayer
5
a22
100
AcDbText
1
\U+0051\U+0041\U+0020\U+0031\U+0037\U+0030\U+0020\U+0028\U+0032\U+0029\U+0020
10
45
20
-16
30
0
40
5
41
1
50
0
51
0
7
Standard
11
45
21
-16
31
0
210
0
220
0
230
1
72
0
100
AcDbText
73
0
0
TEXT
100
AcDbEntity
8
0
62
7
6
ByLayer
5
a23
100
AcDbText
1
\U+0054\U+004e\U+002d\U+0053\U+0020
10
45
20
-22
30
0
40
5
41
1
50
0
51
0
7
Standard
11
45
21
-22
31
0
210
0
220
0
230
1
72
0
100
AcDbText
73
0
0
TEXT
100
AcDbEntity
8
0
62
7
6
ByLayer
5
a24
100
AcDbText
1
\U+0049\U+0062\U+0020\U+003a\U+0020\U+0030\U+002c\U+0030\U+0031\U+0034\U+0020\U+0041
10
45
20
-28
30
0
40
5
41
1
50
0
51
0
7
Standard
11
45
21
-28
31
0
210
0
220
0
230
1
72
0
100
AcDbText
73
0
0
LWPOLYLINE
100
AcDbEntity
8
0
62
9
6
ByLayer
5
1571
100
AcDbPolyline
90
4
70
1
38
0
39
0
10
43
20
-8
40
0
41
0
42
0
10
114.2
20
-8
40
0
41
0
42
0
10
114.2
20
-32
40
0
41
0
42
0
10
43
20
-32
40
0
41
0
42
0
210
0
220
0
230
1
0
LWPOLYLINE
100
AcDbEntity
8
0
62
0
6
ByLayer
5
1572
100
AcDbPolyline
90
2
70
1
38
0
39
0
10
20
20
0
40
0
41
0
42
0
10
20
20
-20
40
0
41
0
42
0
210
0
220
0
230
1
0
LWPOLYLINE
100
AcDbEntity
8
0
62
0
6
ByLayer
5
1573
100
AcDbPolyline
90
2
70
1
38
0
39
0
10
15
20
-5
40
0
41
0
42
0
10
25
20
-15
40
0
41
0
42
0
210
0
220
0
230
1
0
LWPOLYLINE
100
AcDbEntity
8
0
62
0
6
ByLayer
5
1574
100
AcDbPolyline
90
2
70
1
38
0
39
0
10
15
20
-15
40
0
41
0
42
0
10
25
20
-5
40
0
41
0
42
0
210
0
220
0
230
1
0
LWPOLYLINE
100
AcDbEntity
8
0
62
0
6
ByLayer
5
1575
100
AcDbPolyline
90
2
70
1
38
0
39
0
10
15
20
-20
40
0
41
0
42
0
10
25
20
-20
40
0
41
0
42
0
210
0
220
0
230
1
0
LWPOLYLINE
100
AcDbEntity
8
0
62
0
6
ByLayer
5
1576
100
AcDbPolyline
90
2
70
1
38
0
39
0
10
10
20
-20
40
0
41
0
42
0
10
20
20
-40
40
0
41
0
42
0
210
0
220
0
230
1
0
LWPOLYLINE
100
AcDbEntity
8
0
62
0
6
ByLayer
5
1577
100
AcDbPolyline
90
2
70
1
38
0
39
0
10
20
20
-40
40
0
41
0
42
0
10
20
20
-60
40
0
41
0
42
0
210
0
220
0
230
1
0
ENDBLK
5
a21
100
AcDbEntity
8
0
100
AcDbBlockEnd
0
BLOCK
5
a5f
100
AcDbEntity
8
0
100
AcDbBlockBegin
2
82f7596c-7182-400a-b867-35518662b710
70
0
10
0
20
0
30
0
3
82f7596c-7182-400a-b867-35518662b710
0
TEXT
100
AcDbEntity
8
0
62
7
6
ByLayer
5
a46
100
AcDbText
1
\U+0053\U+0074\U+0064\U+002e\U+002b\U+0054\U+0065\U+0063\U+0068\U+006e\U+0069\U+006b\U+0020\U+004c\U+0065\U+0069\U+0074\U+0073\U+0074\U+0065\U+006c\U+006c\U+0065\U+0020
10
45
20
-11
30
0
40
5
41
1
50
0
51
0
7
Standard
11
45
21
-11
31
0
210
0
220
0
230
1
72
0
100
AcDbText
73
0
0
TEXT
100
AcDbEntity
8
0
62
7
6
ByLayer
5
a47
100
AcDbText
1
\U+0030\U+002c\U+0038\U+0020\U+006b\U+0057
10
45
20
-17
30
0
40
5
41
1
50
0
51
0
7
Standard
11
45
21
-17
31
0
210
0
220
0
230
1
72
0
100
AcDbText
73
0
0
TEXT
100
AcDbEntity
8
0
62
7
6
ByLayer
5
a48
100
AcDbText
1
\U+0043\U+006f\U+0073\U+03c6\U+0020\U+003a\U+0020\U+0030\U+002c\U+0039\U+0032\U+0020
10
45
20
-23
30
0
40
5
41
1
50
0
51
0
7
Standard
11
45
21
-23
31
0
210
0
220
0
230
1
72
0
100
AcDbText
73
0
0
TEXT
100
AcDbEntity
8
0
62
7
6
ByLayer
5
a49
100
AcDbText
1
\U+004d\U+0065\U+006e\U+0067\U+0065\U+0020\U+003a\U+0020\U+003a\U+0020\U+0037\U+0020
10
45
20
-29
30
0
40
5
41
1
50
0
51
0
7
Standard
11
45
21
-29
31
0
210
0
220
0
230
1
72
0
100
AcDbText
73
0
0
TEXT
100
AcDbEntity
8
0
62
7
6
ByLayer
5
a4a
100
AcDbText
1
\U+004b\U+0075\U+0020\U+003a\U+0020\U+0031\U+0020
10
45
20
-35
30
0
40
5
41
1
50
0
51
0
7
Standard
11
45
21
-35
31
0
210
0
220
0
230
1
72
0
100
AcDbText
73
0
0
LWPOLYLINE
100
AcDbEntity
8
0
62
9
6
ByLayer
5
1578
100
AcDbPolyline
90
4
70
1
38
0
39
0
10
43
20
-3
40
0
41
0
42
0
10
143
20
-3
40
0
41
0
42
0
10
143
20
-37
40
0
41
0
42
0
10
43
20
-37
40
0
41
0
42
0
210
0
220
0
230
1
0
LWPOLYLINE
100
AcDbEntity
8
0
62
0
6
ByLayer
5
1579
100
AcDbPolyline
90
2
70
1
38
0
39
0
10
0
20
-20
40
0
41
0
42
0
10
0
20
0
40
0
41
0
42
0
210
0
220
0
230
1
0
LWPOLYLINE
100
AcDbEntity
8
0
62
0
6
ByLayer
5
157a
100
AcDbPolyline
90
2
70
1
38
0
39
0
10
0
20
0
40
0
41
0
42
0
10
40
20
0
40
0
41
0
42
0
210
0
220
0
230
1
0
LWPOLYLINE
100
AcDbEntity
8
0
62
0
6
ByLayer
5
157b
100
AcDbPolyline
90
2
70
1
38
0
39
0
10
40
20
0
40
0
41
0
42
0
10
40
20
-20
40
0
41
0
42
0
210
0
220
0
230
1
0
SPLINE
100
AcDbEntity
8
0
62
0
6
ByLayer
5
a5e
100
AcDbSpline
210
0
220
0
230
1
70
0
71
3
72
0
73
0
74
3
42
1E-10
43
1E-10
44
1E-10
11
0
21
-20
31
-20
11
20
21
0
31
0
11
40
21
-20
31
-20
0
SEQEND
5
a5d
100
AcDbEntity
8
0
0
ENDBLK
5
a45
100
AcDbEntity
8
0
100
AcDbBlockEnd
0
BLOCK
5
a81
100
AcDbEntity
8
0
100
AcDbBlockBegin
2
e18da91d-21f4-4470-b754-ef56eebcb02a
70
0
10
0
20
0
30
0
3
e18da91d-21f4-4470-b754-ef56eebcb02a
0
TEXT
100
AcDbEntity
8
0
62
7
6
ByLayer
5
a62
100
AcDbText
1
\U+0057\U+0044\U+0020\U+0031\U+0033\U+0034\U+0020\U+0028\U+0031\U+0029\U+0020
10
45
20
-11
30
0
40
5
41
1
50
0
51
0
7
Standard
11
45
21
-11
31
0
210
0
220
0
230
1
72
0
100
AcDbText
73
0
0
TEXT
100
AcDbEntity
8
0
62
7
6
ByLayer
5
a63
100
AcDbText
1
\U+0031\U+0035\U+0020\U+006d
10
45
20
-17
30
0
40
5
41
1
50
0
51
0
7
Standard
11
45
21
-17
31
0
210
0
220
0
230
1
72
0
100
AcDbText
73
0
0
LWPOLYLINE
100
AcDbEntity
8
0
62
9
6
ByLayer
5
157c
100
AcDbPolyline
90
4
70
1
38
0
39
0
10
43
20
-3
40
0
41
0
42
0
10
114.2
20
-3
40
0
41
0
42
0
10
114.2
20
-22
40
0
41
0
42
0
10
43
20
-22
40
0
41
0
42
0
210
0
220
0
230
1
0
ELLIPSE
5
a6a
100
AcDbEntity
8
0
62
0
6
ByLayer
100
AcDbEllipse
10
20
20
-2
30
0
11
2
21
0
31
0
210
0
220
0
230
1
40
1
41
0
42
6.28318530717959
0
ELLIPSE
5
a6b
100
AcDbEntity
8
0
62
0
6
ByLayer
100
AcDbEllipse
10
20
20
-58
30
0
11
2
21
0
31
0
210
0
220
0
230
1
40
1
41
0
42
6.28318530717959
0
LWPOLYLINE
100
AcDbEntity
8
0
62
0
6
ByLayer
5
157d
100
AcDbPolyline
90
2
70
1
38
0
39
0
10
20
20
-4
40
0
41
0
42
0
10
20
20
-56
40
0
41
0
42
0
210
0
220
0
230
1
0
LWPOLYLINE
100
AcDbEntity
8
0
62
0
6
ByLayer
5
157e
100
AcDbPolyline
90
2
70
1
38
0
39
0
10
10
20
-19.5
40
0
41
0
42
0
10
30
20
-25.5
40
0
41
0
42
0
210
0
220
0
230
1
0
LWPOLYLINE
100
AcDbEntity
8
0
62
0
6
ByLayer
5
157f
100
AcDbPolyline
90
2
70
1
38
0
39
0
10
10
20
-25.5
40
0
41
0
42
0
10
30
20
-31.5
40
0
41
0
42
0
210
0
220
0
230
1
0
ELLIPSE
5
a78
100
AcDbEntity
8
0
62
0
6
ByLayer
100
AcDbEllipse
10
30
20
-31.5
30
0
11
1
21
0
31
0
210
0
220
0
230
1
40
1
41
0
42
6.28318530717959
0
LWPOLYLINE
100
AcDbEntity
8
0
62
0
6
ByLayer
5
1580
100
AcDbPolyline
90
2
70
1
38
0
39
0
10
10
20
-34.5
40
0
41
0
42
0
10
30
20
-40.5
40
0
41
0
42
0
210
0
220
0
230
1
0
LWPOLYLINE
100
AcDbEntity
8
0
62
0
6
ByLayer
5
1581
100
AcDbPolyline
90
2
70
1
38
0
39
0
10
30
20
-38.5
40
0
41
0
42
0
10
30
20
-42.5
40
0
41
0
42
0
210
0
220
0
230
1
0
ENDBLK
5
a61
100
AcDbEntity
8
0
100
AcDbBlockEnd
0
BLOCK
5
aa5
100
AcDbEntity
8
0
100
AcDbBlockBegin
2
87fac259-b163-41f8-b49e-3e0c3b178f7b
70
0
10
0
20
0
30
0
3
87fac259-b163-41f8-b49e-3e0c3b178f7b
0
TEXT
100
AcDbEntity
8
0
62
7
6
ByLayer
5
a84
100
AcDbText
1
\U+0035\U+0046\U+0031\U+002d\U+0031\U+0031\U+0046\U+0031\U+0029\U+0020
10
45
20
-16
30
0
40
5
41
1
50
0
51
0
7
Standard
11
45
21
-16
31
0
210
0
220
0
230
1
72
0
100
AcDbText
73
0
0
TEXT
100
AcDbEntity
8
0
62
7
6
ByLayer
5
a85
100
AcDbText
1
\U+0054\U+004e\U+002d\U+0053\U+0020
10
45
20
-22
30
0
40
5
41
1
50
0
51
0
7
Standard
11
45
21
-22
31
0
210
0
220
0
230
1
72
0
100
AcDbText
73
0
0
TEXT
100
AcDbEntity
8
0
62
7
6
ByLayer
5
a86
100
AcDbText
1
\U+0049\U+0062\U+0020\U+003a\U+0020\U+0033\U+002c\U+0037\U+0037\U+0020\U+0041
10
45
20
-28
30
0
40
5
41
1
50
0
51
0
7
Standard
11
45
21
-28
31
0
210
0
220
0
230
1
72
0
100
AcDbText
73
0
0
LWPOLYLINE
100
AcDbEntity
8
0
62
9
6
ByLayer
5
1582
100
AcDbPolyline
90
4
70
1
38
0
39
0
10
43
20
-8
40
0
41
0
42
0
10
114.2
20
-8
40
0
41
0
42
0
10
114.2
20
-32
40
0
41
0
42
0
10
43
20
-32
40
0
41
0
42
0
210
0
220
0
230
1
0
LWPOLYLINE
100
AcDbEntity
8
0
62
0
6
ByLayer
5
1583
100
AcDbPolyline
90
2
70
1
38
0
39
0
10
20
20
0
40
0
41
0
42
0
10
20
20
-20
40
0
41
0
42
0
210
0
220
0
230
1
0
LWPOLYLINE
100
AcDbEntity
8
0
62
0
6
ByLayer
5
1584
100
AcDbPolyline
90
2
70
1
38
0
39
0
10
15
20
-5
40
0
41
0
42
0
10
25
20
-15
40
0
41
0
42
0
210
0
220
0
230
1
0
LWPOLYLINE
100
AcDbEntity
8
0
62
0
6
ByLayer
5
1585
100
AcDbPolyline
90
2
70
1
38
0
39
0
10
15
20
-15
40
0
41
0
42
0
10
25
20
-5
40
0
41
0
42
0
210
0
220
0
230
1
0
LWPOLYLINE
100
AcDbEntity
8
0
62
0
6
ByLayer
5
1586
100
AcDbPolyline
90
2
70
1
38
0
39
0
10
15
20
-20
40
0
41
0
42
0
10
25
20
-20
40
0
41
0
42
0
210
0
220
0
230
1
0
LWPOLYLINE
100
AcDbEntity
8
0
62
0
6
ByLayer
5
1587
100
AcDbPolyline
90
2
70
1
38
0
39
0
10
10
20
-20
40
0
41
0
42
0
10
20
20
-40
40
0
41
0
42
0
210
0
220
0
230
1
0
LWPOLYLINE
100
AcDbEntity
8
0
62
0
6
ByLayer
5
1588
100
AcDbPolyline
90
2
70
1
38
0
39
0
10
20
20
-40
40
0
41
0
42
0
10
20
20
-60
40
0
41
0
42
0
210
0
220
0
230
1
0
ENDBLK
5
a83
100
AcDbEntity
8
0
100
AcDbBlockEnd
0
BLOCK
5
ac9
100
AcDbEntity
8
0
100
AcDbBlockBegin
2
3ac44f5b-bc21-4cd6-8ffb-9028a6e87c35
70
0
10
0
20
0
30
0
3
3ac44f5b-bc21-4cd6-8ffb-9028a6e87c35
0
TEXT
100
AcDbEntity
8
0
62
7
6
ByLayer
5
aa8
100
AcDbText
1
\U+0051\U+0041\U+0020\U+0031\U+0037\U+0030\U+0020\U+0028\U+0034\U+0029\U+0020
10
45
20
-16
30
0
40
5
41
1
50
0
51
0
7
Standard
11
45
21
-16
31
0
210
0
220
0
230
1
72
0
100
AcDbText
73
0
0
TEXT
100
AcDbEntity
8
0
62
7
6
ByLayer
5
aa9
100
AcDbText
1
\U+0054\U+004e\U+002d\U+0053\U+0020
10
45
20
-22
30
0
40
5
41
1
50
0
51
0
7
Standard
11
45
21
-22
31
0
210
0
220
0
230
1
72
0
100
AcDbText
73
0
0
TEXT
100
AcDbEntity
8
0
62
7
6
ByLayer
5
aaa
100
AcDbText
1
\U+0049\U+0062\U+0020\U+003a\U+0020\U+0030\U+002c\U+0030\U+0031\U+0034\U+0020\U+0041
10
45
20
-28
30
0
40
5
41
1
50
0
51
0
7
Standard
11
45
21
-28
31
0
210
0
220
0
230
1
72
0
100
AcDbText
73
0
0
LWPOLYLINE
100
AcDbEntity
8
0
62
9
6
ByLayer
5
1589
100
AcDbPolyline
90
4
70
1
38
0
39
0
10
43
20
-8
40
0
41
0
42
0
10
114.2
20
-8
40
0
41
0
42
0
10
114.2
20
-32
40
0
41
0
42
0
10
43
20
-32
40
0
41
0
42
0
210
0
220
0
230
1
0
LWPOLYLINE
100
AcDbEntity
8
0
62
0
6
ByLayer
5
158a
100
AcDbPolyline
90
2
70
1
38
0
39
0
10
20
20
0
40
0
41
0
42
0
10
20
20
-20
40
0
41
0
42
0
210
0
220
0
230
1
0
LWPOLYLINE
100
AcDbEntity
8
0
62
0
6
ByLayer
5
158b
100
AcDbPolyline
90
2
70
1
38
0
39
0
10
15
20
-5
40
0
41
0
42
0
10
25
20
-15
40
0
41
0
42
0
210
0
220
0
230
1
0
LWPOLYLINE
100
AcDbEntity
8
0
62
0
6
ByLayer
5
158c
100
AcDbPolyline
90
2
70
1
38
0
39
0
10
15
20
-15
40
0
41
0
42
0
10
25
20
-5
40
0
41
0
42
0
210
0
220
0
230
1
0
LWPOLYLINE
100
AcDbEntity
8
0
62
0
6
ByLayer
5
158d
100
AcDbPolyline
90
2
70
1
38
0
39
0
10
15
20
-20
40
0
41
0
42
0
10
25
20
-20
40
0
41
0
42
0
210
0
220
0
230
1
0
LWPOLYLINE
100
AcDbEntity
8
0
62
0
6
ByLayer
5
158e
100
AcDbPolyline
90
2
70
1
38
0
39
0
10
10
20
-20
40
0
41
0
42
0
10
20
20
-40
40
0
41
0
42
0
210
0
220
0
230
1
0
LWPOLYLINE
100
AcDbEntity
8
0
62
0
6
ByLayer
5
158f
100
AcDbPolyline
90
2
70
1
38
0
39
0
10
20
20
-40
40
0
41
0
42
0
10
20
20
-60
40
0
41
0
42
0
210
0
220
0
230
1
0
ENDBLK
5
aa7
100
AcDbEntity
8
0
100
AcDbBlockEnd
0
BLOCK
5
af4
100
AcDbEntity
8
0
100
AcDbBlockBegin
2
ff38466c-9f4a-430c-8b25-ec9eb47e0b8f
70
0
10
0
20
0
30
0
3
ff38466c-9f4a-430c-8b25-ec9eb47e0b8f
0
TEXT
100
AcDbEntity
8
0
62
7
6
ByLayer
5
acc
100
AcDbText
1
\U+0046\U+0041\U+0020\U+0031\U+0037\U+0030\U+0020\U+0028\U+0034\U+0029\U+0020
10
45
20
-16
30
0
40
5
41
1
50
0
51
0
7
Standard
11
45
21
-16
31
0
210
0
220
0
230
1
72
0
100
AcDbText
73
0
0
TEXT
100
AcDbEntity
8
0
62
7
6
ByLayer
5
acd
100
AcDbText
1
\U+0049\U+006d\U+0061\U+0078\U+0020\U+003a\U+0020\U+0038\U+0020\U+006b\U+0041
10
45
20
-22
30
0
40
5
41
1
50
0
51
0
7
Standard
11
45
21
-22
31
0
210
0
220
0
230
1
72
0
100
AcDbText
73
0
0
LWPOLYLINE
100
AcDbEntity
8
0
62
9
6
ByLayer
5
1590
100
AcDbPolyline
90
4
70
1
38
0
39
0
10
43
20
-8
40
0
41
0
42
0
10
114.2
20
-8
40
0
41
0
42
0
10
114.2
20
-27
40
0
41
0
42
0
10
43
20
-27
40
0
41
0
42
0
210
0
220
0
230
1
0
LWPOLYLINE
100
AcDbEntity
8
0
62
0
6
ByLayer
5
1591
100
AcDbPolyline
90
4
70
1
38
0
39
0
10
5
20
-15
40
0
41
0
42
0
10
35
20
-15
40
0
41
0
42
0
10
35
20
-45
40
0
41
0
42
0
10
5
20
-45
40
0
41
0
42
0
210
0
220
0
230
1
0
LWPOLYLINE
100
AcDbEntity
8
0
62
0
6
ByLayer
5
1592
100
AcDbPolyline
90
2
70
1
38
0
39
0
10
20
20
0
40
0
41
0
42
0
10
20
20
-25
40
0
41
0
42
0
210
0
220
0
230
1
0
LWPOLYLINE
100
AcDbEntity
8
0
62
0
6
ByLayer
5
1593
100
AcDbPolyline
90
4
70
1
38
0
39
0
10
17
20
-25
40
0
41
0
42
0
10
23
20
-25
40
0
41
0
42
0
10
20
20
-30
40
0
41
0
42
0
10
17
20
-25
40
0
41
0
42
0
210
0
220
0
230
1
0
LWPOLYLINE
100
AcDbEntity
8
0
62
0
6
ByLayer
5
1594
100
AcDbPolyline
90
2
70
1
38
0
39
0
10
20
20
-45
40
0
41
0
42
0
10
20
20
-55
40
0
41
0
42
0
210
0
220
0
230
1
0
LWPOLYLINE
100
AcDbEntity
8
0
62
0
6
ByLayer
5
1595
100
AcDbPolyline
90
2
70
1
38
0
39
0
10
10
20
-55
40
0
41
0
42
0
10
30
20
-55
40
0
41
0
42
0
210
0
220
0
230
1
0
LWPOLYLINE
100
AcDbEntity
8
0
62
0
6
ByLayer
5
1596
100
AcDbPolyline
90
2
70
1
38
0
39
0
10
14
20
-60
40
0
41
0
42
0
10
26
20
-60
40
0
41
0
42
0
210
0
220
0
230
1
0
LWPOLYLINE
100
AcDbEntity
8
0
62
0
6
ByLayer
5
1597
100
AcDbPolyline
90
2
70
1
38
0
39
0
10
18
20
-65
40
0
41
0
42
0
10
22
20
-65
40
0
41
0
42
0
210
0
220
0
230
1
0
ENDBLK
5
acb
100
AcDbEntity
8
0
100
AcDbBlockEnd
0
BLOCK
5
afb
100
AcDbEntity
8
0
100
AcDbBlockBegin
2
b3bfcc42-0753-4d58-a819-b192483080bf
70
0
10
0
20
0
30
0
3
b3bfcc42-0753-4d58-a819-b192483080bf
0
LWPOLYLINE
100
AcDbEntity
8
0
62
0
6
ByLayer
5
1598
100
AcDbPolyline
90
2
70
1
38
0
39
0
10
20
20
0
40
0
41
0
42
0
10
20
20
-10
40
0
41
0
42
0
210
0
220
0
230
1
0
ENDBLK
5
af6
100
AcDbEntity
8
0
100
AcDbBlockEnd
0
BLOCK
5
b1f
100
AcDbEntity
8
0
100
AcDbBlockBegin
2
f1f4d747-b986-43e3-81d4-57d30b459176
70
0
10
0
20
0
30
0
3
f1f4d747-b986-43e3-81d4-57d30b459176
0
TEXT
100
AcDbEntity
8
0
62
7
6
ByLayer
5
afe
100
AcDbText
1
\U+0051\U+0041\U+0020\U+0031\U+0037\U+0030\U+0020\U+0028\U+0035\U+0029\U+0020
10
45
20
-16
30
0
40
5
41
1
50
0
51
0
7
Standard
11
45
21
-16
31
0
210
0
220
0
230
1
72
0
100
AcDbText
73
0
0
TEXT
100
AcDbEntity
8
0
62
7
6
ByLayer
5
aff
100
AcDbText
1
\U+0054\U+004e\U+002d\U+0053\U+0020
10
45
20
-22
30
0
40
5
41
1
50
0
51
0
7
Standard
11
45
21
-22
31
0
210
0
220
0
230
1
72
0
100
AcDbText
73
0
0
TEXT
100
AcDbEntity
8
0
62
7
6
ByLayer
5
b00
100
AcDbText
1
\U+0049\U+0062\U+0020\U+003a\U+0020\U+0030\U+002c\U+0030\U+0031\U+0034\U+0020\U+0041
10
45
20
-28
30
0
40
5
41
1
50
0
51
0
7
Standard
11
45
21
-28
31
0
210
0
220
0
230
1
72
0
100
AcDbText
73
0
0
LWPOLYLINE
100
AcDbEntity
8
0
62
9
6
ByLayer
5
1599
100
AcDbPolyline
90
4
70
1
38
0
39
0
10
43
20
-8
40
0
41
0
42
0
10
114.2
20
-8
40
0
41
0
42
0
10
114.2
20
-32
40
0
41
0
42
0
10
43
20
-32
40
0
41
0
42
0
210
0
220
0
230
1
0
LWPOLYLINE
100
AcDbEntity
8
0
62
0
6
ByLayer
5
159a
100
AcDbPolyline
90
2
70
1
38
0
39
0
10
20
20
0
40
0
41
0
42
0
10
20
20
-20
40
0
41
0
42
0
210
0
220
0
230
1
0
LWPOLYLINE
100
AcDbEntity
8
0
62
0
6
ByLayer
5
159b
100
AcDbPolyline
90
2
70
1
38
0
39
0
10
15
20
-5
40
0
41
0
42
0
10
25
20
-15
40
0
41
0
42
0
210
0
220
0
230
1
0
LWPOLYLINE
100
AcDbEntity
8
0
62
0
6
ByLayer
5
159c
100
AcDbPolyline
90
2
70
1
38
0
39
0
10
15
20
-15
40
0
41
0
42
0
10
25
20
-5
40
0
41
0
42
0
210
0
220
0
230
1
0
LWPOLYLINE
100
AcDbEntity
8
0
62
0
6
ByLayer
5
159d
100
AcDbPolyline
90
2
70
1
38
0
39
0
10
15
20
-20
40
0
41
0
42
0
10
25
20
-20
40
0
41
0
42
0
210
0
220
0
230
1
0
LWPOLYLINE
100
AcDbEntity
8
0
62
0
6
ByLayer
5
159e
100
AcDbPolyline
90
2
70
1
38
0
39
0
10
10
20
-20
40
0
41
0
42
0
10
20
20
-40
40
0
41
0
42
0
210
0
220
0
230
1
0
LWPOLYLINE
100
AcDbEntity
8
0
62
0
6
ByLayer
5
159f
100
AcDbPolyline
90
2
70
1
38
0
39
0
10
20
20
-40
40
0
41
0
42
0
10
20
20
-60
40
0
41
0
42
0
210
0
220
0
230
1
0
ENDBLK
5
afd
100
AcDbEntity
8
0
100
AcDbBlockEnd
0
BLOCK
5
b4a
100
AcDbEntity
8
0
100
AcDbBlockBegin
2
e7b177d7-2e8f-409a-9dd1-db15f540b88e
70
0
10
0
20
0
30
0
3
e7b177d7-2e8f-409a-9dd1-db15f540b88e
0
TEXT
100
AcDbEntity
8
0
62
7
6
ByLayer
5
b22
100
AcDbText
1
\U+0046\U+0041\U+0020\U+0031\U+0037\U+0030\U+0020\U+0028\U+0035\U+0029\U+0020
10
45
20
-16
30
0
40
5
41
1
50
0
51
0
7
Standard
11
45
21
-16
31
0
210
0
220
0
230
1
72
0
100
AcDbText
73
0
0
TEXT
100
AcDbEntity
8
0
62
7
6
ByLayer
5
b23
100
AcDbText
1
\U+0049\U+006d\U+0061\U+0078\U+0020\U+003a\U+0020\U+0031\U+0032\U+002c\U+0035\U+0020\U+006b\U+0041
10
45
20
-22
30
0
40
5
41
1
50
0
51
0
7
Standard
11
45
21
-22
31
0
210
0
220
0
230
1
72
0
100
AcDbText
73
0
0
LWPOLYLINE
100
AcDbEntity
8
0
62
9
6
ByLayer
5
15a0
100
AcDbPolyline
90
4
70
1
38
0
39
0
10
43
20
-8
40
0
41
0
42
0
10
114.2
20
-8
40
0
41
0
42
0
10
114.2
20
-27
40
0
41
0
42
0
10
43
20
-27
40
0
41
0
42
0
210
0
220
0
230
1
0
LWPOLYLINE
100
AcDbEntity
8
0
62
0
6
ByLayer
5
15a1
100
AcDbPolyline
90
4
70
1
38
0
39
0
10
5
20
-15
40
0
41
0
42
0
10
35
20
-15
40
0
41
0
42
0
10
35
20
-45
40
0
41
0
42
0
10
5
20
-45
40
0
41
0
42
0
210
0
220
0
230
1
0
LWPOLYLINE
100
AcDbEntity
8
0
62
0
6
ByLayer
5
15a2
100
AcDbPolyline
90
2
70
1
38
0
39
0
10
20
20
0
40
0
41
0
42
0
10
20
20
-25
40
0
41
0
42
0
210
0
220
0
230
1
0
LWPOLYLINE
100
AcDbEntity
8
0
62
0
6
ByLayer
5
15a3
100
AcDbPolyline
90
4
70
1
38
0
39
0
10
17
20
-25
40
0
41
0
42
0
10
23
20
-25
40
0
41
0
42
0
10
20
20
-30
40
0
41
0
42
0
10
17
20
-25
40
0
41
0
42
0
210
0
220
0
230
1
0
LWPOLYLINE
100
AcDbEntity
8
0
62
0
6
ByLayer
5
15a4
100
AcDbPolyline
90
2
70
1
38
0
39
0
10
20
20
-45
40
0
41
0
42
0
10
20
20
-55
40
0
41
0
42
0
210
0
220
0
230
1
0
LWPOLYLINE
100
AcDbEntity
8
0
62
0
6
ByLayer
5
15a5
100
AcDbPolyline
90
2
70
1
38
0
39
0
10
10
20
-55
40
0
41
0
42
0
10
30
20
-55
40
0
41
0
42
0
210
0
220
0
230
1
0
LWPOLYLINE
100
AcDbEntity
8
0
62
0
6
ByLayer
5
15a6
100
AcDbPolyline
90
2
70
1
38
0
39
0
10
14
20
-60
40
0
41
0
42
0
10
26
20
-60
40
0
41
0
42
0
210
0
220
0
230
1
0
LWPOLYLINE
100
AcDbEntity
8
0
62
0
6
ByLayer
5
15a7
100
AcDbPolyline
90
2
70
1
38
0
39
0
10
18
20
-65
40
0
41
0
42
0
10
22
20
-65
40
0
41
0
42
0
210
0
220
0
230
1
0
ENDBLK
5
b21
100
AcDbEntity
8
0
100
AcDbBlockEnd
0
BLOCK
5
b51
100
AcDbEntity
8
0
100
AcDbBlockBegin
2
a1f3740f-fd47-4c15-88b3-59461c9dfa39
70
0
10
0
20
0
30
0
3
a1f3740f-fd47-4c15-88b3-59461c9dfa39
0
LWPOLYLINE
100
AcDbEntity
8
0
62
0
6
ByLayer
5
15a8
100
AcDbPolyline
90
2
70
1
38
0
39
0
10
20
20
0
40
0
41
0
42
0
10
20
20
-10
40
0
41
0
42
0
210
0
220
0
230
1
0
ENDBLK
5
b4c
100
AcDbEntity
8
0
100
AcDbBlockEnd
0
BLOCK
5
b75
100
AcDbEntity
8
0
100
AcDbBlockBegin
2
390e9d6f-59ea-4e1c-8125-b3a7424b4266
70
0
10
0
20
0
30
0
3
390e9d6f-59ea-4e1c-8125-b3a7424b4266
0
TEXT
100
AcDbEntity
8
0
62
7
6
ByLayer
5
b54
100
AcDbText
1
\U+0041\U+006c\U+0061\U+0072\U+006d\U+0069\U+0065\U+0072\U+0075\U+006e\U+0067\U+0020
10
45
20
-16
30
0
40
5
41
1
50
0
51
0
7
Standard
11
45
21
-16
31
0
210
0
220
0
230
1
72
0
100
AcDbText
73
0
0
TEXT
100
AcDbEntity
8
0
62
7
6
ByLayer
5
b55
100
AcDbText
1
\U+0054\U+004e\U+002d\U+0053\U+0020
10
45
20
-22
30
0
40
5
41
1
50
0
51
0
7
Standard
11
45
21
-22
31
0
210
0
220
0
230
1
72
0
100
AcDbText
73
0
0
TEXT
100
AcDbEntity
8
0
62
7
6
ByLayer
5
b56
100
AcDbText
1
\U+0049\U+0062\U+0020\U+003a\U+0020\U+0032\U+002c\U+0038\U+0032\U+0020\U+0041
10
45
20
-28
30
0
40
5
41
1
50
0
51
0
7
Standard
11
45
21
-28
31
0
210
0
220
0
230
1
72
0
100
AcDbText
73
0
0
LWPOLYLINE
100
AcDbEntity
8
0
62
9
6
ByLayer
5
15a9
100
AcDbPolyline
90
4
70
1
38
0
39
0
10
43
20
-8
40
0
41
0
42
0
10
114.2
20
-8
40
0
41
0
42
0
10
114.2
20
-32
40
0
41
0
42
0
10
43
20
-32
40
0
41
0
42
0
210
0
220
0
230
1
0
LWPOLYLINE
100
AcDbEntity
8
0
62
0
6
ByLayer
5
15aa
100
AcDbPolyline
90
2
70
1
38
0
39
0
10
20
20
0
40
0
41
0
42
0
10
20
20
-20
40
0
41
0
42
0
210
0
220
0
230
1
0
LWPOLYLINE
100
AcDbEntity
8
0
62
0
6
ByLayer
5
15ab
100
AcDbPolyline
90
2
70
1
38
0
39
0
10
15
20
-5
40
0
41
0
42
0
10
25
20
-15
40
0
41
0
42
0
210
0
220
0
230
1
0
LWPOLYLINE
100
AcDbEntity
8
0
62
0
6
ByLayer
5
15ac
100
AcDbPolyline
90
2
70
1
38
0
39
0
10
15
20
-15
40
0
41
0
42
0
10
25
20
-5
40
0
41
0
42
0
210
0
220
0
230
1
0
LWPOLYLINE
100
AcDbEntity
8
0
62
0
6
ByLayer
5
15ad
100
AcDbPolyline
90
2
70
1
38
0
39
0
10
15
20
-20
40
0
41
0
42
0
10
25
20
-20
40
0
41
0
42
0
210
0
220
0
230
1
0
LWPOLYLINE
100
AcDbEntity
8
0
62
0
6
ByLayer
5
15ae
100
AcDbPolyline
90
2
70
1
38
0
39
0
10
10
20
-20
40
0
41
0
42
0
10
20
20
-40
40
0
41
0
42
0
210
0
220
0
230
1
0
LWPOLYLINE
100
AcDbEntity
8
0
62
0
6
ByLayer
5
15af
100
AcDbPolyline
90
2
70
1
38
0
39
0
10
20
20
-40
40
0
41
0
42
0
10
20
20
-60
40
0
41
0
42
0
210
0
220
0
230
1
0
ENDBLK
5
b53
100
AcDbEntity
8
0
100
AcDbBlockEnd
0
BLOCK
5
b97
100
AcDbEntity
8
0
100
AcDbBlockBegin
2
ff938797-01b9-4560-b3ed-7a46a46e2a32
70
0
10
0
20
0
30
0
3
ff938797-01b9-4560-b3ed-7a46a46e2a32
0
TEXT
100
AcDbEntity
8
0
62
7
6
ByLayer
5
b78
100
AcDbText
1
\U+0057\U+0044\U+0020\U+0031\U+0035\U+0032\U+0020\U+0028\U+0031\U+0029\U+0020\U+0028\U+0031\U+0029\U+0020\U+0028\U+0031\U+0029\U+0020
10
45
20
-11
30
0
40
5
41
1
50
0
51
0
7
Standard
11
45
21
-11
31
0
210
0
220
0
230
1
72
0
100
AcDbText
73
0
0
TEXT
100
AcDbEntity
8
0
62
7
6
ByLayer
5
b79
100
AcDbText
1
\U+0038\U+0020\U+006d
10
45
20
-17
30
0
40
5
41
1
50
0
51
0
7
Standard
11
45
21
-17
31
0
210
0
220
0
230
1
72
0
100
AcDbText
73
0
0
LWPOLYLINE
100
AcDbEntity
8
0
62
9
6
ByLayer
5
15b0
100
AcDbPolyline
90
4
70
1
38
0
39
0
10
43
20
-3
40
0
41
0
42
0
10
123
20
-3
40
0
41
0
42
0
10
123
20
-22
40
0
41
0
42
0
10
43
20
-22
40
0
41
0
42
0
210
0
220
0
230
1
0
ELLIPSE
5
b80
100
AcDbEntity
8
0
62
0
6
ByLayer
100
AcDbEllipse
10
20
20
-2
30
0
11
2
21
0
31
0
210
0
220
0
230
1
40
1
41
0
42
6.28318530717959
0
ELLIPSE
5
b81
100
AcDbEntity
8
0
62
0
6
ByLayer
100
AcDbEllipse
10
20
20
-58
30
0
11
2
21
0
31
0
210
0
220
0
230
1
40
1
41
0
42
6.28318530717959
0
LWPOLYLINE
100
AcDbEntity
8
0
62
0
6
ByLayer
5
15b1
100
AcDbPolyline
90
2
70
1
38
0
39
0
10
20
20
-4
40
0
41
0
42
0
10
20
20
-56
40
0
41
0
42
0
210
0
220
0
230
1
0
LWPOLYLINE
100
AcDbEntity
8
0
62
0
6
ByLayer
5
15b2
100
AcDbPolyline
90
2
70
1
38
0
39
0
10
10
20
-19.5
40
0
41
0
42
0
10
30
20
-25.5
40
0
41
0
42
0
210
0
220
0
230
1
0
LWPOLYLINE
100
AcDbEntity
8
0
62
0
6
ByLayer
5
15b3
100
AcDbPolyline
90
2
70
1
38
0
39
0
10
10
20
-25.5
40
0
41
0
42
0
10
30
20
-31.5
40
0
41
0
42
0
210
0
220
0
230
1
0
ELLIPSE
5
b8e
100
AcDbEntity
8
0
62
0
6
ByLayer
100
AcDbEllipse
10
30
20
-31.5
30
0
11
1
21
0
31
0
210
0
220
0
230
1
40
1
41
0
42
6.28318530717959
0
LWPOLYLINE
100
AcDbEntity
8
0
62
0
6
ByLayer
5
15b4
100
AcDbPolyline
90
2
70
1
38
0
39
0
10
10
20
-34.5
40
0
41
0
42
0
10
30
20
-40.5
40
0
41
0
42
0
210
0
220
0
230
1
0
LWPOLYLINE
100
AcDbEntity
8
0
62
0
6
ByLayer
5
15b5
100
AcDbPolyline
90
2
70
1
38
0
39
0
10
30
20
-38.5
40
0
41
0
42
0
10
30
20
-42.5
40
0
41
0
42
0
210
0
220
0
230
1
0
ENDBLK
5
b77
100
AcDbEntity
8
0
100
AcDbBlockEnd
0
BLOCK
5
bb3
100
AcDbEntity
8
0
100
AcDbBlockBegin
2
576b2534-58e6-477b-9ecf-4f547e9a7dea
70
0
10
0
20
0
30
0
3
576b2534-58e6-477b-9ecf-4f547e9a7dea
0
TEXT
100
AcDbEntity
8
0
62
7
6
ByLayer
5
b9a
100
AcDbText
1
\U+0041\U+006c\U+0061\U+0072\U+006d\U+0065\U+0069\U+006e\U+0072\U+002e\U+0020
10
45
20
-11
30
0
40
5
41
1
50
0
51
0
7
Standard
11
45
21
-11
31
0
210
0
220
0
230
1
72
0
100
AcDbText
73
0
0
TEXT
100
AcDbEntity
8
0
62
7
6
ByLayer
5
b9b
100
AcDbText
1
\U+0030\U+002c\U+0036\U+0020\U+006b\U+0057
10
45
20
-17
30
0
40
5
41
1
50
0
51
0
7
Standard
11
45
21
-17
31
0
210
0
220
0
230
1
72
0
100
AcDbText
73
0
0
TEXT
100
AcDbEntity
8
0
62
7
6
ByLayer
5
b9c
100
AcDbText
1
\U+0043\U+006f\U+0073\U+03c6\U+0020\U+003a\U+0020\U+0030\U+002c\U+0039\U+0032\U+0020
10
45
20
-23
30
0
40
5
41
1
50
0
51
0
7
Standard
11
45
21
-23
31
0
210
0
220
0
230
1
72
0
100
AcDbText
73
0
0
TEXT
100
AcDbEntity
8
0
62
7
6
ByLayer
5
b9d
100
AcDbText
1
\U+004d\U+0065\U+006e\U+0067\U+0065\U+0020\U+003a\U+0020\U+003a\U+0020\U+0031\U+0020
10
45
20
-29
30
0
40
5
41
1
50
0
51
0
7
Standard
11
45
21
-29
31
0
210
0
220
0
230
1
72
0
100
AcDbText
73
0
0
TEXT
100
AcDbEntity
8
0
62
7
6
ByLayer
5
b9e
100
AcDbText
1
\U+004b\U+0075\U+0020\U+003a\U+0020\U+0031\U+0020
10
45
20
-35
30
0
40
5
41
1
50
0
51
0
7
Standard
11
45
21
-35
31
0
210
0
220
0
230
1
72
0
100
AcDbText
73
0
0
LWPOLYLINE
100
AcDbEntity
8
0
62
9
6
ByLayer
5
15b6
100
AcDbPolyline
90
4
70
1
38
0
39
0
10
43
20
-3
40
0
41
0
42
0
10
114.2
20
-3
40
0
41
0
42
0
10
114.2
20
-37
40
0
41
0
42
0
10
43
20
-37
40
0
41
0
42
0
210
0
220
0
230
1
0
LWPOLYLINE
100
AcDbEntity
8
0
62
0
6
ByLayer
5
15b7
100
AcDbPolyline
90
2
70
1
38
0
39
0
10
0
20
-20
40
0
41
0
42
0
10
0
20
0
40
0
41
0
42
0
210
0
220
0
230
1
0
LWPOLYLINE
100
AcDbEntity
8
0
62
0
6
ByLayer
5
15b8
100
AcDbPolyline
90
2
70
1
38
0
39
0
10
0
20
0
40
0
41
0
42
0
10
40
20
0
40
0
41
0
42
0
210
0
220
0
230
1
0
LWPOLYLINE
100
AcDbEntity
8
0
62
0
6
ByLayer
5
15b9
100
AcDbPolyline
90
2
70
1
38
0
39
0
10
40
20
0
40
0
41
0
42
0
10
40
20
-20
40
0
41
0
42
0
210
0
220
0
230
1
0
SPLINE
100
AcDbEntity
8
0
62
0
6
ByLayer
5
bb2
100
AcDbSpline
210
0
220
0
230
1
70
0
71
3
72
0
73
0
74
3
42
1E-10
43
1E-10
44
1E-10
11
0
21
-20
31
-20
11
20
21
0
31
0
11
40
21
-20
31
-20
0
SEQEND
5
bb1
100
AcDbEntity
8
0
0
ENDBLK
5
b99
100
AcDbEntity
8
0
100
AcDbBlockEnd
0
BLOCK
5
bd0
100
AcDbEntity
8
0
100
AcDbBlockBegin
2
abc7f15e-5877-475a-ad5d-67e9e08a4dcf
70
0
10
0
20
0
30
0
3
abc7f15e-5877-475a-ad5d-67e9e08a4dcf
0
TEXT
100
AcDbEntity
8
0
62
7
6
ByLayer
5
bb6
100
AcDbText
1
\U+0057\U+0043\U+0020\U+0032\U+0033\U+0038\U+0020
10
210
20
39
30
0
40
5
41
1
50
0
51
0
7
Standard
11
210
21
39
31
0
210
0
220
0
230
1
72
0
100
AcDbText
73
0
0
TEXT
100
AcDbEntity
8
0
62
7
6
ByLayer
5
bb7
100
AcDbText
1
\U+0033\U+002c\U+0034\U+0038\U+0020\U+006b\U+0056\U+0041
10
210
20
33
30
0
40
5
41
1
50
0
51
0
7
Standard
11
210
21
33
31
0
210
0
220
0
230
1
72
0
100
AcDbText
73
0
0
TEXT
100
AcDbEntity
8
0
62
7
6
ByLayer
5
bb8
100
AcDbText
1
\U+0031\U+002c\U+0033\U+0036\U+0020\U+006b\U+0076\U+0061\U+0072
10
210
20
27
30
0
40
5
41
1
50
0
51
0
7
Standard
11
210
21
27
31
0
210
0
220
0
230
1
72
0
100
AcDbText
73
0
0
TEXT
100
AcDbEntity
8
0
62
7
6
ByLayer
5
bb9
100
AcDbText
1
\U+004b\U+0073\U+0020\U+003a\U+0020\U+0030\U+002c\U+0038\U+0020
10
210
20
21
30
0
40
5
41
1
50
0
51
0
7
Standard
11
210
21
21
31
0
210
0
220
0
230
1
72
0
100
AcDbText
73
0
0
LWPOLYLINE
100
AcDbEntity
8
0
62
9
6
ByLayer
5
15ba
100
AcDbPolyline
90
4
70
1
38
0
39
0
10
208
20
47
40
0
41
0
42
0
10
279.2
20
47
40
0
41
0
42
0
10
279.2
20
18
40
0
41
0
42
0
10
208
20
18
40
0
41
0
42
0
210
0
220
0
230
1
0
TEXT
100
AcDbEntity
8
0
62
7
6
ByLayer
5
bc0
100
AcDbText
1
\U+0055\U+0053\U+0056\U+0020\U+0031\U+002e\U+004f\U+0047\U+0020
10
-45
20
59
30
0
40
5
41
1
50
0
51
0
7
Standard
11
-45
21
59
31
0
210
0
220
0
230
1
72
0
100
AcDbText
73
0
0
TEXT
100
AcDbEntity
8
0
62
7
6
ByLayer
5
bc1
100
AcDbText
1
\U+0041\U+0075\U+0073\U+0077\U+0061\U+0068\U+006c\U+0020
10
-45
20
53
30
0
40
5
41
1
50
0
51
0
7
Standard
11
-45
21
53
31
0
210
0
220
0
230
1
72
0
100
AcDbText
73
0
0
TEXT
100
AcDbEntity
8
0
62
7
6
ByLayer
5
bc2
100
AcDbText
1
\U+004e\U+0069\U+0063\U+0068\U+0074\U+0020\U+0061\U+006e\U+0067\U+0065\U+0067\U+0065\U+0062\U+0065\U+006e\U+0020
10
-45
20
47
30
0
40
5
41
1
50
0
51
0
7
Standard
11
-45
21
47
31
0
210
0
220
0
230
1
72
0
100
AcDbText
73
0
0
TEXT
100
AcDbEntity
8
0
62
7
6
ByLayer
5
bc3
100
AcDbText
1
\U+0030\U+0020\U+0041
10
-45
20
41
30
0
40
5
41
1
50
0
51
0
7
Standard
11
-45
21
41
31
0
210
0
220
0
230
1
72
0
100
AcDbText
73
0
0
LWPOLYLINE
100
AcDbEntity
8
0
62
9
6
ByLayer
5
15bb
100
AcDbPolyline
90
4
70
1
38
0
39
0
10
-47
20
67
40
0
41
0
42
0
10
40.2
20
67
40
0
41
0
42
0
10
40.2
20
38
40
0
41
0
42
0
10
-47
20
38
40
0
41
0
42
0
210
0
220
0
230
1
0
LWPOLYLINE
100
AcDbEntity
8
0
62
0
6
ByLayer
5
15bc
100
AcDbPolyline
90
4
70
1
38
0
39
0
10
0
20
0
40
0
41
0
42
0
10
200
20
0
40
0
41
0
42
0
10
200
20
-5
40
0
41
0
42
0
10
0
20
-5
40
0
41
0
42
0
210
0
220
0
230
1
0
ENDBLK
5
bb5
100
AcDbEntity
8
0
100
AcDbBlockEnd
0
BLOCK
5
bf4
100
AcDbEntity
8
0
100
AcDbBlockBegin
2
a9f46ed0-4a5c-422a-89fe-b482da0f7aa0
70
0
10
0
20
0
30
0
3
a9f46ed0-4a5c-422a-89fe-b482da0f7aa0
0
TEXT
100
AcDbEntity
8
0
62
7
6
ByLayer
5
bd3
100
AcDbText
1
\U+0051\U+0041\U+0020\U+0032\U+0034\U+0031\U+0020
10
45
20
-16
30
0
40
5
41
1
50
0
51
0
7
Standard
11
45
21
-16
31
0
210
0
220
0
230
1
72
0
100
AcDbText
73
0
0
TEXT
100
AcDbEntity
8
0
62
7
6
ByLayer
5
bd4
100
AcDbText
1
\U+0054\U+004e\U+002d\U+0053\U+0020
10
45
20
-22
30
0
40
5
41
1
50
0
51
0
7
Standard
11
45
21
-22
31
0
210
0
220
0
230
1
72
0
100
AcDbText
73
0
0
TEXT
100
AcDbEntity
8
0
62
7
6
ByLayer
5
bd5
100
AcDbText
1
\U+0049\U+0062\U+0020\U+003a\U+0020\U+0032\U+002c\U+0033\U+0035\U+0020\U+0041
10
45
20
-28
30
0
40
5
41
1
50
0
51
0
7
Standard
11
45
21
-28
31
0
210
0
220
0
230
1
72
0
100
AcDbText
73
0
0
LWPOLYLINE
100
AcDbEntity
8
0
62
9
6
ByLayer
5
15bd
100
AcDbPolyline
90
4
70
1
38
0
39
0
10
43
20
-8
40
0
41
0
42
0
10
114.2
20
-8
40
0
41
0
42
0
10
114.2
20
-32
40
0
41
0
42
0
10
43
20
-32
40
0
41
0
42
0
210
0
220
0
230
1
0
LWPOLYLINE
100
AcDbEntity
8
0
62
0
6
ByLayer
5
15be
100
AcDbPolyline
90
2
70
1
38
0
39
0
10
20
20
0
40
0
41
0
42
0
10
20
20
-20
40
0
41
0
42
0
210
0
220
0
230
1
0
LWPOLYLINE
100
AcDbEntity
8
0
62
0
6
ByLayer
5
15bf
100
AcDbPolyline
90
2
70
1
38
0
39
0
10
15
20
-5
40
0
41
0
42
0
10
25
20
-15
40
0
41
0
42
0
210
0
220
0
230
1
0
LWPOLYLINE
100
AcDbEntity
8
0
62
0
6
ByLayer
5
15c0
100
AcDbPolyline
90
2
70
1
38
0
39
0
10
15
20
-15
40
0
41
0
42
0
10
25
20
-5
40
0
41
0
42
0
210
0
220
0
230
1
0
LWPOLYLINE
100
AcDbEntity
8
0
62
0
6
ByLayer
5
15c1
100
AcDbPolyline
90
2
70
1
38
0
39
0
10
15
20
-20
40
0
41
0
42
0
10
25
20
-20
40
0
41
0
42
0
210
0
220
0
230
1
0
LWPOLYLINE
100
AcDbEntity
8
0
62
0
6
ByLayer
5
15c2
100
AcDbPolyline
90
2
70
1
38
0
39
0
10
10
20
-20
40
0
41
0
42
0
10
20
20
-40
40
0
41
0
42
0
210
0
220
0
230
1
0
LWPOLYLINE
100
AcDbEntity
8
0
62
0
6
ByLayer
5
15c3
100
AcDbPolyline
90
2
70
1
38
0
39
0
10
20
20
-40
40
0
41
0
42
0
10
20
20
-60
40
0
41
0
42
0
210
0
220
0
230
1
0
ENDBLK
5
bd2
100
AcDbEntity
8
0
100
AcDbBlockEnd
0
BLOCK
5
c16
100
AcDbEntity
8
0
100
AcDbBlockBegin
2
686cd373-596d-451e-b906-a109d033f12b
70
0
10
0
20
0
30
0
3
686cd373-596d-451e-b906-a109d033f12b
0
TEXT
100
AcDbEntity
8
0
62
7
6
ByLayer
5
bf7
100
AcDbText
1
\U+0057\U+0044\U+0020\U+0032\U+0034\U+0031\U+0020
10
45
20
-11
30
0
40
5
41
1
50
0
51
0
7
Standard
11
45
21
-11
31
0
210
0
220
0
230
1
72
0
100
AcDbText
73
0
0
TEXT
100
AcDbEntity
8
0
62
7
6
ByLayer
5
bf8
100
AcDbText
1
\U+0031\U+0035\U+0020\U+006d
10
45
20
-17
30
0
40
5
41
1
50
0
51
0
7
Standard
11
45
21
-17
31
0
210
0
220
0
230
1
72
0
100
AcDbText
73
0
0
LWPOLYLINE
100
AcDbEntity
8
0
62
9
6
ByLayer
5
15c4
100
AcDbPolyline
90
4
70
1
38
0
39
0
10
43
20
-3
40
0
41
0
42
0
10
114.2
20
-3
40
0
41
0
42
0
10
114.2
20
-22
40
0
41
0
42
0
10
43
20
-22
40
0
41
0
42
0
210
0
220
0
230
1
0
ELLIPSE
5
bff
100
AcDbEntity
8
0
62
0
6
ByLayer
100
AcDbEllipse
10
20
20
-2
30
0
11
2
21
0
31
0
210
0
220
0
230
1
40
1
41
0
42
6.28318530717959
0
ELLIPSE
5
c00
100
AcDbEntity
8
0
62
0
6
ByLayer
100
AcDbEllipse
10
20
20
-58
30
0
11
2
21
0
31
0
210
0
220
0
230
1
40
1
41
0
42
6.28318530717959
0
LWPOLYLINE
100
AcDbEntity
8
0
62
0
6
ByLayer
5
15c5
100
AcDbPolyline
90
2
70
1
38
0
39
0
10
20
20
-4
40
0
41
0
42
0
10
20
20
-56
40
0
41
0
42
0
210
0
220
0
230
1
0
LWPOLYLINE
100
AcDbEntity
8
0
62
0
6
ByLayer
5
15c6
100
AcDbPolyline
90
2
70
1
38
0
39
0
10
10
20
-19.5
40
0
41
0
42
0
10
30
20
-25.5
40
0
41
0
42
0
210
0
220
0
230
1
0
LWPOLYLINE
100
AcDbEntity
8
0
62
0
6
ByLayer
5
15c7
100
AcDbPolyline
90
2
70
1
38
0
39
0
10
10
20
-25.5
40
0
41
0
42
0
10
30
20
-31.5
40
0
41
0
42
0
210
0
220
0
230
1
0
ELLIPSE
5
c0d
100
AcDbEntity
8
0
62
0
6
ByLayer
100
AcDbEllipse
10
30
20
-31.5
30
0
11
1
21
0
31
0
210
0
220
0
230
1
40
1
41
0
42
6.28318530717959
0
LWPOLYLINE
100
AcDbEntity
8
0
62
0
6
ByLayer
5
15c8
100
AcDbPolyline
90
2
70
1
38
0
39
0
10
10
20
-34.5
40
0
41
0
42
0
10
30
20
-40.5
40
0
41
0
42
0
210
0
220
0
230
1
0
LWPOLYLINE
100
AcDbEntity
8
0
62
0
6
ByLayer
5
15c9
100
AcDbPolyline
90
2
70
1
38
0
39
0
10
30
20
-38.5
40
0
41
0
42
0
10
30
20
-42.5
40
0
41
0
42
0
210
0
220
0
230
1
0
ENDBLK
5
bf6
100
AcDbEntity
8
0
100
AcDbBlockEnd
0
BLOCK
5
c32
100
AcDbEntity
8
0
100
AcDbBlockBegin
2
02de0568-2eb6-4eee-807d-e592da863e14
70
0
10
0
20
0
30
0
3
02de0568-2eb6-4eee-807d-e592da863e14
0
TEXT
100
AcDbEntity
8
0
62
7
6
ByLayer
5
c19
100
AcDbText
1
\U+0041\U+0041\U+0020\U+0032\U+0034\U+0031\U+0020
10
45
20
-11
30
0
40
5
41
1
50
0
51
0
7
Standard
11
45
21
-11
31
0
210
0
220
0
230
1
72
0
100
AcDbText
73
0
0
TEXT
100
AcDbEntity
8
0
62
7
6
ByLayer
5
c1a
100
AcDbText
1
\U+0030\U+002c\U+0035\U+0020\U+006b\U+0057
10
45
20
-17
30
0
40
5
41
1
50
0
51
0
7
Standard
11
45
21
-17
31
0
210
0
220
0
230
1
72
0
100
AcDbText
73
0
0
TEXT
100
AcDbEntity
8
0
62
7
6
ByLayer
5
c1b
100
AcDbText
1
\U+0043\U+006f\U+0073\U+03c6\U+0020\U+003a\U+0020\U+0030\U+002c\U+0039\U+0032\U+0020
10
45
20
-23
30
0
40
5
41
1
50
0
51
0
7
Standard
11
45
21
-23
31
0
210
0
220
0
230
1
72
0
100
AcDbText
73
0
0
TEXT
100
AcDbEntity
8
0
62
7
6
ByLayer
5
c1c
100
AcDbText
1
\U+004d\U+0065\U+006e\U+0067\U+0065\U+0020\U+003a\U+0020\U+003a\U+0020\U+0038\U+0020
10
45
20
-29
30
0
40
5
41
1
50
0
51
0
7
Standard
11
45
21
-29
31
0
210
0
220
0
230
1
72
0
100
AcDbText
73
0
0
TEXT
100
AcDbEntity
8
0
62
7
6
ByLayer
5
c1d
100
AcDbText
1
\U+004b\U+0075\U+0020\U+003a\U+0020\U+0031\U+0020
10
45
20
-35
30
0
40
5
41
1
50
0
51
0
7
Standard
11
45
21
-35
31
0
210
0
220
0
230
1
72
0
100
AcDbText
73
0
0
LWPOLYLINE
100
AcDbEntity
8
0
62
9
6
ByLayer
5
15ca
100
AcDbPolyline
90
4
70
1
38
0
39
0
10
43
20
-3
40
0
41
0
42
0
10
114.2
20
-3
40
0
41
0
42
0
10
114.2
20
-37
40
0
41
0
42
0
10
43
20
-37
40
0
41
0
42
0
210
0
220
0
230
1
0
LWPOLYLINE
100
AcDbEntity
8
0
62
0
6
ByLayer
5
15cb
100
AcDbPolyline
90
2
70
1
38
0
39
0
10
0
20
-20
40
0
41
0
42
0
10
0
20
0
40
0
41
0
42
0
210
0
220
0
230
1
0
LWPOLYLINE
100
AcDbEntity
8
0
62
0
6
ByLayer
5
15cc
100
AcDbPolyline
90
2
70
1
38
0
39
0
10
0
20
0
40
0
41
0
42
0
10
40
20
0
40
0
41
0
42
0
210
0
220
0
230
1
0
LWPOLYLINE
100
AcDbEntity
8
0
62
0
6
ByLayer
5
15cd
100
AcDbPolyline
90
2
70
1
38
0
39
0
10
40
20
0
40
0
41
0
42
0
10
40
20
-20
40
0
41
0
42
0
210
0
220
0
230
1
0
SPLINE
100
AcDbEntity
8
0
62
0
6
ByLayer
5
c31
100
AcDbSpline
210
0
220
0
230
1
70
0
71
3
72
0
73
0
74
3
42
1E-10
43
1E-10
44
1E-10
11
0
21
-20
31
-20
11
20
21
0
31
0
11
40
21
-20
31
-20
0
SEQEND
5
c30
100
AcDbEntity
8
0
0
ENDBLK
5
c18
100
AcDbEntity
8
0
100
AcDbBlockEnd
0
BLOCK
5
c4e
100
AcDbEntity
8
0
100
AcDbBlockBegin
2
07c4e808-00dc-4a26-beff-123ee0c4711c
70
0
10
0
20
0
30
0
3
07c4e808-00dc-4a26-beff-123ee0c4711c
0
TEXT
100
AcDbEntity
8
0
62
7
6
ByLayer
5
c35
100
AcDbText
1
\U+0051\U+0042\U+0020\U+0032\U+0036\U+0030\U+0020
10
45
20
-16
30
0
40
5
41
1
50
0
51
0
7
Standard
11
45
21
-16
31
0
210
0
220
0
230
1
72
0
100
AcDbText
73
0
0
TEXT
100
AcDbEntity
8
0
62
7
6
ByLayer
5
c36
100
AcDbText
1
\U+0054\U+004e\U+002d\U+0053\U+0020
10
45
20
-22
30
0
40
5
41
1
50
0
51
0
7
Standard
11
45
21
-22
31
0
210
0
220
0
230
1
72
0
100
AcDbText
73
0
0
LWPOLYLINE
100
AcDbEntity
8
0
62
9
6
ByLayer
5
15ce
100
AcDbPolyline
90
4
70
1
38
0
39
0
10
43
20
-8
40
0
41
0
42
0
10
114.2
20
-8
40
0
41
0
42
0
10
114.2
20
-27
40
0
41
0
42
0
10
43
20
-27
40
0
41
0
42
0
210
0
220
0
230
1
0
LWPOLYLINE
100
AcDbEntity
8
0
62
0
6
ByLayer
5
15cf
100
AcDbPolyline
90
2
70
1
38
0
39
0
10
20
20
0
40
0
41
0
42
0
10
20
20
-20
40
0
41
0
42
0
210
0
220
0
230
1
0
LWPOLYLINE
100
AcDbEntity
8
0
62
0
6
ByLayer
5
15d0
100
AcDbPolyline
90
2
70
1
38
0
39
0
10
10
20
-20
40
0
41
0
42
0
10
20
20
-40
40
0
41
0
42
0
210
0
220
0
230
1
0
LWPOLYLINE
100
AcDbEntity
8
0
62
0
6
ByLayer
5
15d1
100
AcDbPolyline
90
2
70
1
38
0
39
0
10
20
20
-40
40
0
41
0
42
0
10
20
20
-60
40
0
41
0
42
0
210
0
220
0
230
1
0
LWPOLYLINE
100
AcDbEntity
8
0
62
0
6
ByLayer
5
15d2
100
AcDbPolyline
90
2
70
1
38
0
39
0
10
16
20
-20
40
0
41
0
42
0
10
24
20
-20
40
0
41
0
42
0
210
0
220
0
230
1
0
ELLIPSE
5
c4d
100
AcDbEntity
8
0
62
0
6
ByLayer
100
AcDbEllipse
10
20
20
-23
30
0
11
3
21
0
31
0
210
0
220
0
230
1
40
1
41
0
42
6.28318530717959
0
ENDBLK
5
c34
100
AcDbEntity
8
0
100
AcDbBlockEnd
0
BLOCK
5
c72
100
AcDbEntity
8
0
100
AcDbBlockBegin
2
07b37e7d-3aec-4521-b5d6-9d62b6a4bb40
70
0
10
0
20
0
30
0
3
07b37e7d-3aec-4521-b5d6-9d62b6a4bb40
0
TEXT
100
AcDbEntity
8
0
62
7
6
ByLayer
5
c51
100
AcDbText
1
\U+0051\U+0041\U+0020\U+0031\U+0035\U+0037\U+0020\U+0028\U+0031\U+0029\U+0020
10
45
20
-16
30
0
40
5
41
1
50
0
51
0
7
Standard
11
45
21
-16
31
0
210
0
220
0
230
1
72
0
100
AcDbText
73
0
0
TEXT
100
AcDbEntity
8
0
62
7
6
ByLayer
5
c52
100
AcDbText
1
\U+0054\U+004e\U+002d\U+0053\U+0020
10
45
20
-22
30
0
40
5
41
1
50
0
51
0
7
Standard
11
45
21
-22
31
0
210
0
220
0
230
1
72
0
100
AcDbText
73
0
0
TEXT
100
AcDbEntity
8
0
62
7
6
ByLayer
5
c53
100
AcDbText
1
\U+0049\U+0062\U+0020\U+003a\U+0020\U+0033\U+002c\U+0037\U+0037\U+0020\U+0041
10
45
20
-28
30
0
40
5
41
1
50
0
51
0
7
Standard
11
45
21
-28
31
0
210
0
220
0
230
1
72
0
100
AcDbText
73
0
0
LWPOLYLINE
100
AcDbEntity
8
0
62
9
6
ByLayer
5
15d3
100
AcDbPolyline
90
4
70
1
38
0
39
0
10
43
20
-8
40
0
41
0
42
0
10
114.2
20
-8
40
0
41
0
42
0
10
114.2
20
-32
40
0
41
0
42
0
10
43
20
-32
40
0
41
0
42
0
210
0
220
0
230
1
0
LWPOLYLINE
100
AcDbEntity
8
0
62
0
6
ByLayer
5
15d4
100
AcDbPolyline
90
2
70
1
38
0
39
0
10
20
20
0
40
0
41
0
42
0
10
20
20
-20
40
0
41
0
42
0
210
0
220
0
230
1
0
LWPOLYLINE
100
AcDbEntity
8
0
62
0
6
ByLayer
5
15d5
100
AcDbPolyline
90
2
70
1
38
0
39
0
10
15
20
-5
40
0
41
0
42
0
10
25
20
-15
40
0
41
0
42
0
210
0
220
0
230
1
0
LWPOLYLINE
100
AcDbEntity
8
0
62
0
6
ByLayer
5
15d6
100
AcDbPolyline
90
2
70
1
38
0
39
0
10
15
20
-15
40
0
41
0
42
0
10
25
20
-5
40
0
41
0
42
0
210
0
220
0
230
1
0
LWPOLYLINE
100
AcDbEntity
8
0
62
0
6
ByLayer
5
15d7
100
AcDbPolyline
90
2
70
1
38
0
39
0
10
15
20
-20
40
0
41
0
42
0
10
25
20
-20
40
0
41
0
42
0
210
0
220
0
230
1
0
LWPOLYLINE
100
AcDbEntity
8
0
62
0
6
ByLayer
5
15d8
100
AcDbPolyline
90
2
70
1
38
0
39
0
10
10
20
-20
40
0
41
0
42
0
10
20
20
-40
40
0
41
0
42
0
210
0
220
0
230
1
0
LWPOLYLINE
100
AcDbEntity
8
0
62
0
6
ByLayer
5
15d9
100
AcDbPolyline
90
2
70
1
38
0
39
0
10
20
20
-40
40
0
41
0
42
0
10
20
20
-60
40
0
41
0
42
0
210
0
220
0
230
1
0
ENDBLK
5
c50
100
AcDbEntity
8
0
100
AcDbBlockEnd
0
BLOCK
5
c94
100
AcDbEntity
8
0
100
AcDbBlockBegin
2
6467f67e-a721-44fb-ae13-171b22f3aab4
70
0
10
0
20
0
30
0
3
6467f67e-a721-44fb-ae13-171b22f3aab4
0
TEXT
100
AcDbEntity
8
0
62
7
6
ByLayer
5
c75
100
AcDbText
1
\U+0057\U+0044\U+0020\U+0031\U+0035\U+0037\U+0020\U+0028\U+0031\U+0029\U+0020
10
45
20
-11
30
0
40
5
41
1
50
0
51
0
7
Standard
11
45
21
-11
31
0
210
0
220
0
230
1
72
0
100
AcDbText
73
0
0
TEXT
100
AcDbEntity
8
0
62
7
6
ByLayer
5
c76
100
AcDbText
1
\U+0031\U+0035\U+0020\U+006d
10
45
20
-17
30
0
40
5
41
1
50
0
51
0
7
Standard
11
45
21
-17
31
0
210
0
220
0
230
1
72
0
100
AcDbText
73
0
0
LWPOLYLINE
100
AcDbEntity
8
0
62
9
6
ByLayer
5
15da
100
AcDbPolyline
90
4
70
1
38
0
39
0
10
43
20
-3
40
0
41
0
42
0
10
114.2
20
-3
40
0
41
0
42
0
10
114.2
20
-22
40
0
41
0
42
0
10
43
20
-22
40
0
41
0
42
0
210
0
220
0
230
1
0
ELLIPSE
5
c7d
100
AcDbEntity
8
0
62
0
6
ByLayer
100
AcDbEllipse
10
20
20
-2
30
0
11
2
21
0
31
0
210
0
220
0
230
1
40
1
41
0
42
6.28318530717959
0
ELLIPSE
5
c7e
100
AcDbEntity
8
0
62
0
6
ByLayer
100
AcDbEllipse
10
20
20
-58
30
0
11
2
21
0
31
0
210
0
220
0
230
1
40
1
41
0
42
6.28318530717959
0
LWPOLYLINE
100
AcDbEntity
8
0
62
0
6
ByLayer
5
15db
100
AcDbPolyline
90
2
70
1
38
0
39
0
10
20
20
-4
40
0
41
0
42
0
10
20
20
-56
40
0
41
0
42
0
210
0
220
0
230
1
0
LWPOLYLINE
100
AcDbEntity
8
0
62
0
6
ByLayer
5
15dc
100
AcDbPolyline
90
2
70
1
38
0
39
0
10
10
20
-19.5
40
0
41
0
42
0
10
30
20
-25.5
40
0
41
0
42
0
210
0
220
0
230
1
0
LWPOLYLINE
100
AcDbEntity
8
0
62
0
6
ByLayer
5
15dd
100
AcDbPolyline
90
2
70
1
38
0
39
0
10
10
20
-25.5
40
0
41
0
42
0
10
30
20
-31.5
40
0
41
0
42
0
210
0
220
0
230
1
0
ELLIPSE
5
c8b
100
AcDbEntity
8
0
62
0
6
ByLayer
100
AcDbEllipse
10
30
20
-31.5
30
0
11
1
21
0
31
0
210
0
220
0
230
1
40
1
41
0
42
6.28318530717959
0
LWPOLYLINE
100
AcDbEntity
8
0
62
0
6
ByLayer
5
15de
100
AcDbPolyline
90
2
70
1
38
0
39
0
10
10
20
-34.5
40
0
41
0
42
0
10
30
20
-40.5
40
0
41
0
42
0
210
0
220
0
230
1
0
LWPOLYLINE
100
AcDbEntity
8
0
62
0
6
ByLayer
5
15df
100
AcDbPolyline
90
2
70
1
38
0
39
0
10
30
20
-38.5
40
0
41
0
42
0
10
30
20
-42.5
40
0
41
0
42
0
210
0
220
0
230
1
0
ENDBLK
5
c74
100
AcDbEntity
8
0
100
AcDbBlockEnd
0
BLOCK
5
cb0
100
AcDbEntity
8
0
100
AcDbBlockBegin
2
d61bd77b-2e1a-418d-bd09-dbeb6334251d
70
0
10
0
20
0
30
0
3
d61bd77b-2e1a-418d-bd09-dbeb6334251d
0
TEXT
100
AcDbEntity
8
0
62
7
6
ByLayer
5
c97
100
AcDbText
1
\U+0053\U+0074\U+0065\U+0063\U+006b\U+0064\U+002e\U+0020\U+0053\U+0056\U+0020\U+0031\U+002e\U+004f\U+0047\U+0020\U+0020
10
45
20
-11
30
0
40
5
41
1
50
0
51
0
7
Standard
11
45
21
-11
31
0
210
0
220
0
230
1
72
0
100
AcDbText
73
0
0
TEXT
100
AcDbEntity
8
0
62
7
6
ByLayer
5
c98
100
AcDbText
1
\U+0030\U+002c\U+0038\U+0020\U+006b\U+0057
10
45
20
-17
30
0
40
5
41
1
50
0
51
0
7
Standard
11
45
21
-17
31
0
210
0
220
0
230
1
72
0
100
AcDbText
73
0
0
TEXT
100
AcDbEntity
8
0
62
7
6
ByLayer
5
c99
100
AcDbText
1
\U+0043\U+006f\U+0073\U+03c6\U+0020\U+003a\U+0020\U+0030\U+002c\U+0039\U+0032\U+0020
10
45
20
-23
30
0
40
5
41
1
50
0
51
0
7
Standard
11
45
21
-23
31
0
210
0
220
0
230
1
72
0
100
AcDbText
73
0
0
TEXT
100
AcDbEntity
8
0
62
7
6
ByLayer
5
c9a
100
AcDbText
1
\U+004d\U+0065\U+006e\U+0067\U+0065\U+0020\U+003a\U+0020\U+003a\U+0020\U+0037\U+0020
10
45
20
-29
30
0
40
5
41
1
50
0
51
0
7
Standard
11
45
21
-29
31
0
210
0
220
0
230
1
72
0
100
AcDbText
73
0
0
TEXT
100
AcDbEntity
8
0
62
7
6
ByLayer
5
c9b
100
AcDbText
1
\U+004b\U+0075\U+0020\U+003a\U+0020\U+0030\U+002c\U+0035\U+0020
10
45
20
-35
30
0
40
5
41
1
50
0
51
0
7
Standard
11
45
21
-35
31
0
210
0
220
0
230
1
72
0
100
AcDbText
73
0
0
LWPOLYLINE
100
AcDbEntity
8
0
62
9
6
ByLayer
5
15e0
100
AcDbPolyline
90
4
70
1
38
0
39
0
10
43
20
-3
40
0
41
0
42
0
10
115
20
-3
40
0
41
0
42
0
10
115
20
-37
40
0
41
0
42
0
10
43
20
-37
40
0
41
0
42
0
210
0
220
0
230
1
0
LWPOLYLINE
100
AcDbEntity
8
0
62
0
6
ByLayer
5
15e1
100
AcDbPolyline
90
2
70
1
38
0
39
0
10
0
20
-20
40
0
41
0
42
0
10
0
20
0
40
0
41
0
42
0
210
0
220
0
230
1
0
LWPOLYLINE
100
AcDbEntity
8
0
62
0
6
ByLayer
5
15e2
100
AcDbPolyline
90
2
70
1
38
0
39
0
10
0
20
0
40
0
41
0
42
0
10
40
20
0
40
0
41
0
42
0
210
0
220
0
230
1
0
LWPOLYLINE
100
AcDbEntity
8
0
62
0
6
ByLayer
5
15e3
100
AcDbPolyline
90
2
70
1
38
0
39
0
10
40
20
0
40
0
41
0
42
0
10
40
20
-20
40
0
41
0
42
0
210
0
220
0
230
1
0
SPLINE
100
AcDbEntity
8
0
62
0
6
ByLayer
5
caf
100
AcDbSpline
210
0
220
0
230
1
70
0
71
3
72
0
73
0
74
3
42
1E-10
43
1E-10
44
1E-10
11
0
21
-20
31
-20
11
20
21
0
31
0
11
40
21
-20
31
-20
0
SEQEND
5
cae
100
AcDbEntity
8
0
0
ENDBLK
5
c96
100
AcDbEntity
8
0
100
AcDbBlockEnd
0
BLOCK
5
ccd
100
AcDbEntity
8
0
100
AcDbBlockBegin
2
5473eeee-73d9-45be-9d38-efd2ca777567
70
0
10
0
20
0
30
0
3
5473eeee-73d9-45be-9d38-efd2ca777567
0
TEXT
100
AcDbEntity
8
0
62
7
6
ByLayer
5
cb3
100
AcDbText
1
\U+0057\U+0043\U+0020\U+0032\U+0035\U+0034\U+0020
10
210
20
39
30
0
40
5
41
1
50
0
51
0
7
Standard
11
210
21
39
31
0
210
0
220
0
230
1
72
0
100
AcDbText
73
0
0
TEXT
100
AcDbEntity
8
0
62
7
6
ByLayer
5
cb4
100
AcDbText
1
\U+0031\U+002c\U+0036\U+0033\U+0020\U+006b\U+0056\U+0041
10
210
20
33
30
0
40
5
41
1
50
0
51
0
7
Standard
11
210
21
33
31
0
210
0
220
0
230
1
72
0
100
AcDbText
73
0
0
TEXT
100
AcDbEntity
8
0
62
7
6
ByLayer
5
cb5
100
AcDbText
1
\U+0030\U+002c\U+0036\U+0033\U+0039\U+0020\U+006b\U+0076\U+0061\U+0072
10
210
20
27
30
0
40
5
41
1
50
0
51
0
7
Standard
11
210
21
27
31
0
210
0
220
0
230
1
72
0
100
AcDbText
73
0
0
TEXT
100
AcDbEntity
8
0
62
7
6
ByLayer
5
cb6
100
AcDbText
1
\U+004b\U+0073\U+0020\U+003a\U+0020\U+0030\U+002c\U+0037\U+0035\U+0020
10
210
20
21
30
0
40
5
41
1
50
0
51
0
7
Standard
11
210
21
21
31
0
210
0
220
0
230
1
72
0
100
AcDbText
73
0
0
LWPOLYLINE
100
AcDbEntity
8
0
62
9
6
ByLayer
5
15e4
100
AcDbPolyline
90
4
70
1
38
0
39
0
10
208
20
47
40
0
41
0
42
0
10
279.2
20
47
40
0
41
0
42
0
10
279.2
20
18
40
0
41
0
42
0
10
208
20
18
40
0
41
0
42
0
210
0
220
0
230
1
0
TEXT
100
AcDbEntity
8
0
62
7
6
ByLayer
5
cbd
100
AcDbText
1
\U+0055\U+0043\U+0020\U+0032\U+0035\U+0035\U+0020
10
-45
20
59
30
0
40
5
41
1
50
0
51
0
7
Standard
11
-45
21
59
31
0
210
0
220
0
230
1
72
0
100
AcDbText
73
0
0
TEXT
100
AcDbEntity
8
0
62
7
6
ByLayer
5
cbe
100
AcDbText
1
\U+0041\U+0075\U+0073\U+0077\U+0061\U+0068\U+006c\U+0020
10
-45
20
53
30
0
40
5
41
1
50
0
51
0
7
Standard
11
-45
21
53
31
0
210
0
220
0
230
1
72
0
100
AcDbText
73
0
0
TEXT
100
AcDbEntity
8
0
62
7
6
ByLayer
5
cbf
100
AcDbText
1
\U+004e\U+0069\U+0063\U+0068\U+0074\U+0020\U+0061\U+006e\U+0067\U+0065\U+0067\U+0065\U+0062\U+0065\U+006e\U+0020
10
-45
20
47
30
0
40
5
41
1
50
0
51
0
7
Standard
11
-45
21
47
31
0
210
0
220
0
230
1
72
0
100
AcDbText
73
0
0
TEXT
100
AcDbEntity
8
0
62
7
6
ByLayer
5
cc0
100
AcDbText
1
\U+0030\U+0020\U+0041
10
-45
20
41
30
0
40
5
41
1
50
0
51
0
7
Standard
11
-45
21
41
31
0
210
0
220
0
230
1
72
0
100
AcDbText
73
0
0
LWPOLYLINE
100
AcDbEntity
8
0
62
9
6
ByLayer
5
15e5
100
AcDbPolyline
90
4
70
1
38
0
39
0
10
-47
20
67
40
0
41
0
42
0
10
40.2
20
67
40
0
41
0
42
0
10
40.2
20
38
40
0
41
0
42
0
10
-47
20
38
40
0
41
0
42
0
210
0
220
0
230
1
0
LWPOLYLINE
100
AcDbEntity
8
0
62
0
6
ByLayer
5
15e6
100
AcDbPolyline
90
4
70
1
38
0
39
0
10
0
20
0
40
0
41
0
42
0
10
200
20
0
40
0
41
0
42
0
10
200
20
-5
40
0
41
0
42
0
10
0
20
-5
40
0
41
0
42
0
210
0
220
0
230
1
0
ENDBLK
5
cb2
100
AcDbEntity
8
0
100
AcDbBlockEnd
0
BLOCK
5
ce9
100
AcDbEntity
8
0
100
AcDbBlockBegin
2
4a984c3a-eb22-4817-908f-7d6da1571802
70
0
10
0
20
0
30
0
3
4a984c3a-eb22-4817-908f-7d6da1571802
0
TEXT
100
AcDbEntity
8
0
62
7
6
ByLayer
5
cd0
100
AcDbText
1
\U+0041\U+0041\U+0020\U+0032\U+0035\U+0038\U+0020
10
45
20
-11
30
0
40
5
41
1
50
0
51
0
7
Standard
11
45
21
-11
31
0
210
0
220
0
230
1
72
0
100
AcDbText
73
0
0
TEXT
100
AcDbEntity
8
0
62
7
6
ByLayer
5
cd1
100
AcDbText
1
\U+0030\U+002c\U+0035\U+0020\U+006b\U+0057
10
45
20
-17
30
0
40
5
41
1
50
0
51
0
7
Standard
11
45
21
-17
31
0
210
0
220
0
230
1
72
0
100
AcDbText
73
0
0
TEXT
100
AcDbEntity
8
0
62
7
6
ByLayer
5
cd2
100
AcDbText
1
\U+0043\U+006f\U+0073\U+03c6\U+0020\U+003a\U+0020\U+0030\U+002c\U+0039\U+0032\U+0020
10
45
20
-23
30
0
40
5
41
1
50
0
51
0
7
Standard
11
45
21
-23
31
0
210
0
220
0
230
1
72
0
100
AcDbText
73
0
0
TEXT
100
AcDbEntity
8
0
62
7
6
ByLayer
5
cd3
100
AcDbText
1
\U+004d\U+0065\U+006e\U+0067\U+0065\U+0020\U+003a\U+0020\U+003a\U+0020\U+0032\U+0020
10
45
20
-29
30
0
40
5
41
1
50
0
51
0
7
Standard
11
45
21
-29
31
0
210
0
220
0
230
1
72
0
100
AcDbText
73
0
0
TEXT
100
AcDbEntity
8
0
62
7
6
ByLayer
5
cd4
100
AcDbText
1
\U+004b\U+0075\U+0020\U+003a\U+0020\U+0031\U+0020
10
45
20
-35
30
0
40
5
41
1
50
0
51
0
7
Standard
11
45
21
-35
31
0
210
0
220
0
230
1
72
0
100
AcDbText
73
0
0
LWPOLYLINE
100
AcDbEntity
8
0
62
9
6
ByLayer
5
15e7
100
AcDbPolyline
90
4
70
1
38
0
39
0
10
43
20
-3
40
0
41
0
42
0
10
114.2
20
-3
40
0
41
0
42
0
10
114.2
20
-37
40
0
41
0
42
0
10
43
20
-37
40
0
41
0
42
0
210
0
220
0
230
1
0
LWPOLYLINE
100
AcDbEntity
8
0
62
0
6
ByLayer
5
15e8
100
AcDbPolyline
90
2
70
1
38
0
39
0
10
0
20
-20
40
0
41
0
42
0
10
0
20
0
40
0
41
0
42
0
210
0
220
0
230
1
0
LWPOLYLINE
100
AcDbEntity
8
0
62
0
6
ByLayer
5
15e9
100
AcDbPolyline
90
2
70
1
38
0
39
0
10
0
20
0
40
0
41
0
42
0
10
40
20
0
40
0
41
0
42
0
210
0
220
0
230
1
0
LWPOLYLINE
100
AcDbEntity
8
0
62
0
6
ByLayer
5
15ea
100
AcDbPolyline
90
2
70
1
38
0
39
0
10
40
20
0
40
0
41
0
42
0
10
40
20
-20
40
0
41
0
42
0
210
0
220
0
230
1
0
SPLINE
100
AcDbEntity
8
0
62
0
6
ByLayer
5
ce8
100
AcDbSpline
210
0
220
0
230
1
70
0
71
3
72
0
73
0
74
3
42
1E-10
43
1E-10
44
1E-10
11
0
21
-20
31
-20
11
20
21
0
31
0
11
40
21
-20
31
-20
0
SEQEND
5
ce7
100
AcDbEntity
8
0
0
ENDBLK
5
ccf
100
AcDbEntity
8
0
100
AcDbBlockEnd
0
BLOCK
5
d0b
100
AcDbEntity
8
0
100
AcDbBlockBegin
2
fc893396-0a5d-4a2a-aa55-00928480e65c
70
0
10
0
20
0
30
0
3
fc893396-0a5d-4a2a-aa55-00928480e65c
0
TEXT
100
AcDbEntity
8
0
62
7
6
ByLayer
5
cec
100
AcDbText
1
\U+0057\U+0044\U+0020\U+0032\U+0035\U+0038\U+0020
10
45
20
-11
30
0
40
5
41
1
50
0
51
0
7
Standard
11
45
21
-11
31
0
210
0
220
0
230
1
72
0
100
AcDbText
73
0
0
TEXT
100
AcDbEntity
8
0
62
7
6
ByLayer
5
ced
100
AcDbText
1
\U+0031\U+0035\U+0020\U+006d
10
45
20
-17
30
0
40
5
41
1
50
0
51
0
7
Standard
11
45
21
-17
31
0
210
0
220
0
230
1
72
0
100
AcDbText
73
0
0
LWPOLYLINE
100
AcDbEntity
8
0
62
9
6
ByLayer
5
15eb
100
AcDbPolyline
90
4
70
1
38
0
39
0
10
43
20
-3
40
0
41
0
42
0
10
114.2
20
-3
40
0
41
0
42
0
10
114.2
20
-22
40
0
41
0
42
0
10
43
20
-22
40
0
41
0
42
0
210
0
220
0
230
1
0
ELLIPSE
5
cf4
100
AcDbEntity
8
0
62
0
6
ByLayer
100
AcDbEllipse
10
20
20
-2
30
0
11
2
21
0
31
0
210
0
220
0
230
1
40
1
41
0
42
6.28318530717959
0
ELLIPSE
5
cf5
100
AcDbEntity
8
0
62
0
6
ByLayer
100
AcDbEllipse
10
20
20
-58
30
0
11
2
21
0
31
0
210
0
220
0
230
1
40
1
41
0
42
6.28318530717959
0
LWPOLYLINE
100
AcDbEntity
8
0
62
0
6
ByLayer
5
15ec
100
AcDbPolyline
90
2
70
1
38
0
39
0
10
20
20
-4
40
0
41
0
42
0
10
20
20
-56
40
0
41
0
42
0
210
0
220
0
230
1
0
LWPOLYLINE
100
AcDbEntity
8
0
62
0
6
ByLayer
5
15ed
100
AcDbPolyline
90
2
70
1
38
0
39
0
10
10
20
-19.5
40
0
41
0
42
0
10
30
20
-25.5
40
0
41
0
42
0
210
0
220
0
230
1
0
LWPOLYLINE
100
AcDbEntity
8
0
62
0
6
ByLayer
5
15ee
100
AcDbPolyline
90
2
70
1
38
0
39
0
10
10
20
-25.5
40
0
41
0
42
0
10
30
20
-31.5
40
0
41
0
42
0
210
0
220
0
230
1
0
ELLIPSE
5
d02
100
AcDbEntity
8
0
62
0
6
ByLayer
100
AcDbEllipse
10
30
20
-31.5
30
0
11
1
21
0
31
0
210
0
220
0
230
1
40
1
41
0
42
6.28318530717959
0
LWPOLYLINE
100
AcDbEntity
8
0
62
0
6
ByLayer
5
15ef
100
AcDbPolyline
90
2
70
1
38
0
39
0
10
10
20
-34.5
40
0
41
0
42
0
10
30
20
-40.5
40
0
41
0
42
0
210
0
220
0
230
1
0
LWPOLYLINE
100
AcDbEntity
8
0
62
0
6
ByLayer
5
15f0
100
AcDbPolyline
90
2
70
1
38
0
39
0
10
30
20
-38.5
40
0
41
0
42
0
10
30
20
-42.5
40
0
41
0
42
0
210
0
220
0
230
1
0
ENDBLK
5
ceb
100
AcDbEntity
8
0
100
AcDbBlockEnd
0
BLOCK
5
d2f
100
AcDbEntity
8
0
100
AcDbBlockBegin
2
9bb76129-4006-4f7b-98a4-65f8b902cc85
70
0
10
0
20
0
30
0
3
9bb76129-4006-4f7b-98a4-65f8b902cc85
0
TEXT
100
AcDbEntity
8
0
62
7
6
ByLayer
5
d0e
100
AcDbText
1
\U+0051\U+0041\U+0020\U+0032\U+0035\U+0038\U+0020
10
45
20
-16
30
0
40
5
41
1
50
0
51
0
7
Standard
11
45
21
-16
31
0
210
0
220
0
230
1
72
0
100
AcDbText
73
0
0
TEXT
100
AcDbEntity
8
0
62
7
6
ByLayer
5
d0f
100
AcDbText
1
\U+0054\U+004e\U+002d\U+0053\U+0020
10
45
20
-22
30
0
40
5
41
1
50
0
51
0
7
Standard
11
45
21
-22
31
0
210
0
220
0
230
1
72
0
100
AcDbText
73
0
0
TEXT
100
AcDbEntity
8
0
62
7
6
ByLayer
5
d10
100
AcDbText
1
\U+0049\U+0062\U+0020\U+003a\U+0020\U+0032\U+002c\U+0033\U+0035\U+0020\U+0041
10
45
20
-28
30
0
40
5
41
1
50
0
51
0
7
Standard
11
45
21
-28
31
0
210
0
220
0
230
1
72
0
100
AcDbText
73
0
0
LWPOLYLINE
100
AcDbEntity
8
0
62
9
6
ByLayer
5
15f1
100
AcDbPolyline
90
4
70
1
38
0
39
0
10
43
20
-8
40
0
41
0
42
0
10
114.2
20
-8
40
0
41
0
42
0
10
114.2
20
-32
40
0
41
0
42
0
10
43
20
-32
40
0
41
0
42
0
210
0
220
0
230
1
0
LWPOLYLINE
100
AcDbEntity
8
0
62
0
6
ByLayer
5
15f2
100
AcDbPolyline
90
2
70
1
38
0
39
0
10
20
20
0
40
0
41
0
42
0
10
20
20
-20
40
0
41
0
42
0
210
0
220
0
230
1
0
LWPOLYLINE
100
AcDbEntity
8
0
62
0
6
ByLayer
5
15f3
100
AcDbPolyline
90
2
70
1
38
0
39
0
10
15
20
-5
40
0
41
0
42
0
10
25
20
-15
40
0
41
0
42
0
210
0
220
0
230
1
0
LWPOLYLINE
100
AcDbEntity
8
0
62
0
6
ByLayer
5
15f4
100
AcDbPolyline
90
2
70
1
38
0
39
0
10
15
20
-15
40
0
41
0
42
0
10
25
20
-5
40
0
41
0
42
0
210
0
220
0
230
1
0
LWPOLYLINE
100
AcDbEntity
8
0
62
0
6
ByLayer
5
15f5
100
AcDbPolyline
90
2
70
1
38
0
39
0
10
15
20
-20
40
0
41
0
42
0
10
25
20
-20
40
0
41
0
42
0
210
0
220
0
230
1
0
LWPOLYLINE
100
AcDbEntity
8
0
62
0
6
ByLayer
5
15f6
100
AcDbPolyline
90
2
70
1
38
0
39
0
10
10
20
-20
40
0
41
0
42
0
10
20
20
-40
40
0
41
0
42
0
210
0
220
0
230
1
0
LWPOLYLINE
100
AcDbEntity
8
0
62
0
6
ByLayer
5
15f7
100
AcDbPolyline
90
2
70
1
38
0
39
0
10
20
20
-40
40
0
41
0
42
0
10
20
20
-60
40
0
41
0
42
0
210
0
220
0
230
1
0
ENDBLK
5
d0d
100
AcDbEntity
8
0
100
AcDbBlockEnd
0
BLOCK
5
d51
100
AcDbEntity
8
0
100
AcDbBlockBegin
2
f5082af0-38e0-4e32-8b15-4e7ad5f1a99d
70
0
10
0
20
0
30
0
3
f5082af0-38e0-4e32-8b15-4e7ad5f1a99d
0
TEXT
100
AcDbEntity
8
0
62
7
6
ByLayer
5
d32
100
AcDbText
1
\U+0057\U+0044\U+0020\U+0032\U+0036\U+0030\U+0020
10
45
20
-11
30
0
40
5
41
1
50
0
51
0
7
Standard
11
45
21
-11
31
0
210
0
220
0
230
1
72
0
100
AcDbText
73
0
0
TEXT
100
AcDbEntity
8
0
62
7
6
ByLayer
5
d33
100
AcDbText
1
\U+0031\U+0035\U+0020\U+006d
10
45
20
-17
30
0
40
5
41
1
50
0
51
0
7
Standard
11
45
21
-17
31
0
210
0
220
0
230
1
72
0
100
AcDbText
73
0
0
LWPOLYLINE
100
AcDbEntity
8
0
62
9
6
ByLayer
5
15f8
100
AcDbPolyline
90
4
70
1
38
0
39
0
10
43
20
-3
40
0
41
0
42
0
10
114.2
20
-3
40
0
41
0
42
0
10
114.2
20
-22
40
0
41
0
42
0
10
43
20
-22
40
0
41
0
42
0
210
0
220
0
230
1
0
ELLIPSE
5
d3a
100
AcDbEntity
8
0
62
0
6
ByLayer
100
AcDbEllipse
10
20
20
-2
30
0
11
2
21
0
31
0
210
0
220
0
230
1
40
1
41
0
42
6.28318530717959
0
ELLIPSE
5
d3b
100
AcDbEntity
8
0
62
0
6
ByLayer
100
AcDbEllipse
10
20
20
-58
30
0
11
2
21
0
31
0
210
0
220
0
230
1
40
1
41
0
42
6.28318530717959
0
LWPOLYLINE
100
AcDbEntity
8
0
62
0
6
ByLayer
5
15f9
100
AcDbPolyline
90
2
70
1
38
0
39
0
10
20
20
-4
40
0
41
0
42
0
10
20
20
-56
40
0
41
0
42
0
210
0
220
0
230
1
0
LWPOLYLINE
100
AcDbEntity
8
0
62
0
6
ByLayer
5
15fa
100
AcDbPolyline
90
2
70
1
38
0
39
0
10
10
20
-19.5
40
0
41
0
42
0
10
30
20
-25.5
40
0
41
0
42
0
210
0
220
0
230
1
0
LWPOLYLINE
100
AcDbEntity
8
0
62
0
6
ByLayer
5
15fb
100
AcDbPolyline
90
2
70
1
38
0
39
0
10
10
20
-25.5
40
0
41
0
42
0
10
30
20
-31.5
40
0
41
0
42
0
210
0
220
0
230
1
0
ELLIPSE
5
d48
100
AcDbEntity
8
0
62
0
6
ByLayer
100
AcDbEllipse
10
30
20
-31.5
30
0
11
1
21
0
31
0
210
0
220
0
230
1
40
1
41
0
42
6.28318530717959
0
LWPOLYLINE
100
AcDbEntity
8
0
62
0
6
ByLayer
5
15fc
100
AcDbPolyline
90
2
70
1
38
0
39
0
10
10
20
-34.5
40
0
41
0
42
0
10
30
20
-40.5
40
0
41
0
42
0
210
0
220
0
230
1
0
LWPOLYLINE
100
AcDbEntity
8
0
62
0
6
ByLayer
5
15fd
100
AcDbPolyline
90
2
70
1
38
0
39
0
10
30
20
-38.5
40
0
41
0
42
0
10
30
20
-42.5
40
0
41
0
42
0
210
0
220
0
230
1
0
ENDBLK
5
d31
100
AcDbEntity
8
0
100
AcDbBlockEnd
0
BLOCK
5
d75
100
AcDbEntity
8
0
100
AcDbBlockBegin
2
9eb9c6cc-8bc9-4f13-bbd8-7af3587cc144
70
0
10
0
20
0
30
0
3
9eb9c6cc-8bc9-4f13-bbd8-7af3587cc144
0
TEXT
100
AcDbEntity
8
0
62
7
6
ByLayer
5
d54
100
AcDbText
1
\U+0051\U+0041\U+0020\U+0032\U+0036\U+0030\U+0020
10
45
20
-16
30
0
40
5
41
1
50
0
51
0
7
Standard
11
45
21
-16
31
0
210
0
220
0
230
1
72
0
100
AcDbText
73
0
0
TEXT
100
AcDbEntity
8
0
62
7
6
ByLayer
5
d55
100
AcDbText
1
\U+0054\U+004e\U+002d\U+0053\U+0020
10
45
20
-22
30
0
40
5
41
1
50
0
51
0
7
Standard
11
45
21
-22
31
0
210
0
220
0
230
1
72
0
100
AcDbText
73
0
0
TEXT
100
AcDbEntity
8
0
62
7
6
ByLayer
5
d56
100
AcDbText
1
\U+0049\U+0062\U+0020\U+003a\U+0020\U+0037\U+002c\U+0030\U+0036\U+0020\U+0041
10
45
20
-28
30
0
40
5
41
1
50
0
51
0
7
Standard
11
45
21
-28
31
0
210
0
220
0
230
1
72
0
100
AcDbText
73
0
0
LWPOLYLINE
100
AcDbEntity
8
0
62
9
6
ByLayer
5
15fe
100
AcDbPolyline
90
4
70
1
38
0
39
0
10
43
20
-8
40
0
41
0
42
0
10
114.2
20
-8
40
0
41
0
42
0
10
114.2
20
-32
40
0
41
0
42
0
10
43
20
-32
40
0
41
0
42
0
210
0
220
0
230
1
0
LWPOLYLINE
100
AcDbEntity
8
0
62
0
6
ByLayer
5
15ff
100
AcDbPolyline
90
2
70
1
38
0
39
0
10
20
20
0
40
0
41
0
42
0
10
20
20
-20
40
0
41
0
42
0
210
0
220
0
230
1
0
LWPOLYLINE
100
AcDbEntity
8
0
62
0
6
ByLayer
5
1600
100
AcDbPolyline
90
2
70
1
38
0
39
0
10
15
20
-5
40
0
41
0
42
0
10
25
20
-15
40
0
41
0
42
0
210
0
220
0
230
1
0
LWPOLYLINE
100
AcDbEntity
8
0
62
0
6
ByLayer
5
1601
100
AcDbPolyline
90
2
70
1
38
0
39
0
10
15
20
-15
40
0
41
0
42
0
10
25
20
-5
40
0
41
0
42
0
210
0
220
0
230
1
0
LWPOLYLINE
100
AcDbEntity
8
0
62
0
6
ByLayer
5
1602
100
AcDbPolyline
90
2
70
1
38
0
39
0
10
15
20
-20
40
0
41
0
42
0
10
25
20
-20
40
0
41
0
42
0
210
0
220
0
230
1
0
LWPOLYLINE
100
AcDbEntity
8
0
62
0
6
ByLayer
5
1603
100
AcDbPolyline
90
2
70
1
38
0
39
0
10
10
20
-20
40
0
41
0
42
0
10
20
20
-40
40
0
41
0
42
0
210
0
220
0
230
1
0
LWPOLYLINE
100
AcDbEntity
8
0
62
0
6
ByLayer
5
1604
100
AcDbPolyline
90
2
70
1
38
0
39
0
10
20
20
-40
40
0
41
0
42
0
10
20
20
-60
40
0
41
0
42
0
210
0
220
0
230
1
0
ENDBLK
5
d53
100
AcDbEntity
8
0
100
AcDbBlockEnd
0
BLOCK
5
d91
100
AcDbEntity
8
0
100
AcDbBlockBegin
2
7e981bc2-a5b9-4518-bd52-3b9a8c010ce8
70
0
10
0
20
0
30
0
3
7e981bc2-a5b9-4518-bd52-3b9a8c010ce8
0
TEXT
100
AcDbEntity
8
0
62
7
6
ByLayer
5
d78
100
AcDbText
1
\U+0041\U+0041\U+0020\U+0032\U+0035\U+0038\U+0020\U+0028\U+0031\U+0029\U+0020
10
45
20
-11
30
0
40
5
41
1
50
0
51
0
7
Standard
11
45
21
-11
31
0
210
0
220
0
230
1
72
0
100
AcDbText
73
0
0
TEXT
100
AcDbEntity
8
0
62
7
6
ByLayer
5
d79
100
AcDbText
1
\U+0030\U+002c\U+0035\U+0020\U+006b\U+0057
10
45
20
-17
30
0
40
5
41
1
50
0
51
0
7
Standard
11
45
21
-17
31
0
210
0
220
0
230
1
72
0
100
AcDbText
73
0
0
TEXT
100
AcDbEntity
8
0
62
7
6
ByLayer
5
d7a
100
AcDbText
1
\U+0043\U+006f\U+0073\U+03c6\U+0020\U+003a\U+0020\U+0030\U+002c\U+0039\U+0032\U+0020
10
45
20
-23
30
0
40
5
41
1
50
0
51
0
7
Standard
11
45
21
-23
31
0
210
0
220
0
230
1
72
0
100
AcDbText
73
0
0
TEXT
100
AcDbEntity
8
0
62
7
6
ByLayer
5
d7b
100
AcDbText
1
\U+004d\U+0065\U+006e\U+0067\U+0065\U+0020\U+003a\U+0020\U+003a\U+0020\U+0032\U+0020
10
45
20
-29
30
0
40
5
41
1
50
0
51
0
7
Standard
11
45
21
-29
31
0
210
0
220
0
230
1
72
0
100
AcDbText
73
0
0
TEXT
100
AcDbEntity
8
0
62
7
6
ByLayer
5
d7c
100
AcDbText
1
\U+004b\U+0075\U+0020\U+003a\U+0020\U+0031\U+0020
10
45
20
-35
30
0
40
5
41
1
50
0
51
0
7
Standard
11
45
21
-35
31
0
210
0
220
0
230
1
72
0
100
AcDbText
73
0
0
LWPOLYLINE
100
AcDbEntity
8
0
62
9
6
ByLayer
5
1605
100
AcDbPolyline
90
4
70
1
38
0
39
0
10
43
20
-3
40
0
41
0
42
0
10
114.2
20
-3
40
0
41
0
42
0
10
114.2
20
-37
40
0
41
0
42
0
10
43
20
-37
40
0
41
0
42
0
210
0
220
0
230
1
0
LWPOLYLINE
100
AcDbEntity
8
0
62
0
6
ByLayer
5
1606
100
AcDbPolyline
90
2
70
1
38
0
39
0
10
0
20
-20
40
0
41
0
42
0
10
0
20
0
40
0
41
0
42
0
210
0
220
0
230
1
0
LWPOLYLINE
100
AcDbEntity
8
0
62
0
6
ByLayer
5
1607
100
AcDbPolyline
90
2
70
1
38
0
39
0
10
0
20
0
40
0
41
0
42
0
10
40
20
0
40
0
41
0
42
0
210
0
220
0
230
1
0
LWPOLYLINE
100
AcDbEntity
8
0
62
0
6
ByLayer
5
1608
100
AcDbPolyline
90
2
70
1
38
0
39
0
10
40
20
0
40
0
41
0
42
0
10
40
20
-20
40
0
41
0
42
0
210
0
220
0
230
1
0
SPLINE
100
AcDbEntity
8
0
62
0
6
ByLayer
5
d90
100
AcDbSpline
210
0
220
0
230
1
70
0
71
3
72
0
73
0
74
3
42
1E-10
43
1E-10
44
1E-10
11
0
21
-20
31
-20
11
20
21
0
31
0
11
40
21
-20
31
-20
0
SEQEND
5
d8f
100
AcDbEntity
8
0
0
ENDBLK
5
d77
100
AcDbEntity
8
0
100
AcDbBlockEnd
0
BLOCK
5
db3
100
AcDbEntity
8
0
100
AcDbBlockBegin
2
5ecbd018-26b4-4064-8a89-02705d0ec99c
70
0
10
0
20
0
30
0
3
5ecbd018-26b4-4064-8a89-02705d0ec99c
0
TEXT
100
AcDbEntity
8
0
62
7
6
ByLayer
5
d94
100
AcDbText
1
\U+0057\U+0044\U+0020\U+0032\U+0035\U+0038\U+0020\U+0028\U+0031\U+0029\U+0020
10
45
20
-11
30
0
40
5
41
1
50
0
51
0
7
Standard
11
45
21
-11
31
0
210
0
220
0
230
1
72
0
100
AcDbText
73
0
0
TEXT
100
AcDbEntity
8
0
62
7
6
ByLayer
5
d95
100
AcDbText
1
\U+0031\U+0035\U+0020\U+006d
10
45
20
-17
30
0
40
5
41
1
50
0
51
0
7
Standard
11
45
21
-17
31
0
210
0
220
0
230
1
72
0
100
AcDbText
73
0
0
LWPOLYLINE
100
AcDbEntity
8
0
62
9
6
ByLayer
5
1609
100
AcDbPolyline
90
4
70
1
38
0
39
0
10
43
20
-3
40
0
41
0
42
0
10
114.2
20
-3
40
0
41
0
42
0
10
114.2
20
-22
40
0
41
0
42
0
10
43
20
-22
40
0
41
0
42
0
210
0
220
0
230
1
0
ELLIPSE
5
d9c
100
AcDbEntity
8
0
62
0
6
ByLayer
100
AcDbEllipse
10
20
20
-2
30
0
11
2
21
0
31
0
210
0
220
0
230
1
40
1
41
0
42
6.28318530717959
0
ELLIPSE
5
d9d
100
AcDbEntity
8
0
62
0
6
ByLayer
100
AcDbEllipse
10
20
20
-58
30
0
11
2
21
0
31
0
210
0
220
0
230
1
40
1
41
0
42
6.28318530717959
0
LWPOLYLINE
100
AcDbEntity
8
0
62
0
6
ByLayer
5
160a
100
AcDbPolyline
90
2
70
1
38
0
39
0
10
20
20
-4
40
0
41
0
42
0
10
20
20
-56
40
0
41
0
42
0
210
0
220
0
230
1
0
LWPOLYLINE
100
AcDbEntity
8
0
62
0
6
ByLayer
5
160b
100
AcDbPolyline
90
2
70
1
38
0
39
0
10
10
20
-19.5
40
0
41
0
42
0
10
30
20
-25.5
40
0
41
0
42
0
210
0
220
0
230
1
0
LWPOLYLINE
100
AcDbEntity
8
0
62
0
6
ByLayer
5
160c
100
AcDbPolyline
90
2
70
1
38
0
39
0
10
10
20
-25.5
40
0
41
0
42
0
10
30
20
-31.5
40
0
41
0
42
0
210
0
220
0
230
1
0
ELLIPSE
5
daa
100
AcDbEntity
8
0
62
0
6
ByLayer
100
AcDbEllipse
10
30
20
-31.5
30
0
11
1
21
0
31
0
210
0
220
0
230
1
40
1
41
0
42
6.28318530717959
0
LWPOLYLINE
100
AcDbEntity
8
0
62
0
6
ByLayer
5
160d
100
AcDbPolyline
90
2
70
1
38
0
39
0
10
10
20
-34.5
40
0
41
0
42
0
10
30
20
-40.5
40
0
41
0
42
0
210
0
220
0
230
1
0
LWPOLYLINE
100
AcDbEntity
8
0
62
0
6
ByLayer
5
160e
100
AcDbPolyline
90
2
70
1
38
0
39
0
10
30
20
-38.5
40
0
41
0
42
0
10
30
20
-42.5
40
0
41
0
42
0
210
0
220
0
230
1
0
ENDBLK
5
d93
100
AcDbEntity
8
0
100
AcDbBlockEnd
0
BLOCK
5
dd7
100
AcDbEntity
8
0
100
AcDbBlockBegin
2
ff66d7da-87f9-48f8-8b86-5ce0947320a1
70
0
10
0
20
0
30
0
3
ff66d7da-87f9-48f8-8b86-5ce0947320a1
0
TEXT
100
AcDbEntity
8
0
62
7
6
ByLayer
5
db6
100
AcDbText
1
\U+0051\U+0041\U+0020\U+0032\U+0035\U+0038\U+0020\U+0028\U+0031\U+0029\U+0020
10
45
20
-16
30
0
40
5
41
1
50
0
51
0
7
Standard
11
45
21
-16
31
0
210
0
220
0
230
1
72
0
100
AcDbText
73
0
0
TEXT
100
AcDbEntity
8
0
62
7
6
ByLayer
5
db7
100
AcDbText
1
\U+0054\U+004e\U+002d\U+0053\U+0020
10
45
20
-22
30
0
40
5
41
1
50
0
51
0
7
Standard
11
45
21
-22
31
0
210
0
220
0
230
1
72
0
100
AcDbText
73
0
0
TEXT
100
AcDbEntity
8
0
62
7
6
ByLayer
5
db8
100
AcDbText
1
\U+0049\U+0062\U+0020\U+003a\U+0020\U+0032\U+002c\U+0033\U+0035\U+0020\U+0041
10
45
20
-28
30
0
40
5
41
1
50
0
51
0
7
Standard
11
45
21
-28
31
0
210
0
220
0
230
1
72
0
100
AcDbText
73
0
0
LWPOLYLINE
100
AcDbEntity
8
0
62
9
6
ByLayer
5
160f
100
AcDbPolyline
90
4
70
1
38
0
39
0
10
43
20
-8
40
0
41
0
42
0
10
114.2
20
-8
40
0
41
0
42
0
10
114.2
20
-32
40
0
41
0
42
0
10
43
20
-32
40
0
41
0
42
0
210
0
220
0
230
1
0
LWPOLYLINE
100
AcDbEntity
8
0
62
0
6
ByLayer
5
1610
100
AcDbPolyline
90
2
70
1
38
0
39
0
10
20
20
0
40
0
41
0
42
0
10
20
20
-20
40
0
41
0
42
0
210
0
220
0
230
1
0
LWPOLYLINE
100
AcDbEntity
8
0
62
0
6
ByLayer
5
1611
100
AcDbPolyline
90
2
70
1
38
0
39
0
10
15
20
-5
40
0
41
0
42
0
10
25
20
-15
40
0
41
0
42
0
210
0
220
0
230
1
0
LWPOLYLINE
100
AcDbEntity
8
0
62
0
6
ByLayer
5
1612
100
AcDbPolyline
90
2
70
1
38
0
39
0
10
15
20
-15
40
0
41
0
42
0
10
25
20
-5
40
0
41
0
42
0
210
0
220
0
230
1
0
LWPOLYLINE
100
AcDbEntity
8
0
62
0
6
ByLayer
5
1613
100
AcDbPolyline
90
2
70
1
38
0
39
0
10
15
20
-20
40
0
41
0
42
0
10
25
20
-20
40
0
41
0
42
0
210
0
220
0
230
1
0
LWPOLYLINE
100
AcDbEntity
8
0
62
0
6
ByLayer
5
1614
100
AcDbPolyline
90
2
70
1
38
0
39
0
10
10
20
-20
40
0
41
0
42
0
10
20
20
-40
40
0
41
0
42
0
210
0
220
0
230
1
0
LWPOLYLINE
100
AcDbEntity
8
0
62
0
6
ByLayer
5
1615
100
AcDbPolyline
90
2
70
1
38
0
39
0
10
20
20
-40
40
0
41
0
42
0
10
20
20
-60
40
0
41
0
42
0
210
0
220
0
230
1
0
ENDBLK
5
db5
100
AcDbEntity
8
0
100
AcDbBlockEnd
0
BLOCK
5
df9
100
AcDbEntity
8
0
100
AcDbBlockBegin
2
1be0b523-0025-4331-94a9-ad0ebe3a4b3f
70
0
10
0
20
0
30
0
3
1be0b523-0025-4331-94a9-ad0ebe3a4b3f
0
TEXT
100
AcDbEntity
8
0
62
7
6
ByLayer
5
dda
100
AcDbText
1
\U+002d\U+0046\U+0020\U+0055\U+0056\U+0020\U+0049\U+0052\U+004c\U+0053\U+0020
10
45
20
-16
30
0
40
5
41
1
50
0
51
0
7
Standard
11
45
21
-16
31
0
210
0
220
0
230
1
72
0
100
AcDbText
73
0
0
TEXT
100
AcDbEntity
8
0
62
7
6
ByLayer
5
ddb
100
AcDbText
1
\U+0054\U+004e\U+002d\U+0053\U+0020
10
45
20
-22
30
0
40
5
41
1
50
0
51
0
7
Standard
11
45
21
-22
31
0
210
0
220
0
230
1
72
0
100
AcDbText
73
0
0
LWPOLYLINE
100
AcDbEntity
8
0
62
9
6
ByLayer
5
1616
100
AcDbPolyline
90
4
70
1
38
0
39
0
10
43
20
-8
40
0
41
0
42
0
10
114.2
20
-8
40
0
41
0
42
0
10
114.2
20
-27
40
0
41
0
42
0
10
43
20
-27
40
0
41
0
42
0
210
0
220
0
230
1
0
LWPOLYLINE
100
AcDbEntity
8
0
62
0
6
ByLayer
5
1617
100
AcDbPolyline
90
2
70
1
38
0
39
0
10
20
20
0
40
0
41
0
42
0
10
20
20
-5
40
0
41
0
42
0
210
0
220
0
230
1
0
LWPOLYLINE
100
AcDbEntity
8
0
62
0
6
ByLayer
5
1618
100
AcDbPolyline
90
2
70
1
38
0
39
0
10
10
20
-5
40
0
41
0
42
0
10
20
20
-25
40
0
41
0
42
0
210
0
220
0
230
1
0
LWPOLYLINE
100
AcDbEntity
8
0
62
0
6
ByLayer
5
1619
100
AcDbPolyline
90
2
70
1
38
0
39
0
10
20
20
-25
40
0
41
0
42
0
10
20
20
-60
40
0
41
0
42
0
210
0
220
0
230
1
0
LWPOLYLINE
100
AcDbEntity
8
0
62
0
6
ByLayer
5
161a
100
AcDbPolyline
90
2
70
1
38
0
39
0
10
16
20
-5
40
0
41
0
42
0
10
24
20
-5
40
0
41
0
42
0
210
0
220
0
230
1
0
ELLIPSE
5
df2
100
AcDbEntity
8
0
62
0
6
ByLayer
100
AcDbEllipse
10
20
20
-7
30
0
11
1.5
21
0
31
0
210
0
220
0
230
1
40
1
41
0
42
6.28318530717959
0
LWPOLYLINE
100
AcDbEntity
8
0
62
0
6
ByLayer
5
161b
100
AcDbPolyline
90
4
70
1
38
0
39
0
10
16
20
-38
40
0
41
0
42
0
10
24
20
-38
40
0
41
0
42
0
10
24
20
-54
40
0
41
0
42
0
10
16
20
-54
40
0
41
0
42
0
210
0
220
0
230
1
0
ENDBLK
5
dd9
100
AcDbEntity
8
0
100
AcDbBlockEnd
0
BLOCK
5
e23
100
AcDbEntity
8
0
100
AcDbBlockBegin
2
dc3258b5-0f16-4033-bc2d-338e02e4aa31
70
0
10
0
20
0
30
0
3
dc3258b5-0f16-4033-bc2d-338e02e4aa31
0
TEXT
100
AcDbEntity
8
0
62
7
6
ByLayer
5
dfc
100
AcDbText
1
\U+0057\U+0044\U+0020\U+0032\U+0036\U+0031\U+0020
10
45
20
-11
30
0
40
5
41
1
50
0
51
0
7
Standard
11
45
21
-11
31
0
210
0
220
0
230
1
72
0
100
AcDbText
73
0
0
TEXT
100
AcDbEntity
8
0
62
7
6
ByLayer
5
dfd
100
AcDbText
1
\U+0033\U+0035\U+0020\U+006d
10
45
20
-17
30
0
40
5
41
1
50
0
51
0
7
Standard
11
45
21
-17
31
0
210
0
220
0
230
1
72
0
100
AcDbText
73
0
0
LWPOLYLINE
100
AcDbEntity
8
0
62
9
6
ByLayer
5
161c
100
AcDbPolyline
90
4
70
1
38
0
39
0
10
43
20
-3
40
0
41
0
42
0
10
114.2
20
-3
40
0
41
0
42
0
10
114.2
20
-22
40
0
41
0
42
0
10
43
20
-22
40
0
41
0
42
0
210
0
220
0
230
1
0
ELLIPSE
5
e04
100
AcDbEntity
8
0
62
0
6
ByLayer
100
AcDbEllipse
10
20
20
-2
30
0
11
2
21
0
31
0
210
0
220
0
230
1
40
1
41
0
42
6.28318530717959
0
ELLIPSE
5
e05
100
AcDbEntity
8
0
62
0
6
ByLayer
100
AcDbEllipse
10
20
20
-58
30
0
11
2
21
0
31
0
210
0
220
0
230
1
40
1
41
0
42
6.28318530717959
0
LWPOLYLINE
100
AcDbEntity
8
0
62
0
6
ByLayer
5
161d
100
AcDbPolyline
90
2
70
1
38
0
39
0
10
20
20
-4
40
0
41
0
42
0
10
20
20
-56
40
0
41
0
42
0
210
0
220
0
230
1
0
LWPOLYLINE
100
AcDbEntity
8
0
62
0
6
ByLayer
5
161e
100
AcDbPolyline
90
2
70
1
38
0
39
0
10
10
20
-16.5
40
0
41
0
42
0
10
30
20
-22.5
40
0
41
0
42
0
210
0
220
0
230
1
0
LWPOLYLINE
100
AcDbEntity
8
0
62
0
6
ByLayer
5
161f
100
AcDbPolyline
90
2
70
1
38
0
39
0
10
10
20
-19.5
40
0
41
0
42
0
10
30
20
-25.5
40
0
41
0
42
0
210
0
220
0
230
1
0
LWPOLYLINE
100
AcDbEntity
8
0
62
0
6
ByLayer
5
1620
100
AcDbPolyline
90
2
70
1
38
0
39
0
10
10
20
-22.5
40
0
41
0
42
0
10
30
20
-28.5
40
0
41
0
42
0
210
0
220
0
230
1
0
LWPOLYLINE
100
AcDbEntity
8
0
62
0
6
ByLayer
5
1621
100
AcDbPolyline
90
2
70
1
38
0
39
0
10
10
20
-28.5
40
0
41
0
42
0
10
30
20
-34.5
40
0
41
0
42
0
210
0
220
0
230
1
0
ELLIPSE
5
e1a
100
AcDbEntity
8
0
62
0
6
ByLayer
100
AcDbEllipse
10
30
20
-34.5
30
0
11
1
21
0
31
0
210
0
220
0
230
1
40
1
41
0
42
6.28318530717959
0
LWPOLYLINE
100
AcDbEntity
8
0
62
0
6
ByLayer
5
1622
100
AcDbPolyline
90
2
70
1
38
0
39
0
10
10
20
-37.5
40
0
41
0
42
0
10
30
20
-43.5
40
0
41
0
42
0
210
0
220
0
230
1
0
LWPOLYLINE
100
AcDbEntity
8
0
62
0
6
ByLayer
5
1623
100
AcDbPolyline
90
2
70
1
38
0
39
0
10
30
20
-41.5
40
0
41
0
42
0
10
30
20
-45.5
40
0
41
0
42
0
210
0
220
0
230
1
0
ENDBLK
5
dfb
100
AcDbEntity
8
0
100
AcDbBlockEnd
0
BLOCK
5
e2a
100
AcDbEntity
8
0
100
AcDbBlockBegin
2
35595bef-e5e5-41b8-9f65-fb61342defdd
70
0
10
0
20
0
30
0
3
35595bef-e5e5-41b8-9f65-fb61342defdd
0
LWPOLYLINE
100
AcDbEntity
8
0
62
0
6
ByLayer
5
1624
100
AcDbPolyline
90
2
70
1
38
0
39
0
10
20
20
0
40
0
41
0
42
0
10
20
20
-10
40
0
41
0
42
0
210
0
220
0
230
1
0
ENDBLK
5
e25
100
AcDbEntity
8
0
100
AcDbBlockEnd
0
BLOCK
5
e47
100
AcDbEntity
8
0
100
AcDbBlockBegin
2
0960ed9b-0e4a-4483-ad16-614a2498ebde
70
0
10
0
20
0
30
0
3
0960ed9b-0e4a-4483-ad16-614a2498ebde
0
TEXT
100
AcDbEntity
8
0
62
7
6
ByLayer
5
e2d
100
AcDbText
1
\U+0057\U+0043\U+0020\U+0032\U+0036\U+0032\U+0020
10
370
20
39
30
0
40
5
41
1
50
0
51
0
7
Standard
11
370
21
39
31
0
210
0
220
0
230
1
72
0
100
AcDbText
73
0
0
TEXT
100
AcDbEntity
8
0
62
7
6
ByLayer
5
e2e
100
AcDbText
1
\U+0031\U+0032\U+002c\U+0031\U+0020\U+006b\U+0056\U+0041
10
370
20
33
30
0
40
5
41
1
50
0
51
0
7
Standard
11
370
21
33
31
0
210
0
220
0
230
1
72
0
100
AcDbText
73
0
0
TEXT
100
AcDbEntity
8
0
62
7
6
ByLayer
5
e2f
100
AcDbText
1
\U+0034\U+002c\U+0037\U+0033\U+0020\U+006b\U+0076\U+0061\U+0072
10
370
20
27
30
0
40
5
41
1
50
0
51
0
7
Standard
11
370
21
27
31
0
210
0
220
0
230
1
72
0
100
AcDbText
73
0
0
TEXT
100
AcDbEntity
8
0
62
7
6
ByLayer
5
e30
100
AcDbText
1
\U+004b\U+0073\U+0020\U+003a\U+0020\U+0031\U+0020
10
370
20
21
30
0
40
5
41
1
50
0
51
0
7
Standard
11
370
21
21
31
0
210
0
220
0
230
1
72
0
100
AcDbText
73
0
0
LWPOLYLINE
100
AcDbEntity
8
0
62
9
6
ByLayer
5
1625
100
AcDbPolyline
90
4
70
1
38
0
39
0
10
368
20
47
40
0
41
0
42
0
10
439.2
20
47
40
0
41
0
42
0
10
439.2
20
18
40
0
41
0
42
0
10
368
20
18
40
0
41
0
42
0
210
0
220
0
230
1
0
TEXT
100
AcDbEntity
8
0
62
7
6
ByLayer
5
e37
100
AcDbText
1
\U+0055\U+0043\U+0020\U+0032\U+0036\U+0033\U+0020
10
-45
20
59
30
0
40
5
41
1
50
0
51
0
7
Standard
11
-45
21
59
31
0
210
0
220
0
230
1
72
0
100
AcDbText
73
0
0
TEXT
100
AcDbEntity
8
0
62
7
6
ByLayer
5
e38
100
AcDbText
1
\U+0041\U+0075\U+0073\U+0077\U+0061\U+0068\U+006c\U+0020
10
-45
20
53
30
0
40
5
41
1
50
0
51
0
7
Standard
11
-45
21
53
31
0
210
0
220
0
230
1
72
0
100
AcDbText
73
0
0
TEXT
100
AcDbEntity
8
0
62
7
6
ByLayer
5
e39
100
AcDbText
1
\U+004e\U+0069\U+0063\U+0068\U+0074\U+0020\U+0061\U+006e\U+0067\U+0065\U+0067\U+0065\U+0062\U+0065\U+006e\U+0020
10
-45
20
47
30
0
40
5
41
1
50
0
51
0
7
Standard
11
-45
21
47
31
0
210
0
220
0
230
1
72
0
100
AcDbText
73
0
0
TEXT
100
AcDbEntity
8
0
62
7
6
ByLayer
5
e3a
100
AcDbText
1
\U+0030\U+0020\U+0041
10
-45
20
41
30
0
40
5
41
1
50
0
51
0
7
Standard
11
-45
21
41
31
0
210
0
220
0
230
1
72
0
100
AcDbText
73
0
0
LWPOLYLINE
100
AcDbEntity
8
0
62
9
6
ByLayer
5
1626
100
AcDbPolyline
90
4
70
1
38
0
39
0
10
-47
20
67
40
0
41
0
42
0
10
40.2
20
67
40
0
41
0
42
0
10
40.2
20
38
40
0
41
0
42
0
10
-47
20
38
40
0
41
0
42
0
210
0
220
0
230
1
0
LWPOLYLINE
100
AcDbEntity
8
0
62
0
6
ByLayer
5
1627
100
AcDbPolyline
90
4
70
1
38
0
39
0
10
0
20
0
40
0
41
0
42
0
10
360
20
0
40
0
41
0
42
0
10
360
20
-5
40
0
41
0
42
0
10
0
20
-5
40
0
41
0
42
0
210
0
220
0
230
1
0
ENDBLK
5
e2c
100
AcDbEntity
8
0
100
AcDbBlockEnd
0
BLOCK
5
e6b
100
AcDbEntity
8
0
100
AcDbBlockBegin
2
6c2847cf-8d0e-45ab-b613-b909ca0ba83e
70
0
10
0
20
0
30
0
3
6c2847cf-8d0e-45ab-b613-b909ca0ba83e
0
TEXT
100
AcDbEntity
8
0
62
7
6
ByLayer
5
e4a
100
AcDbText
1
\U+0051\U+0041\U+0020\U+0032\U+0036\U+0034\U+0020
10
45
20
-16
30
0
40
5
41
1
50
0
51
0
7
Standard
11
45
21
-16
31
0
210
0
220
0
230
1
72
0
100
AcDbText
73
0
0
TEXT
100
AcDbEntity
8
0
62
7
6
ByLayer
5
e4b
100
AcDbText
1
\U+0054\U+004e\U+002d\U+0053\U+0020
10
45
20
-22
30
0
40
5
41
1
50
0
51
0
7
Standard
11
45
21
-22
31
0
210
0
220
0
230
1
72
0
100
AcDbText
73
0
0
TEXT
100
AcDbEntity
8
0
62
7
6
ByLayer
5
e4c
100
AcDbText
1
\U+0049\U+0062\U+0020\U+003a\U+0020\U+0038\U+002c\U+0039\U+0034\U+0020\U+0041
10
45
20
-28
30
0
40
5
41
1
50
0
51
0
7
Standard
11
45
21
-28
31
0
210
0
220
0
230
1
72
0
100
AcDbText
73
0
0
LWPOLYLINE
100
AcDbEntity
8
0
62
9
6
ByLayer
5
1628
100
AcDbPolyline
90
4
70
1
38
0
39
0
10
43
20
-8
40
0
41
0
42
0
10
114.2
20
-8
40
0
41
0
42
0
10
114.2
20
-32
40
0
41
0
42
0
10
43
20
-32
40
0
41
0
42
0
210
0
220
0
230
1
0
LWPOLYLINE
100
AcDbEntity
8
0
62
0
6
ByLayer
5
1629
100
AcDbPolyline
90
2
70
1
38
0
39
0
10
20
20
0
40
0
41
0
42
0
10
20
20
-20
40
0
41
0
42
0
210
0
220
0
230
1
0
LWPOLYLINE
100
AcDbEntity
8
0
62
0
6
ByLayer
5
162a
100
AcDbPolyline
90
2
70
1
38
0
39
0
10
15
20
-5
40
0
41
0
42
0
10
25
20
-15
40
0
41
0
42
0
210
0
220
0
230
1
0
LWPOLYLINE
100
AcDbEntity
8
0
62
0
6
ByLayer
5
162b
100
AcDbPolyline
90
2
70
1
38
0
39
0
10
15
20
-15
40
0
41
0
42
0
10
25
20
-5
40
0
41
0
42
0
210
0
220
0
230
1
0
LWPOLYLINE
100
AcDbEntity
8
0
62
0
6
ByLayer
5
162c
100
AcDbPolyline
90
2
70
1
38
0
39
0
10
15
20
-20
40
0
41
0
42
0
10
25
20
-20
40
0
41
0
42
0
210
0
220
0
230
1
0
LWPOLYLINE
100
AcDbEntity
8
0
62
0
6
ByLayer
5
162d
100
AcDbPolyline
90
2
70
1
38
0
39
0
10
10
20
-20
40
0
41
0
42
0
10
20
20
-40
40
0
41
0
42
0
210
0
220
0
230
1
0
LWPOLYLINE
100
AcDbEntity
8
0
62
0
6
ByLayer
5
162e
100
AcDbPolyline
90
2
70
1
38
0
39
0
10
20
20
-40
40
0
41
0
42
0
10
20
20
-60
40
0
41
0
42
0
210
0
220
0
230
1
0
ENDBLK
5
e49
100
AcDbEntity
8
0
100
AcDbBlockEnd
0
BLOCK
5
e8d
100
AcDbEntity
8
0
100
AcDbBlockBegin
2
62cdaab7-ea96-4afc-980b-ba65d6d31655
70
0
10
0
20
0
30
0
3
62cdaab7-ea96-4afc-980b-ba65d6d31655
0
TEXT
100
AcDbEntity
8
0
62
7
6
ByLayer
5
e6e
100
AcDbText
1
\U+0057\U+0044\U+0020\U+0032\U+0036\U+0034\U+0020
10
45
20
-11
30
0
40
5
41
1
50
0
51
0
7
Standard
11
45
21
-11
31
0
210
0
220
0
230
1
72
0
100
AcDbText
73
0
0
TEXT
100
AcDbEntity
8
0
62
7
6
ByLayer
5
e6f
100
AcDbText
1
\U+0031\U+0035\U+0020\U+006d
10
45
20
-17
30
0
40
5
41
1
50
0
51
0
7
Standard
11
45
21
-17
31
0
210
0
220
0
230
1
72
0
100
AcDbText
73
0
0
LWPOLYLINE
100
AcDbEntity
8
0
62
9
6
ByLayer
5
162f
100
AcDbPolyline
90
4
70
1
38
0
39
0
10
43
20
-3
40
0
41
0
42
0
10
114.2
20
-3
40
0
41
0
42
0
10
114.2
20
-22
40
0
41
0
42
0
10
43
20
-22
40
0
41
0
42
0
210
0
220
0
230
1
0
ELLIPSE
5
e76
100
AcDbEntity
8
0
62
0
6
ByLayer
100
AcDbEllipse
10
20
20
-2
30
0
11
2
21
0
31
0
210
0
220
0
230
1
40
1
41
0
42
6.28318530717959
0
ELLIPSE
5
e77
100
AcDbEntity
8
0
62
0
6
ByLayer
100
AcDbEllipse
10
20
20
-58
30
0
11
2
21
0
31
0
210
0
220
0
230
1
40
1
41
0
42
6.28318530717959
0
LWPOLYLINE
100
AcDbEntity
8
0
62
0
6
ByLayer
5
1630
100
AcDbPolyline
90
2
70
1
38
0
39
0
10
20
20
-4
40
0
41
0
42
0
10
20
20
-56
40
0
41
0
42
0
210
0
220
0
230
1
0
LWPOLYLINE
100
AcDbEntity
8
0
62
0
6
ByLayer
5
1631
100
AcDbPolyline
90
2
70
1
38
0
39
0
10
10
20
-19.5
40
0
41
0
42
0
10
30
20
-25.5
40
0
41
0
42
0
210
0
220
0
230
1
0
LWPOLYLINE
100
AcDbEntity
8
0
62
0
6
ByLayer
5
1632
100
AcDbPolyline
90
2
70
1
38
0
39
0
10
10
20
-25.5
40
0
41
0
42
0
10
30
20
-31.5
40
0
41
0
42
0
210
0
220
0
230
1
0
ELLIPSE
5
e84
100
AcDbEntity
8
0
62
0
6
ByLayer
100
AcDbEllipse
10
30
20
-31.5
30
0
11
1
21
0
31
0
210
0
220
0
230
1
40
1
41
0
42
6.28318530717959
0
LWPOLYLINE
100
AcDbEntity
8
0
62
0
6
ByLayer
5
1633
100
AcDbPolyline
90
2
70
1
38
0
39
0
10
10
20
-34.5
40
0
41
0
42
0
10
30
20
-40.5
40
0
41
0
42
0
210
0
220
0
230
1
0
LWPOLYLINE
100
AcDbEntity
8
0
62
0
6
ByLayer
5
1634
100
AcDbPolyline
90
2
70
1
38
0
39
0
10
30
20
-38.5
40
0
41
0
42
0
10
30
20
-42.5
40
0
41
0
42
0
210
0
220
0
230
1
0
ENDBLK
5
e6d
100
AcDbEntity
8
0
100
AcDbBlockEnd
0
BLOCK
5
ead
100
AcDbEntity
8
0
100
AcDbBlockBegin
2
5cd321a7-583a-4b4f-9bf5-c450d81f00bc
70
0
10
0
20
0
30
0
3
5cd321a7-583a-4b4f-9bf5-c450d81f00bc
0
TEXT
100
AcDbEntity
8
0
62
7
6
ByLayer
5
e90
100
AcDbText
1
\U+0041\U+0041\U+0020\U+0032\U+0036\U+0034\U+0020
10
45
20
-11
30
0
40
5
41
1
50
0
51
0
7
Standard
11
45
21
-11
31
0
210
0
220
0
230
1
72
0
100
AcDbText
73
0
0
TEXT
100
AcDbEntity
8
0
62
7
6
ByLayer
5
e91
100
AcDbText
1
\U+0031\U+002c\U+0039\U+0020\U+006b\U+0057
10
45
20
-17
30
0
40
5
41
1
50
0
51
0
7
Standard
11
45
21
-17
31
0
210
0
220
0
230
1
72
0
100
AcDbText
73
0
0
TEXT
100
AcDbEntity
8
0
62
7
6
ByLayer
5
e92
100
AcDbText
1
\U+0043\U+006f\U+0073\U+03c6\U+0020\U+003a\U+0020\U+0030\U+002c\U+0039\U+0032\U+0020
10
45
20
-23
30
0
40
5
41
1
50
0
51
0
7
Standard
11
45
21
-23
31
0
210
0
220
0
230
1
72
0
100
AcDbText
73
0
0
TEXT
100
AcDbEntity
8
0
62
7
6
ByLayer
5
e93
100
AcDbText
1
\U+004d\U+0065\U+006e\U+0067\U+0065\U+0020\U+003a\U+0020\U+003a\U+0020\U+0031\U+0020
10
45
20
-29
30
0
40
5
41
1
50
0
51
0
7
Standard
11
45
21
-29
31
0
210
0
220
0
230
1
72
0
100
AcDbText
73
0
0
TEXT
100
AcDbEntity
8
0
62
7
6
ByLayer
5
e94
100
AcDbText
1
\U+004b\U+0075\U+0020\U+003a\U+0020\U+0031\U+0020
10
45
20
-35
30
0
40
5
41
1
50
0
51
0
7
Standard
11
45
21
-35
31
0
210
0
220
0
230
1
72
0
100
AcDbText
73
0
0
LWPOLYLINE
100
AcDbEntity
8
0
62
9
6
ByLayer
5
1635
100
AcDbPolyline
90
4
70
1
38
0
39
0
10
43
20
-3
40
0
41
0
42
0
10
114.2
20
-3
40
0
41
0
42
0
10
114.2
20
-37
40
0
41
0
42
0
10
43
20
-37
40
0
41
0
42
0
210
0
220
0
230
1
0
LWPOLYLINE
100
AcDbEntity
8
0
62
0
6
ByLayer
5
1636
100
AcDbPolyline
90
4
70
1
38
0
39
0
10
5
20
-15
40
0
41
0
42
0
10
35
20
-15
40
0
41
0
42
0
10
35
20
-45
40
0
41
0
42
0
10
5
20
-45
40
0
41
0
42
0
210
0
220
0
230
1
0
LWPOLYLINE
100
AcDbEntity
8
0
62
0
6
ByLayer
5
1637
100
AcDbPolyline
90
2
70
1
38
0
39
0
10
20
20
0
40
0
41
0
42
0
10
20
20
-15
40
0
41
0
42
0
210
0
220
0
230
1
0
LWPOLYLINE
100
AcDbEntity
8
0
62
0
6
ByLayer
5
1638
100
AcDbPolyline
90
2
70
1
38
0
39
0
10
5
20
-15
40
0
41
0
42
0
10
35
20
-45
40
0
41
0
42
0
210
0
220
0
230
1
0
LWPOLYLINE
100
AcDbEntity
8
0
62
0
6
ByLayer
5
1639
100
AcDbPolyline
90
2
70
1
38
0
39
0
10
5
20
-45
40
0
41
0
42
0
10
35
20
-15
40
0
41
0
42
0
210
0
220
0
230
1
0
ENDBLK
5
e8f
100
AcDbEntity
8
0
100
AcDbBlockEnd
0
BLOCK
5
ed1
100
AcDbEntity
8
0
100
AcDbBlockBegin
2
78b237f0-e6f7-4245-8873-cca67b56b654
70
0
10
0
20
0
30
0
3
78b237f0-e6f7-4245-8873-cca67b56b654
0
TEXT
100
AcDbEntity
8
0
62
7
6
ByLayer
5
eb0
100
AcDbText
1
\U+0051\U+0041\U+0020\U+0032\U+0036\U+0035\U+0020
10
45
20
-16
30
0
40
5
41
1
50
0
51
0
7
Standard
11
45
21
-16
31
0
210
0
220
0
230
1
72
0
100
AcDbText
73
0
0
TEXT
100
AcDbEntity
8
0
62
7
6
ByLayer
5
eb1
100
AcDbText
1
\U+0054\U+004e\U+002d\U+0053\U+0020
10
45
20
-22
30
0
40
5
41
1
50
0
51
0
7
Standard
11
45
21
-22
31
0
210
0
220
0
230
1
72
0
100
AcDbText
73
0
0
TEXT
100
AcDbEntity
8
0
62
7
6
ByLayer
5
eb2
100
AcDbText
1
\U+0049\U+0062\U+0020\U+003a\U+0020\U+0031\U+0034\U+002c\U+0034\U+0020\U+0041
10
45
20
-28
30
0
40
5
41
1
50
0
51
0
7
Standard
11
45
21
-28
31
0
210
0
220
0
230
1
72
0
100
AcDbText
73
0
0
LWPOLYLINE
100
AcDbEntity
8
0
62
9
6
ByLayer
5
163a
100
AcDbPolyline
90
4
70
1
38
0
39
0
10
43
20
-8
40
0
41
0
42
0
10
114.2
20
-8
40
0
41
0
42
0
10
114.2
20
-32
40
0
41
0
42
0
10
43
20
-32
40
0
41
0
42
0
210
0
220
0
230
1
0
LWPOLYLINE
100
AcDbEntity
8
0
62
0
6
ByLayer
5
163b
100
AcDbPolyline
90
2
70
1
38
0
39
0
10
20
20
0
40
0
41
0
42
0
10
20
20
-20
40
0
41
0
42
0
210
0
220
0
230
1
0
LWPOLYLINE
100
AcDbEntity
8
0
62
0
6
ByLayer
5
163c
100
AcDbPolyline
90
2
70
1
38
0
39
0
10
15
20
-5
40
0
41
0
42
0
10
25
20
-15
40
0
41
0
42
0
210
0
220
0
230
1
0
LWPOLYLINE
100
AcDbEntity
8
0
62
0
6
ByLayer
5
163d
100
AcDbPolyline
90
2
70
1
38
0
39
0
10
15
20
-15
40
0
41
0
42
0
10
25
20
-5
40
0
41
0
42
0
210
0
220
0
230
1
0
LWPOLYLINE
100
AcDbEntity
8
0
62
0
6
ByLayer
5
163e
100
AcDbPolyline
90
2
70
1
38
0
39
0
10
15
20
-20
40
0
41
0
42
0
10
25
20
-20
40
0
41
0
42
0
210
0
220
0
230
1
0
LWPOLYLINE
100
AcDbEntity
8
0
62
0
6
ByLayer
5
163f
100
AcDbPolyline
90
2
70
1
38
0
39
0
10
10
20
-20
40
0
41
0
42
0
10
20
20
-40
40
0
41
0
42
0
210
0
220
0
230
1
0
LWPOLYLINE
100
AcDbEntity
8
0
62
0
6
ByLayer
5
1640
100
AcDbPolyline
90
2
70
1
38
0
39
0
10
20
20
-40
40
0
41
0
42
0
10
20
20
-60
40
0
41
0
42
0
210
0
220
0
230
1
0
ENDBLK
5
eaf
100
AcDbEntity
8
0
100
AcDbBlockEnd
0
BLOCK
5
efb
100
AcDbEntity
8
0
100
AcDbBlockBegin
2
4a0dd194-394c-4616-a761-704fcfee3ea5
70
0
10
0
20
0
30
0
3
4a0dd194-394c-4616-a761-704fcfee3ea5
0
TEXT
100
AcDbEntity
8
0
62
7
6
ByLayer
5
ed4
100
AcDbText
1
\U+0057\U+0044\U+0020\U+0032\U+0036\U+0035\U+0020
10
45
20
-11
30
0
40
5
41
1
50
0
51
0
7
Standard
11
45
21
-11
31
0
210
0
220
0
230
1
72
0
100
AcDbText
73
0
0
TEXT
100
AcDbEntity
8
0
62
7
6
ByLayer
5
ed5
100
AcDbText
1
\U+0031\U+0035\U+0020\U+006d
10
45
20
-17
30
0
40
5
41
1
50
0
51
0
7
Standard
11
45
21
-17
31
0
210
0
220
0
230
1
72
0
100
AcDbText
73
0
0
LWPOLYLINE
100
AcDbEntity
8
0
62
9
6
ByLayer
5
1641
100
AcDbPolyline
90
4
70
1
38
0
39
0
10
43
20
-3
40
0
41
0
42
0
10
114.2
20
-3
40
0
41
0
42
0
10
114.2
20
-22
40
0
41
0
42
0
10
43
20
-22
40
0
41
0
42
0
210
0
220
0
230
1
0
ELLIPSE
5
edc
100
AcDbEntity
8
0
62
0
6
ByLayer
100
AcDbEllipse
10
20
20
-2
30
0
11
2
21
0
31
0
210
0
220
0
230
1
40
1
41
0
42
6.28318530717959
0
ELLIPSE
5
edd
100
AcDbEntity
8
0
62
0
6
ByLayer
100
AcDbEllipse
10
20
20
-58
30
0
11
2
21
0
31
0
210
0
220
0
230
1
40
1
41
0
42
6.28318530717959
0
LWPOLYLINE
100
AcDbEntity
8
0
62
0
6
ByLayer
5
1642
100
AcDbPolyline
90
2
70
1
38
0
39
0
10
20
20
-4
40
0
41
0
42
0
10
20
20
-56
40
0
41
0
42
0
210
0
220
0
230
1
0
LWPOLYLINE
100
AcDbEntity
8
0
62
0
6
ByLayer
5
1643
100
AcDbPolyline
90
2
70
1
38
0
39
0
10
10
20
-16.5
40
0
41
0
42
0
10
30
20
-22.5
40
0
41
0
42
0
210
0
220
0
230
1
0
LWPOLYLINE
100
AcDbEntity
8
0
62
0
6
ByLayer
5
1644
100
AcDbPolyline
90
2
70
1
38
0
39
0
10
10
20
-19.5
40
0
41
0
42
0
10
30
20
-25.5
40
0
41
0
42
0
210
0
220
0
230
1
0
LWPOLYLINE
100
AcDbEntity
8
0
62
0
6
ByLayer
5
1645
100
AcDbPolyline
90
2
70
1
38
0
39
0
10
10
20
-22.5
40
0
41
0
42
0
10
30
20
-28.5
40
0
41
0
42
0
210
0
220
0
230
1
0
LWPOLYLINE
100
AcDbEntity
8
0
62
0
6
ByLayer
5
1646
100
AcDbPolyline
90
2
70
1
38
0
39
0
10
10
20
-28.5
40
0
41
0
42
0
10
30
20
-34.5
40
0
41
0
42
0
210
0
220
0
230
1
0
ELLIPSE
5
ef2
100
AcDbEntity
8
0
62
0
6
ByLayer
100
AcDbEllipse
10
30
20
-34.5
30
0
11
1
21
0
31
0
210
0
220
0
230
1
40
1
41
0
42
6.28318530717959
0
LWPOLYLINE
100
AcDbEntity
8
0
62
0
6
ByLayer
5
1647
100
AcDbPolyline
90
2
70
1
38
0
39
0
10
10
20
-37.5
40
0
41
0
42
0
10
30
20
-43.5
40
0
41
0
42
0
210
0
220
0
230
1
0
LWPOLYLINE
100
AcDbEntity
8
0
62
0
6
ByLayer
5
1648
100
AcDbPolyline
90
2
70
1
38
0
39
0
10
30
20
-41.5
40
0
41
0
42
0
10
30
20
-45.5
40
0
41
0
42
0
210
0
220
0
230
1
0
ENDBLK
5
ed3
100
AcDbEntity
8
0
100
AcDbBlockEnd
0
BLOCK
5
f1b
100
AcDbEntity
8
0
100
AcDbBlockBegin
2
430527f9-b476-4c87-8332-4e3506eed079
70
0
10
0
20
0
30
0
3
430527f9-b476-4c87-8332-4e3506eed079
0
TEXT
100
AcDbEntity
8
0
62
7
6
ByLayer
5
efe
100
AcDbText
1
\U+0041\U+0041\U+0020\U+0032\U+0036\U+0035\U+0020
10
45
20
-11
30
0
40
5
41
1
50
0
51
0
7
Standard
11
45
21
-11
31
0
210
0
220
0
230
1
72
0
100
AcDbText
73
0
0
TEXT
100
AcDbEntity
8
0
62
7
6
ByLayer
5
eff
100
AcDbText
1
\U+0031\U+0030\U+0020\U+006b\U+0056\U+0041
10
45
20
-17
30
0
40
5
41
1
50
0
51
0
7
Standard
11
45
21
-17
31
0
210
0
220
0
230
1
72
0
100
AcDbText
73
0
0
TEXT
100
AcDbEntity
8
0
62
7
6
ByLayer
5
f00
100
AcDbText
1
\U+0043\U+006f\U+0073\U+03c6\U+0020\U+003a\U+0020\U+0030\U+002c\U+0039\U+0032\U+0020
10
45
20
-23
30
0
40
5
41
1
50
0
51
0
7
Standard
11
45
21
-23
31
0
210
0
220
0
230
1
72
0
100
AcDbText
73
0
0
TEXT
100
AcDbEntity
8
0
62
7
6
ByLayer
5
f01
100
AcDbText
1
\U+004d\U+0065\U+006e\U+0067\U+0065\U+0020\U+003a\U+0020\U+003a\U+0020\U+0031\U+0020
10
45
20
-29
30
0
40
5
41
1
50
0
51
0
7
Standard
11
45
21
-29
31
0
210
0
220
0
230
1
72
0
100
AcDbText
73
0
0
TEXT
100
AcDbEntity
8
0
62
7
6
ByLayer
5
f02
100
AcDbText
1
\U+004b\U+0075\U+0020\U+003a\U+0020\U+0031\U+0020
10
45
20
-35
30
0
40
5
41
1
50
0
51
0
7
Standard
11
45
21
-35
31
0
210
0
220
0
230
1
72
0
100
AcDbText
73
0
0
LWPOLYLINE
100
AcDbEntity
8
0
62
9
6
ByLayer
5
1649
100
AcDbPolyline
90
4
70
1
38
0
39
0
10
43
20
-3
40
0
41
0
42
0
10
114.2
20
-3
40
0
41
0
42
0
10
114.2
20
-37
40
0
41
0
42
0
10
43
20
-37
40
0
41
0
42
0
210
0
220
0
230
1
0
LWPOLYLINE
100
AcDbEntity
8
0
62
0
6
ByLayer
5
164a
100
AcDbPolyline
90
4
70
1
38
0
39
0
10
5
20
-15
40
0
41
0
42
0
10
35
20
-15
40
0
41
0
42
0
10
35
20
-45
40
0
41
0
42
0
10
5
20
-45
40
0
41
0
42
0
210
0
220
0
230
1
0
LWPOLYLINE
100
AcDbEntity
8
0
62
0
6
ByLayer
5
164b
100
AcDbPolyline
90
2
70
1
38
0
39
0
10
20
20
0
40
0
41
0
42
0
10
20
20
-15
40
0
41
0
42
0
210
0
220
0
230
1
0
LWPOLYLINE
100
AcDbEntity
8
0
62
0
6
ByLayer
5
164c
100
AcDbPolyline
90
2
70
1
38
0
39
0
10
5
20
-15
40
0
41
0
42
0
10
35
20
-45
40
0
41
0
42
0
210
0
220
0
230
1
0
LWPOLYLINE
100
AcDbEntity
8
0
62
0
6
ByLayer
5
164d
100
AcDbPolyline
90
2
70
1
38
0
39
0
10
5
20
-45
40
0
41
0
42
0
10
35
20
-15
40
0
41
0
42
0
210
0
220
0
230
1
0
ENDBLK
5
efd
100
AcDbEntity
8
0
100
AcDbBlockEnd
0
BLOCK
5
f3f
100
AcDbEntity
8
0
100
AcDbBlockBegin
2
f9be3e1c-6e6a-4750-b1f8-34157883f071
70
0
10
0
20
0
30
0
3
f9be3e1c-6e6a-4750-b1f8-34157883f071
0
TEXT
100
AcDbEntity
8
0
62
7
6
ByLayer
5
f1e
100
AcDbText
1
\U+0051\U+0041\U+0020\U+0032\U+0036\U+0036\U+0020
10
45
20
-16
30
0
40
5
41
1
50
0
51
0
7
Standard
11
45
21
-16
31
0
210
0
220
0
230
1
72
0
100
AcDbText
73
0
0
TEXT
100
AcDbEntity
8
0
62
7
6
ByLayer
5
f1f
100
AcDbText
1
\U+0054\U+004e\U+002d\U+0053\U+0020
10
45
20
-22
30
0
40
5
41
1
50
0
51
0
7
Standard
11
45
21
-22
31
0
210
0
220
0
230
1
72
0
100
AcDbText
73
0
0
TEXT
100
AcDbEntity
8
0
62
7
6
ByLayer
5
f20
100
AcDbText
1
\U+0049\U+0062\U+0020\U+003a\U+0020\U+0030\U+002c\U+0030\U+0031\U+0034\U+0020\U+0041
10
45
20
-28
30
0
40
5
41
1
50
0
51
0
7
Standard
11
45
21
-28
31
0
210
0
220
0
230
1
72
0
100
AcDbText
73
0
0
LWPOLYLINE
100
AcDbEntity
8
0
62
9
6
ByLayer
5
164e
100
AcDbPolyline
90
4
70
1
38
0
39
0
10
43
20
-8
40
0
41
0
42
0
10
114.2
20
-8
40
0
41
0
42
0
10
114.2
20
-32
40
0
41
0
42
0
10
43
20
-32
40
0
41
0
42
0
210
0
220
0
230
1
0
LWPOLYLINE
100
AcDbEntity
8
0
62
0
6
ByLayer
5
164f
100
AcDbPolyline
90
2
70
1
38
0
39
0
10
20
20
0
40
0
41
0
42
0
10
20
20
-20
40
0
41
0
42
0
210
0
220
0
230
1
0
LWPOLYLINE
100
AcDbEntity
8
0
62
0
6
ByLayer
5
1650
100
AcDbPolyline
90
2
70
1
38
0
39
0
10
15
20
-5
40
0
41
0
42
0
10
25
20
-15
40
0
41
0
42
0
210
0
220
0
230
1
0
LWPOLYLINE
100
AcDbEntity
8
0
62
0
6
ByLayer
5
1651
100
AcDbPolyline
90
2
70
1
38
0
39
0
10
15
20
-15
40
0
41
0
42
0
10
25
20
-5
40
0
41
0
42
0
210
0
220
0
230
1
0
LWPOLYLINE
100
AcDbEntity
8
0
62
0
6
ByLayer
5
1652
100
AcDbPolyline
90
2
70
1
38
0
39
0
10
15
20
-20
40
0
41
0
42
0
10
25
20
-20
40
0
41
0
42
0
210
0
220
0
230
1
0
LWPOLYLINE
100
AcDbEntity
8
0
62
0
6
ByLayer
5
1653
100
AcDbPolyline
90
2
70
1
38
0
39
0
10
10
20
-20
40
0
41
0
42
0
10
20
20
-40
40
0
41
0
42
0
210
0
220
0
230
1
0
LWPOLYLINE
100
AcDbEntity
8
0
62
0
6
ByLayer
5
1654
100
AcDbPolyline
90
2
70
1
38
0
39
0
10
20
20
-40
40
0
41
0
42
0
10
20
20
-60
40
0
41
0
42
0
210
0
220
0
230
1
0
ENDBLK
5
f1d
100
AcDbEntity
8
0
100
AcDbBlockEnd
0
BLOCK
5
f6a
100
AcDbEntity
8
0
100
AcDbBlockBegin
2
6f44c8fd-e41c-45cd-b350-8f955dd743bd
70
0
10
0
20
0
30
0
3
6f44c8fd-e41c-45cd-b350-8f955dd743bd
0
TEXT
100
AcDbEntity
8
0
62
7
6
ByLayer
5
f42
100
AcDbText
1
\U+0046\U+0041\U+0020\U+0032\U+0036\U+0036\U+0020
10
45
20
-16
30
0
40
5
41
1
50
0
51
0
7
Standard
11
45
21
-16
31
0
210
0
220
0
230
1
72
0
100
AcDbText
73
0
0
TEXT
100
AcDbEntity
8
0
62
7
6
ByLayer
5
f43
100
AcDbText
1
\U+0049\U+006d\U+0061\U+0078\U+0020\U+003a\U+0020\U+0038\U+0020\U+006b\U+0041
10
45
20
-22
30
0
40
5
41
1
50
0
51
0
7
Standard
11
45
21
-22
31
0
210
0
220
0
230
1
72
0
100
AcDbText
73
0
0
LWPOLYLINE
100
AcDbEntity
8
0
62
9
6
ByLayer
5
1655
100
AcDbPolyline
90
4
70
1
38
0
39
0
10
43
20
-8
40
0
41
0
42
0
10
114.2
20
-8
40
0
41
0
42
0
10
114.2
20
-27
40
0
41
0
42
0
10
43
20
-27
40
0
41
0
42
0
210
0
220
0
230
1
0
LWPOLYLINE
100
AcDbEntity
8
0
62
0
6
ByLayer
5
1656
100
AcDbPolyline
90
4
70
1
38
0
39
0
10
5
20
-15
40
0
41
0
42
0
10
35
20
-15
40
0
41
0
42
0
10
35
20
-45
40
0
41
0
42
0
10
5
20
-45
40
0
41
0
42
0
210
0
220
0
230
1
0
LWPOLYLINE
100
AcDbEntity
8
0
62
0
6
ByLayer
5
1657
100
AcDbPolyline
90
2
70
1
38
0
39
0
10
20
20
0
40
0
41
0
42
0
10
20
20
-25
40
0
41
0
42
0
210
0
220
0
230
1
0
LWPOLYLINE
100
AcDbEntity
8
0
62
0
6
ByLayer
5
1658
100
AcDbPolyline
90
4
70
1
38
0
39
0
10
17
20
-25
40
0
41
0
42
0
10
23
20
-25
40
0
41
0
42
0
10
20
20
-30
40
0
41
0
42
0
10
17
20
-25
40
0
41
0
42
0
210
0
220
0
230
1
0
LWPOLYLINE
100
AcDbEntity
8
0
62
0
6
ByLayer
5
1659
100
AcDbPolyline
90
2
70
1
38
0
39
0
10
20
20
-45
40
0
41
0
42
0
10
20
20
-55
40
0
41
0
42
0
210
0
220
0
230
1
0
LWPOLYLINE
100
AcDbEntity
8
0
62
0
6
ByLayer
5
165a
100
AcDbPolyline
90
2
70
1
38
0
39
0
10
10
20
-55
40
0
41
0
42
0
10
30
20
-55
40
0
41
0
42
0
210
0
220
0
230
1
0
LWPOLYLINE
100
AcDbEntity
8
0
62
0
6
ByLayer
5
165b
100
AcDbPolyline
90
2
70
1
38
0
39
0
10
14
20
-60
40
0
41
0
42
0
10
26
20
-60
40
0
41
0
42
0
210
0
220
0
230
1
0
LWPOLYLINE
100
AcDbEntity
8
0
62
0
6
ByLayer
5
165c
100
AcDbPolyline
90
2
70
1
38
0
39
0
10
18
20
-65
40
0
41
0
42
0
10
22
20
-65
40
0
41
0
42
0
210
0
220
0
230
1
0
ENDBLK
5
f41
100
AcDbEntity
8
0
100
AcDbBlockEnd
0
BLOCK
5
f71
100
AcDbEntity
8
0
100
AcDbBlockBegin
2
d5fc0507-8b05-47ec-b161-734ccd3edc2e
70
0
10
0
20
0
30
0
3
d5fc0507-8b05-47ec-b161-734ccd3edc2e
0
LWPOLYLINE
100
AcDbEntity
8
0
62
0
6
ByLayer
5
165d
100
AcDbPolyline
90
2
70
1
38
0
39
0
10
20
20
0
40
0
41
0
42
0
10
20
20
-10
40
0
41
0
42
0
210
0
220
0
230
1
0
ENDBLK
5
f6c
100
AcDbEntity
8
0
100
AcDbBlockEnd
0
BLOCK
5
f78
100
AcDbEntity
8
0
100
AcDbBlockBegin
2
5071cacb-0858-4e45-9e39-bd31a14a98b9
70
0
10
0
20
0
30
0
3
5071cacb-0858-4e45-9e39-bd31a14a98b9
0
LWPOLYLINE
100
AcDbEntity
8
0
62
0
6
ByLayer
5
165e
100
AcDbPolyline
90
2
70
1
38
0
39
0
10
20
20
0
40
0
41
0
42
0
10
20
20
-10
40
0
41
0
42
0
210
0
220
0
230
1
0
ENDBLK
5
f73
100
AcDbEntity
8
0
100
AcDbBlockEnd
0
BLOCK
5
f9a
100
AcDbEntity
8
0
100
AcDbBlockBegin
2
d191cd63-c97d-4a27-8e4a-3d19d1151734
70
0
10
0
20
0
30
0
3
d191cd63-c97d-4a27-8e4a-3d19d1151734
0
TEXT
100
AcDbEntity
8
0
62
7
6
ByLayer
5
f7b
100
AcDbText
1
\U+0057\U+0044\U+0020\U+0032\U+0036\U+0038\U+0020
10
45
20
-11
30
0
40
5
41
1
50
0
51
0
7
Standard
11
45
21
-11
31
0
210
0
220
0
230
1
72
0
100
AcDbText
73
0
0
TEXT
100
AcDbEntity
8
0
62
7
6
ByLayer
5
f7c
100
AcDbText
1
\U+0031\U+0035\U+0020\U+006d
10
45
20
-17
30
0
40
5
41
1
50
0
51
0
7
Standard
11
45
21
-17
31
0
210
0
220
0
230
1
72
0
100
AcDbText
73
0
0
LWPOLYLINE
100
AcDbEntity
8
0
62
9
6
ByLayer
5
165f
100
AcDbPolyline
90
4
70
1
38
0
39
0
10
43
20
-3
40
0
41
0
42
0
10
114.2
20
-3
40
0
41
0
42
0
10
114.2
20
-22
40
0
41
0
42
0
10
43
20
-22
40
0
41
0
42
0
210
0
220
0
230
1
0
ELLIPSE
5
f83
100
AcDbEntity
8
0
62
0
6
ByLayer
100
AcDbEllipse
10
20
20
-2
30
0
11
2
21
0
31
0
210
0
220
0
230
1
40
1
41
0
42
6.28318530717959
0
ELLIPSE
5
f84
100
AcDbEntity
8
0
62
0
6
ByLayer
100
AcDbEllipse
10
20
20
-58
30
0
11
2
21
0
31
0
210
0
220
0
230
1
40
1
41
0
42
6.28318530717959
0
LWPOLYLINE
100
AcDbEntity
8
0
62
0
6
ByLayer
5
1660
100
AcDbPolyline
90
2
70
1
38
0
39
0
10
20
20
-4
40
0
41
0
42
0
10
20
20
-56
40
0
41
0
42
0
210
0
220
0
230
1
0
LWPOLYLINE
100
AcDbEntity
8
0
62
0
6
ByLayer
5
1661
100
AcDbPolyline
90
2
70
1
38
0
39
0
10
10
20
-19.5
40
0
41
0
42
0
10
30
20
-25.5
40
0
41
0
42
0
210
0
220
0
230
1
0
LWPOLYLINE
100
AcDbEntity
8
0
62
0
6
ByLayer
5
1662
100
AcDbPolyline
90
2
70
1
38
0
39
0
10
10
20
-25.5
40
0
41
0
42
0
10
30
20
-31.5
40
0
41
0
42
0
210
0
220
0
230
1
0
ELLIPSE
5
f91
100
AcDbEntity
8
0
62
0
6
ByLayer
100
AcDbEllipse
10
30
20
-31.5
30
0
11
1
21
0
31
0
210
0
220
0
230
1
40
1
41
0
42
6.28318530717959
0
LWPOLYLINE
100
AcDbEntity
8
0
62
0
6
ByLayer
5
1663
100
AcDbPolyline
90
2
70
1
38
0
39
0
10
10
20
-34.5
40
0
41
0
42
0
10
30
20
-40.5
40
0
41
0
42
0
210
0
220
0
230
1
0
LWPOLYLINE
100
AcDbEntity
8
0
62
0
6
ByLayer
5
1664
100
AcDbPolyline
90
2
70
1
38
0
39
0
10
30
20
-38.5
40
0
41
0
42
0
10
30
20
-42.5
40
0
41
0
42
0
210
0
220
0
230
1
0
ENDBLK
5
f7a
100
AcDbEntity
8
0
100
AcDbBlockEnd
0
BLOCK
5
fbc
100
AcDbEntity
8
0
100
AcDbBlockBegin
2
f4b15e71-4330-4860-8c5b-69dcebd4b9cb
70
0
10
0
20
0
30
0
3
f4b15e71-4330-4860-8c5b-69dcebd4b9cb
0
TEXT
100
AcDbEntity
8
0
62
7
6
ByLayer
5
f9d
100
AcDbText
1
\U+0028\U+0031\U+0051\U+0031\U+002d\U+0044\U+0030\U+0032\U+002d\U+0032\U+0035\U+0041\U+0029\U+0020
10
45
20
-16
30
0
40
5
41
1
50
0
51
0
7
Standard
11
45
21
-16
31
0
210
0
220
0
230
1
72
0
100
AcDbText
73
0
0
TEXT
100
AcDbEntity
8
0
62
7
6
ByLayer
5
f9e
100
AcDbText
1
\U+0054\U+004e\U+002d\U+0053\U+0020
10
45
20
-22
30
0
40
5
41
1
50
0
51
0
7
Standard
11
45
21
-22
31
0
210
0
220
0
230
1
72
0
100
AcDbText
73
0
0
LWPOLYLINE
100
AcDbEntity
8
0
62
9
6
ByLayer
5
1665
100
AcDbPolyline
90
4
70
1
38
0
39
0
10
43
20
-8
40
0
41
0
42
0
10
114.2
20
-8
40
0
41
0
42
0
10
114.2
20
-27
40
0
41
0
42
0
10
43
20
-27
40
0
41
0
42
0
210
0
220
0
230
1
0
LWPOLYLINE
100
AcDbEntity
8
0
62
0
6
ByLayer
5
1666
100
AcDbPolyline
90
2
70
1
38
0
39
0
10
20
20
0
40
0
41
0
42
0
10
20
20
-5
40
0
41
0
42
0
210
0
220
0
230
1
0
LWPOLYLINE
100
AcDbEntity
8
0
62
0
6
ByLayer
5
1667
100
AcDbPolyline
90
2
70
1
38
0
39
0
10
10
20
-5
40
0
41
0
42
0
10
20
20
-25
40
0
41
0
42
0
210
0
220
0
230
1
0
LWPOLYLINE
100
AcDbEntity
8
0
62
0
6
ByLayer
5
1668
100
AcDbPolyline
90
2
70
1
38
0
39
0
10
20
20
-25
40
0
41
0
42
0
10
20
20
-60
40
0
41
0
42
0
210
0
220
0
230
1
0
LWPOLYLINE
100
AcDbEntity
8
0
62
0
6
ByLayer
5
1669
100
AcDbPolyline
90
2
70
1
38
0
39
0
10
16
20
-5
40
0
41
0
42
0
10
24
20
-5
40
0
41
0
42
0
210
0
220
0
230
1
0
ELLIPSE
5
fb5
100
AcDbEntity
8
0
62
0
6
ByLayer
100
AcDbEllipse
10
20
20
-7
30
0
11
1.5
21
0
31
0
210
0
220
0
230
1
40
1
41
0
42
6.28318530717959
0
LWPOLYLINE
100
AcDbEntity
8
0
62
0
6
ByLayer
5
166a
100
AcDbPolyline
90
4
70
1
38
0
39
0
10
16
20
-38
40
0
41
0
42
0
10
24
20
-38
40
0
41
0
42
0
10
24
20
-54
40
0
41
0
42
0
10
16
20
-54
40
0
41
0
42
0
210
0
220
0
230
1
0
ENDBLK
5
f9c
100
AcDbEntity
8
0
100
AcDbBlockEnd
0
BLOCK
5
fd9
100
AcDbEntity
8
0
100
AcDbBlockBegin
2
9bc58525-f098-478e-9e6f-7a839fbe1e63
70
0
10
0
20
0
30
0
3
9bc58525-f098-478e-9e6f-7a839fbe1e63
0
TEXT
100
AcDbEntity
8
0
62
7
6
ByLayer
5
fbf
100
AcDbText
1
\U+0057\U+0043\U+0020\U+0032\U+0037\U+0033\U+0020
10
210
20
39
30
0
40
5
41
1
50
0
51
0
7
Standard
11
210
21
39
31
0
210
0
220
0
230
1
72
0
100
AcDbText
73
0
0
TEXT
100
AcDbEntity
8
0
62
7
6
ByLayer
5
fc0
100
AcDbText
1
\U+0033\U+002c\U+0036\U+0037\U+0020\U+006b\U+0056\U+0041
10
210
20
33
30
0
40
5
41
1
50
0
51
0
7
Standard
11
210
21
33
31
0
210
0
220
0
230
1
72
0
100
AcDbText
73
0
0
TEXT
100
AcDbEntity
8
0
62
7
6
ByLayer
5
fc1
100
AcDbText
1
\U+0031\U+002c\U+0034\U+0034\U+0020\U+006b\U+0076\U+0061\U+0072
10
210
20
27
30
0
40
5
41
1
50
0
51
0
7
Standard
11
210
21
27
31
0
210
0
220
0
230
1
72
0
100
AcDbText
73
0
0
TEXT
100
AcDbEntity
8
0
62
7
6
ByLayer
5
fc2
100
AcDbText
1
\U+004b\U+0073\U+0020\U+003a\U+0020\U+0030\U+002c\U+0034\U+0035\U+0020
10
210
20
21
30
0
40
5
41
1
50
0
51
0
7
Standard
11
210
21
21
31
0
210
0
220
0
230
1
72
0
100
AcDbText
73
0
0
LWPOLYLINE
100
AcDbEntity
8
0
62
9
6
ByLayer
5
166b
100
AcDbPolyline
90
4
70
1
38
0
39
0
10
208
20
47
40
0
41
0
42
0
10
279.2
20
47
40
0
41
0
42
0
10
279.2
20
18
40
0
41
0
42
0
10
208
20
18
40
0
41
0
42
0
210
0
220
0
230
1
0
TEXT
100
AcDbEntity
8
0
62
7
6
ByLayer
5
fc9
100
AcDbText
1
\U+0055\U+0043\U+0020\U+0032\U+0037\U+0034\U+0020
10
-45
20
59
30
0
40
5
41
1
50
0
51
0
7
Standard
11
-45
21
59
31
0
210
0
220
0
230
1
72
0
100
AcDbText
73
0
0
TEXT
100
AcDbEntity
8
0
62
7
6
ByLayer
5
fca
100
AcDbText
1
\U+0041\U+0075\U+0073\U+0077\U+0061\U+0068\U+006c\U+0020
10
-45
20
53
30
0
40
5
41
1
50
0
51
0
7
Standard
11
-45
21
53
31
0
210
0
220
0
230
1
72
0
100
AcDbText
73
0
0
TEXT
100
AcDbEntity
8
0
62
7
6
ByLayer
5
fcb
100
AcDbText
1
\U+004e\U+0069\U+0063\U+0068\U+0074\U+0020\U+0061\U+006e\U+0067\U+0065\U+0067\U+0065\U+0062\U+0065\U+006e\U+0020
10
-45
20
47
30
0
40
5
41
1
50
0
51
0
7
Standard
11
-45
21
47
31
0
210
0
220
0
230
1
72
0
100
AcDbText
73
0
0
TEXT
100
AcDbEntity
8
0
62
7
6
ByLayer
5
fcc
100
AcDbText
1
\U+0030\U+0020\U+0041
10
-45
20
41
30
0
40
5
41
1
50
0
51
0
7
Standard
11
-45
21
41
31
0
210
0
220
0
230
1
72
0
100
AcDbText
73
0
0
LWPOLYLINE
100
AcDbEntity
8
0
62
9
6
ByLayer
5
166c
100
AcDbPolyline
90
4
70
1
38
0
39
0
10
-47
20
67
40
0
41
0
42
0
10
40.2
20
67
40
0
41
0
42
0
10
40.2
20
38
40
0
41
0
42
0
10
-47
20
38
40
0
41
0
42
0
210
0
220
0
230
1
0
LWPOLYLINE
100
AcDbEntity
8
0
62
0
6
ByLayer
5
166d
100
AcDbPolyline
90
4
70
1
38
0
39
0
10
0
20
0
40
0
41
0
42
0
10
200
20
0
40
0
41
0
42
0
10
200
20
-5
40
0
41
0
42
0
10
0
20
-5
40
0
41
0
42
0
210
0
220
0
230
1
0
ENDBLK
5
fbe
100
AcDbEntity
8
0
100
AcDbBlockEnd
0
BLOCK
5
fdc
100
AcDbEntity
8
0
100
AcDbBlockBegin
2
*Model_Space
70
0
10
0
20
0
30
0
3
*Model_Space
0
ENDBLK
5
fdb
100
AcDbEntity
8
0
100
AcDbBlockEnd
0
BLOCK
5
fdf
100
AcDbEntity
8
0
100
AcDbBlockBegin
2
*Paper_Space
70
0
10
0
20
0
30
0
3
*Paper_Space
0
ENDBLK
5
fde
100
AcDbEntity
8
0
100
AcDbBlockEnd
0
ENDSEC
0
SECTION
2
ENTITIES
0
INSERT
5
fe3
100
AcDbEntity
8
default
62
7
6
ByLayer
100
AcDbBlockReference
2
be89aa51-98f6-4d96-8f75-3e0310448c45
10
4056
20
-283
30
0
41
1
42
1
43
1
50
0
210
0
220
0
230
1
0
INSERT
5
fe5
100
AcDbEntity
8
default
62
7
6
ByLayer
100
AcDbBlockReference
2
526db93f-dd2c-4713-bce0-f06e949a3ff1
10
4056
20
-333
30
0
41
1
42
1
43
1
50
0
210
0
220
0
230
1
0
INSERT
5
fe7
100
AcDbEntity
8
default
62
7
6
ByLayer
100
AcDbBlockReference
2
9d039fe4-a6ca-49d3-bf56-684eacf46ff8
10
4056
20
-393
30
0
41
1
42
1
43
1
50
0
210
0
220
0
230
1
0
INSERT
5
fe9
100
AcDbEntity
8
default
62
7
6
ByLayer
100
AcDbBlockReference
2
895f50db-a0ae-46b2-adab-4578e9a78e49
10
3656
20
-453
30
0
41
1
42
1
43
1
50
0
210
0
220
0
230
1
0
INSERT
5
feb
100
AcDbEntity
8
default
62
7
6
ByLayer
100
AcDbBlockReference
2
0adcfef7-25e2-45fa-9609-fe7decaa88a8
10
3816
20
-458
30
0
41
1
42
1
43
1
50
0
210
0
220
0
230
1
0
INSERT
5
fed
100
AcDbEntity
8
default
62
7
6
ByLayer
100
AcDbBlockReference
2
cde1a014-73c5-46dc-b09e-a22d0d54068d
10
3325
20
-1177
30
0
41
1
42
1
43
1
50
0
210
0
220
0
230
1
0
INSERT
5
fef
100
AcDbEntity
8
default
62
7
6
ByLayer
100
AcDbBlockReference
2
6a7b1412-4446-4bec-8c51-ca9dfd943083
10
3976
20
-458
30
0
41
1
42
1
43
1
50
0
210
0
220
0
230
1
0
INSERT
5
ff1
100
AcDbEntity
8
default
62
7
6
ByLayer
100
AcDbBlockReference
2
7d73439b-bd78-4ffa-b668-63e591e3d93c
10
3976
20
-518
30
0
41
1
42
1
43
1
50
0
210
0
220
0
230
1
0
INSERT
5
ff3
100
AcDbEntity
8
default
62
7
6
ByLayer
100
AcDbBlockReference
2
cad3d988-37e4-49e5-bb1c-de104b94568b
10
3405
20
-1167
30
0
41
1
42
1
43
1
50
0
210
0
220
0
230
1
0
INSERT
5
ff5
100
AcDbEntity
8
default
62
7
6
ByLayer
100
AcDbBlockReference
2
e9614847-6626-4e2b-8000-39ebe49d89e5
10
3485
20
-1182
30
0
41
1
42
1
43
1
50
0
210
0
220
0
230
1
0
INSERT
5
ff7
100
AcDbEntity
8
default
62
7
6
ByLayer
100
AcDbBlockReference
2
1d506a6a-c0a9-4d05-93d6-1ac08b216035
10
3274
20
-714
30
0
41
1
42
1
43
1
50
0
210
0
220
0
230
1
0
INSERT
5
ff9
100
AcDbEntity
8
default
62
7
6
ByLayer
100
AcDbBlockReference
2
42396a63-c2ad-49b8-9126-18af058ff05d
10
3274
20
-774
30
0
41
1
42
1
43
1
50
0
210
0
220
0
230
1
0
INSERT
5
ffb
100
AcDbEntity
8
default
62
7
6
ByLayer
100
AcDbBlockReference
2
a1692166-0bd1-442d-ae9f-33c065661077
10
3274
20
-834
30
0
41
1
42
1
43
1
50
0
210
0
220
0
230
1
0
INSERT
5
ffd
100
AcDbEntity
8
default
62
7
6
ByLayer
100
AcDbBlockReference
2
ae8e7236-ecc6-4cb6-a417-cda0c5345c0e
10
3626
20
-1444
30
0
41
1
42
1
43
1
50
0
210
0
220
0
230
1
0
INSERT
5
fff
100
AcDbEntity
8
default
62
7
6
ByLayer
100
AcDbBlockReference
2
ddaf38c1-1efe-48bb-a378-50a8d7690faf
10
3274
20
-709
30
0
41
1
42
1
43
1
50
0
210
0
220
0
230
1
0
INSERT
5
1001
100
AcDbEntity
8
default
62
7
6
ByLayer
100
AcDbBlockReference
2
28d4d8b3-4b5b-41c2-a3af-008143fd0d2e
10
3354
20
-699
30
0
41
1
42
1
43
1
50
0
210
0
220
0
230
1
0
INSERT
5
1003
100
AcDbEntity
8
default
62
7
6
ByLayer
100
AcDbBlockReference
2
feacfca8-9bb2-4b47-89fc-f68e56a43cbf
10
3816
20
-518
30
0
41
1
42
1
43
1
50
0
210
0
220
0
230
1
0
INSERT
5
1005
100
AcDbEntity
8
default
62
7
6
ByLayer
100
AcDbBlockReference
2
e4a86acb-daf6-47de-a0d4-94a93654fed1
10
3786
20
-1509
30
0
41
1
42
1
43
1
50
0
210
0
220
0
230
1
0
INSERT
5
1007
100
AcDbEntity
8
default
62
7
6
ByLayer
100
AcDbBlockReference
2
04186c7f-7d1a-49f0-94d8-4085767258f2
10
3786
20
-1569
30
0
41
1
42
1
43
1
50
0
210
0
220
0
230
1
0
INSERT
5
1009
100
AcDbEntity
8
default
62
7
6
ByLayer
100
AcDbBlockReference
2
44c54b5b-fc05-45f3-b58c-9db3d59a1a58
10
3786
20
-1449
30
0
41
1
42
1
43
1
50
0
210
0
220
0
230
1
0
INSERT
5
100b
100
AcDbEntity
8
default
62
7
6
ByLayer
100
AcDbBlockReference
2
dbf47fa6-e1f9-440a-b4b6-ab50d25606fc
10
3626
20
-1581
30
0
41
1
42
1
43
1
50
0
210
0
220
0
230
1
0
INSERT
5
100d
100
AcDbEntity
8
default
62
7
6
ByLayer
100
AcDbBlockReference
2
31ea8935-6fcf-4c69-8dde-da6d8eea4ce2
10
3626
20
-1509
30
0
41
1
42
1
43
1
50
0
210
0
220
0
230
1
0
INSERT
5
100f
100
AcDbEntity
8
default
62
7
6
ByLayer
100
AcDbBlockReference
2
6697dbd2-2d62-4db4-87b7-132145e7f5b4
10
3626
20
-1449
30
0
41
1
42
1
43
1
50
0
210
0
220
0
230
1
0
INSERT
5
1011
100
AcDbEntity
8
default
62
7
6
ByLayer
100
AcDbBlockReference
2
092e6e55-0c5c-4bf1-aa7e-99723692431e
10
3645
20
-1182
30
0
41
1
42
1
43
1
50
0
210
0
220
0
230
1
0
INSERT
5
1013
100
AcDbEntity
8
default
62
7
6
ByLayer
100
AcDbBlockReference
2
60c1f26b-4b5c-4d17-9df4-007c362891a7
10
3645
20
-1242
30
0
41
1
42
1
43
1
50
0
210
0
220
0
230
1
0
INSERT
5
1015
100
AcDbEntity
8
default
62
7
6
ByLayer
100
AcDbBlockReference
2
861ed187-dcf6-4e72-984c-61f33357de7d
10
3645
20
-1302
30
0
41
1
42
1
43
1
50
0
210
0
220
0
230
1
0
INSERT
5
1017
100
AcDbEntity
8
default
62
7
6
ByLayer
100
AcDbBlockReference
2
0d67e088-bdaa-4643-bbe9-9a9ae0020b4f
10
3805
20
-1182
30
0
41
1
42
1
43
1
50
0
210
0
220
0
230
1
0
INSERT
5
1019
100
AcDbEntity
8
default
62
7
6
ByLayer
100
AcDbBlockReference
2
fae15d7a-95b0-4b59-847c-40a4bca4252e
10
3805
20
-1242
30
0
41
1
42
1
43
1
50
0
210
0
220
0
230
1
0
INSERT
5
101b
100
AcDbEntity
8
default
62
7
6
ByLayer
100
AcDbBlockReference
2
13e09386-3c14-4e40-9da3-15d9d57ed02a
10
3806
20
-1302
30
0
41
1
42
1
43
1
50
0
210
0
220
0
230
1
0
INSERT
5
101d
100
AcDbEntity
8
default
62
7
6
ByLayer
100
AcDbBlockReference
2
10ec75a2-7b98-49c9-9261-45bba7a8f8f0
10
3965
20
-1182
30
0
41
1
42
1
43
1
50
0
210
0
220
0
230
1
0
INSERT
5
101f
100
AcDbEntity
8
default
62
7
6
ByLayer
100
AcDbBlockReference
2
45a0fb31-38db-4308-a6d6-49d9c663684e
10
3965
20
-1242
30
0
41
1
42
1
43
1
50
0
210
0
220
0
230
1
0
INSERT
5
1021
100
AcDbEntity
8
default
62
7
6
ByLayer
100
AcDbBlockReference
2
8b6c0005-3a03-44c0-b39c-168c10d08dcb
10
3965
20
-1302
30
0
41
1
42
1
43
1
50
0
210
0
220
0
230
1
0
INSERT
5
1023
100
AcDbEntity
8
default
62
7
6
ByLayer
100
AcDbBlockReference
2
e00c3985-6f6e-49ef-9de3-94b488aa4877
10
4125
20
-1182
30
0
41
1
42
1
43
1
50
0
210
0
220
0
230
1
0
INSERT
5
1025
100
AcDbEntity
8
default
62
7
6
ByLayer
100
AcDbBlockReference
2
79a61741-3e41-4420-8e86-d8f7dc42bebd
10
4125
20
-1242
30
0
41
1
42
1
43
1
50
0
210
0
220
0
230
1
0
INSERT
5
1027
100
AcDbEntity
8
default
62
7
6
ByLayer
100
AcDbBlockReference
2
310af931-c798-4fe4-bf64-637c483b13d2
10
4234
20
-1438
30
0
41
1
42
1
43
1
50
0
210
0
220
0
230
1
0
INSERT
5
1029
100
AcDbEntity
8
default
62
7
6
ByLayer
100
AcDbBlockReference
2
65e9200d-c402-4ffd-b464-5299861168f4
10
4154
20
-1448
30
0
41
1
42
1
43
1
50
0
210
0
220
0
230
1
0
INSERT
5
102b
100
AcDbEntity
8
default
62
7
6
ByLayer
100
AcDbBlockReference
2
88360a4d-7a53-4a1e-9952-d4154e10a8e6
10
4154
20
-1574
30
0
41
1
42
1
43
1
50
0
210
0
220
0
230
1
0
INSERT
5
102d
100
AcDbEntity
8
default
62
7
6
ByLayer
100
AcDbBlockReference
2
825b51e1-9588-4999-83b0-c447e160a5e2
10
4154
20
-1514
30
0
41
1
42
1
43
1
50
0
210
0
220
0
230
1
0
INSERT
5
102f
100
AcDbEntity
8
default
62
7
6
ByLayer
100
AcDbBlockReference
2
294ef0c6-d20f-4b4d-8928-5889a1befbc9
10
4154
20
-1454
30
0
41
1
42
1
43
1
50
0
210
0
220
0
230
1
0
INSERT
5
1031
100
AcDbEntity
8
default
62
7
6
ByLayer
100
AcDbBlockReference
2
62eec415-8dea-4087-aec7-fce4a35aa499
10
3485
20
-1242
30
0
41
1
42
1
43
1
50
0
210
0
220
0
230
1
0
INSERT
5
1033
100
AcDbEntity
8
default
62
7
6
ByLayer
100
AcDbBlockReference
2
1feefc05-e9f8-4b3b-aade-dce5ed086c35
10
3706
20
-1434
30
0
41
1
42
1
43
1
50
0
210
0
220
0
230
1
0
INSERT
5
1035
100
AcDbEntity
8
default
62
7
6
ByLayer
100
AcDbBlockReference
2
c37e9387-d286-4bb6-86b8-eac65488b322
10
3238
20
-1411
30
0
41
1
42
1
43
1
50
0
210
0
220
0
230
1
0
INSERT
5
1037
100
AcDbEntity
8
default
62
7
6
ByLayer
100
AcDbBlockReference
2
886e43c9-7ad4-44f3-9fc9-e65065215f2f
10
3238
20
-1471
30
0
41
1
42
1
43
1
50
0
210
0
220
0
230
1
0
INSERT
5
1039
100
AcDbEntity
8
default
62
7
6
ByLayer
100
AcDbBlockReference
2
6d2027b8-b9f8-4382-8be4-b7043426cef4
10
3238
20
-1543
30
0
41
1
42
1
43
1
50
0
210
0
220
0
230
1
0
INSERT
5
103b
100
AcDbEntity
8
default
62
7
6
ByLayer
100
AcDbBlockReference
2
866d516b-cd1a-47a2-a9d8-2e50efa14974
10
3399
20
-1531
30
0
41
1
42
1
43
1
50
0
210
0
220
0
230
1
0
INSERT
5
103d
100
AcDbEntity
8
default
62
7
6
ByLayer
100
AcDbBlockReference
2
b6ae86cb-3ce2-48f2-b1ad-546ef3b9bc93
10
3398
20
-1471
30
0
41
1
42
1
43
1
50
0
210
0
220
0
230
1
0
INSERT
5
103f
100
AcDbEntity
8
default
62
7
6
ByLayer
100
AcDbBlockReference
2
4b2acd39-69ed-4951-a828-6398640ae70c
10
3398
20
-1411
30
0
41
1
42
1
43
1
50
0
210
0
220
0
230
1
0
INSERT
5
1041
100
AcDbEntity
8
default
62
7
6
ByLayer
100
AcDbBlockReference
2
89282bc9-c6ba-4de9-9b0f-ea8e8f9309c9
10
4136
20
-458
30
0
41
1
42
1
43
1
50
0
210
0
220
0
230
1
0
INSERT
5
1043
100
AcDbEntity
8
default
62
7
6
ByLayer
100
AcDbBlockReference
2
f948c4b7-b218-4ecb-8086-666f8b23372f
10
4136
20
-518
30
0
41
1
42
1
43
1
50
0
210
0
220
0
230
1
0
INSERT
5
1045
100
AcDbEntity
8
default
62
7
6
ByLayer
100
AcDbBlockReference
2
31a3f662-e287-4739-88c8-5d468b742587
10
4566
20
-1423
30
0
41
1
42
1
43
1
50
0
210
0
220
0
230
1
0
INSERT
5
1047
100
AcDbEntity
8
default
62
7
6
ByLayer
100
AcDbBlockReference
2
a0e5e2cc-6256-448a-9703-bf663aa112a6
10
4486
20
-1433
30
0
41
1
42
1
43
1
50
0
210
0
220
0
230
1
0
INSERT
5
1049
100
AcDbEntity
8
default
62
7
6
ByLayer
100
AcDbBlockReference
2
791c6df0-4c6e-4204-a17f-8162864d4a34
10
4486
20
-1439
30
0
41
1
42
1
43
1
50
0
210
0
220
0
230
1
0
INSERT
5
104b
100
AcDbEntity
8
default
62
7
6
ByLayer
100
AcDbBlockReference
2
cba41661-0211-43e0-87cb-1d92a18acd9d
10
4486
20
-1499
30
0
41
1
42
1
43
1
50
0
210
0
220
0
230
1
0
INSERT
5
104d
100
AcDbEntity
8
default
62
7
6
ByLayer
100
AcDbBlockReference
2
9135de2b-8dc0-4310-a7b5-c68203d64b47
10
4486
20
-1559
30
0
41
1
42
1
43
1
50
0
210
0
220
0
230
1
0
INSERT
5
104f
100
AcDbEntity
8
default
62
7
6
ByLayer
100
AcDbBlockReference
2
bca9d28e-b865-40e2-952f-abfdea76da51
10
4646
20
-1439
30
0
41
1
42
1
43
1
50
0
210
0
220
0
230
1
0
INSERT
5
1051
100
AcDbEntity
8
default
62
7
6
ByLayer
100
AcDbBlockReference
2
de810dd4-8ac4-472e-a726-0a680ae80327
10
4646
20
-1499
30
0
41
1
42
1
43
1
50
0
210
0
220
0
230
1
0
INSERT
5
1053
100
AcDbEntity
8
default
62
7
6
ByLayer
100
AcDbBlockReference
2
8d5e63ac-b3f1-44ee-8fe3-9d1776cd5b19
10
4647
20
-1559
30
0
41
1
42
1
43
1
50
0
210
0
220
0
230
1
0
INSERT
5
1055
100
AcDbEntity
8
default
62
7
6
ByLayer
100
AcDbBlockReference
2
68e8dc7b-1185-48fb-9868-a7130e635dbd
10
5316
20
-1133
30
0
41
1
42
1
43
1
50
0
210
0
220
0
230
1
0
INSERT
5
1057
100
AcDbEntity
8
default
62
7
6
ByLayer
100
AcDbBlockReference
2
c1953c37-2163-478c-863b-9eee1edef272
10
5316
20
-1193
30
0
41
1
42
1
43
1
50
0
210
0
220
0
230
1
0
INSERT
5
1059
100
AcDbEntity
8
default
62
7
6
ByLayer
100
AcDbBlockReference
2
e0d12c4a-ef7b-4903-811e-39fd62d26b6b
10
5508
20
-1433
30
0
41
1
42
1
43
1
50
0
210
0
220
0
230
1
0
INSERT
5
105b
100
AcDbEntity
8
default
62
7
6
ByLayer
100
AcDbBlockReference
2
87fac24f-dbb0-4d1e-b206-4bcd0127a63a
10
5156
20
-1133
30
0
41
1
42
1
43
1
50
0
210
0
220
0
230
1
0
INSERT
5
105d
100
AcDbEntity
8
default
62
7
6
ByLayer
100
AcDbBlockReference
2
c19a7850-d1e3-4d90-88c3-22fccd839b2c
10
5156
20
-1193
30
0
41
1
42
1
43
1
50
0
210
0
220
0
230
1
0
INSERT
5
105f
100
AcDbEntity
8
default
62
7
6
ByLayer
100
AcDbBlockReference
2
913da518-6cae-4804-9d8c-af239907d5de
10
5156
20
-1253
30
0
41
1
42
1
43
1
50
0
210
0
220
0
230
1
0
INSERT
5
1061
100
AcDbEntity
8
default
62
7
6
ByLayer
100
AcDbBlockReference
2
5e88c01b-9d1c-42bb-bfcf-500482ddf41b
10
4296
20
-458
30
0
41
1
42
1
43
1
50
0
210
0
220
0
230
1
0
INSERT
5
1063
100
AcDbEntity
8
default
62
7
6
ByLayer
100
AcDbBlockReference
2
8c0eef5b-107f-4868-8d17-1f280868c755
10
4296
20
-518
30
0
41
1
42
1
43
1
50
0
210
0
220
0
230
1
0
INSERT
5
1065
100
AcDbEntity
8
default
62
7
6
ByLayer
100
AcDbBlockReference
2
f1b415ac-4516-4234-9e16-72f24f7993ef
10
4756
20
-1118
30
0
41
1
42
1
43
1
50
0
210
0
220
0
230
1
0
INSERT
5
1067
100
AcDbEntity
8
default
62
7
6
ByLayer
100
AcDbBlockReference
2
efd38545-6d50-4700-8da8-89e23fbf7364
10
4676
20
-1128
30
0
41
1
42
1
43
1
50
0
210
0
220
0
230
1
0
INSERT
5
1069
100
AcDbEntity
8
default
62
7
6
ByLayer
100
AcDbBlockReference
2
29e31009-4b2e-4b66-ad68-5128be585a5e
10
4676
20
-1253
30
0
41
1
42
1
43
1
50
0
210
0
220
0
230
1
0
INSERT
5
106b
100
AcDbEntity
8
default
62
7
6
ByLayer
100
AcDbBlockReference
2
ca7237ad-eb97-4c76-a7ee-a433fccf742a
10
4676
20
-1193
30
0
41
1
42
1
43
1
50
0
210
0
220
0
230
1
0
INSERT
5
106d
100
AcDbEntity
8
default
62
7
6
ByLayer
100
AcDbBlockReference
2
e6b6ddb9-7713-4e6a-832d-cc2d78ddc460
10
4676
20
-1133
30
0
41
1
42
1
43
1
50
0
210
0
220
0
230
1
0
INSERT
5
106f
100
AcDbEntity
8
default
62
7
6
ByLayer
100
AcDbBlockReference
2
2936d25f-f129-4f37-ae98-715893c44b76
10
4836
20
-1133
30
0
41
1
42
1
43
1
50
0
210
0
220
0
230
1
0
INSERT
5
1071
100
AcDbEntity
8
default
62
7
6
ByLayer
100
AcDbBlockReference
2
3a2ba764-c77e-441d-8e59-aedbdaa4552b
10
4836
20
-1193
30
0
41
1
42
1
43
1
50
0
210
0
220
0
230
1
0
INSERT
5
1073
100
AcDbEntity
8
default
62
7
6
ByLayer
100
AcDbBlockReference
2
339b64ee-d636-4b8b-a586-392847210ac2
10
4837
20
-1253
30
0
41
1
42
1
43
1
50
0
210
0
220
0
230
1
0
INSERT
5
1075
100
AcDbEntity
8
default
62
7
6
ByLayer
100
AcDbBlockReference
2
ec30fbdf-47a8-4e44-b1c1-c6c213a040a9
10
3434
20
-714
30
0
41
1
42
1
43
1
50
0
210
0
220
0
230
1
0
INSERT
5
1077
100
AcDbEntity
8
default
62
7
6
ByLayer
100
AcDbBlockReference
2
bd4b13f2-530c-43a3-bdfa-209a42add41c
10
3434
20
-774
30
0
41
1
42
1
43
1
50
0
210
0
220
0
230
1
0
INSERT
5
1079
100
AcDbEntity
8
default
62
7
6
ByLayer
100
AcDbBlockReference
2
691d3087-2f1a-44d4-96a4-0ff16487097d
10
3434
20
-714
30
0
41
1
42
1
43
1
50
0
210
0
220
0
230
1
0
INSERT
5
107b
100
AcDbEntity
8
default
62
7
6
ByLayer
100
AcDbBlockReference
2
89aa61f9-6a77-4ff1-bcb3-7f839205a78c
10
5476
20
-1133
30
0
41
1
42
1
43
1
50
0
210
0
220
0
230
1
0
INSERT
5
107d
100
AcDbEntity
8
default
62
7
6
ByLayer
100
AcDbBlockReference
2
86eada99-514a-4b93-b8b0-6a13032f6446
10
5476
20
-1193
30
0
41
1
42
1
43
1
50
0
210
0
220
0
230
1
0
INSERT
5
107f
100
AcDbEntity
8
default
62
7
6
ByLayer
100
AcDbBlockReference
2
016581b0-406b-4163-8101-9e98719808a5
10
5476
20
-1133
30
0
41
1
42
1
43
1
50
0
210
0
220
0
230
1
0
INSERT
5
1081
100
AcDbEntity
8
default
62
7
6
ByLayer
100
AcDbBlockReference
2
8d4a8770-e19e-4bb2-bdb7-27662091e55a
10
4445
20
-1242
30
0
41
1
42
1
43
1
50
0
210
0
220
0
230
1
0
INSERT
5
1083
100
AcDbEntity
8
default
62
7
6
ByLayer
100
AcDbBlockReference
2
ff34c147-d22d-4d5e-97b3-97b117b2da0d
10
4445
20
-1182
30
0
41
1
42
1
43
1
50
0
210
0
220
0
230
1
0
INSERT
5
1085
100
AcDbEntity
8
default
62
7
6
ByLayer
100
AcDbBlockReference
2
70df5802-ff41-4606-b515-7cb0aedb4b34
10
4445
20
-1182
30
0
41
1
42
1
43
1
50
0
210
0
220
0
230
1
0
INSERT
5
1087
100
AcDbEntity
8
default
62
7
6
ByLayer
100
AcDbBlockReference
2
82f7596c-7182-400a-b867-35518662b710
10
4286
20
-1303
30
0
41
1
42
1
43
1
50
0
210
0
220
0
230
1
0
INSERT
5
1089
100
AcDbEntity
8
default
62
7
6
ByLayer
100
AcDbBlockReference
2
e18da91d-21f4-4470-b754-ef56eebcb02a
10
4285
20
-1242
30
0
41
1
42
1
43
1
50
0
210
0
220
0
230
1
0
INSERT
5
108b
100
AcDbEntity
8
default
62
7
6
ByLayer
100
AcDbBlockReference
2
87fac259-b163-41f8-b49e-3e0c3b178f7b
10
4285
20
-1182
30
0
41
1
42
1
43
1
50
0
210
0
220
0
230
1
0
INSERT
5
108d
100
AcDbEntity
8
default
62
7
6
ByLayer
100
AcDbBlockReference
2
3ac44f5b-bc21-4cd6-8ffb-9028a6e87c35
10
4966
20
-1439
30
0
41
1
42
1
43
1
50
0
210
0
220
0
230
1
0
INSERT
5
108f
100
AcDbEntity
8
default
62
7
6
ByLayer
100
AcDbBlockReference
2
ff38466c-9f4a-430c-8b25-ec9eb47e0b8f
10
4966
20
-1499
30
0
41
1
42
1
43
1
50
0
210
0
220
0
230
1
0
INSERT
5
1091
100
AcDbEntity
8
default
62
7
6
ByLayer
100
AcDbBlockReference
2
b3bfcc42-0753-4d58-a819-b192483080bf
10
4966
20
-1439
30
0
41
1
42
1
43
1
50
0
210
0
220
0
230
1
0
INSERT
5
1093
100
AcDbEntity
8
default
62
7
6
ByLayer
100
AcDbBlockReference
2
f1f4d747-b986-43e3-81d4-57d30b459176
10
3656
20
-458
30
0
41
1
42
1
43
1
50
0
210
0
220
0
230
1
0
INSERT
5
1095
100
AcDbEntity
8
default
62
7
6
ByLayer
100
AcDbBlockReference
2
e7b177d7-2e8f-409a-9dd1-db15f540b88e
10
3656
20
-518
30
0
41
1
42
1
43
1
50
0
210
0
220
0
230
1
0
INSERT
5
1097
100
AcDbEntity
8
default
62
7
6
ByLayer
100
AcDbBlockReference
2
a1f3740f-fd47-4c15-88b3-59461c9dfa39
10
3656
20
-458
30
0
41
1
42
1
43
1
50
0
210
0
220
0
230
1
0
INSERT
5
1099
100
AcDbEntity
8
default
62
7
6
ByLayer
100
AcDbBlockReference
2
390e9d6f-59ea-4e1c-8125-b3a7424b4266
10
3946
20
-1449
30
0
41
1
42
1
43
1
50
0
210
0
220
0
230
1
0
INSERT
5
109b
100
AcDbEntity
8
default
62
7
6
ByLayer
100
AcDbBlockReference
2
ff938797-01b9-4560-b3ed-7a46a46e2a32
10
3946
20
-1509
30
0
41
1
42
1
43
1
50
0
210
0
220
0
230
1
0
INSERT
5
109d
100
AcDbEntity
8
default
62
7
6
ByLayer
100
AcDbBlockReference
2
576b2534-58e6-477b-9ecf-4f547e9a7dea
10
3948
20
-1569
30
0
41
1
42
1
43
1
50
0
210
0
220
0
230
1
0
INSERT
5
109f
100
AcDbEntity
8
default
62
7
6
ByLayer
100
AcDbBlockReference
2
abc7f15e-5877-475a-ad5d-67e9e08a4dcf
10
5428
20
-1443
30
0
41
1
42
1
43
1
50
0
210
0
220
0
230
1
0
INSERT
5
10a1
100
AcDbEntity
8
default
62
7
6
ByLayer
100
AcDbBlockReference
2
a9f46ed0-4a5c-422a-89fe-b482da0f7aa0
10
5588
20
-1448
30
0
41
1
42
1
43
1
50
0
210
0
220
0
230
1
0
INSERT
5
10a3
100
AcDbEntity
8
default
62
7
6
ByLayer
100
AcDbBlockReference
2
686cd373-596d-451e-b906-a109d033f12b
10
5588
20
-1508
30
0
41
1
42
1
43
1
50
0
210
0
220
0
230
1
0
INSERT
5
10a5
100
AcDbEntity
8
default
62
7
6
ByLayer
100
AcDbBlockReference
2
02de0568-2eb6-4eee-807d-e592da863e14
10
5588
20
-1568
30
0
41
1
42
1
43
1
50
0
210
0
220
0
230
1
0
INSERT
5
10a7
100
AcDbEntity
8
default
62
7
6
ByLayer
100
AcDbBlockReference
2
07c4e808-00dc-4a26-beff-123ee0c4711c
10
5226
20
-1379
30
0
41
1
42
1
43
1
50
0
210
0
220
0
230
1
0
INSERT
5
10a9
100
AcDbEntity
8
default
62
7
6
ByLayer
100
AcDbBlockReference
2
07b37e7d-3aec-4521-b5d6-9d62b6a4bb40
10
4806
20
-1439
30
0
41
1
42
1
43
1
50
0
210
0
220
0
230
1
0
INSERT
5
10ab
100
AcDbEntity
8
default
62
7
6
ByLayer
100
AcDbBlockReference
2
6467f67e-a721-44fb-ae13-171b22f3aab4
10
4806
20
-1499
30
0
41
1
42
1
43
1
50
0
210
0
220
0
230
1
0
INSERT
5
10ad
100
AcDbEntity
8
default
62
7
6
ByLayer
100
AcDbBlockReference
2
d61bd77b-2e1a-418d-bd09-dbeb6334251d
10
4806
20
-1559
30
0
41
1
42
1
43
1
50
0
210
0
220
0
230
1
0
INSERT
5
10af
100
AcDbEntity
8
default
62
7
6
ByLayer
100
AcDbBlockReference
2
5473eeee-73d9-45be-9d38-efd2ca777567
10
5146
20
-1439
30
0
41
1
42
1
43
1
50
0
210
0
220
0
230
1
0
INSERT
5
10b1
100
AcDbEntity
8
default
62
7
6
ByLayer
100
AcDbBlockReference
2
4a984c3a-eb22-4817-908f-7d6da1571802
10
5146
20
-1564
30
0
41
1
42
1
43
1
50
0
210
0
220
0
230
1
0
INSERT
5
10b3
100
AcDbEntity
8
default
62
7
6
ByLayer
100
AcDbBlockReference
2
fc893396-0a5d-4a2a-aa55-00928480e65c
10
5146
20
-1504
30
0
41
1
42
1
43
1
50
0
210
0
220
0
230
1
0
INSERT
5
10b5
100
AcDbEntity
8
default
62
7
6
ByLayer
100
AcDbBlockReference
2
9bb76129-4006-4f7b-98a4-65f8b902cc85
10
5146
20
-1444
30
0
41
1
42
1
43
1
50
0
210
0
220
0
230
1
0
INSERT
5
10b7
100
AcDbEntity
8
default
62
7
6
ByLayer
100
AcDbBlockReference
2
f5082af0-38e0-4e32-8b15-4e7ad5f1a99d
10
4996
20
-1193
30
0
41
1
42
1
43
1
50
0
210
0
220
0
230
1
0
INSERT
5
10b9
100
AcDbEntity
8
default
62
7
6
ByLayer
100
AcDbBlockReference
2
9eb9c6cc-8bc9-4f13-bbd8-7af3587cc144
10
4996
20
-1133
30
0
41
1
42
1
43
1
50
0
210
0
220
0
230
1
0
INSERT
5
10bb
100
AcDbEntity
8
default
62
7
6
ByLayer
100
AcDbBlockReference
2
7e981bc2-a5b9-4518-bd52-3b9a8c010ce8
10
5306
20
-1564
30
0
41
1
42
1
43
1
50
0
210
0
220
0
230
1
0
INSERT
5
10bd
100
AcDbEntity
8
default
62
7
6
ByLayer
100
AcDbBlockReference
2
5ecbd018-26b4-4064-8a89-02705d0ec99c
10
5306
20
-1504
30
0
41
1
42
1
43
1
50
0
210
0
220
0
230
1
0
INSERT
5
10bf
100
AcDbEntity
8
default
62
7
6
ByLayer
100
AcDbBlockReference
2
ff66d7da-87f9-48f8-8b86-5ce0947320a1
10
5306
20
-1444
30
0
41
1
42
1
43
1
50
0
210
0
220
0
230
1
0
INSERT
5
10c1
100
AcDbEntity
8
default
62
7
6
ByLayer
100
AcDbBlockReference
2
1be0b523-0025-4331-94a9-ad0ebe3a4b3f
10
4456
20
-458
30
0
41
1
42
1
43
1
50
0
210
0
220
0
230
1
0
INSERT
5
10c3
100
AcDbEntity
8
default
62
7
6
ByLayer
100
AcDbBlockReference
2
dc3258b5-0f16-4033-bc2d-338e02e4aa31
10
4456
20
-518
30
0
41
1
42
1
43
1
50
0
210
0
220
0
230
1
0
INSERT
5
10c5
100
AcDbEntity
8
default
62
7
6
ByLayer
100
AcDbBlockReference
2
35595bef-e5e5-41b8-9f65-fb61342defdd
10
4918
20
-515
30
0
41
1
42
1
43
1
50
0
210
0
220
0
230
1
0
INSERT
5
10c7
100
AcDbEntity
8
default
62
7
6
ByLayer
100
AcDbBlockReference
2
0960ed9b-0e4a-4483-ad16-614a2498ebde
10
4838
20
-525
30
0
41
1
42
1
43
1
50
0
210
0
220
0
230
1
0
INSERT
5
10c9
100
AcDbEntity
8
default
62
7
6
ByLayer
100
AcDbBlockReference
2
6c2847cf-8d0e-45ab-b613-b909ca0ba83e
10
4997
20
-530
30
0
41
1
42
1
43
1
50
0
210
0
220
0
230
1
0
INSERT
5
10cb
100
AcDbEntity
8
default
62
7
6
ByLayer
100
AcDbBlockReference
2
62cdaab7-ea96-4afc-980b-ba65d6d31655
10
4997
20
-590
30
0
41
1
42
1
43
1
50
0
210
0
220
0
230
1
0
INSERT
5
10cd
100
AcDbEntity
8
default
62
7
6
ByLayer
100
AcDbBlockReference
2
5cd321a7-583a-4b4f-9bf5-c450d81f00bc
10
4997
20
-650
30
0
41
1
42
1
43
1
50
0
210
0
220
0
230
1
0
INSERT
5
10cf
100
AcDbEntity
8
default
62
7
6
ByLayer
100
AcDbBlockReference
2
78b237f0-e6f7-4245-8873-cca67b56b654
10
4838
20
-530
30
0
41
1
42
1
43
1
50
0
210
0
220
0
230
1
0
INSERT
5
10d1
100
AcDbEntity
8
default
62
7
6
ByLayer
100
AcDbBlockReference
2
4a0dd194-394c-4616-a761-704fcfee3ea5
10
4838
20
-590
30
0
41
1
42
1
43
1
50
0
210
0
220
0
230
1
0
INSERT
5
10d3
100
AcDbEntity
8
default
62
7
6
ByLayer
100
AcDbBlockReference
2
430527f9-b476-4c87-8332-4e3506eed079
10
4838
20
-650
30
0
41
1
42
1
43
1
50
0
210
0
220
0
230
1
0
INSERT
5
10d5
100
AcDbEntity
8
default
62
7
6
ByLayer
100
AcDbBlockReference
2
f9be3e1c-6e6a-4750-b1f8-34157883f071
10
5158
20
-530
30
0
41
1
42
1
43
1
50
0
210
0
220
0
230
1
0
INSERT
5
10d7
100
AcDbEntity
8
default
62
7
6
ByLayer
100
AcDbBlockReference
2
6f44c8fd-e41c-45cd-b350-8f955dd743bd
10
5158
20
-590
30
0
41
1
42
1
43
1
50
0
210
0
220
0
230
1
0
INSERT
5
10d9
100
AcDbEntity
8
default
62
7
6
ByLayer
100
AcDbBlockReference
2
d5fc0507-8b05-47ec-b161-734ccd3edc2e
10
5158
20
-530
30
0
41
1
42
1
43
1
50
0
210
0
220
0
230
1
0
INSERT
5
10db
100
AcDbEntity
8
default
62
7
6
ByLayer
100
AcDbBlockReference
2
5071cacb-0858-4e45-9e39-bd31a14a98b9
10
3318
20
-1396
30
0
41
1
42
1
43
1
50
0
210
0
220
0
230
1
0
INSERT
5
10dd
100
AcDbEntity
8
default
62
7
6
ByLayer
100
AcDbBlockReference
2
d191cd63-c97d-4a27-8e4a-3d19d1151734
10
3325
20
-1242
30
0
41
1
42
1
43
1
50
0
210
0
220
0
230
1
0
INSERT
5
10df
100
AcDbEntity
8
default
62
7
6
ByLayer
100
AcDbBlockReference
2
f4b15e71-4330-4860-8c5b-69dcebd4b9cb
10
3325
20
-1182
30
0
41
1
42
1
43
1
50
0
210
0
220
0
230
1
0
INSERT
5
10e1
100
AcDbEntity
8
default
62
7
6
ByLayer
100
AcDbBlockReference
2
9bc58525-f098-478e-9e6f-7a839fbe1e63
10
3238
20
-1406
30
0
41
1
42
1
43
1
50
0
210
0
220
0
230
1
0
LWPOLYLINE
100
AcDbEntity
8
0
62
256
6
ByLayer
5
134e
100
AcDbPolyline
90
3
70
0
38
0
39
0
10
4076
20
-393
40
0
41
0
42
0
10
4076
20
-393
40
0
41
0
42
0
10
4076
20
-393
40
0
41
0
42
0
210
0
220
0
230
1
0
LWPOLYLINE
100
AcDbEntity
8
0
62
256
6
ByLayer
5
134f
100
AcDbPolyline
90
3
70
0
38
0
39
0
10
4076
20
-333
40
0
41
0
42
0
10
4076
20
-333
40
0
41
0
42
0
10
4076
20
-333
40
0
41
0
42
0
210
0
220
0
230
1
0
LWPOLYLINE
100
AcDbEntity
8
0
62
256
6
ByLayer
5
1350
100
AcDbPolyline
90
3
70
0
38
0
39
0
10
4076
20
-453
40
0
41
0
42
0
10
4076
20
-453
40
0
41
0
42
0
10
4076
20
-453
40
0
41
0
42
0
210
0
220
0
230
1
0
LWPOLYLINE
100
AcDbEntity
8
0
62
256
6
ByLayer
5
1351
100
AcDbPolyline
90
4
70
0
38
0
39
0
10
3338
20
-1396
40
0
41
0
42
0
10
3338
20
-1349
40
0
41
0
42
0
10
3345
20
-1349
40
0
41
0
42
0
10
3345
20
-1302
40
0
41
0
42
0
210
0
220
0
230
1
0
LWPOLYLINE
100
AcDbEntity
8
0
62
256
6
ByLayer
5
1352
100
AcDbPolyline
90
3
70
0
38
0
39
0
10
3338
20
-1406
40
0
41
0
42
0
10
3338
20
-1406
40
0
41
0
42
0
10
3338
20
-1406
40
0
41
0
42
0
210
0
220
0
230
1
0
LWPOLYLINE
100
AcDbEntity
8
0
62
256
6
ByLayer
5
1353
100
AcDbPolyline
90
3
70
0
38
0
39
0
10
3996
20
-458
40
0
41
0
42
0
10
3996
20
-458
40
0
41
0
42
0
10
3996
20
-458
40
0
41
0
42
0
210
0
220
0
230
1
0
LWPOLYLINE
100
AcDbEntity
8
0
62
256
6
ByLayer
5
1354
100
AcDbPolyline
90
3
70
0
38
0
39
0
10
3836
20
-458
40
0
41
0
42
0
10
3836
20
-458
40
0
41
0
42
0
10
3836
20
-458
40
0
41
0
42
0
210
0
220
0
230
1
0
LWPOLYLINE
100
AcDbEntity
8
0
62
256
6
ByLayer
5
1355
100
AcDbPolyline
90
3
70
0
38
0
39
0
10
3996
20
-518
40
0
41
0
42
0
10
3996
20
-518
40
0
41
0
42
0
10
3996
20
-518
40
0
41
0
42
0
210
0
220
0
230
1
0
LWPOLYLINE
100
AcDbEntity
8
0
62
256
6
ByLayer
5
1356
100
AcDbPolyline
90
4
70
0
38
0
39
0
10
3425
20
-1167
40
0
41
0
42
0
10
3425
20
-872.5
40
0
41
0
42
0
10
3996
20
-872.5
40
0
41
0
42
0
10
3996
20
-578
40
0
41
0
42
0
210
0
220
0
230
1
0
LWPOLYLINE
100
AcDbEntity
8
0
62
256
6
ByLayer
5
1357
100
AcDbPolyline
90
3
70
0
38
0
39
0
10
3425
20
-1177
40
0
41
0
42
0
10
3425
20
-1177
40
0
41
0
42
0
10
3425
20
-1177
40
0
41
0
42
0
210
0
220
0
230
1
0
LWPOLYLINE
100
AcDbEntity
8
0
62
256
6
ByLayer
5
1358
100
AcDbPolyline
90
3
70
0
38
0
39
0
10
3505
20
-1182
40
0
41
0
42
0
10
3505
20
-1182
40
0
41
0
42
0
10
3505
20
-1182
40
0
41
0
42
0
210
0
220
0
230
1
0
LWPOLYLINE
100
AcDbEntity
8
0
62
256
6
ByLayer
5
1359
100
AcDbPolyline
90
3
70
0
38
0
39
0
10
3294
20
-774
40
0
41
0
42
0
10
3294
20
-774
40
0
41
0
42
0
10
3294
20
-774
40
0
41
0
42
0
210
0
220
0
230
1
0
LWPOLYLINE
100
AcDbEntity
8
0
62
256
6
ByLayer
5
135a
100
AcDbPolyline
90
3
70
0
38
0
39
0
10
3294
20
-834
40
0
41
0
42
0
10
3294
20
-834
40
0
41
0
42
0
10
3294
20
-834
40
0
41
0
42
0
210
0
220
0
230
1
0
LWPOLYLINE
100
AcDbEntity
8
0
62
256
6
ByLayer
5
135b
100
AcDbPolyline
90
3
70
0
38
0
39
0
10
3294
20
-714
40
0
41
0
42
0
10
3294
20
-714
40
0
41
0
42
0
10
3294
20
-714
40
0
41
0
42
0
210
0
220
0
230
1
0
LWPOLYLINE
100
AcDbEntity
8
0
62
256
6
ByLayer
5
135c
100
AcDbPolyline
90
3
70
0
38
0
39
0
10
3806
20
-1509
40
0
41
0
42
0
10
3806
20
-1509
40
0
41
0
42
0
10
3806
20
-1509
40
0
41
0
42
0
210
0
220
0
230
1
0
LWPOLYLINE
100
AcDbEntity
8
0
62
256
6
ByLayer
5
135d
100
AcDbPolyline
90
3
70
0
38
0
39
0
10
3836
20
-518
40
0
41
0
42
0
10
3836
20
-518
40
0
41
0
42
0
10
3836
20
-518
40
0
41
0
42
0
210
0
220
0
230
1
0
LWPOLYLINE
100
AcDbEntity
8
0
62
256
6
ByLayer
5
135e
100
AcDbPolyline
90
4
70
0
38
0
39
0
10
3374
20
-699
40
0
41
0
42
0
10
3374
20
-638.5
40
0
41
0
42
0
10
3836
20
-638.5
40
0
41
0
42
0
10
3836
20
-578
40
0
41
0
42
0
210
0
220
0
230
1
0
LWPOLYLINE
100
AcDbEntity
8
0
62
256
6
ByLayer
5
135f
100
AcDbPolyline
90
3
70
0
38
0
39
0
10
3374
20
-709
40
0
41
0
42
0
10
3374
20
-709
40
0
41
0
42
0
10
3374
20
-709
40
0
41
0
42
0
210
0
220
0
230
1
0
LWPOLYLINE
100
AcDbEntity
8
0
62
256
6
ByLayer
5
1360
100
AcDbPolyline
90
4
70
0
38
0
39
0
10
3646
20
-1581
40
0
41
0
42
0
10
3646
20
-1575
40
0
41
0
42
0
10
3646
20
-1575
40
0
41
0
42
0
10
3646
20
-1569
40
0
41
0
42
0
210
0
220
0
230
1
0
LWPOLYLINE
100
AcDbEntity
8
0
62
256
6
ByLayer
5
1361
100
AcDbPolyline
90
3
70
0
38
0
39
0
10
3806
20
-1449
40
0
41
0
42
0
10
3806
20
-1449
40
0
41
0
42
0
10
3806
20
-1449
40
0
41
0
42
0
210
0
220
0
230
1
0
LWPOLYLINE
100
AcDbEntity
8
0
62
256
6
ByLayer
5
1362
100
AcDbPolyline
90
3
70
0
38
0
39
0
10
3646
20
-1449
40
0
41
0
42
0
10
3646
20
-1449
40
0
41
0
42
0
10
3646
20
-1449
40
0
41
0
42
0
210
0
220
0
230
1
0
LWPOLYLINE
100
AcDbEntity
8
0
62
256
6
ByLayer
5
1363
100
AcDbPolyline
90
3
70
0
38
0
39
0
10
3806
20
-1569
40
0
41
0
42
0
10
3806
20
-1569
40
0
41
0
42
0
10
3806
20
-1569
40
0
41
0
42
0
210
0
220
0
230
1
0
LWPOLYLINE
100
AcDbEntity
8
0
62
256
6
ByLayer
5
1364
100
AcDbPolyline
90
3
70
0
38
0
39
0
10
3665
20
-1242
40
0
41
0
42
0
10
3665
20
-1242
40
0
41
0
42
0
10
3665
20
-1242
40
0
41
0
42
0
210
0
220
0
230
1
0
LWPOLYLINE
100
AcDbEntity
8
0
62
256
6
ByLayer
5
1365
100
AcDbPolyline
90
3
70
0
38
0
39
0
10
3665
20
-1302
40
0
41
0
42
0
10
3665
20
-1302
40
0
41
0
42
0
10
3665
20
-1302
40
0
41
0
42
0
210
0
220
0
230
1
0
LWPOLYLINE
100
AcDbEntity
8
0
62
256
6
ByLayer
5
1366
100
AcDbPolyline
90
3
70
0
38
0
39
0
10
3665
20
-1182
40
0
41
0
42
0
10
3665
20
-1182
40
0
41
0
42
0
10
3665
20
-1182
40
0
41
0
42
0
210
0
220
0
230
1
0
LWPOLYLINE
100
AcDbEntity
8
0
62
256
6
ByLayer
5
1367
100
AcDbPolyline
90
3
70
0
38
0
39
0
10
3825
20
-1242
40
0
41
0
42
0
10
3825
20
-1242
40
0
41
0
42
0
10
3825
20
-1242
40
0
41
0
42
0
210
0
220
0
230
1
0
LWPOLYLINE
100
AcDbEntity
8
0
62
256
6
ByLayer
5
1368
100
AcDbPolyline
90
3
70
0
38
0
39
0
10
3826
20
-1302
40
0
41
0
42
0
10
3825
20
-1302
40
0
41
0
42
0
10
3825
20
-1302
40
0
41
0
42
0
210
0
220
0
230
1
0
LWPOLYLINE
100
AcDbEntity
8
0
62
256
6
ByLayer
5
1369
100
AcDbPolyline
90
3
70
0
38
0
39
0
10
3825
20
-1182
40
0
41
0
42
0
10
3825
20
-1182
40
0
41
0
42
0
10
3825
20
-1182
40
0
41
0
42
0
210
0
220
0
230
1
0
LWPOLYLINE
100
AcDbEntity
8
0
62
256
6
ByLayer
5
136a
100
AcDbPolyline
90
3
70
0
38
0
39
0
10
3985
20
-1242
40
0
41
0
42
0
10
3985
20
-1242
40
0
41
0
42
0
10
3985
20
-1242
40
0
41
0
42
0
210
0
220
0
230
1
0
LWPOLYLINE
100
AcDbEntity
8
0
62
256
6
ByLayer
5
136b
100
AcDbPolyline
90
3
70
0
38
0
39
0
10
3985
20
-1302
40
0
41
0
42
0
10
3985
20
-1302
40
0
41
0
42
0
10
3985
20
-1302
40
0
41
0
42
0
210
0
220
0
230
1
0
LWPOLYLINE
100
AcDbEntity
8
0
62
256
6
ByLayer
5
136c
100
AcDbPolyline
90
3
70
0
38
0
39
0
10
3985
20
-1182
40
0
41
0
42
0
10
3985
20
-1182
40
0
41
0
42
0
10
3985
20
-1182
40
0
41
0
42
0
210
0
220
0
230
1
0
LWPOLYLINE
100
AcDbEntity
8
0
62
256
6
ByLayer
5
136d
100
AcDbPolyline
90
3
70
0
38
0
39
0
10
4145
20
-1242
40
0
41
0
42
0
10
4145
20
-1242
40
0
41
0
42
0
10
4145
20
-1242
40
0
41
0
42
0
210
0
220
0
230
1
0
LWPOLYLINE
100
AcDbEntity
8
0
62
256
6
ByLayer
5
136e
100
AcDbPolyline
90
3
70
0
38
0
39
0
10
4145
20
-1182
40
0
41
0
42
0
10
4145
20
-1182
40
0
41
0
42
0
10
4145
20
-1182
40
0
41
0
42
0
210
0
220
0
230
1
0
LWPOLYLINE
100
AcDbEntity
8
0
62
256
6
ByLayer
5
136f
100
AcDbPolyline
90
3
70
0
38
0
39
0
10
4174
20
-1574
40
0
41
0
42
0
10
4174
20
-1574
40
0
41
0
42
0
10
4174
20
-1574
40
0
41
0
42
0
210
0
220
0
230
1
0
LWPOLYLINE
100
AcDbEntity
8
0
62
256
6
ByLayer
5
1370
100
AcDbPolyline
90
3
70
0
38
0
39
0
10
4174
20
-1514
40
0
41
0
42
0
10
4174
20
-1514
40
0
41
0
42
0
10
4174
20
-1514
40
0
41
0
42
0
210
0
220
0
230
1
0
LWPOLYLINE
100
AcDbEntity
8
0
62
256
6
ByLayer
5
1371
100
AcDbPolyline
90
3
70
0
38
0
39
0
10
4174
20
-1454
40
0
41
0
42
0
10
4174
20
-1454
40
0
41
0
42
0
10
4174
20
-1453
40
0
41
0
42
0
210
0
220
0
230
1
0
LWPOLYLINE
100
AcDbEntity
8
0
62
256
6
ByLayer
5
1372
100
AcDbPolyline
90
4
70
0
38
0
39
0
10
3726
20
-1434
40
0
41
0
42
0
10
3726
20
-1368
40
0
41
0
42
0
10
3505
20
-1368
40
0
41
0
42
0
10
3505
20
-1302
40
0
41
0
42
0
210
0
220
0
230
1
0
LWPOLYLINE
100
AcDbEntity
8
0
62
256
6
ByLayer
5
1373
100
AcDbPolyline
90
3
70
0
38
0
39
0
10
3726
20
-1444
40
0
41
0
42
0
10
3726
20
-1444
40
0
41
0
42
0
10
3726
20
-1444
40
0
41
0
42
0
210
0
220
0
230
1
0
LWPOLYLINE
100
AcDbEntity
8
0
62
256
6
ByLayer
5
1374
100
AcDbPolyline
90
3
70
0
38
0
39
0
10
3505
20
-1242
40
0
41
0
42
0
10
3505
20
-1242
40
0
41
0
42
0
10
3505
20
-1242
40
0
41
0
42
0
210
0
220
0
230
1
0
LWPOLYLINE
100
AcDbEntity
8
0
62
256
6
ByLayer
5
1375
100
AcDbPolyline
90
3
70
0
38
0
39
0
10
3646
20
-1509
40
0
41
0
42
0
10
3646
20
-1509
40
0
41
0
42
0
10
3646
20
-1509
40
0
41
0
42
0
210
0
220
0
230
1
0
LWPOLYLINE
100
AcDbEntity
8
0
62
256
6
ByLayer
5
1376
100
AcDbPolyline
90
3
70
0
38
0
39
0
10
3258
20
-1471
40
0
41
0
42
0
10
3258
20
-1471
40
0
41
0
42
0
10
3258
20
-1471
40
0
41
0
42
0
210
0
220
0
230
1
0
LWPOLYLINE
100
AcDbEntity
8
0
62
256
6
ByLayer
5
1377
100
AcDbPolyline
90
4
70
0
38
0
39
0
10
3258
20
-1543
40
0
41
0
42
0
10
3258
20
-1537
40
0
41
0
42
0
10
3258
20
-1537
40
0
41
0
42
0
10
3258
20
-1531
40
0
41
0
42
0
210
0
220
0
230
1
0
LWPOLYLINE
100
AcDbEntity
8
0
62
256
6
ByLayer
5
1378
100
AcDbPolyline
90
3
70
0
38
0
39
0
10
3258
20
-1411
40
0
41
0
42
0
10
3258
20
-1411
40
0
41
0
42
0
10
3258
20
-1411
40
0
41
0
42
0
210
0
220
0
230
1
0
LWPOLYLINE
100
AcDbEntity
8
0
62
256
6
ByLayer
5
1379
100
AcDbPolyline
90
3
70
0
38
0
39
0
10
3419
20
-1531
40
0
41
0
42
0
10
3418
20
-1531
40
0
41
0
42
0
10
3418
20
-1531
40
0
41
0
42
0
210
0
220
0
230
1
0
LWPOLYLINE
100
AcDbEntity
8
0
62
256
6
ByLayer
5
137a
100
AcDbPolyline
90
3
70
0
38
0
39
0
10
3418
20
-1471
40
0
41
0
42
0
10
3418
20
-1471
40
0
41
0
42
0
10
3418
20
-1471
40
0
41
0
42
0
210
0
220
0
230
1
0
LWPOLYLINE
100
AcDbEntity
8
0
62
256
6
ByLayer
5
137b
100
AcDbPolyline
90
3
70
0
38
0
39
0
10
3418
20
-1411
40
0
41
0
42
0
10
3418
20
-1411
40
0
41
0
42
0
10
3418
20
-1411
40
0
41
0
42
0
210
0
220
0
230
1
0
LWPOLYLINE
100
AcDbEntity
8
0
62
256
6
ByLayer
5
137c
100
AcDbPolyline
90
3
70
0
38
0
39
0
10
4156
20
-518
40
0
41
0
42
0
10
4156
20
-518
40
0
41
0
42
0
10
4156
20
-518
40
0
41
0
42
0
210
0
220
0
230
1
0
LWPOLYLINE
100
AcDbEntity
8
0
62
256
6
ByLayer
5
137d
100
AcDbPolyline
90
3
70
0
38
0
39
0
10
4156
20
-458
40
0
41
0
42
0
10
4156
20
-458
40
0
41
0
42
0
10
4156
20
-458
40
0
41
0
42
0
210
0
220
0
230
1
0
LWPOLYLINE
100
AcDbEntity
8
0
62
256
6
ByLayer
5
137e
100
AcDbPolyline
90
4
70
0
38
0
39
0
10
4586
20
-1423
40
0
41
0
42
0
10
4586
20
-1000.5
40
0
41
0
42
0
10
4156
20
-1000.5
40
0
41
0
42
0
10
4156
20
-578
40
0
41
0
42
0
210
0
220
0
230
1
0
LWPOLYLINE
100
AcDbEntity
8
0
62
256
6
ByLayer
5
137f
100
AcDbPolyline
90
3
70
0
38
0
39
0
10
4586
20
-1433
40
0
41
0
42
0
10
4586
20
-1433
40
0
41
0
42
0
10
4586
20
-1433
40
0
41
0
42
0
210
0
220
0
230
1
0
LWPOLYLINE
100
AcDbEntity
8
0
62
256
6
ByLayer
5
1380
100
AcDbPolyline
90
3
70
0
38
0
39
0
10
4506
20
-1499
40
0
41
0
42
0
10
4506
20
-1499
40
0
41
0
42
0
10
4506
20
-1499
40
0
41
0
42
0
210
0
220
0
230
1
0
LWPOLYLINE
100
AcDbEntity
8
0
62
256
6
ByLayer
5
1381
100
AcDbPolyline
90
3
70
0
38
0
39
0
10
4506
20
-1559
40
0
41
0
42
0
10
4506
20
-1559
40
0
41
0
42
0
10
4506
20
-1559
40
0
41
0
42
0
210
0
220
0
230
1
0
LWPOLYLINE
100
AcDbEntity
8
0
62
256
6
ByLayer
5
1382
100
AcDbPolyline
90
3
70
0
38
0
39
0
10
4506
20
-1439
40
0
41
0
42
0
10
4506
20
-1439
40
0
41
0
42
0
10
4506
20
-1438
40
0
41
0
42
0
210
0
220
0
230
1
0
LWPOLYLINE
100
AcDbEntity
8
0
62
256
6
ByLayer
5
1383
100
AcDbPolyline
90
3
70
0
38
0
39
0
10
4666
20
-1499
40
0
41
0
42
0
10
4666
20
-1499
40
0
41
0
42
0
10
4666
20
-1499
40
0
41
0
42
0
210
0
220
0
230
1
0
LWPOLYLINE
100
AcDbEntity
8
0
62
256
6
ByLayer
5
1384
100
AcDbPolyline
90
3
70
0
38
0
39
0
10
4667
20
-1559
40
0
41
0
42
0
10
4666
20
-1559
40
0
41
0
42
0
10
4666
20
-1559
40
0
41
0
42
0
210
0
220
0
230
1
0
LWPOLYLINE
100
AcDbEntity
8
0
62
256
6
ByLayer
5
1385
100
AcDbPolyline
90
3
70
0
38
0
39
0
10
4666
20
-1439
40
0
41
0
42
0
10
4666
20
-1439
40
0
41
0
42
0
10
4666
20
-1438
40
0
41
0
42
0
210
0
220
0
230
1
0
LWPOLYLINE
100
AcDbEntity
8
0
62
256
6
ByLayer
5
1386
100
AcDbPolyline
90
3
70
0
38
0
39
0
10
5336
20
-1193
40
0
41
0
42
0
10
5336
20
-1193
40
0
41
0
42
0
10
5336
20
-1193
40
0
41
0
42
0
210
0
220
0
230
1
0
LWPOLYLINE
100
AcDbEntity
8
0
62
256
6
ByLayer
5
1387
100
AcDbPolyline
90
4
70
0
38
0
39
0
10
5528
20
-1433
40
0
41
0
42
0
10
5528
20
-1343
40
0
41
0
42
0
10
5336
20
-1343
40
0
41
0
42
0
10
5336
20
-1253
40
0
41
0
42
0
210
0
220
0
230
1
0
LWPOLYLINE
100
AcDbEntity
8
0
62
256
6
ByLayer
5
1388
100
AcDbPolyline
90
3
70
0
38
0
39
0
10
5528
20
-1443
40
0
41
0
42
0
10
5528
20
-1443
40
0
41
0
42
0
10
5528
20
-1443
40
0
41
0
42
0
210
0
220
0
230
1
0
LWPOLYLINE
100
AcDbEntity
8
0
62
256
6
ByLayer
5
1389
100
AcDbPolyline
90
3
70
0
38
0
39
0
10
5176
20
-1193
40
0
41
0
42
0
10
5176
20
-1193
40
0
41
0
42
0
10
5176
20
-1193
40
0
41
0
42
0
210
0
220
0
230
1
0
LWPOLYLINE
100
AcDbEntity
8
0
62
256
6
ByLayer
5
138a
100
AcDbPolyline
90
3
70
0
38
0
39
0
10
5176
20
-1253
40
0
41
0
42
0
10
5176
20
-1253
40
0
41
0
42
0
10
5176
20
-1253
40
0
41
0
42
0
210
0
220
0
230
1
0
LWPOLYLINE
100
AcDbEntity
8
0
62
256
6
ByLayer
5
138b
100
AcDbPolyline
90
3
70
0
38
0
39
0
10
5176
20
-1133
40
0
41
0
42
0
10
5176
20
-1133
40
0
41
0
42
0
10
5176
20
-1133
40
0
41
0
42
0
210
0
220
0
230
1
0
LWPOLYLINE
100
AcDbEntity
8
0
62
256
6
ByLayer
5
138c
100
AcDbPolyline
90
3
70
0
38
0
39
0
10
4316
20
-518
40
0
41
0
42
0
10
4316
20
-518
40
0
41
0
42
0
10
4316
20
-518
40
0
41
0
42
0
210
0
220
0
230
1
0
LWPOLYLINE
100
AcDbEntity
8
0
62
256
6
ByLayer
5
138d
100
AcDbPolyline
90
4
70
0
38
0
39
0
10
4776
20
-1118
40
0
41
0
42
0
10
4776
20
-848
40
0
41
0
42
0
10
4316
20
-848
40
0
41
0
42
0
10
4316
20
-578
40
0
41
0
42
0
210
0
220
0
230
1
0
LWPOLYLINE
100
AcDbEntity
8
0
62
256
6
ByLayer
5
138e
100
AcDbPolyline
90
3
70
0
38
0
39
0
10
4776
20
-1128
40
0
41
0
42
0
10
4776
20
-1128
40
0
41
0
42
0
10
4776
20
-1128
40
0
41
0
42
0
210
0
220
0
230
1
0
LWPOLYLINE
100
AcDbEntity
8
0
62
256
6
ByLayer
5
138f
100
AcDbPolyline
90
3
70
0
38
0
39
0
10
4316
20
-458
40
0
41
0
42
0
10
4316
20
-458
40
0
41
0
42
0
10
4316
20
-458
40
0
41
0
42
0
210
0
220
0
230
1
0
LWPOLYLINE
100
AcDbEntity
8
0
62
256
6
ByLayer
5
1390
100
AcDbPolyline
90
3
70
0
38
0
39
0
10
4696
20
-1253
40
0
41
0
42
0
10
4696
20
-1253
40
0
41
0
42
0
10
4696
20
-1253
40
0
41
0
42
0
210
0
220
0
230
1
0
LWPOLYLINE
100
AcDbEntity
8
0
62
256
6
ByLayer
5
1391
100
AcDbPolyline
90
3
70
0
38
0
39
0
10
4696
20
-1193
40
0
41
0
42
0
10
4696
20
-1193
40
0
41
0
42
0
10
4696
20
-1193
40
0
41
0
42
0
210
0
220
0
230
1
0
LWPOLYLINE
100
AcDbEntity
8
0
62
256
6
ByLayer
5
1392
100
AcDbPolyline
90
3
70
0
38
0
39
0
10
4696
20
-1133
40
0
41
0
42
0
10
4696
20
-1133
40
0
41
0
42
0
10
4696
20
-1133
40
0
41
0
42
0
210
0
220
0
230
1
0
LWPOLYLINE
100
AcDbEntity
8
0
62
256
6
ByLayer
5
1393
100
AcDbPolyline
90
3
70
0
38
0
39
0
10
4856
20
-1193
40
0
41
0
42
0
10
4856
20
-1193
40
0
41
0
42
0
10
4856
20
-1193
40
0
41
0
42
0
210
0
220
0
230
1
0
LWPOLYLINE
100
AcDbEntity
8
0
62
256
6
ByLayer
5
1394
100
AcDbPolyline
90
3
70
0
38
0
39
0
10
4857
20
-1253
40
0
41
0
42
0
10
4856
20
-1253
40
0
41
0
42
0
10
4856
20
-1253
40
0
41
0
42
0
210
0
220
0
230
1
0
LWPOLYLINE
100
AcDbEntity
8
0
62
256
6
ByLayer
5
1395
100
AcDbPolyline
90
3
70
0
38
0
39
0
10
4856
20
-1133
40
0
41
0
42
0
10
4856
20
-1133
40
0
41
0
42
0
10
4856
20
-1133
40
0
41
0
42
0
210
0
220
0
230
1
0
LWPOLYLINE
100
AcDbEntity
8
0
62
256
6
ByLayer
5
1396
100
AcDbPolyline
90
3
70
0
38
0
39
0
10
3454
20
-774
40
0
41
0
42
0
10
3454
20
-774
40
0
41
0
42
0
10
3454
20
-774
40
0
41
0
42
0
210
0
220
0
230
1
0
LWPOLYLINE
100
AcDbEntity
8
0
62
256
6
ByLayer
5
1397
100
AcDbPolyline
90
3
70
0
38
0
39
0
10
3454
20
-714
40
0
41
0
42
0
10
3454
20
-714
40
0
41
0
42
0
10
3454
20
-714
40
0
41
0
42
0
210
0
220
0
230
1
0
LWPOLYLINE
100
AcDbEntity
8
0
62
256
6
ByLayer
5
1398
100
AcDbPolyline
90
3
70
0
38
0
39
0
10
5496
20
-1193
40
0
41
0
42
0
10
5496
20
-1193
40
0
41
0
42
0
10
5496
20
-1193
40
0
41
0
42
0
210
0
220
0
230
1
0
LWPOLYLINE
100
AcDbEntity
8
0
62
256
6
ByLayer
5
1399
100
AcDbPolyline
90
3
70
0
38
0
39
0
10
5496
20
-1133
40
0
41
0
42
0
10
5496
20
-1133
40
0
41
0
42
0
10
5496
20
-1133
40
0
41
0
42
0
210
0
220
0
230
1
0
LWPOLYLINE
100
AcDbEntity
8
0
62
256
6
ByLayer
5
139a
100
AcDbPolyline
90
3
70
0
38
0
39
0
10
4465
20
-1242
40
0
41
0
42
0
10
4465
20
-1242
40
0
41
0
42
0
10
4465
20
-1242
40
0
41
0
42
0
210
0
220
0
230
1
0
LWPOLYLINE
100
AcDbEntity
8
0
62
256
6
ByLayer
5
139b
100
AcDbPolyline
90
3
70
0
38
0
39
0
10
4465
20
-1182
40
0
41
0
42
0
10
4465
20
-1182
40
0
41
0
42
0
10
4465
20
-1182
40
0
41
0
42
0
210
0
220
0
230
1
0
LWPOLYLINE
100
AcDbEntity
8
0
62
256
6
ByLayer
5
139c
100
AcDbPolyline
90
3
70
0
38
0
39
0
10
4305
20
-1182
40
0
41
0
42
0
10
4305
20
-1182
40
0
41
0
42
0
10
4305
20
-1182
40
0
41
0
42
0
210
0
220
0
230
1
0
LWPOLYLINE
100
AcDbEntity
8
0
62
256
6
ByLayer
5
139d
100
AcDbPolyline
90
3
70
0
38
0
39
0
10
4305
20
-1242
40
0
41
0
42
0
10
4305
20
-1242
40
0
41
0
42
0
10
4305
20
-1242
40
0
41
0
42
0
210
0
220
0
230
1
0
LWPOLYLINE
100
AcDbEntity
8
0
62
256
6
ByLayer
5
139e
100
AcDbPolyline
90
3
70
0
38
0
39
0
10
4306
20
-1303
40
0
41
0
42
0
10
4305
20
-1303
40
0
41
0
42
0
10
4305
20
-1303
40
0
41
0
42
0
210
0
220
0
230
1
0
LWPOLYLINE
100
AcDbEntity
8
0
62
256
6
ByLayer
5
139f
100
AcDbPolyline
90
3
70
0
38
0
39
0
10
4986
20
-1499
40
0
41
0
42
0
10
4986
20
-1499
40
0
41
0
42
0
10
4986
20
-1499
40
0
41
0
42
0
210
0
220
0
230
1
0
LWPOLYLINE
100
AcDbEntity
8
0
62
256
6
ByLayer
5
13a0
100
AcDbPolyline
90
3
70
0
38
0
39
0
10
4986
20
-1439
40
0
41
0
42
0
10
4986
20
-1439
40
0
41
0
42
0
10
4986
20
-1438
40
0
41
0
42
0
210
0
220
0
230
1
0
LWPOLYLINE
100
AcDbEntity
8
0
62
256
6
ByLayer
5
13a1
100
AcDbPolyline
90
3
70
0
38
0
39
0
10
3676
20
-518
40
0
41
0
42
0
10
3676
20
-518
40
0
41
0
42
0
10
3676
20
-518
40
0
41
0
42
0
210
0
220
0
230
1
0
LWPOLYLINE
100
AcDbEntity
8
0
62
256
6
ByLayer
5
13a2
100
AcDbPolyline
90
3
70
0
38
0
39
0
10
3676
20
-458
40
0
41
0
42
0
10
3676
20
-458
40
0
41
0
42
0
10
3676
20
-458
40
0
41
0
42
0
210
0
220
0
230
1
0
LWPOLYLINE
100
AcDbEntity
8
0
62
256
6
ByLayer
5
13a3
100
AcDbPolyline
90
4
70
0
38
0
39
0
10
4254
20
-1438
40
0
41
0
42
0
10
4254
20
-1370
40
0
41
0
42
0
10
4145
20
-1370
40
0
41
0
42
0
10
4145
20
-1302
40
0
41
0
42
0
210
0
220
0
230
1
0
LWPOLYLINE
100
AcDbEntity
8
0
62
256
6
ByLayer
5
13a4
100
AcDbPolyline
90
3
70
0
38
0
39
0
10
4254
20
-1448
40
0
41
0
42
0
10
4254
20
-1448
40
0
41
0
42
0
10
4254
20
-1448
40
0
41
0
42
0
210
0
220
0
230
1
0
LWPOLYLINE
100
AcDbEntity
8
0
62
256
6
ByLayer
5
13a5
100
AcDbPolyline
90
3
70
0
38
0
39
0
10
3966
20
-1509
40
0
41
0
42
0
10
3966
20
-1509
40
0
41
0
42
0
10
3966
20
-1509
40
0
41
0
42
0
210
0
220
0
230
1
0
LWPOLYLINE
100
AcDbEntity
8
0
62
256
6
ByLayer
5
13a6
100
AcDbPolyline
90
4
70
0
38
0
39
0
10
3968
20
-1569
40
0
41
0
42
0
10
3968
20
-1569
40
0
41
0
42
0
10
3966
20
-1569
40
0
41
0
42
0
10
3966
20
-1569
40
0
41
0
42
0
210
0
220
0
230
1
0
LWPOLYLINE
100
AcDbEntity
8
0
62
256
6
ByLayer
5
13a7
100
AcDbPolyline
90
3
70
0
38
0
39
0
10
3966
20
-1449
40
0
41
0
42
0
10
3966
20
-1449
40
0
41
0
42
0
10
3966
20
-1449
40
0
41
0
42
0
210
0
220
0
230
1
0
LWPOLYLINE
100
AcDbEntity
8
0
62
256
6
ByLayer
5
13a8
100
AcDbPolyline
90
3
70
0
38
0
39
0
10
5336
20
-1133
40
0
41
0
42
0
10
5336
20
-1133
40
0
41
0
42
0
10
5336
20
-1133
40
0
41
0
42
0
210
0
220
0
230
1
0
LWPOLYLINE
100
AcDbEntity
8
0
62
256
6
ByLayer
5
13a9
100
AcDbPolyline
90
3
70
0
38
0
39
0
10
5608
20
-1568
40
0
41
0
42
0
10
5608
20
-1568
40
0
41
0
42
0
10
5608
20
-1568
40
0
41
0
42
0
210
0
220
0
230
1
0
LWPOLYLINE
100
AcDbEntity
8
0
62
256
6
ByLayer
5
13aa
100
AcDbPolyline
90
3
70
0
38
0
39
0
10
5608
20
-1508
40
0
41
0
42
0
10
5608
20
-1508
40
0
41
0
42
0
10
5608
20
-1508
40
0
41
0
42
0
210
0
220
0
230
1
0
LWPOLYLINE
100
AcDbEntity
8
0
62
256
6
ByLayer
5
13ab
100
AcDbPolyline
90
3
70
0
38
0
39
0
10
5608
20
-1448
40
0
41
0
42
0
10
5608
20
-1448
40
0
41
0
42
0
10
5608
20
-1448
40
0
41
0
42
0
210
0
220
0
230
1
0
LWPOLYLINE
100
AcDbEntity
8
0
62
256
6
ByLayer
5
13ac
100
AcDbPolyline
90
3
70
0
38
0
39
0
10
5016
20
-1133
40
0
41
0
42
0
10
5016
20
-1133
40
0
41
0
42
0
10
5016
20
-1133
40
0
41
0
42
0
210
0
220
0
230
1
0
LWPOLYLINE
100
AcDbEntity
8
0
62
256
6
ByLayer
5
13ad
100
AcDbPolyline
90
4
70
0
38
0
39
0
10
5246
20
-1379
40
0
41
0
42
0
10
5246
20
-1316
40
0
41
0
42
0
10
5016
20
-1316
40
0
41
0
42
0
10
5016
20
-1253
40
0
41
0
42
0
210
0
220
0
230
1
0
LWPOLYLINE
100
AcDbEntity
8
0
62
256
6
ByLayer
5
13ae
100
AcDbPolyline
90
3
70
0
38
0
39
0
10
4826
20
-1499
40
0
41
0
42
0
10
4826
20
-1499
40
0
41
0
42
0
10
4826
20
-1499
40
0
41
0
42
0
210
0
220
0
230
1
0
LWPOLYLINE
100
AcDbEntity
8
0
62
256
6
ByLayer
5
13af
100
AcDbPolyline
90
3
70
0
38
0
39
0
10
5246
20
-1439
40
0
41
0
42
0
10
5246
20
-1439
40
0
41
0
42
0
10
5246
20
-1439
40
0
41
0
42
0
210
0
220
0
230
1
0
LWPOLYLINE
100
AcDbEntity
8
0
62
256
6
ByLayer
5
13b0
100
AcDbPolyline
90
3
70
0
38
0
39
0
10
5166
20
-1504
40
0
41
0
42
0
10
5166
20
-1504
40
0
41
0
42
0
10
5166
20
-1504
40
0
41
0
42
0
210
0
220
0
230
1
0
LWPOLYLINE
100
AcDbEntity
8
0
62
256
6
ByLayer
5
13b1
100
AcDbPolyline
90
3
70
0
38
0
39
0
10
5016
20
-1193
40
0
41
0
42
0
10
5016
20
-1193
40
0
41
0
42
0
10
5016
20
-1193
40
0
41
0
42
0
210
0
220
0
230
1
0
LWPOLYLINE
100
AcDbEntity
8
0
62
256
6
ByLayer
5
13b2
100
AcDbPolyline
90
3
70
0
38
0
39
0
10
5166
20
-1564
40
0
41
0
42
0
10
5166
20
-1564
40
0
41
0
42
0
10
5166
20
-1564
40
0
41
0
42
0
210
0
220
0
230
1
0
LWPOLYLINE
100
AcDbEntity
8
0
62
256
6
ByLayer
5
13b3
100
AcDbPolyline
90
3
70
0
38
0
39
0
10
5166
20
-1444
40
0
41
0
42
0
10
5166
20
-1444
40
0
41
0
42
0
10
5166
20
-1444
40
0
41
0
42
0
210
0
220
0
230
1
0
LWPOLYLINE
100
AcDbEntity
8
0
62
256
6
ByLayer
5
13b4
100
AcDbPolyline
90
3
70
0
38
0
39
0
10
5326
20
-1564
40
0
41
0
42
0
10
5326
20
-1564
40
0
41
0
42
0
10
5326
20
-1564
40
0
41
0
42
0
210
0
220
0
230
1
0
LWPOLYLINE
100
AcDbEntity
8
0
62
256
6
ByLayer
5
13b5
100
AcDbPolyline
90
3
70
0
38
0
39
0
10
5326
20
-1504
40
0
41
0
42
0
10
5326
20
-1504
40
0
41
0
42
0
10
5326
20
-1504
40
0
41
0
42
0
210
0
220
0
230
1
0
LWPOLYLINE
100
AcDbEntity
8
0
62
256
6
ByLayer
5
13b6
100
AcDbPolyline
90
3
70
0
38
0
39
0
10
5326
20
-1444
40
0
41
0
42
0
10
5326
20
-1444
40
0
41
0
42
0
10
5326
20
-1444
40
0
41
0
42
0
210
0
220
0
230
1
0
LWPOLYLINE
100
AcDbEntity
8
0
62
256
6
ByLayer
5
13b7
100
AcDbPolyline
90
3
70
0
38
0
39
0
10
4826
20
-1559
40
0
41
0
42
0
10
4826
20
-1559
40
0
41
0
42
0
10
4826
20
-1559
40
0
41
0
42
0
210
0
220
0
230
1
0
LWPOLYLINE
100
AcDbEntity
8
0
62
256
6
ByLayer
5
13b8
100
AcDbPolyline
90
3
70
0
38
0
39
0
10
4826
20
-1439
40
0
41
0
42
0
10
4826
20
-1439
40
0
41
0
42
0
10
4826
20
-1438
40
0
41
0
42
0
210
0
220
0
230
1
0
LWPOLYLINE
100
AcDbEntity
8
0
62
256
6
ByLayer
5
13b9
100
AcDbPolyline
90
3
70
0
38
0
39
0
10
4476
20
-518
40
0
41
0
42
0
10
4476
20
-518
40
0
41
0
42
0
10
4476
20
-518
40
0
41
0
42
0
210
0
220
0
230
1
0
LWPOLYLINE
100
AcDbEntity
8
0
62
256
6
ByLayer
5
13ba
100
AcDbPolyline
90
6
70
0
38
0
39
0
10
4938
20
-515
40
0
41
0
42
0
10
4938
20
-505
40
0
41
0
42
0
10
4707
20
-505
40
0
41
0
42
0
10
4707
20
-588
40
0
41
0
42
0
10
4476
20
-588
40
0
41
0
42
0
10
4476
20
-578
40
0
41
0
42
0
210
0
220
0
230
1
0
LWPOLYLINE
100
AcDbEntity
8
0
62
256
6
ByLayer
5
13bb
100
AcDbPolyline
90
3
70
0
38
0
39
0
10
4938
20
-525
40
0
41
0
42
0
10
4938
20
-525
40
0
41
0
42
0
10
4938
20
-525
40
0
41
0
42
0
210
0
220
0
230
1
0
LWPOLYLINE
100
AcDbEntity
8
0
62
256
6
ByLayer
5
13bc
100
AcDbPolyline
90
3
70
0
38
0
39
0
10
4476
20
-458
40
0
41
0
42
0
10
4476
20
-458
40
0
41
0
42
0
10
4476
20
-458
40
0
41
0
42
0
210
0
220
0
230
1
0
LWPOLYLINE
100
AcDbEntity
8
0
62
256
6
ByLayer
5
13bd
100
AcDbPolyline
90
3
70
0
38
0
39
0
10
5017
20
-590
40
0
41
0
42
0
10
5017
20
-590
40
0
41
0
42
0
10
5017
20
-590
40
0
41
0
42
0
210
0
220
0
230
1
0
LWPOLYLINE
100
AcDbEntity
8
0
62
256
6
ByLayer
5
13be
100
AcDbPolyline
90
3
70
0
38
0
39
0
10
5017
20
-650
40
0
41
0
42
0
10
5017
20
-650
40
0
41
0
42
0
10
5017
20
-650
40
0
41
0
42
0
210
0
220
0
230
1
0
LWPOLYLINE
100
AcDbEntity
8
0
62
256
6
ByLayer
5
13bf
100
AcDbPolyline
90
3
70
0
38
0
39
0
10
5017
20
-530
40
0
41
0
42
0
10
5018
20
-530
40
0
41
0
42
0
10
5018
20
-530
40
0
41
0
42
0
210
0
220
0
230
1
0
LWPOLYLINE
100
AcDbEntity
8
0
62
256
6
ByLayer
5
13c0
100
AcDbPolyline
90
3
70
0
38
0
39
0
10
4858
20
-590
40
0
41
0
42
0
10
4858
20
-590
40
0
41
0
42
0
10
4858
20
-590
40
0
41
0
42
0
210
0
220
0
230
1
0
LWPOLYLINE
100
AcDbEntity
8
0
62
256
6
ByLayer
5
13c1
100
AcDbPolyline
90
3
70
0
38
0
39
0
10
4858
20
-650
40
0
41
0
42
0
10
4858
20
-650
40
0
41
0
42
0
10
4858
20
-650
40
0
41
0
42
0
210
0
220
0
230
1
0
LWPOLYLINE
100
AcDbEntity
8
0
62
256
6
ByLayer
5
13c2
100
AcDbPolyline
90
3
70
0
38
0
39
0
10
4858
20
-530
40
0
41
0
42
0
10
4858
20
-530
40
0
41
0
42
0
10
4858
20
-530
40
0
41
0
42
0
210
0
220
0
230
1
0
LWPOLYLINE
100
AcDbEntity
8
0
62
256
6
ByLayer
5
13c3
100
AcDbPolyline
90
3
70
0
38
0
39
0
10
5178
20
-590
40
0
41
0
42
0
10
5178
20
-590
40
0
41
0
42
0
10
5178
20
-590
40
0
41
0
42
0
210
0
220
0
230
1
0
LWPOLYLINE
100
AcDbEntity
8
0
62
256
6
ByLayer
5
13c4
100
AcDbPolyline
90
3
70
0
38
0
39
0
10
5178
20
-530
40
0
41
0
42
0
10
5178
20
-530
40
0
41
0
42
0
10
5178
20
-530
40
0
41
0
42
0
210
0
220
0
230
1
0
LWPOLYLINE
100
AcDbEntity
8
0
62
256
6
ByLayer
5
13c5
100
AcDbPolyline
90
3
70
0
38
0
39
0
10
3345
20
-1242
40
0
41
0
42
0
10
3345
20
-1242
40
0
41
0
42
0
10
3345
20
-1242
40
0
41
0
42
0
210
0
220
0
230
1
0
LWPOLYLINE
100
AcDbEntity
8
0
62
256
6
ByLayer
5
13c6
100
AcDbPolyline
90
3
70
0
38
0
39
0
10
3345
20
-1182
40
0
41
0
42
0
10
3345
20
-1182
40
0
41
0
42
0
10
3345
20
-1182
40
0
41
0
42
0
210
0
220
0
230
1
0
ENDSEC
0
SECTION
2
OBJECTS
0
DICTIONARY
5
a
100
AcDbDictionary
281
1
3
ACAD_GROUP
350
b
0
DICTIONARY
5
b
100
AcDbDictionary
281
1
0
ENDSEC
0
EOF
