  0
SECTION
  2
HEADER
  9
$ACADVER
  1
AC1014
  9
$ACADMAINTVER
 70
     9
  9
$DWGCODEPAGE
  3
ANSI_1252
  9
$INSBASE
 10
0.0
 20
0.0
 30
0.0
  9
$EXTMIN
 10
0.0
 20
0.0
 30
0.0
  9
$EXTMAX
 10
0.0
 20
0.0
 30
0.0
  9
$LIMMIN
 10
0.0
 20
0.0
  9
$LIMMAX
 10
0.0
 20
0.0
  9
$ORTHOMODE
 70
     0
  9
$REGENMODE
 70
     1
  9
$FILLMODE
 70
     1
  9
$QTEXTMODE
 70
     0
  9
$MIRRTEXT
 70
     1
  9
$DRAGMODE
 70
     2
  9
$LTSCALE
 40
1.0
  9
$OSMODE
 70
    37
  9
$ATTMODE
 70
     1
  9
$TEXTSIZE
 40
2.5
  9
$TRACEWID
 40
1.0
  9
$TEXTSTYLE
  7
STANDARD
  9
$CLAYER
  8
0
  9
$CELTYPE
  6
BYLAYER
  9
$CECOLOR
 62
   256
  9
$CELTSCALE
 40
1.0
  9
$DELOBJ
 70
     1
  9
$DISPSILH
 70
     0
  9
$DIMSCALE
 40
1.0
  9
$DIMASZ
 40
2.5
  9
$DIMEXO
 40
0.625
  9
$DIMDLI
 40
3.75
  9
$DIMRND
 40
0.0
  9
$DIMDLE
 40
0.0
  9
$DIMEXE
 40
1.25
  9
$DIMTP
 40
0.0
  9
$DIMTM
 40
0.0
  9
$DIMTXT
 40
2.5
  9
$DIMCEN
 40
2.5
  9
$DIMTSZ
 40
0.0
  9
$DIMTOL
 70
     0
  9
$DIMLIM
 70
     0
  9
$DIMTIH
 70
     0
  9
$DIMTOH
 70
     0
  9
$DIMSE1
 70
     0
  9
$DIMSE2
 70
     0
  9
$DIMTAD
 70
     1
  9
$DIMZIN
 70
     8
  9
$DIMBLK
  1

  9
$DIMASO
 70
     1
  9
$DIMSHO
 70
     1
  9
$DIMPOST
  1

  9
$DIMAPOST
  1

  9
$DIMALT
 70
     0
  9
$DIMALTD
 70
     3
  9
$DIMALTF
 40
0.0393700787
  9
$DIMLFAC
 40
1.0
  9
$DIMTOFL
 70
     1
  9
$DIMTVP
 40
0.0
  9
$DIMTIX
 70
     0
  9
$DIMSOXD
 70
     0
  9
$DIMSAH
 70
     0
  9
$DIMBLK1
  1

  9
$DIMBLK2
  1

  9
$DIMSTYLE
  2
ISO-25
  9
$DIMCLRD
 70
     0
  9
$DIMCLRE
 70
     0
  9
$DIMCLRT
 70
     0
  9
$DIMTFAC
 40
1.0
  9
$DIMGAP
 40
0.625
  9
$DIMJUST
 70
     0
  9
$DIMSD1
 70
     0
  9
$DIMSD2
 70
     0
  9
$DIMTOLJ
 70
     0
  9
$DIMTZIN
 70
     8
  9
$DIMALTZ
 70
     0
  9
$DIMALTTZ
 70
     0
  9
$DIMFIT
 70
     3
  9
$DIMUPT
 70
     0
  9
$DIMUNIT
 70
     2
  9
$DIMDEC
 70
     2
  9
$DIMTDEC
 70
     2
  9
$DIMALTU
 70
     2
  9
$DIMALTTD
 70
     3
  9
$DIMTXSTY
  7
STANDARD
  9
$DIMAUNIT
 70
     0
  9
$LUNITS
 70
     2
  9
$LUPREC
 70
     4
  9
$SKETCHINC
 40
1.0
  9
$FILLETRAD
 40
10.0
  9
$AUNITS
 70
     0
  9
$AUPREC
 70
     0
  9
$MENU
  1
.
  9
$ELEVATION
 40
0.0
  9
$PELEVATION
 40
0.0
  9
$THICKNESS
 40
0.0
  9
$LIMCHECK
 70
     0
  9
$CHAMFERA
 40
0.0
  9
$CHAMFERB
 40
0.0
  9
$CHAMFERC
 40
0.0
  9
$CHAMFERD
 40
0.0
  9
$SKPOLY
 70
     0
  9
$TDCREATE
 40
2458677.889474641
  9
$TDUPDATE
 40
2458677.889476852
  9
$TDINDWG
 40
0.0000000116
  9
$TDUSRTIMER
 40
0.0000000116
  9
$USRTIMER
 70
     1
  9
$ANGBASE
 50
0.0
  9
$ANGDIR
 70
     0
  9
$PDMODE
 70
     0
  9
$PDSIZE
 40
0.0
  9
$PLINEWID
 40
0.0
  9
$COORDS
 70
     1
  9
$SPLFRAME
 70
     0
  9
$SPLINETYPE
 70
     6
  9
$SPLINESEGS
 70
     8
  9
$ATTDIA
 70
     0
  9
$ATTREQ
 70
     1
  9
$HANDLING
 70
     1
  9
$HANDSEED
  5
4D0
  9
$SURFTAB1
 70
     6
  9
$SURFTAB2
 70
     6
  9
$SURFTYPE
 70
     6
  9
$SURFU
 70
     6
  9
$SURFV
 70
     6
  9
$UCSNAME
  2

  9
$UCSORG
 10
0.0
 20
0.0
 30
0.0
  9
$UCSXDIR
 10
1.0
 20
0.0
 30
0.0
  9
$UCSYDIR
 10
0.0
 20
1.0
 30
0.0
  9
$PUCSNAME
  2

  9
$PUCSORG
 10
0.0
 20
0.0
 30
0.0
  9
$PUCSXDIR
 10
1.0
 20
0.0
 30
0.0
  9
$PUCSYDIR
 10
0.0
 20
1.0
 30
0.0
  9
$USERI1
 70
     0
  9
$USERI2
 70
     0
  9
$USERI3
 70
     0
  9
$USERI4
 70
     0
  9
$USERI5
 70
     0
  9
$USERR1
 40
0.0
  9
$USERR2
 40
0.0
  9
$USERR3
 40
0.0
  9
$USERR4
 40
0.0
  9
$USERR5
 40
0.0
  9
$WORLDVIEW
 70
     1
  9
$SHADEDGE
 70
     3
  9
$SHADEDIF
 70
    70
  9
$TILEMODE
 70
     1
  9
$MAXACTVP
 70
    64
  9
$PINSBASE
 10
0.0
 20
0.0
 30
0.0
  9
$PLIMCHECK
 70
     0
  9
$PEXTMIN
 10
0.0
 20
0.0
 30
0.0
  9
$PEXTMAX
 10
0.0
 20
0.0
 30
0.0
  9
$PLIMMIN
 10
0.0
 20
0.0
  9
$PLIMMAX
 10
0.0
 20
0.0
  9
$UNITMODE
 70
     0
  9
$VISRETAIN
 70
     1
  9
$PLINEGEN
 70
     0
  9
$PSLTSCALE
 70
     1
  9
$TREEDEPTH
 70
  3020
  9
$PICKSTYLE
 70
     1
  9
$CMLSTYLE
  2
STANDARD
  9
$CMLJUST
 70
     0
  9
$CMLSCALE
 40
20.0
  9
$PROXYGRAPHICS
 70
     1
  9
$MEASUREMENT
 70
     1
  0
ENDSEC
  0
SECTION
  2
CLASSES
  0
CLASS
  1
ACDBDICTIONARYWDFLT
  2
AcDbDictionaryWithDefault
  3
ObjectDBX Classes
 90
        0
280
     0
281
     0
  0
CLASS
  1
VISUALSTYLE
  2
AcDbVisualStyle
  3
ObjectDBX Classes
 90
     4095
280
     0
281
     0
  0
CLASS
  1
MATERIAL
  2
AcDbMaterial
  3
ObjectDBX Classes
 90
     1153
280
     0
281
     0
  0
CLASS
  1
SCALE
  2
AcDbScale
  3
ObjectDBX Classes
 90
     1153
280
     0
281
     0
  0
CLASS
  1
TABLESTYLE
  2
AcDbTableStyle
  3
ObjectDBX Classes
 90
     4095
280
     0
281
     0
  0
CLASS
  1
MLEADERSTYLE
  2
AcDbMLeaderStyle
  3
ACDB_MLEADERSTYLE_CLASS
 90
     4095
280
     0
281
     0
  0
CLASS
  1
SUN
  2
AcDbSun
  3
SCENEOE
 90
     1153
280
     0
281
     0
  0
CLASS
  1
DICTIONARYVAR
  2
AcDbDictionaryVar
  3
ObjectDBX Classes
 90
        0
280
     0
281
     0
  0
CLASS
  1
XRECORD
  2
AcDbXrecord
  3
ObjectDBX Classes
 90
        0
280
     0
281
     0
  0
CLASS
  1
LWPOLYLINE
  2
AcDbPolyline
  3
ObjectDBX Classes
 90
        0
280
     0
281
     1
  0
CLASS
  1
HATCH
  2
AcDbHatch
  3
ObjectDBX Classes
 90
        0
280
     0
281
     1
  0
CLASS
  1
ACDBPLACEHOLDER
  2
AcDbPlaceHolder
  3
ObjectDBX Classes
 90
        0
280
     0
281
     0
  0
CLASS
  1
LAYOUT
  2
AcDbLayout
  3
ObjectDBX Classes
 90
        0
280
     0
281
     0
  0
ENDSEC
  0
SECTION
  2
TABLES
  0
TABLE
  2
VPORT
  5
8
102
{ACAD_XDICTIONARY
360
4C5
102
}
330
0
100
AcDbSymbolTable
 70
     1
  0
VPORT
  5
29
330
8
100
AcDbSymbolTableRecord
100
AcDbViewportTableRecord
  2
*ACTIVE
 70
     0
 10
0.0
 20
0.0
 11
1.0
 21
1.0
 12
344.1869158879
 22
148.5
 13
0.0
 23
0.0
 14
10.0
 24
10.0
 15
10.0
 25
10.0
 16
0.0
 26
0.0
 36
1.0
 17
0.0
 27
0.0
 37
0.0
 40
297.0
 41
1.9729729729
 42
50.0
 43
0.0
 44
0.0
 50
0.0
 51
0.0
 71
     0
 72
   100
 73
     1
 74
     3
 75
     0
 76
     0
 77
     0
 78
     0
  0
ENDTAB
  0
TABLE
  2
LTYPE
  5
5
330
0
100
AcDbSymbolTable
 70
     1
  0
LTYPE
  5
14
330
5
100
AcDbSymbolTableRecord
100
AcDbLinetypeTableRecord
  2
BYBLOCK
 70
     0
  3

 72
    65
 73
     0
 40
0.0
  0
LTYPE
  5
15
330
5
100
AcDbSymbolTableRecord
100
AcDbLinetypeTableRecord
  2
BYLAYER
 70
     0
  3

 72
    65
 73
     0
 40
0.0
  0
LTYPE
  5
16
330
5
100
AcDbSymbolTableRecord
100
AcDbLinetypeTableRecord
  2
CONTINUOUS
 70
     0
  3
Solid line
 72
    65
 73
     0
 40
0.0
  0
ENDTAB
  0
TABLE
  2
LAYER
  5
2
330
0
100
AcDbSymbolTable
 70
     3
  0
LAYER
  5
10
330
2
100
AcDbSymbolTableRecord
100
AcDbLayerTableRecord
  2
0
 70
     0
 62
     7
  6
CONTINUOUS
  0
LAYER
  5
6E
330
2
100
AcDbSymbolTableRecord
100
AcDbLayerTableRecord
  2
OUTER_LOOP
 70
     0
 62
     7
  6
CONTINUOUS
  0
LAYER
  5
73
330
2
100
AcDbSymbolTableRecord
100
AcDbLayerTableRecord
  2
INTERIOR_LOOPS
 70
     0
 62
     7
  6
CONTINUOUS
  0
ENDTAB
  0
TABLE
  2
STYLE
  5
3
330
0
100
AcDbSymbolTable
 70
     1
  0
STYLE
  5
11
330
3
100
AcDbSymbolTableRecord
100
AcDbTextStyleTableRecord
  2
STANDARD
 70
     0
 40
0.0
 41
1.0
 50
0.0
 71
     0
 42
2.5
  3
txt
  4

  0
ENDTAB
  0
TABLE
  2
VIEW
  5
6
330
0
100
AcDbSymbolTable
 70
     0
  0
ENDTAB
  0
TABLE
  2
UCS
  5
7
330
0
100
AcDbSymbolTable
 70
     0
  0
ENDTAB
  0
TABLE
  2
APPID
  5
9
330
0
100
AcDbSymbolTable
 70
     2
  0
APPID
  5
12
330
9
100
AcDbSymbolTableRecord
100
AcDbRegAppTableRecord
  2
ACAD
 70
     0
  0
APPID
  5
4CF
330
9
100
AcDbSymbolTableRecord
100
AcDbRegAppTableRecord
  2
ACAD_MLEADERVER
 70
     0
  0
ENDTAB
  0
TABLE
  2
DIMSTYLE
  5
A
330
0
100
AcDbSymbolTable
 70
     1
  0
DIMSTYLE
105
27
330
A
100
AcDbSymbolTableRecord
100
AcDbDimStyleTableRecord
  2
ISO-25
 70
     0
  3

  4

  5

  6

  7

 40
1.0
 41
2.5
 42
0.625
 43
3.75
 44
1.25
 45
0.0
 46
0.0
 47
0.0
 48
0.0
140
2.5
141
2.5
142
0.0
143
0.0393700787
144
1.0
145
0.0
146
1.0
147
0.625
 71
     0
 72
     0
 73
     0
 74
     0
 75
     0
 76
     0
 77
     1
 78
     8
170
     0
171
     3
172
     1
173
     0
174
     0
175
     0
176
     0
177
     0
178
     0
270
     2
271
     2
272
     2
273
     2
274
     3
340
11
275
     0
280
     0
281
     0
282
     0
283
     0
284
     8
285
     0
286
     0
287
     3
288
     0
  0
ENDTAB
  0
TABLE
  2
BLOCK_RECORD
  5
1
330
0
100
AcDbSymbolTable
 70
     0
  0
BLOCK_RECORD
  5
1F
330
1
100
AcDbSymbolTableRecord
100
AcDbBlockTableRecord
  2
*MODEL_SPACE
  0
BLOCK_RECORD
  5
1B
330
1
100
AcDbSymbolTableRecord
100
AcDbBlockTableRecord
  2
*PAPER_SPACE
  0
ENDTAB
  0
ENDSEC
  0
SECTION
  2
BLOCKS
  0
BLOCK
  5
20
330
1F
100
AcDbEntity
  8
0
100
AcDbBlockBegin
  2
*MODEL_SPACE
 70
     0
 10
0.0
 20
0.0
 30
0.0
  3
*MODEL_SPACE
  1

  0
ENDBLK
  5
21
330
1F
100
AcDbEntity
  8
0
100
AcDbBlockEnd
  0
BLOCK
  5
1C
330
1B
100
AcDbEntity
 67
     1
  8
0
100
AcDbBlockBegin
  2
*PAPER_SPACE
 70
     0
 10
0.0
 20
0.0
 30
0.0
  3
*PAPER_SPACE
  1

  0
ENDBLK
  5
1D
330
1B
100
AcDbEntity
 67
     1
  8
0
100
AcDbBlockEnd
  0
ENDSEC
  0
SECTION
  2
ENTITIES
  0
LINE
  5
6F
330
1F
100
AcDbEntity
  8
OUTER_LOOP
  6
CONTINUOUS
 62
     3
100
AcDbLine
 10
0.0
 20
0.0
 30
0.0
 11
0.0
 21
3000.0
 31
0.0
  0
LINE
  5
70
330
1F
100
AcDbEntity
  8
OUTER_LOOP
  6
CONTINUOUS
 62
     3
100
AcDbLine
 10
1250.0
 20
0.0
 30
0.0
 11
0.0
 21
0.0
 31
0.0
  0
LINE
  5
71
330
1F
100
AcDbEntity
  8
OUTER_LOOP
  6
CONTINUOUS
 62
     3
100
AcDbLine
 10
1250.0
 20
3000.0
 30
0.0
 11
1250.0
 21
0.0
 31
0.0
  0
LINE
  5
72
330
1F
100
AcDbEntity
  8
OUTER_LOOP
  6
CONTINUOUS
 62
     3
100
AcDbLine
 10
0.0
 20
3000.0
 30
0.0
 11
1250.0
 21
3000.0
 31
0.0
  0
LINE
  5
74
330
1F
100
AcDbEntity
  8
INTERIOR_LOOPS
  6
CONTINUOUS
 62
     3
100
AcDbLine
 10
722.4724237261
 20
1701.7734168111
 30
0.0
 11
756.9334988788
 21
1738.2616140419
 31
0.0
  0
LINE
  5
75
330
1F
100
AcDbEntity
  8
INTERIOR_LOOPS
  6
CONTINUOUS
 62
     3
100
AcDbLine
 10
394.4812622606
 20
1917.2657657121
 30
0.0
 11
393.5155719139
 21
1917.3359257186
 31
0.0
  0
LINE
  5
76
330
1F
100
AcDbEntity
  8
INTERIOR_LOOPS
  6
CONTINUOUS
 62
     3
100
AcDbLine
 10
393.5155719139
 20
1917.3359257186
 30
0.0
 11
388.5055774885
 21
1867.5699808497
 31
0.0
  0
ARC
  5
77
330
1F
100
AcDbEntity
  8
INTERIOR_LOOPS
  6
CONTINUOUS
 62
     3
100
AcDbCircle
 10
443.2499289489
 20
1346.1976739435
 30
0.0
 40
452.1054196907942
100
AcDbArc
 50
51.8585627076
 51
54.5896474133
  0
LINE
  5
78
330
1F
100
AcDbEntity
  8
INTERIOR_LOOPS
  6
CONTINUOUS
 62
     3
100
AcDbLine
 10
1049.408225308
 20
995.1198406188
 30
0.0
 11
1099.4367823989
 21
995.1198406188
 31
0.0
  0
LINE
  5
79
330
1F
100
AcDbEntity
  8
INTERIOR_LOOPS
  6
CONTINUOUS
 62
     3
100
AcDbLine
 10
868.7857101056
 20
1633.4619766008
 30
0.0
 11
867.881560845
 21
1633.5974960606
 31
0.0
  0
LINE
  5
7A
330
1F
100
AcDbEntity
  8
INTERIOR_LOOPS
  6
CONTINUOUS
 62
     3
100
AcDbLine
 10
814.352422887
 20
1686.6071644952
 30
0.0
 11
799.7007664827
 21
1700.808037099
 31
0.0
  0
LINE
  5
7B
330
1F
100
AcDbEntity
  8
INTERIOR_LOOPS
  6
CONTINUOUS
 62
     3
100
AcDbLine
 10
799.7007664827
 20
1700.808037099
 30
0.0
 11
765.3905997533
 21
1664.4392603623
 31
0.0
  0
ARC
  5
7C
330
1F
100
AcDbEntity
  8
INTERIOR_LOOPS
  6
CONTINUOUS
 62
     3
100
AcDbCircle
 10
-345.1325933216
 20
1043.1555124295
 30
0.0
 40
1395.367880014019
100
AcDbArc
 50
358.0271975599
 51
359.6551542241
  0
LINE
  5
7D
330
1F
100
AcDbEntity
  8
INTERIOR_LOOPS
  6
CONTINUOUS
 62
     3
100
AcDbLine
 10
835.5770028059
 20
414.0802776987
 30
0.0
 11
877.03944996
 21
444.379758323
 31
0.0
  0
LINE
  5
7E
330
1F
100
AcDbEntity
  8
INTERIOR_LOOPS
  6
CONTINUOUS
 62
     3
100
AcDbLine
 10
1045.2208068015
 20
903.6571580524
 30
0.0
 11
1047.2743663571
 21
946.6602404689
 31
0.0
  0
LINE
  5
7F
330
1F
100
AcDbEntity
  8
INTERIOR_LOOPS
  6
CONTINUOUS
 62
     3
100
AcDbLine
 10
1047.2743663571
 20
946.6602404689
 30
0.0
 11
1097.3351637545
 21
946.6602404689
 31
0.0
  0
LINE
  5
80
330
1F
100
AcDbEntity
  8
INTERIOR_LOOPS
  6
CONTINUOUS
 62
     3
100
AcDbLine
 10
984.7802498904
 20
629.2510721697
 30
0.0
 11
982.9787382042
 21
627.356815145
 31
0.0
  0
ARC
  5
81
330
1F
100
AcDbEntity
  8
INTERIOR_LOOPS
  6
CONTINUOUS
 62
     3
100
AcDbCircle
 10
712.9720565326
 20
365.3504584796
 30
0.0
 40
131.9339536730147
100
AcDbArc
 50
16.8629980808
 51
21.6755419666
  0
LINE
  5
82
330
1F
100
AcDbEntity
  8
INTERIOR_LOOPS
  6
CONTINUOUS
 62
     3
100
AcDbLine
 10
827.2251823401
 20
811.6564928907
 30
0.0
 11
877.2314391024
 21
811.6564928907
 31
0.0
  0
ARC
  5
83
330
1F
100
AcDbEntity
  8
INTERIOR_LOOPS
  6
CONTINUOUS
 62
     3
100
AcDbCircle
 10
797.4325095452
 20
428.2663673445
 30
0.0
 40
77.45026366559964
100
AcDbArc
 50
44.2853757625
 51
50.6698712363
  0
LINE
  5
84
330
1F
100
AcDbEntity
  8
INTERIOR_LOOPS
  6
CONTINUOUS
 62
     3
100
AcDbLine
 10
852.876905284
 20
482.3446654226
 30
0.0
 11
811.7990130668
 21
451.8214500762
 31
0.0
  0
ARC
  5
85
330
1F
100
AcDbEntity
  8
INTERIOR_LOOPS
  6
CONTINUOUS
 62
     3
100
AcDbCircle
 10
818.595915767
 20
528.2514439339
 30
0.0
 40
68.96357849287203
100
AcDbArc
 50
210.3364258176
 51
222.4145119912
  0
ARC
  5
86
330
1F
100
AcDbEntity
  8
INTERIOR_LOOPS
  6
CONTINUOUS
 62
     3
100
AcDbCircle
 10
817.7477370294
 20
534.5866055651
 30
0.0
 40
183.957770663669
100
AcDbArc
 50
88.4458779155
 51
95.0859287415
  0
LINE
  5
87
330
1F
100
AcDbEntity
  8
INTERIOR_LOOPS
  6
CONTINUOUS
 62
     3
100
AcDbLine
 10
826.9958806706
 20
801.0660484523
 30
0.0
 11
827.2251823401
 21
811.6564928907
 31
0.0
  0
LINE
  5
88
330
1F
100
AcDbEntity
  8
INTERIOR_LOOPS
  6
CONTINUOUS
 62
     3
100
AcDbLine
 10
307.0407131952
 20
1604.661618407
 30
0.0
 11
340.5352787156
 21
1641.8407732925
 31
0.0
  0
ARC
  5
89
330
1F
100
AcDbEntity
  8
INTERIOR_LOOPS
  6
CONTINUOUS
 62
     3
100
AcDbCircle
 10
275.2038805692
 20
834.7583659312
 30
0.0
 40
602.0905105435224
100
AcDbArc
 50
2.0394994679
 51
4.1530792866
  0
LINE
  5
8A
330
1F
100
AcDbEntity
  8
INTERIOR_LOOPS
  6
CONTINUOUS
 62
     3
100
AcDbLine
 10
876.9129848217
 20
856.1858424873
 30
0.0
 11
826.8787117695
 21
856.1858424873
 31
0.0
  0
LINE
  5
8B
330
1F
100
AcDbEntity
  8
INTERIOR_LOOPS
  6
CONTINUOUS
 62
     3
100
AcDbLine
 10
569.3493879494
 20
1335.9170009426
 30
0.0
 11
562.2453576621
 21
1348.8055411156
 31
0.0
  0
LINE
  5
8C
330
1F
100
AcDbEntity
  8
INTERIOR_LOOPS
  6
CONTINUOUS
 62
     3
100
AcDbLine
 10
327.8466997902
 20
1583.2379470915
 30
0.0
 11
327.8386888252
 21
1583.3698361731
 31
0.0
  0
LINE
  5
8D
330
1F
100
AcDbEntity
  8
INTERIOR_LOOPS
  6
CONTINUOUS
 62
     3
100
AcDbLine
 10
316.2163251267
 20
1596.64837308
 30
0.0
 11
307.0407131952
 21
1604.661618407
 31
0.0
  0
ARC
  5
8E
330
1F
100
AcDbEntity
  8
INTERIOR_LOOPS
  6
CONTINUOUS
 62
     3
100
AcDbCircle
 10
318.3299986318
 20
1593.6576782624
 30
0.0
 40
328.2534594093712
100
AcDbArc
 50
85.2067743474
 51
92.594150615
  0
LINE
  5
8F
330
1F
100
AcDbEntity
  8
INTERIOR_LOOPS
  6
CONTINUOUS
 62
     3
100
AcDbLine
 10
345.7588651672
 20
1920.7631519234
 30
0.0
 11
340.2350557589
 21
1871.0488661736
 31
0.0
  0
LINE
  5
90
330
1F
100
AcDbEntity
  8
INTERIOR_LOOPS
  6
CONTINUOUS
 62
     3
100
AcDbLine
 10
301.8619587007
 20
1669.6918556281
 30
0.0
 11
305.5083037004
 21
1667.3179550164
 31
0.0
  0
LINE
  5
91
330
1F
100
AcDbEntity
  8
INTERIOR_LOOPS
  6
CONTINUOUS
 62
     3
100
AcDbLine
 10
305.5083037004
 20
1667.3179550164
 30
0.0
 11
272.0112030918
 21
1629.4516673776
 31
0.0
  0
ARC
  5
92
330
1F
100
AcDbEntity
  8
INTERIOR_LOOPS
  6
CONTINUOUS
 62
     3
100
AcDbCircle
 10
160.418835892
 20
1774.3862674234
 30
0.0
 40
83.21151319187516
100
AcDbArc
 50
117.7037915401
 51
127.2631128588
  0
LINE
  5
93
330
1F
100
AcDbEntity
  8
INTERIOR_LOOPS
  6
CONTINUOUS
 62
     3
100
AcDbLine
 10
181.4775000838
 20
1866.3873054681
 30
0.0
 11
189.8088051236
 21
1865.3805783314
 31
0.0
  0
LINE
  5
94
330
1F
100
AcDbEntity
  8
INTERIOR_LOOPS
  6
CONTINUOUS
 62
     3
100
AcDbLine
 10
874.1069633623
 20
895.9792044653
 30
0.0
 11
875.7133731383
 21
878.362634311
 31
0.0
  0
LINE
  5
95
330
1F
100
AcDbEntity
  8
INTERIOR_LOOPS
  6
CONTINUOUS
 62
     3
100
AcDbLine
 10
872.4189568654
 20
909.1336524737
 30
0.0
 11
874.1069633623
 21
895.9792044653
 31
0.0
  0
ARC
  5
96
330
1F
100
AcDbEntity
  8
INTERIOR_LOOPS
  6
CONTINUOUS
 62
     3
100
AcDbCircle
 10
148.5854958892
 20
802.7998568729
 30
0.0
 40
731.6021837827143
100
AcDbArc
 50
8.3571847556
 51
10.4468472751
  0
LINE
  5
97
330
1F
100
AcDbEntity
  8
INTERIOR_LOOPS
  6
CONTINUOUS
 62
     3
100
AcDbLine
 10
864.5453378756
 20
954.9119917354
 30
0.0
 11
868.0603071844
 21
935.4563728361
 31
0.0
  0
LINE
  5
98
330
1F
100
AcDbEntity
  8
INTERIOR_LOOPS
  6
CONTINUOUS
 62
     3
100
AcDbLine
 10
864.443215807
 20
955.501430294
 30
0.0
 11
864.5453378756
 21
954.9119917354
 31
0.0
  0
LINE
  5
99
330
1F
100
AcDbEntity
  8
INTERIOR_LOOPS
  6
CONTINUOUS
 62
     3
100
AcDbLine
 10
862.5975813045
 20
967.2943306145
 30
0.0
 11
864.443215807
 21
955.501430294
 31
0.0
  0
LINE
  5
9A
330
1F
100
AcDbEntity
  8
INTERIOR_LOOPS
  6
CONTINUOUS
 62
     3
100
AcDbLine
 10
861.4418967377
 20
976.1468087914
 30
0.0
 11
862.5975813045
 21
967.2943306145
 31
0.0
  0
LINE
  5
9B
330
1F
100
AcDbEntity
  8
INTERIOR_LOOPS
  6
CONTINUOUS
 62
     3
100
AcDbLine
 10
861.0822312774
 20
979.3053453233
 30
0.0
 11
861.4418967377
 21
976.1468087914
 31
0.0
  0
LINE
  5
9C
330
1F
100
AcDbEntity
  8
INTERIOR_LOOPS
  6
CONTINUOUS
 62
     3
100
AcDbLine
 10
860.2934036773
 20
986.7222090454
 30
0.0
 11
861.0822312774
 21
979.3053453233
 31
0.0
  0
LINE
  5
9D
330
1F
100
AcDbEntity
  8
INTERIOR_LOOPS
  6
CONTINUOUS
 62
     3
100
AcDbLine
 10
860.2094060704
 20
987.5428024637
 30
0.0
 11
860.2934036773
 21
986.7222090454
 31
0.0
  0
LINE
  5
9E
330
1F
100
AcDbEntity
  8
INTERIOR_LOOPS
  6
CONTINUOUS
 62
     3
100
AcDbLine
 10
860.0223484049
 20
989.3789203527
 30
0.0
 11
860.2094060704
 21
987.5428024637
 31
0.0
  0
LINE
  5
9F
330
1F
100
AcDbEntity
  8
INTERIOR_LOOPS
  6
CONTINUOUS
 62
     3
100
AcDbLine
 10
860.0018022313
 20
989.581110528
 30
0.0
 11
860.0223484049
 21
989.3789203527
 31
0.0
  0
LINE
  5
A0
330
1F
100
AcDbEntity
  8
INTERIOR_LOOPS
  6
CONTINUOUS
 62
     3
100
AcDbLine
 10
859.9548379824
 20
990.0434396107
 30
0.0
 11
860.0018022313
 21
989.581110528
 31
0.0
  0
LINE
  5
A1
330
1F
100
AcDbEntity
  8
INTERIOR_LOOPS
  6
CONTINUOUS
 62
     3
100
AcDbLine
 10
859.9512808947
 20
990.0784631255
 30
0.0
 11
859.9548379824
 21
990.0434396107
 31
0.0
  0
LINE
  5
A2
330
1F
100
AcDbEntity
  8
INTERIOR_LOOPS
  6
CONTINUOUS
 62
     3
100
AcDbLine
 10
859.8904763586
 20
990.6771913667
 30
0.0
 11
859.9512808947
 21
990.0784631255
 31
0.0
  0
LINE
  5
A3
330
1F
100
AcDbEntity
  8
INTERIOR_LOOPS
  6
CONTINUOUS
 62
     3
100
AcDbLine
 10
859.8873431064
 20
990.7080425959
 30
0.0
 11
859.8904763586
 21
990.6771913667
 31
0.0
  0
LINE
  5
A4
330
1F
100
AcDbEntity
  8
INTERIOR_LOOPS
  6
CONTINUOUS
 62
     3
100
AcDbLine
 10
859.7906470499
 20
991.6596701464
 30
0.0
 11
859.8873431064
 21
990.7080425959
 31
0.0
  0
LINE
  5
A5
330
1F
100
AcDbEntity
  8
INTERIOR_LOOPS
  6
CONTINUOUS
 62
     3
100
AcDbLine
 10
859.7522283696
 20
992.0373940571
 30
0.0
 11
859.7906470499
 21
991.6596701464
 31
0.0
  0
LINE
  5
A6
330
1F
100
AcDbEntity
  8
INTERIOR_LOOPS
  6
CONTINUOUS
 62
     3
100
AcDbLine
 10
859.3672334523
 20
995.7879163577
 30
0.0
 11
859.7522283696
 21
992.0373940571
 31
0.0
  0
LINE
  5
A7
330
1F
100
AcDbEntity
  8
INTERIOR_LOOPS
  6
CONTINUOUS
 62
     3
100
AcDbLine
 10
859.2038100902
 20
997.3528644571
 30
0.0
 11
859.3672334523
 21
995.7879163577
 31
0.0
  0
LINE
  5
A8
330
1F
100
AcDbEntity
  8
INTERIOR_LOOPS
  6
CONTINUOUS
 62
     3
100
AcDbLine
 10
857.4022062662
 20
1012.333708243
 30
0.0
 11
859.2038100902
 21
997.3528644571
 31
0.0
  0
LINE
  5
A9
330
1F
100
AcDbEntity
  8
INTERIOR_LOOPS
  6
CONTINUOUS
 62
     3
100
AcDbLine
 10
856.4983504554
 20
1018.3470319141
 30
0.0
 11
857.4022062662
 21
1012.333708243
 31
0.0
  0
ARC
  5
AA
330
1F
100
AcDbEntity
  8
INTERIOR_LOOPS
  6
CONTINUOUS
 62
     3
100
AcDbCircle
 10
679.6458829132
 20
989.0903396632
 30
0.0
 40
179.2560998048455
100
AcDbArc
 50
9.3933640414
 51
13.3993442132
  0
LINE
  5
AB
330
1F
100
AcDbEntity
  8
INTERIOR_LOOPS
  6
CONTINUOUS
 62
     3
100
AcDbLine
 10
851.9195760723
 20
1038.2634934828
 30
0.0
 11
854.0223682911
 21
1030.6305691339
 31
0.0
  0
ARC
  5
AC
330
1F
100
AcDbEntity
  8
INTERIOR_LOOPS
  6
CONTINUOUS
 62
     3
100
AcDbCircle
 10
759.9794594891
 20
1009.4418242922
 30
0.0
 40
96.35182225720199
100
AcDbArc
 50
17.4053243772
 51
24.1072337259
  0
ARC
  5
AD
330
1F
100
AcDbEntity
  8
INTERIOR_LOOPS
  6
CONTINUOUS
 62
     3
100
AcDbCircle
 10
782.4603121432
 20
1019.5014020289
 30
0.0
 40
71.72289941636922
100
AcDbArc
 50
24.1072337311
 51
30.8091430449
  0
ARC
  5
AE
330
1F
100
AcDbEntity
  8
INTERIOR_LOOPS
  6
CONTINUOUS
 62
     3
100
AcDbCircle
 10
790.9447805952
 20
1024.5609955325
 30
0.0
 40
61.84435239092248
100
AcDbArc
 50
30.8091430449
 51
38.821847464
  0
ARC
  5
AF
330
1F
100
AcDbEntity
  8
INTERIOR_LOOPS
  6
CONTINUOUS
 62
     3
100
AcDbCircle
 10
777.3945045996
 20
1013.6577838181
 30
0.0
 40
79.23659219047624
100
AcDbArc
 50
38.8218477583
 51
46.8345545642
  0
LINE
  5
B0
330
1F
100
AcDbEntity
  8
INTERIOR_LOOPS
  6
CONTINUOUS
 62
     3
100
AcDbLine
 10
829.8651359808
 20
1073.0401525664
 30
0.0
 11
831.6008394768
 21
1071.4514755253
 31
0.0
  0
LINE
  5
B1
330
1F
100
AcDbEntity
  8
INTERIOR_LOOPS
  6
CONTINUOUS
 62
     3
100
AcDbLine
 10
823.9343349043
 20
1078.2088267616
 30
0.0
 11
829.8651359808
 21
1073.0401525664
 31
0.0
  0
LINE
  5
B2
330
1F
100
AcDbEntity
  8
INTERIOR_LOOPS
  6
CONTINUOUS
 62
     3
100
AcDbLine
 10
816.4583241415
 20
1084.6549505315
 30
0.0
 11
823.9343349043
 21
1078.2088267616
 31
0.0
  0
LINE
  5
B3
330
1F
100
AcDbEntity
  8
INTERIOR_LOOPS
  6
CONTINUOUS
 62
     3
100
AcDbLine
 10
816.1524455506
 20
1084.9261338888
 30
0.0
 11
816.4583241415
 21
1084.6549505315
 31
0.0
  0
ARC
  5
B4
330
1F
100
AcDbEntity
  8
INTERIOR_LOOPS
  6
CONTINUOUS
 62
     3
100
AcDbCircle
 10
878.6113475051
 20
1154.4051128798
 30
0.0
 40
93.42613635919062
100
AcDbArc
 50
219.7027666533
 51
228.0456898352
  0
ARC
  5
B5
330
1F
100
AcDbEntity
  8
INTERIOR_LOOPS
  6
CONTINUOUS
 62
     3
100
AcDbCircle
 10
840.7609316303
 20
1122.9780046137
 30
0.0
 40
44.22941781146663
100
AcDbArc
 50
211.35984348
 51
219.7027666486
  0
LINE
  5
B6
330
1F
100
AcDbEntity
  8
INTERIOR_LOOPS
  6
CONTINUOUS
 62
     3
100
AcDbLine
 10
800.3437133947
 20
1104.9177296618
 30
0.0
 11
802.9927354027
 21
1099.9605166177
 31
0.0
  0
ARC
  5
B7
330
1F
100
AcDbEntity
  8
INTERIOR_LOOPS
  6
CONTINUOUS
 62
     3
100
AcDbCircle
 10
916.4187112438
 20
1158.7443411747
 30
0.0
 40
127.9480724068453
100
AcDbArc
 50
198.3966071783
 51
204.8782253279
  0
LINE
  5
B8
330
1F
100
AcDbEntity
  8
INTERIOR_LOOPS
  6
CONTINUOUS
 62
     3
100
AcDbLine
 10
794.5563571886
 20
1119.7418554119
 30
0.0
 11
795.0094632793
 21
1118.3648446286
 31
0.0
  0
LINE
  5
B9
330
1F
100
AcDbEntity
  8
INTERIOR_LOOPS
  6
CONTINUOUS
 62
     3
100
AcDbLine
 10
793.4276319369
 20
1123.2472811565
 30
0.0
 11
794.5563571886
 21
1119.7418554119
 31
0.0
  0
LINE
  5
BA
330
1F
100
AcDbEntity
  8
INTERIOR_LOOPS
  6
CONTINUOUS
 62
     3
100
AcDbLine
 10
793.3431192678
 20
1123.5127849637
 30
0.0
 11
793.4276319369
 21
1123.2472811565
 31
0.0
  0
LINE
  5
BB
330
1F
100
AcDbEntity
  8
INTERIOR_LOOPS
  6
CONTINUOUS
 62
     3
100
AcDbLine
 10
793.0378278982
 20
1124.4729019421
 30
0.0
 11
793.3431192678
 21
1123.5127849637
 31
0.0
  0
LINE
  5
BC
330
1F
100
AcDbEntity
  8
INTERIOR_LOOPS
  6
CONTINUOUS
 62
     3
100
AcDbLine
 10
792.6835279676
 20
1125.587337877
 30
0.0
 11
793.0378278982
 21
1124.4729019421
 31
0.0
  0
LINE
  5
BD
330
1F
100
AcDbEntity
  8
INTERIOR_LOOPS
  6
CONTINUOUS
 62
     3
100
AcDbLine
 10
792.6479744787
 20
1125.6990904743
 30
0.0
 11
792.6835279676
 21
1125.587337877
 31
0.0
  0
LINE
  5
BE
330
1F
100
AcDbEntity
  8
INTERIOR_LOOPS
  6
CONTINUOUS
 62
     3
100
AcDbLine
 10
792.1194191958
 20
1127.3542516298
 30
0.0
 11
792.6479744787
 21
1125.6990904743
 31
0.0
  0
LINE
  5
BF
330
1F
100
AcDbEntity
  8
INTERIOR_LOOPS
  6
CONTINUOUS
 62
     3
100
AcDbLine
 10
791.863497698
 20
1128.1502969493
 30
0.0
 11
792.1194191958
 21
1127.3542516298
 31
0.0
  0
LINE
  5
C0
330
1F
100
AcDbEntity
  8
INTERIOR_LOOPS
  6
CONTINUOUS
 62
     3
100
AcDbLine
 10
789.5692160414
 20
1134.9292959763
 30
0.0
 11
791.863497698
 21
1128.1502969493
 31
0.0
  0
LINE
  5
C1
330
1F
100
AcDbEntity
  8
INTERIOR_LOOPS
  6
CONTINUOUS
 62
     3
100
AcDbLine
 10
788.4925253864
 20
1137.8341412397
 30
0.0
 11
789.5692160414
 21
1134.9292959763
 31
0.0
  0
ARC
  5
C2
330
1F
100
AcDbEntity
  8
INTERIOR_LOOPS
  6
CONTINUOUS
 62
     3
100
AcDbCircle
 10
693.1624976552
 20
1100.9400319574
 30
0.0
 40
102.2202988010152
100
AcDbArc
 50
21.1571633226
 51
26.3223410758
  0
ARC
  5
C3
330
1F
100
AcDbEntity
  8
INTERIOR_LOOPS
  6
CONTINUOUS
 62
     3
100
AcDbCircle
 10
675.4546216529
 20
1092.179661547
 30
0.0
 40
121.9766385996779
100
AcDbArc
 50
26.3223410728
 51
31.4875187919
  0
LINE
  5
C4
330
1F
100
AcDbEntity
  8
INTERIOR_LOOPS
  6
CONTINUOUS
 62
     3
100
AcDbLine
 10
774.8852908035
 20
1162.888727898
 30
0.0
 11
779.4706837655
 21
1155.8896229867
 31
0.0
  0
LINE
  5
C5
330
1F
100
AcDbEntity
  8
INTERIOR_LOOPS
  6
CONTINUOUS
 62
     3
100
AcDbLine
 10
767.8018682254
 20
1172.3858474661
 30
0.0
 11
774.8852908035
 21
1162.888727898
 31
0.0
  0
LINE
  5
C6
330
1F
100
AcDbEntity
  8
INTERIOR_LOOPS
  6
CONTINUOUS
 62
     3
100
AcDbLine
 10
763.436282967
 20
1177.712574355
 30
0.0
 11
767.8018682254
 21
1172.3858474661
 31
0.0
  0
LINE
  5
C7
330
1F
100
AcDbEntity
  8
INTERIOR_LOOPS
  6
CONTINUOUS
 62
     3
100
AcDbLine
 10
754.5449918066
 20
1187.9092032255
 30
0.0
 11
763.436282967
 21
1177.712574355
 31
0.0
  0
LINE
  5
C8
330
1F
100
AcDbEntity
  8
INTERIOR_LOOPS
  6
CONTINUOUS
 62
     3
100
AcDbLine
 10
753.0054083625
 20
1189.613817263
 30
0.0
 11
754.5449918066
 21
1187.9092032255
 31
0.0
  0
LINE
  5
C9
330
1F
100
AcDbEntity
  8
INTERIOR_LOOPS
  6
CONTINUOUS
 62
     3
100
AcDbLine
 10
747.6520736548
 20
1195.4893825342
 30
0.0
 11
753.0054083625
 21
1189.613817263
 31
0.0
  0
LINE
  5
CA
330
1F
100
AcDbEntity
  8
INTERIOR_LOOPS
  6
CONTINUOUS
 62
     3
100
AcDbLine
 10
741.2855363758
 20
1202.4664330868
 30
0.0
 11
747.6520736548
 21
1195.4893825342
 31
0.0
  0
LINE
  5
CB
330
1F
100
AcDbEntity
  8
INTERIOR_LOOPS
  6
CONTINUOUS
 62
     3
100
AcDbLine
 10
740.7593917479
 20
1203.0463373017
 30
0.0
 11
741.2855363758
 21
1202.4664330868
 31
0.0
  0
LINE
  5
CC
330
1F
100
AcDbEntity
  8
INTERIOR_LOOPS
  6
CONTINUOUS
 62
     3
100
AcDbLine
 10
734.3755538277
 20
1210.2060025928
 30
0.0
 11
740.7593917479
 21
1203.0463373017
 31
0.0
  0
LINE
  5
CD
330
1F
100
AcDbEntity
  8
INTERIOR_LOOPS
  6
CONTINUOUS
 62
     3
100
AcDbLine
 10
727.3597261477
 20
1218.3076534796
 30
0.0
 11
734.3755538277
 21
1210.2060025928
 31
0.0
  0
LINE
  5
CE
330
1F
100
AcDbEntity
  8
INTERIOR_LOOPS
  6
CONTINUOUS
 62
     3
100
AcDbLine
 10
718.0524703624
 20
1229.4168420541
 30
0.0
 11
727.3597261477
 21
1218.3076534796
 31
0.0
  0
LINE
  5
CF
330
1F
100
AcDbEntity
  8
INTERIOR_LOOPS
  6
CONTINUOUS
 62
     3
100
AcDbLine
 10
701.9066614825
 20
1249.4157317708
 30
0.0
 11
718.0524703624
 21
1229.4168420541
 31
0.0
  0
LINE
  5
D0
330
1F
100
AcDbEntity
  8
INTERIOR_LOOPS
  6
CONTINUOUS
 62
     3
100
AcDbLine
 10
698.2554153204
 20
1254.0386133327
 30
0.0
 11
701.9066614825
 21
1249.4157317708
 31
0.0
  0
LINE
  5
D1
330
1F
100
AcDbEntity
  8
INTERIOR_LOOPS
  6
CONTINUOUS
 62
     3
100
AcDbLine
 10
689.5358138231
 20
1265.1519958019
 30
0.0
 11
698.2554153204
 21
1254.0386133327
 31
0.0
  0
LINE
  5
D2
330
1F
100
AcDbEntity
  8
INTERIOR_LOOPS
  6
CONTINUOUS
 62
     3
100
AcDbLine
 10
688.6803913668
 20
1266.2460887853
 30
0.0
 11
689.5358138231
 21
1265.1519958019
 31
0.0
  0
LINE
  5
D3
330
1F
100
AcDbEntity
  8
INTERIOR_LOOPS
  6
CONTINUOUS
 62
     3
100
AcDbLine
 10
686.4532640672
 20
1269.0956804857
 30
0.0
 11
688.6803913668
 21
1266.2460887853
 31
0.0
  0
LINE
  5
D4
330
1F
100
AcDbEntity
  8
INTERIOR_LOOPS
  6
CONTINUOUS
 62
     3
100
AcDbLine
 10
686.27939915
 20
1269.318183592
 30
0.0
 11
686.4532640672
 21
1269.0956804857
 31
0.0
  0
LINE
  5
D5
330
1F
100
AcDbEntity
  8
INTERIOR_LOOPS
  6
CONTINUOUS
 62
     3
100
AcDbLine
 10
685.6825830914
 20
1270.0819664961
 30
0.0
 11
686.27939915
 21
1269.318183592
 31
0.0
  0
LINE
  5
D6
330
1F
100
AcDbEntity
  8
INTERIOR_LOOPS
  6
CONTINUOUS
 62
     3
100
AcDbLine
 10
684.9795555724
 20
1270.9816716087
 30
0.0
 11
685.6825830914
 21
1270.0819664961
 31
0.0
  0
LINE
  5
D7
330
1F
100
AcDbEntity
  8
INTERIOR_LOOPS
  6
CONTINUOUS
 62
     3
100
AcDbLine
 10
684.9118071385
 20
1271.0683714333
 30
0.0
 11
684.9795555724
 21
1270.9816716087
 31
0.0
  0
LINE
  5
D8
330
1F
100
AcDbEntity
  8
INTERIOR_LOOPS
  6
CONTINUOUS
 62
     3
100
AcDbLine
 10
683.8251894686
 20
1272.4588482756
 30
0.0
 11
684.9118071385
 21
1271.0683714333
 31
0.0
  0
LINE
  5
D9
330
1F
100
AcDbEntity
  8
INTERIOR_LOOPS
  6
CONTINUOUS
 62
     3
100
AcDbLine
 10
683.3698151759
 20
1273.0414840707
 30
0.0
 11
683.8251894686
 21
1272.4588482756
 31
0.0
  0
LINE
  5
DA
330
1F
100
AcDbEntity
  8
INTERIOR_LOOPS
  6
CONTINUOUS
 62
     3
100
AcDbLine
 10
679.0992847414
 20
1278.5002379332
 30
0.0
 11
683.3698151759
 21
1273.0414840707
 31
0.0
  0
LINE
  5
DB
330
1F
100
AcDbEntity
  8
INTERIOR_LOOPS
  6
CONTINUOUS
 62
     3
100
AcDbLine
 10
677.1902919893
 20
1280.9359908061
 30
0.0
 11
679.0992847414
 21
1278.5002379332
 31
0.0
  0
LINE
  5
DC
330
1F
100
AcDbEntity
  8
INTERIOR_LOOPS
  6
CONTINUOUS
 62
     3
100
AcDbLine
 10
659.8236600731
 20
1302.7760486795
 30
0.0
 11
677.1902919893
 21
1280.9359908061
 31
0.0
  0
LINE
  5
DD
330
1F
100
AcDbEntity
  8
INTERIOR_LOOPS
  6
CONTINUOUS
 62
     3
100
AcDbLine
 10
651.9398339288
 20
1312.4259168814
 30
0.0
 11
659.8236600731
 21
1302.7760486795
 31
0.0
  0
LINE
  5
DE
330
1F
100
AcDbEntity
  8
INTERIOR_LOOPS
  6
CONTINUOUS
 62
     3
100
AcDbLine
 10
636.5829024485
 20
1330.4562624211
 30
0.0
 11
651.9398339288
 21
1312.4259168814
 31
0.0
  0
LINE
  5
DF
330
1F
100
AcDbEntity
  8
INTERIOR_LOOPS
  6
CONTINUOUS
 62
     3
100
AcDbLine
 10
624.8846889241
 20
1343.4429620501
 30
0.0
 11
636.5829024485
 21
1330.4562624211
 31
0.0
  0
LINE
  5
E0
330
1F
100
AcDbEntity
  8
INTERIOR_LOOPS
  6
CONTINUOUS
 62
     3
100
AcDbLine
 10
613.9995962148
 20
1354.9233555654
 30
0.0
 11
624.8846889241
 21
1343.4429620501
 31
0.0
  0
LINE
  5
E1
330
1F
100
AcDbEntity
  8
INTERIOR_LOOPS
  6
CONTINUOUS
 62
     3
100
AcDbLine
 10
595.6688487535
 20
1373.3756231319
 30
0.0
 11
613.9995962148
 21
1354.9233555654
 31
0.0
  0
LINE
  5
E2
330
1F
100
AcDbEntity
  8
INTERIOR_LOOPS
  6
CONTINUOUS
 62
     3
100
AcDbLine
 10
591.550905953
 20
1377.3963644336
 30
0.0
 11
595.6688487535
 21
1373.3756231319
 31
0.0
  0
LINE
  5
E3
330
1F
100
AcDbEntity
  8
INTERIOR_LOOPS
  6
CONTINUOUS
 62
     3
100
AcDbLine
 10
566.9724763328
 20
1401.051515112
 30
0.0
 11
591.550905953
 21
1377.3963644336
 31
0.0
  0
LINE
  5
E4
330
1F
100
AcDbEntity
  8
INTERIOR_LOOPS
  6
CONTINUOUS
 62
     3
100
AcDbLine
 10
545.2474926371
 20
1422.0666756901
 30
0.0
 11
566.9724763328
 21
1401.051515112
 31
0.0
  0
LINE
  5
E5
330
1F
100
AcDbEntity
  8
INTERIOR_LOOPS
  6
CONTINUOUS
 62
     3
100
AcDbLine
 10
542.1049508152
 20
1425.1820158001
 30
0.0
 11
545.2474926371
 21
1422.0666756901
 31
0.0
  0
LINE
  5
E6
330
1F
100
AcDbEntity
  8
INTERIOR_LOOPS
  6
CONTINUOUS
 62
     3
100
AcDbLine
 10
535.7073517481
 20
1431.7258284007
 30
0.0
 11
542.1049508152
 21
1425.1820158001
 31
0.0
  0
LINE
  5
E7
330
1F
100
AcDbEntity
  8
INTERIOR_LOOPS
  6
CONTINUOUS
 62
     3
100
AcDbLine
 10
532.1411866304
 20
1435.5150499752
 30
0.0
 11
535.7073517481
 21
1431.7258284007
 31
0.0
  0
LINE
  5
E8
330
1F
100
AcDbEntity
  8
INTERIOR_LOOPS
  6
CONTINUOUS
 62
     3
100
AcDbLine
 10
531.1028320234
 20
1436.6470545719
 30
0.0
 11
532.1411866304
 21
1435.5150499752
 31
0.0
  0
LINE
  5
E9
330
1F
100
AcDbEntity
  8
INTERIOR_LOOPS
  6
CONTINUOUS
 62
     3
100
AcDbLine
 10
529.9769150186
 20
1437.8908271147
 30
0.0
 11
531.1028320234
 21
1436.6470545719
 31
0.0
  0
LINE
  5
EA
330
1F
100
AcDbEntity
  8
INTERIOR_LOOPS
  6
CONTINUOUS
 62
     3
100
AcDbLine
 10
529.9469288325
 20
1437.924201222
 30
0.0
 11
529.9769150186
 21
1437.8908271147
 31
0.0
  0
LINE
  5
EB
330
1F
100
AcDbEntity
  8
INTERIOR_LOOPS
  6
CONTINUOUS
 62
     3
100
AcDbLine
 10
528.9376757433
 20
1439.0495202156
 30
0.0
 11
529.9469288325
 21
1437.924201222
 31
0.0
  0
LINE
  5
EC
330
1F
100
AcDbEntity
  8
INTERIOR_LOOPS
  6
CONTINUOUS
 62
     3
100
AcDbLine
 10
528.1577154301
 20
1439.9184735651
 30
0.0
 11
528.9376757433
 21
1439.0495202156
 31
0.0
  0
LINE
  5
ED
330
1F
100
AcDbEntity
  8
INTERIOR_LOOPS
  6
CONTINUOUS
 62
     3
100
AcDbLine
 10
527.9085569648
 20
1440.1951101105
 30
0.0
 11
528.1577154301
 21
1439.9184735651
 31
0.0
  0
LINE
  5
EE
330
1F
100
AcDbEntity
  8
INTERIOR_LOOPS
  6
CONTINUOUS
 62
     3
100
AcDbLine
 10
525.0241909234
 20
1443.2948771394
 30
0.0
 11
527.9085569648
 21
1440.1951101105
 31
0.0
  0
LINE
  5
EF
330
1F
100
AcDbEntity
  8
INTERIOR_LOOPS
  6
CONTINUOUS
 62
     3
100
AcDbLine
 10
523.5797804928
 20
1444.7544469565
 30
0.0
 11
525.0241909234
 21
1443.2948771394
 31
0.0
  0
LINE
  5
F0
330
1F
100
AcDbEntity
  8
INTERIOR_LOOPS
  6
CONTINUOUS
 62
     3
100
AcDbLine
 10
520.9925515284
 20
1447.161528924
 30
0.0
 11
523.5797804928
 21
1444.7544469565
 31
0.0
  0
LINE
  5
F1
330
1F
100
AcDbEntity
  8
INTERIOR_LOOPS
  6
CONTINUOUS
 62
     3
100
AcDbLine
 10
518.158906661
 20
1449.5361698097
 30
0.0
 11
520.9925515284
 21
1447.161528924
 31
0.0
  0
LINE
  5
F2
330
1F
100
AcDbEntity
  8
INTERIOR_LOOPS
  6
CONTINUOUS
 62
     3
100
AcDbLine
 10
516.5773005314
 20
1450.7601812035
 30
0.0
 11
518.158906661
 21
1449.5361698097
 31
0.0
  0
LINE
  5
F3
330
1F
100
AcDbEntity
  8
INTERIOR_LOOPS
  6
CONTINUOUS
 62
     3
100
AcDbLine
 10
514.7254269073
 20
1452.1184353146
 30
0.0
 11
516.5773005314
 21
1450.7601812035
 31
0.0
  0
LINE
  5
F4
330
1F
100
AcDbEntity
  8
INTERIOR_LOOPS
  6
CONTINUOUS
 62
     3
100
AcDbLine
 10
513.021693137
 20
1453.2504072898
 30
0.0
 11
514.7254269073
 21
1452.1184353146
 31
0.0
  0
LINE
  5
F5
330
1F
100
AcDbEntity
  8
INTERIOR_LOOPS
  6
CONTINUOUS
 62
     3
100
AcDbLine
 10
512.7796210031
 20
1453.3888262159
 30
0.0
 11
513.021693137
 21
1453.2504072898
 31
0.0
  0
LINE
  5
F6
330
1F
100
AcDbEntity
  8
INTERIOR_LOOPS
  6
CONTINUOUS
 62
     3
100
AcDbLine
 10
511.6050438236
 20
1453.8412848918
 30
0.0
 11
512.7796210031
 21
1453.3888262159
 31
0.0
  0
LINE
  5
F7
330
1F
100
AcDbEntity
  8
INTERIOR_LOOPS
  6
CONTINUOUS
 62
     3
100
AcDbLine
 10
510.7156965075
 20
1453.9586535272
 30
0.0
 11
511.6050438236
 21
1453.8412848918
 31
0.0
  0
LINE
  5
F8
330
1F
100
AcDbEntity
  8
INTERIOR_LOOPS
  6
CONTINUOUS
 62
     3
100
AcDbLine
 10
508.5022853633
 20
1453.6281593596
 30
0.0
 11
510.7156965075
 21
1453.9586535272
 31
0.0
  0
ARC
  5
F9
330
1F
100
AcDbEntity
  8
INTERIOR_LOOPS
  6
CONTINUOUS
 62
     3
100
AcDbCircle
 10
513.7318910197
 20
1437.2693061224
 30
0.0
 40
17.17442443168017
100
AcDbArc
 50
107.7280621892
 51
126.199497708
  0
ARC
  5
FA
330
1F
100
AcDbEntity
  8
INTERIOR_LOOPS
  6
CONTINUOUS
 62
     3
100
AcDbCircle
 10
511.0916666748
 20
1440.8767815818
 30
0.0
 40
12.70400344685218
100
AcDbArc
 50
126.199497708
 51
140.6213068389
  0
LINE
  5
FB
330
1F
100
AcDbEntity
  8
INTERIOR_LOOPS
  6
CONTINUOUS
 62
     3
100
AcDbLine
 10
499.6004982901
 20
1446.279361586
 30
0.0
 11
501.2718587183
 21
1448.9367490306
 31
0.0
  0
LINE
  5
FC
330
1F
100
AcDbEntity
  8
INTERIOR_LOOPS
  6
CONTINUOUS
 62
     3
100
AcDbLine
 10
498.750586447
 20
1443.9193566944
 30
0.0
 11
499.6004982901
 21
1446.279361586
 31
0.0
  0
LINE
  5
FD
330
1F
100
AcDbEntity
  8
INTERIOR_LOOPS
  6
CONTINUOUS
 62
     3
100
AcDbLine
 10
498.0795318015
 20
1439.9105205681
 30
0.0
 11
498.750586447
 21
1443.9193566944
 31
0.0
  0
LINE
  5
FE
330
1F
100
AcDbEntity
  8
INTERIOR_LOOPS
  6
CONTINUOUS
 62
     3
100
AcDbLine
 10
497.9978827948
 20
1437.3757305323
 30
0.0
 11
498.0795318015
 21
1439.9105205681
 31
0.0
  0
LINE
  5
FF
330
1F
100
AcDbEntity
  8
INTERIOR_LOOPS
  6
CONTINUOUS
 62
     3
100
AcDbLine
 10
498.2800153769
 20
1432.2787012249
 30
0.0
 11
497.9978827948
 21
1437.3757305323
 31
0.0
  0
LINE
  5
100
330
1F
100
AcDbEntity
  8
INTERIOR_LOOPS
  6
CONTINUOUS
 62
     3
100
AcDbLine
 10
498.4808660035
 20
1430.509534301
 30
0.0
 11
498.2800153769
 21
1432.2787012249
 31
0.0
  0
LINE
  5
101
330
1F
100
AcDbEntity
  8
INTERIOR_LOOPS
  6
CONTINUOUS
 62
     3
100
AcDbLine
 10
499.4561637489
 20
1423.6406538901
 30
0.0
 11
498.4808660035
 21
1430.509534301
 31
0.0
  0
LINE
  5
102
330
1F
100
AcDbEntity
  8
INTERIOR_LOOPS
  6
CONTINUOUS
 62
     3
100
AcDbLine
 10
500.5339809716
 20
1416.8369545532
 30
0.0
 11
499.4561637489
 21
1423.6406538901
 31
0.0
  0
LINE
  5
103
330
1F
100
AcDbEntity
  8
INTERIOR_LOOPS
  6
CONTINUOUS
 62
     3
100
AcDbLine
 10
500.9541418776
 20
1414.2537941566
 30
0.0
 11
500.5339809716
 21
1416.8369545532
 31
0.0
  0
LINE
  5
104
330
1F
100
AcDbEntity
  8
INTERIOR_LOOPS
  6
CONTINUOUS
 62
     3
100
AcDbLine
 10
503.3387001651
 20
1401.0650968387
 30
0.0
 11
500.9541418776
 21
1414.2537941566
 31
0.0
  0
LINE
  5
105
330
1F
100
AcDbEntity
  8
INTERIOR_LOOPS
  6
CONTINUOUS
 62
     3
100
AcDbLine
 10
504.7845608174
 20
1394.2812738551
 30
0.0
 11
503.3387001651
 21
1401.0650968387
 31
0.0
  0
ARC
  5
106
330
1F
100
AcDbEntity
  8
INTERIOR_LOOPS
  6
CONTINUOUS
 62
     3
100
AcDbCircle
 10
688.4215860709
 20
1436.4179419341
 30
0.0
 40
188.4092774806155
100
AcDbArc
 50
192.9231731485
 51
196.7406538738
  0
LINE
  5
107
330
1F
100
AcDbEntity
  8
INTERIOR_LOOPS
  6
CONTINUOUS
 62
     3
100
AcDbLine
 10
510.5908251221
 20
1374.4642384561
 30
0.0
 11
507.9974029807
 21
1382.1485214746
 31
0.0
  0
LINE
  5
108
330
1F
100
AcDbEntity
  8
INTERIOR_LOOPS
  6
CONTINUOUS
 62
     3
100
AcDbLine
 10
510.7059773835
 20
1374.1673908891
 30
0.0
 11
510.5908251221
 21
1374.4642384561
 31
0.0
  0
LINE
  5
109
330
1F
100
AcDbEntity
  8
INTERIOR_LOOPS
  6
CONTINUOUS
 62
     3
100
AcDbLine
 10
514.4294410944
 20
1365.173793664
 30
0.0
 11
510.7059773835
 21
1374.1673908891
 31
0.0
  0
LINE
  5
10A
330
1F
100
AcDbEntity
  8
INTERIOR_LOOPS
  6
CONTINUOUS
 62
     3
100
AcDbLine
 10
517.1973973484
 20
1358.2488419791
 30
0.0
 11
514.4294410944
 21
1365.173793664
 31
0.0
  0
LINE
  5
10B
330
1F
100
AcDbEntity
  8
INTERIOR_LOOPS
  6
CONTINUOUS
 62
     3
100
AcDbLine
 10
518.0242823597
 20
1355.8599293307
 30
0.0
 11
517.1973973484
 21
1358.2488419791
 31
0.0
  0
ARC
  5
10C
330
1F
100
AcDbEntity
  8
INTERIOR_LOOPS
  6
CONTINUOUS
 62
     3
100
AcDbCircle
 10
471.1992999288
 20
1340.8753989853
 30
0.0
 40
49.1641650933833
100
AcDbArc
 50
1.9522271813
 51
17.7452665235
  0
ARC
  5
10D
330
1F
100
AcDbEntity
  8
INTERIOR_LOOPS
  6
CONTINUOUS
 62
     3
100
AcDbCircle
 10
491.935484909
 20
1341.5822122529
 30
0.0
 40
28.41593739733127
100
AcDbArc
 50
346.1591878463
 51
1.9522271787
  0
LINE
  5
10E
330
1F
100
AcDbEntity
  8
INTERIOR_LOOPS
  6
CONTINUOUS
 62
     3
100
AcDbLine
 10
518.5531246131
 20
1331.8701200465
 30
0.0
 11
519.5263406897
 21
1334.7844055876
 31
0.0
  0
LINE
  5
10F
330
1F
100
AcDbEntity
  8
INTERIOR_LOOPS
  6
CONTINUOUS
 62
     3
100
AcDbLine
 10
517.6648031907
 20
1330.1794145524
 30
0.0
 11
518.5531246131
 21
1331.8701200465
 31
0.0
  0
LINE
  5
110
330
1F
100
AcDbEntity
  8
INTERIOR_LOOPS
  6
CONTINUOUS
 62
     3
100
AcDbLine
 10
516.1492313953
 20
1328.348440701
 30
0.0
 11
517.6648031907
 21
1330.1794145524
 31
0.0
  0
LINE
  5
111
330
1F
100
AcDbEntity
  8
INTERIOR_LOOPS
  6
CONTINUOUS
 62
     3
100
AcDbLine
 10
514.4745798876
 20
1327.1388714874
 30
0.0
 11
516.1492313953
 21
1328.348440701
 31
0.0
  0
LINE
  5
112
330
1F
100
AcDbEntity
  8
INTERIOR_LOOPS
  6
CONTINUOUS
 62
     3
100
AcDbLine
 10
512.0373275811
 20
1326.2480640353
 30
0.0
 11
514.4745798876
 21
1327.1388714874
 31
0.0
  0
ARC
  5
113
330
1F
100
AcDbEntity
  8
INTERIOR_LOOPS
  6
CONTINUOUS
 62
     3
100
AcDbCircle
 10
507.0770688264
 20
1350.4413001811
 30
0.0
 40
24.69649453096397
100
AcDbArc
 50
264.6054055203
 51
281.5865929207
  0
LINE
  5
114
330
1F
100
AcDbEntity
  8
INTERIOR_LOOPS
  6
CONTINUOUS
 62
     3
100
AcDbLine
 10
499.1580863161
 20
1326.6984666529
 30
0.0
 11
504.7552430203
 21
1325.854190407
 31
0.0
  0
ARC
  5
115
330
1F
100
AcDbEntity
  8
INTERIOR_LOOPS
  6
CONTINUOUS
 62
     3
100
AcDbCircle
 10
530.5622078293
 20
1477.5332096164
 30
0.0
 40
154.0692653739719
100
AcDbArc
 50
251.8724214574
 51
258.2389134926
  0
ARC
  5
116
330
1F
100
AcDbEntity
  8
INTERIOR_LOOPS
  6
CONTINUOUS
 62
     3
100
AcDbCircle
 10
521.7972917437
 20
1450.7605607642
 30
0.0
 40
125.8983853573367
100
AcDbArc
 50
242.3394444718
 51
251.8724214574
  0
ARC
  5
117
330
1F
100
AcDbEntity
  8
INTERIOR_LOOPS
  6
CONTINUOUS
 62
     3
100
AcDbCircle
 10
516.2404952074
 20
1440.1594979528
 30
0.0
 40
113.9292366689687
100
AcDbArc
 50
232.8029012054
 51
242.3396318045
  0
ARC
  5
118
330
1F
100
AcDbEntity
  8
INTERIOR_LOOPS
  6
CONTINUOUS
 62
     3
100
AcDbCircle
 10
531.4720301143
 20
1460.2284141801
 30
0.0
 40
139.1237014274848
100
AcDbArc
 50
218.4918933535
 51
232.8029012054
  0
ARC
  5
119
330
1F
100
AcDbEntity
  8
INTERIOR_LOOPS
  6
CONTINUOUS
 62
     3
100
AcDbCircle
 10
568.7087798269
 20
1489.8403911708
 30
0.0
 40
186.6993749369609
100
AcDbArc
 50
204.1830156529
 51
218.4921647615
  0
ARC
  5
11A
330
1F
100
AcDbEntity
  8
INTERIOR_LOOPS
  6
CONTINUOUS
 62
     3
100
AcDbCircle
 10
562.969792155
 20
1487.2632324033
 30
0.0
 40
180.4082918213123
100
AcDbArc
 50
197.9221532169
 51
204.1830156529
  0
ARC
  5
11B
330
1F
100
AcDbEntity
  8
INTERIOR_LOOPS
  6
CONTINUOUS
 62
     3
100
AcDbCircle
 10
578.2196156792
 20
1492.1956700708
 30
0.0
 40
196.4359572393008
100
AcDbArc
 50
191.6637849914
 51
197.9222549711
  0
LINE
  5
11C
330
1F
100
AcDbEntity
  8
INTERIOR_LOOPS
  6
CONTINUOUS
 62
     3
100
AcDbLine
 10
383.7168606954
 20
1464.4711422541
 30
0.0
 11
385.8399055754
 21
1452.4825433127
 31
0.0
  0
ARC
  5
11D
330
1F
100
AcDbEntity
  8
INTERIOR_LOOPS
  6
CONTINUOUS
 62
     3
100
AcDbCircle
 10
878.289689227
 20
1537.6872464253
 30
0.0
 40
499.962879253858
100
AcDbArc
 50
185.1779224528
 51
188.4208537228
  0
LINE
  5
11E
330
1F
100
AcDbEntity
  8
INTERIOR_LOOPS
  6
CONTINUOUS
 62
     3
100
AcDbLine
 10
380.1015046851
 20
1495.5545911663
 30
0.0
 11
380.3670346115
 21
1492.5661798108
 31
0.0
  0
LINE
  5
11F
330
1F
100
AcDbEntity
  8
INTERIOR_LOOPS
  6
CONTINUOUS
 62
     3
100
AcDbLine
 10
379.4974856375
 20
1502.633177471
 30
0.0
 11
380.1015046851
 21
1495.5545911663
 31
0.0
  0
LINE
  5
120
330
1F
100
AcDbEntity
  8
INTERIOR_LOOPS
  6
CONTINUOUS
 62
     3
100
AcDbLine
 10
379.437024234
 20
1503.3575702461
 30
0.0
 11
379.4974856375
 21
1502.633177471
 31
0.0
  0
LINE
  5
121
330
1F
100
AcDbEntity
  8
INTERIOR_LOOPS
  6
CONTINUOUS
 62
     3
100
AcDbLine
 10
379.2878259662
 20
1505.1495781399
 30
0.0
 11
379.437024234
 21
1503.3575702461
 31
0.0
  0
LINE
  5
122
330
1F
100
AcDbEntity
  8
INTERIOR_LOOPS
  6
CONTINUOUS
 62
     3
100
AcDbLine
 10
379.2789278594
 20
1505.2565903389
 30
0.0
 11
379.2878259662
 21
1505.1495781399
 31
0.0
  0
LINE
  5
123
330
1F
100
AcDbEntity
  8
INTERIOR_LOOPS
  6
CONTINUOUS
 62
     3
100
AcDbLine
 10
379.2355277837
 20
1505.778606053
 30
0.0
 11
379.2789278594
 21
1505.2565903389
 31
0.0
  0
LINE
  5
124
330
1F
100
AcDbEntity
  8
INTERIOR_LOOPS
  6
CONTINUOUS
 62
     3
100
AcDbLine
 10
379.1855411527
 20
1506.3798564305
 30
0.0
 11
379.2355277837
 21
1505.778606053
 31
0.0
  0
LINE
  5
125
330
1F
100
AcDbEntity
  8
INTERIOR_LOOPS
  6
CONTINUOUS
 62
     3
100
AcDbLine
 10
379.1832344396
 20
1506.4075992978
 30
0.0
 11
379.1855411527
 21
1506.3798564305
 31
0.0
  0
LINE
  5
126
330
1F
100
AcDbEntity
  8
INTERIOR_LOOPS
  6
CONTINUOUS
 62
     3
100
AcDbLine
 10
379.1168761209
 20
1507.2053849084
 30
0.0
 11
379.1832344396
 21
1506.4075992978
 31
0.0
  0
LINE
  5
127
330
1F
100
AcDbEntity
  8
INTERIOR_LOOPS
  6
CONTINUOUS
 62
     3
100
AcDbLine
 10
379.0785785551
 20
1507.6654702497
 30
0.0
 11
379.1168761209
 21
1507.2053849084
 31
0.0
  0
LINE
  5
128
330
1F
100
AcDbEntity
  8
INTERIOR_LOOPS
  6
CONTINUOUS
 62
     3
100
AcDbLine
 10
378.7875263357
 20
1511.1411332543
 30
0.0
 11
379.0785785551
 21
1507.6654702497
 31
0.0
  0
LINE
  5
129
330
1F
100
AcDbEntity
  8
INTERIOR_LOOPS
  6
CONTINUOUS
 62
     3
100
AcDbLine
 10
378.6559629762
 20
1512.6949906711
 30
0.0
 11
378.7875263357
 21
1511.1411332543
 31
0.0
  0
LINE
  5
12A
330
1F
100
AcDbEntity
  8
INTERIOR_LOOPS
  6
CONTINUOUS
 62
     3
100
AcDbLine
 10
378.0904221699
 20
1519.1442027233
 30
0.0
 11
378.6559629762
 21
1512.6949906711
 31
0.0
  0
LINE
  5
12B
330
1F
100
AcDbEntity
  8
INTERIOR_LOOPS
  6
CONTINUOUS
 62
     3
100
AcDbLine
 10
377.7567460308
 20
1522.7398094738
 30
0.0
 11
378.0904221699
 21
1519.1442027233
 31
0.0
  0
LINE
  5
12C
330
1F
100
AcDbEntity
  8
INTERIOR_LOOPS
  6
CONTINUOUS
 62
     3
100
AcDbLine
 10
377.6779546349
 20
1523.5604097276
 30
0.0
 11
377.7567460308
 21
1522.7398094738
 31
0.0
  0
LINE
  5
12D
330
1F
100
AcDbEntity
  8
INTERIOR_LOOPS
  6
CONTINUOUS
 62
     3
100
AcDbLine
 10
377.5137783604
 20
1525.2471395944
 30
0.0
 11
377.6779546349
 21
1523.5604097276
 31
0.0
  0
LINE
  5
12E
330
1F
100
AcDbEntity
  8
INTERIOR_LOOPS
  6
CONTINUOUS
 62
     3
100
AcDbLine
 10
377.4934331734
 20
1525.4546568978
 30
0.0
 11
377.5137783604
 21
1525.2471395944
 31
0.0
  0
LINE
  5
12F
330
1F
100
AcDbEntity
  8
INTERIOR_LOOPS
  6
CONTINUOUS
 62
     3
100
AcDbLine
 10
377.4522942061
 20
1525.8738190173
 30
0.0
 11
377.4934331734
 21
1525.4546568978
 31
0.0
  0
LINE
  5
130
330
1F
100
AcDbEntity
  8
INTERIOR_LOOPS
  6
CONTINUOUS
 62
     3
100
AcDbLine
 10
377.4375326521
 20
1526.0241216801
 30
0.0
 11
377.4522942061
 21
1525.8738190173
 31
0.0
  0
LINE
  5
131
330
1F
100
AcDbEntity
  8
INTERIOR_LOOPS
  6
CONTINUOUS
 62
     3
100
AcDbLine
 10
377.4215188041
 20
1526.1871507593
 30
0.0
 11
377.4375326521
 21
1526.0241216801
 31
0.0
  0
LINE
  5
132
330
1F
100
AcDbEntity
  8
INTERIOR_LOOPS
  6
CONTINUOUS
 62
     3
100
AcDbLine
 10
377.4061289905
 20
1526.3438158333
 30
0.0
 11
377.4215188041
 21
1526.1871507593
 31
0.0
  0
LINE
  5
133
330
1F
100
AcDbEntity
  8
INTERIOR_LOOPS
  6
CONTINUOUS
 62
     3
100
AcDbLine
 10
377.3907401373
 20
1526.5004808313
 30
0.0
 11
377.4061289905
 21
1526.3438158333
 31
0.0
  0
LINE
  5
134
330
1F
100
AcDbEntity
  8
INTERIOR_LOOPS
  6
CONTINUOUS
 62
     3
100
AcDbLine
 10
377.2991139275
 20
1527.4345608419
 30
0.0
 11
377.3907401373
 21
1526.5004808313
 31
0.0
  0
LINE
  5
135
330
1F
100
AcDbEntity
  8
INTERIOR_LOOPS
  6
CONTINUOUS
 62
     3
100
AcDbLine
 10
377.267877098
 20
1527.7538390626
 30
0.0
 11
377.2991139275
 21
1527.4345608419
 31
0.0
  0
LINE
  5
136
330
1F
100
AcDbEntity
  8
INTERIOR_LOOPS
  6
CONTINUOUS
 62
     3
100
AcDbLine
 10
376.9289665932
 20
1531.3080993081
 30
0.0
 11
377.267877098
 21
1527.7538390626
 31
0.0
  0
LINE
  5
137
330
1F
100
AcDbEntity
  8
INTERIOR_LOOPS
  6
CONTINUOUS
 62
     3
100
AcDbLine
 10
376.7963704408
 20
1532.7709391297
 30
0.0
 11
376.9289665932
 21
1531.3080993081
 31
0.0
  0
ARC
  5
138
330
1F
100
AcDbEntity
  8
INTERIOR_LOOPS
  6
CONTINUOUS
 62
     3
100
AcDbCircle
 10
561.8759436491
 20
1549.1114864608
 30
0.0
 40
185.7995207368828
100
AcDbArc
 50
181.11035179
 51
185.0455218795
  0
LINE
  5
139
330
1F
100
AcDbEntity
  8
INTERIOR_LOOPS
  6
CONTINUOUS
 62
     3
100
AcDbLine
 10
376.224693568
 20
1553.0887511528
 30
0.0
 11
376.1113109811
 21
1545.5110481853
 31
0.0
  0
LINE
  5
13A
330
1F
100
AcDbEntity
  8
INTERIOR_LOOPS
  6
CONTINUOUS
 62
     3
100
AcDbLine
 10
376.3422506072
 20
1555.1218828535
 30
0.0
 11
376.224693568
 21
1553.0887511528
 31
0.0
  0
LINE
  5
13B
330
1F
100
AcDbEntity
  8
INTERIOR_LOOPS
  6
CONTINUOUS
 62
     3
100
AcDbLine
 10
376.9636409357
 20
1563.4288639712
 30
0.0
 11
376.3422506072
 21
1555.1218828535
 31
0.0
  0
LINE
  5
13C
330
1F
100
AcDbEntity
  8
INTERIOR_LOOPS
  6
CONTINUOUS
 62
     3
100
AcDbLine
 10
377.6563844351
 20
1572.4908639792
 30
0.0
 11
376.9636409357
 21
1563.4288639712
 31
0.0
  0
LINE
  5
13D
330
1F
100
AcDbEntity
  8
INTERIOR_LOOPS
  6
CONTINUOUS
 62
     3
100
AcDbLine
 10
377.7343821363
 20
1573.7341535536
 30
0.0
 11
377.6563844351
 21
1572.4908639792
 31
0.0
  0
ARC
  5
13E
330
1F
100
AcDbEntity
  8
INTERIOR_LOOPS
  6
CONTINUOUS
 62
     3
100
AcDbCircle
 10
269.267838078
 20
1579.7962501894
 30
0.0
 40
108.6358145161162
100
AcDbArc
 50
356.8011188156
 51
4.1251965303
  0
LINE
  5
13F
330
1F
100
AcDbEntity
  8
INTERIOR_LOOPS
  6
CONTINUOUS
 62
     3
100
AcDbLine
 10
376.7977765272
 20
1593.6395380182
 30
0.0
 11
377.6222037705
 21
1587.6110842217
 31
0.0
  0
ARC
  5
140
330
1F
100
AcDbEntity
  8
INTERIOR_LOOPS
  6
CONTINUOUS
 62
     3
100
AcDbCircle
 10
333.2153169956
 20
1584.8127612474
 30
0.0
 40
44.46732246252491
100
AcDbArc
 50
11.4492742447
 51
22.1593113934
  0
ARC
  5
141
330
1F
100
AcDbEntity
  8
INTERIOR_LOOPS
  6
CONTINUOUS
 62
     3
100
AcDbCircle
 10
317.640475006
 20
1578.4696847108
 30
0.0
 40
61.28428779362011
100
AcDbArc
 50
22.1593113934
 51
32.8693485422
  0
LINE
  5
142
330
1F
100
AcDbEntity
  8
INTERIOR_LOOPS
  6
CONTINUOUS
 62
     3
100
AcDbLine
 10
364.5896619774
 20
1618.0054174593
 30
0.0
 11
369.1137811326
 21
1611.7302121686
 31
0.0
  0
ARC
  5
143
330
1F
100
AcDbEntity
  8
INTERIOR_LOOPS
  6
CONTINUOUS
 62
     3
100
AcDbCircle
 10
264.6368651994
 20
1537.8988858218
 30
0.0
 40
128.0922245678028
100
AcDbArc
 50
38.710207834
 51
44.5510671264
  0
LINE
  5
144
330
1F
100
AcDbEntity
  8
INTERIOR_LOOPS
  6
CONTINUOUS
 62
     3
100
AcDbLine
 10
349.5870979267
 20
1633.8895378969
 30
0.0
 11
355.9186447412
 21
1627.7613068798
 31
0.0
  0
LINE
  5
145
330
1F
100
AcDbEntity
  8
INTERIOR_LOOPS
  6
CONTINUOUS
 62
     3
100
AcDbLine
 10
340.5352787156
 20
1641.8407732925
 30
0.0
 11
349.5870979267
 21
1633.8895378969
 31
0.0
  0
LINE
  5
146
330
1F
100
AcDbEntity
  8
INTERIOR_LOOPS
  6
CONTINUOUS
 62
     3
100
AcDbLine
 10
573.4045253519
 20
1329.1411636306
 30
0.0
 11
569.3493879494
 21
1335.9170009426
 31
0.0
  0
LINE
  5
147
330
1F
100
AcDbEntity
  8
INTERIOR_LOOPS
  6
CONTINUOUS
 62
     3
100
AcDbLine
 10
578.2858138343
 20
1321.7363513324
 30
0.0
 11
573.4045253519
 21
1329.1411636306
 31
0.0
  0
LINE
  5
148
330
1F
100
AcDbEntity
  8
INTERIOR_LOOPS
  6
CONTINUOUS
 62
     3
100
AcDbLine
 10
581.6515786063
 20
1317.1618677065
 30
0.0
 11
578.2858138343
 21
1321.7363513324
 31
0.0
  0
LINE
  5
149
330
1F
100
AcDbEntity
  8
INTERIOR_LOOPS
  6
CONTINUOUS
 62
     3
100
AcDbLine
 10
584.0518454107
 20
1314.1957895715
 30
0.0
 11
581.6515786063
 21
1317.1618677065
 31
0.0
  0
LINE
  5
14A
330
1F
100
AcDbEntity
  8
INTERIOR_LOOPS
  6
CONTINUOUS
 62
     3
100
AcDbLine
 10
588.1635107379
 20
1309.5160750007
 30
0.0
 11
584.0518454107
 21
1314.1957895715
 31
0.0
  0
LINE
  5
14B
330
1F
100
AcDbEntity
  8
INTERIOR_LOOPS
  6
CONTINUOUS
 62
     3
100
AcDbLine
 10
588.4090742742
 20
1309.2480609914
 30
0.0
 11
588.1635107379
 21
1309.5160750007
 31
0.0
  0
LINE
  5
14C
330
1F
100
AcDbEntity
  8
INTERIOR_LOOPS
  6
CONTINUOUS
 62
     3
100
AcDbLine
 10
588.9141213345
 20
1308.6981260455
 30
0.0
 11
588.4090742742
 21
1309.2480609914
 31
0.0
  0
LINE
  5
14D
330
1F
100
AcDbEntity
  8
INTERIOR_LOOPS
  6
CONTINUOUS
 62
     3
100
AcDbLine
 10
588.9464466133
 20
1308.6629734801
 30
0.0
 11
588.9141213345
 21
1308.6981260455
 31
0.0
  0
LINE
  5
14E
330
1F
100
AcDbEntity
  8
INTERIOR_LOOPS
  6
CONTINUOUS
 62
     3
100
AcDbLine
 10
589.2868747324
 20
1308.292859393
 30
0.0
 11
588.9464466133
 21
1308.6629734801
 31
0.0
  0
LINE
  5
14F
330
1F
100
AcDbEntity
  8
INTERIOR_LOOPS
  6
CONTINUOUS
 62
     3
100
AcDbLine
 10
589.5732801887
 20
1307.9814587513
 30
0.0
 11
589.2868747324
 21
1308.292859393
 31
0.0
  0
LINE
  5
150
330
1F
100
AcDbEntity
  8
INTERIOR_LOOPS
  6
CONTINUOUS
 62
     3
100
AcDbLine
 10
589.6583099992
 20
1307.8889736151
 30
0.0
 11
589.5732801887
 21
1307.9814587513
 31
0.0
  0
LINE
  5
151
330
1F
100
AcDbEntity
  8
INTERIOR_LOOPS
  6
CONTINUOUS
 62
     3
100
AcDbLine
 10
590.4251077105
 20
1307.0531877841
 30
0.0
 11
589.6583099992
 21
1307.8889736151
 31
0.0
  0
LINE
  5
152
330
1F
100
AcDbEntity
  8
INTERIOR_LOOPS
  6
CONTINUOUS
 62
     3
100
AcDbLine
 10
591.1376534679
 20
1306.2736022398
 30
0.0
 11
590.4251077105
 21
1307.0531877841
 31
0.0
  0
LINE
  5
153
330
1F
100
AcDbEntity
  8
INTERIOR_LOOPS
  6
CONTINUOUS
 62
     3
100
AcDbLine
 10
592.5994339183
 20
1304.6653281211
 30
0.0
 11
591.1376534679
 21
1306.2736022398
 31
0.0
  0
LINE
  5
154
330
1F
100
AcDbEntity
  8
INTERIOR_LOOPS
  6
CONTINUOUS
 62
     3
100
AcDbLine
 10
594.0778685418
 20
1303.0266399704
 30
0.0
 11
592.5994339183
 21
1304.6653281211
 31
0.0
  0
LINE
  5
155
330
1F
100
AcDbEntity
  8
INTERIOR_LOOPS
  6
CONTINUOUS
 62
     3
100
AcDbLine
 10
603.7109103175
 20
1292.0578484737
 30
0.0
 11
594.0778685418
 21
1303.0266399704
 31
0.0
  0
LINE
  5
156
330
1F
100
AcDbEntity
  8
INTERIOR_LOOPS
  6
CONTINUOUS
 62
     3
100
AcDbLine
 10
616.9277630929
 20
1276.2881555008
 30
0.0
 11
603.7109103175
 21
1292.0578484737
 31
0.0
  0
LINE
  5
157
330
1F
100
AcDbEntity
  8
INTERIOR_LOOPS
  6
CONTINUOUS
 62
     3
100
AcDbLine
 10
623.4876380535
 20
1268.1871999628
 30
0.0
 11
616.9277630929
 21
1276.2881555008
 31
0.0
  0
LINE
  5
158
330
1F
100
AcDbEntity
  8
INTERIOR_LOOPS
  6
CONTINUOUS
 62
     3
100
AcDbLine
 10
639.252989503
 20
1248.2869238729
 30
0.0
 11
623.4876380535
 21
1268.1871999628
 31
0.0
  0
LINE
  5
159
330
1F
100
AcDbEntity
  8
INTERIOR_LOOPS
  6
CONTINUOUS
 62
     3
100
AcDbLine
 10
640.9046055158
 20
1246.1776671305
 30
0.0
 11
639.252989503
 21
1248.2869238729
 31
0.0
  0
LINE
  5
15A
330
1F
100
AcDbEntity
  8
INTERIOR_LOOPS
  6
CONTINUOUS
 62
     3
100
AcDbLine
 10
644.8644700626
 20
1241.1138083611
 30
0.0
 11
640.9046055158
 21
1246.1776671305
 31
0.0
  0
LINE
  5
15B
330
1F
100
AcDbEntity
  8
INTERIOR_LOOPS
  6
CONTINUOUS
 62
     3
100
AcDbLine
 10
645.2328238652
 20
1240.642425196
 30
0.0
 11
644.8644700626
 21
1241.1138083611
 31
0.0
  0
LINE
  5
15C
330
1F
100
AcDbEntity
  8
INTERIOR_LOOPS
  6
CONTINUOUS
 62
     3
100
AcDbLine
 10
646.2733412757
 20
1239.3107857248
 30
0.0
 11
645.2328238652
 21
1240.642425196
 31
0.0
  0
LINE
  5
15D
330
1F
100
AcDbEntity
  8
INTERIOR_LOOPS
  6
CONTINUOUS
 62
     3
100
AcDbLine
 10
647.6577936662
 20
1237.5389677224
 30
0.0
 11
646.2733412757
 21
1239.3107857248
 31
0.0
  0
LINE
  5
15E
330
1F
100
AcDbEntity
  8
INTERIOR_LOOPS
  6
CONTINUOUS
 62
     3
100
AcDbLine
 10
647.6850935653
 20
1237.5040314194
 30
0.0
 11
647.6577936662
 21
1237.5389677224
 31
0.0
  0
LINE
  5
15F
330
1F
100
AcDbEntity
  8
INTERIOR_LOOPS
  6
CONTINUOUS
 62
     3
100
AcDbLine
 10
649.5777343897
 20
1235.0824967441
 30
0.0
 11
647.6850935653
 21
1237.5040314194
 31
0.0
  0
LINE
  5
160
330
1F
100
AcDbEntity
  8
INTERIOR_LOOPS
  6
CONTINUOUS
 62
     3
100
AcDbLine
 10
650.5182138256
 20
1233.8797085465
 30
0.0
 11
649.5777343897
 21
1235.0824967441
 31
0.0
  0
LINE
  5
161
330
1F
100
AcDbEntity
  8
INTERIOR_LOOPS
  6
CONTINUOUS
 62
     3
100
AcDbLine
 10
658.3941207564
 20
1223.8396744758
 30
0.0
 11
650.5182138256
 21
1233.8797085465
 31
0.0
  0
LINE
  5
162
330
1F
100
AcDbEntity
  8
INTERIOR_LOOPS
  6
CONTINUOUS
 62
     3
100
AcDbLine
 10
662.0145604935
 20
1219.2521875495
 30
0.0
 11
658.3941207564
 21
1223.8396744758
 31
0.0
  0
LINE
  5
163
330
1F
100
AcDbEntity
  8
INTERIOR_LOOPS
  6
CONTINUOUS
 62
     3
100
AcDbLine
 10
677.1966618604
 20
1200.377395441
 30
0.0
 11
662.0145604935
 21
1219.2521875495
 31
0.0
  0
LINE
  5
164
330
1F
100
AcDbEntity
  8
INTERIOR_LOOPS
  6
CONTINUOUS
 62
     3
100
AcDbLine
 10
686.199562707
 20
1189.5356981152
 30
0.0
 11
677.1966618604
 21
1200.377395441
 31
0.0
  0
LINE
  5
165
330
1F
100
AcDbEntity
  8
INTERIOR_LOOPS
  6
CONTINUOUS
 62
     3
100
AcDbLine
 10
693.9772363206
 20
1180.5010468409
 30
0.0
 11
686.199562707
 21
1189.5356981152
 31
0.0
  0
LINE
  5
166
330
1F
100
AcDbEntity
  8
INTERIOR_LOOPS
  6
CONTINUOUS
 62
     3
100
AcDbLine
 10
712.1912257924
 20
1160.1771039225
 30
0.0
 11
693.9772363206
 21
1180.5010468409
 31
0.0
  0
LINE
  5
167
330
1F
100
AcDbEntity
  8
INTERIOR_LOOPS
  6
CONTINUOUS
 62
     3
100
AcDbLine
 10
720.9034181414
 20
1150.491697624
 30
0.0
 11
712.1912257924
 21
1160.1771039225
 31
0.0
  0
LINE
  5
168
330
1F
100
AcDbEntity
  8
INTERIOR_LOOPS
  6
CONTINUOUS
 62
     3
100
AcDbLine
 10
723.5839689384
 20
1147.4125765418
 30
0.0
 11
720.9034181414
 21
1150.491697624
 31
0.0
  0
LINE
  5
169
330
1F
100
AcDbEntity
  8
INTERIOR_LOOPS
  6
CONTINUOUS
 62
     3
100
AcDbLine
 10
729.3966323387
 20
1140.3356620802
 30
0.0
 11
723.5839689384
 21
1147.4125765418
 31
0.0
  0
LINE
  5
16A
330
1F
100
AcDbEntity
  8
INTERIOR_LOOPS
  6
CONTINUOUS
 62
     3
100
AcDbLine
 10
732.610139666
 20
1136.0777115322
 30
0.0
 11
729.3966323387
 21
1140.3356620802
 31
0.0
  0
ARC
  5
16B
330
1F
100
AcDbEntity
  8
INTERIOR_LOOPS
  6
CONTINUOUS
 62
     3
100
AcDbCircle
 10
661.8157372889
 20
1084.8986585427
 30
0.0
 40
87.35641288906214
100
AcDbArc
 50
27.4209522026
 51
35.8641122377
  0
ARC
  5
16C
330
1F
100
AcDbEntity
  8
INTERIOR_LOOPS
  6
CONTINUOUS
 62
     3
100
AcDbCircle
 10
682.8673836608
 20
1095.8205641118
 30
0.0
 40
63.6401771795265
100
AcDbArc
 50
18.9777921672
 51
27.4209522027
  0
LINE
  5
16D
330
1F
100
AcDbEntity
  8
INTERIOR_LOOPS
  6
CONTINUOUS
 62
     3
100
AcDbLine
 10
743.1596796772
 20
1116.1864864798
 30
0.0
 11
743.0483795819
 21
1116.5164545585
 31
0.0
  0
LINE
  5
16E
330
1F
100
AcDbEntity
  8
INTERIOR_LOOPS
  6
CONTINUOUS
 62
     3
100
AcDbLine
 10
745.6052228067
 20
1108.6433249591
 30
0.0
 11
743.1596796772
 21
1116.1864864798
 31
0.0
  0
LINE
  5
16F
330
1F
100
AcDbEntity
  8
INTERIOR_LOOPS
  6
CONTINUOUS
 62
     3
100
AcDbLine
 10
748.0374778571
 20
1101.196686417
 30
0.0
 11
745.6052228067
 21
1108.6433249591
 31
0.0
  0
LINE
  5
170
330
1F
100
AcDbEntity
  8
INTERIOR_LOOPS
  6
CONTINUOUS
 62
     3
100
AcDbLine
 10
749.0712526608
 20
1098.1969977415
 30
0.0
 11
748.0374778571
 21
1101.196686417
 31
0.0
  0
ARC
  5
171
330
1F
100
AcDbEntity
  8
INTERIOR_LOOPS
  6
CONTINUOUS
 62
     3
100
AcDbCircle
 10
890.9479896324
 20
1148.37932123
 30
0.0
 40
150.4901129125065
100
AcDbArc
 50
199.4788742756
 51
206.4630115541
  0
ARC
  5
172
330
1F
100
AcDbEntity
  8
INTERIOR_LOOPS
  6
CONTINUOUS
 62
     3
100
AcDbCircle
 10
845.2414283035
 20
1125.627700216
 30
0.0
 40
99.43400644831968
100
AcDbArc
 50
206.4630115456
 51
213.4471488656
  0
ARC
  5
173
330
1F
100
AcDbEntity
  8
INTERIOR_LOOPS
  6
CONTINUOUS
 62
     3
100
AcDbCircle
 10
841.309678557
 20
1123.0305442487
 30
0.0
 40
94.72190763918027
100
AcDbArc
 50
213.4471488656
 51
220.7820180358
  0
ARC
  5
174
330
1F
100
AcDbEntity
  8
INTERIOR_LOOPS
  6
CONTINUOUS
 62
     3
100
AcDbCircle
 10
882.2334853908
 20
1158.3326189041
 30
0.0
 40
148.7681326760847
100
AcDbArc
 50
220.7820178427
 51
228.116886143
  0
LINE
  5
175
330
1F
100
AcDbEntity
  8
INTERIOR_LOOPS
  6
CONTINUOUS
 62
     3
100
AcDbLine
 10
783.8636218372
 20
1046.7330643145
 30
0.0
 11
782.9139216518
 21
1047.5735038903
 31
0.0
  0
LINE
  5
176
330
1F
100
AcDbEntity
  8
INTERIOR_LOOPS
  6
CONTINUOUS
 62
     3
100
AcDbLine
 10
791.0454704161
 20
1040.5435466428
 30
0.0
 11
783.8636218372
 21
1046.7330643145
 31
0.0
  0
LINE
  5
177
330
1F
100
AcDbEntity
  8
INTERIOR_LOOPS
  6
CONTINUOUS
 62
     3
100
AcDbLine
 10
796.1792494526
 20
1036.0950779078
 30
0.0
 11
791.0454704161
 21
1040.5435466428
 31
0.0
  0
LINE
  5
178
330
1F
100
AcDbEntity
  8
INTERIOR_LOOPS
  6
CONTINUOUS
 62
     3
100
AcDbLine
 10
796.7264638396
 20
1035.602917194
 30
0.0
 11
796.1792494526
 21
1036.0950779078
 31
0.0
  0
LINE
  5
179
330
1F
100
AcDbEntity
  8
INTERIOR_LOOPS
  6
CONTINUOUS
 62
     3
100
AcDbLine
 10
800.0581923392
 20
1032.1511238116
 30
0.0
 11
796.7264638396
 21
1035.602917194
 31
0.0
  0
LINE
  5
17A
330
1F
100
AcDbEntity
  8
INTERIOR_LOOPS
  6
CONTINUOUS
 62
     3
100
AcDbLine
 10
800.6819980273
 20
1031.321882845
 30
0.0
 11
800.0581923392
 21
1032.1511238116
 31
0.0
  0
LINE
  5
17B
330
1F
100
AcDbEntity
  8
INTERIOR_LOOPS
  6
CONTINUOUS
 62
     3
100
AcDbLine
 10
801.7521487862
 20
1029.4770000316
 30
0.0
 11
800.6819980273
 21
1031.321882845
 31
0.0
  0
LINE
  5
17C
330
1F
100
AcDbEntity
  8
INTERIOR_LOOPS
  6
CONTINUOUS
 62
     3
100
AcDbLine
 10
803.4175593097
 20
1025.6426679217
 30
0.0
 11
801.7521487862
 21
1029.4770000316
 31
0.0
  0
LINE
  5
17D
330
1F
100
AcDbEntity
  8
INTERIOR_LOOPS
  6
CONTINUOUS
 62
     3
100
AcDbLine
 10
804.5752909749
 20
1022.0781699417
 30
0.0
 11
803.4175593097
 21
1025.6426679217
 31
0.0
  0
LINE
  5
17E
330
1F
100
AcDbEntity
  8
INTERIOR_LOOPS
  6
CONTINUOUS
 62
     3
100
AcDbLine
 10
806.2624946485
 20
1015.138652623
 30
0.0
 11
804.5752909749
 21
1022.0781699417
 31
0.0
  0
LINE
  5
17F
330
1F
100
AcDbEntity
  8
INTERIOR_LOOPS
  6
CONTINUOUS
 62
     3
100
AcDbLine
 10
807.1298575776
 20
1010.3900565987
 30
0.0
 11
806.2624946485
 21
1015.138652623
 31
0.0
  0
LINE
  5
180
330
1F
100
AcDbEntity
  8
INTERIOR_LOOPS
  6
CONTINUOUS
 62
     3
100
AcDbLine
 10
808.5791725605
 20
1000.145207219
 30
0.0
 11
807.1298575776
 21
1010.3900565987
 31
0.0
  0
LINE
  5
181
330
1F
100
AcDbEntity
  8
INTERIOR_LOOPS
  6
CONTINUOUS
 62
     3
100
AcDbLine
 10
808.9347686764
 20
997.1029497862
 30
0.0
 11
808.5791725605
 21
1000.145207219
 31
0.0
  0
LINE
  5
182
330
1F
100
AcDbEntity
  8
INTERIOR_LOOPS
  6
CONTINUOUS
 62
     3
100
AcDbLine
 10
809.567563216
 20
991.2737538126
 30
0.0
 11
808.9347686764
 21
997.1029497862
 31
0.0
  0
LINE
  5
183
330
1F
100
AcDbEntity
  8
INTERIOR_LOOPS
  6
CONTINUOUS
 62
     3
100
AcDbLine
 10
809.6916401882
 20
990.0772541884
 30
0.0
 11
809.567563216
 21
991.2737538126
 31
0.0
  0
LINE
  5
184
330
1F
100
AcDbEntity
  8
INTERIOR_LOOPS
  6
CONTINUOUS
 62
     3
100
AcDbLine
 10
810.0530154946
 20
986.5451255541
 30
0.0
 11
809.6916401882
 21
990.0772541884
 31
0.0
  0
LINE
  5
185
330
1F
100
AcDbEntity
  8
INTERIOR_LOOPS
  6
CONTINUOUS
 62
     3
100
AcDbLine
 10
810.0573771634
 20
986.5021947387
 30
0.0
 11
810.0530154946
 21
986.5451255541
 31
0.0
  0
LINE
  5
186
330
1F
100
AcDbEntity
  8
INTERIOR_LOOPS
  6
CONTINUOUS
 62
     3
100
AcDbLine
 10
810.1759687931
 20
985.3344145104
 30
0.0
 11
810.0573771634
 21
986.5021947387
 31
0.0
  0
LINE
  5
187
330
1F
100
AcDbEntity
  8
INTERIOR_LOOPS
  6
CONTINUOUS
 62
     3
100
AcDbLine
 10
810.2692403805
 20
984.4160963517
 30
0.0
 11
810.1759687931
 21
985.3344145104
 31
0.0
  0
LINE
  5
188
330
1F
100
AcDbEntity
  8
INTERIOR_LOOPS
  6
CONTINUOUS
 62
     3
100
AcDbLine
 10
810.3000877954
 20
984.1125993274
 30
0.0
 11
810.2692403805
 21
984.4160963517
 31
0.0
  0
LINE
  5
189
330
1F
100
AcDbEntity
  8
INTERIOR_LOOPS
  6
CONTINUOUS
 62
     3
100
AcDbLine
 10
810.4631981264
 20
982.5121600743
 30
0.0
 11
810.3000877954
 21
984.1125993274
 31
0.0
  0
LINE
  5
18A
330
1F
100
AcDbEntity
  8
INTERIOR_LOOPS
  6
CONTINUOUS
 62
     3
100
AcDbLine
 10
810.5528821357
 20
981.6362914478
 30
0.0
 11
810.4631981264
 21
982.5121600743
 31
0.0
  0
LINE
  5
18B
330
1F
100
AcDbEntity
  8
INTERIOR_LOOPS
  6
CONTINUOUS
 62
     3
100
AcDbLine
 10
812.2117491926
 20
966.8820321661
 30
0.0
 11
810.5528821357
 21
981.6362914478
 31
0.0
  0
LINE
  5
18C
330
1F
100
AcDbEntity
  8
INTERIOR_LOOPS
  6
CONTINUOUS
 62
     3
100
AcDbLine
 10
813.0583814604
 20
960.4726876929
 30
0.0
 11
812.2117491926
 21
966.8820321661
 31
0.0
  0
LINE
  5
18D
330
1F
100
AcDbEntity
  8
INTERIOR_LOOPS
  6
CONTINUOUS
 62
     3
100
AcDbLine
 10
814.1995548842
 20
952.9277993334
 30
0.0
 11
813.0583814604
 21
960.4726876929
 31
0.0
  0
LINE
  5
18E
330
1F
100
AcDbEntity
  8
INTERIOR_LOOPS
  6
CONTINUOUS
 62
     3
100
AcDbLine
 10
816.3896177284
 20
940.039289443
 30
0.0
 11
814.1995548842
 21
952.9277993334
 31
0.0
  0
LINE
  5
18F
330
1F
100
AcDbEntity
  8
INTERIOR_LOOPS
  6
CONTINUOUS
 62
     3
100
AcDbLine
 10
816.7578394783
 20
938.0005558493
 30
0.0
 11
816.3896177284
 21
940.039289443
 31
0.0
  0
LINE
  5
190
330
1F
100
AcDbEntity
  8
INTERIOR_LOOPS
  6
CONTINUOUS
 62
     3
100
AcDbLine
 10
818.1114369437
 20
930.6128984116
 30
0.0
 11
816.7578394783
 21
938.0005558493
 31
0.0
  0
LINE
  5
191
330
1F
100
AcDbEntity
  8
INTERIOR_LOOPS
  6
CONTINUOUS
 62
     3
100
AcDbLine
 10
819.6907088306
 20
922.0187330913
 30
0.0
 11
818.1114369437
 21
930.6128984116
 31
0.0
  0
LINE
  5
192
330
1F
100
AcDbEntity
  8
INTERIOR_LOOPS
  6
CONTINUOUS
 62
     3
100
AcDbLine
 10
819.750448177
 20
921.6908940872
 30
0.0
 11
819.6907088306
 21
922.0187330913
 31
0.0
  0
LINE
  5
193
330
1F
100
AcDbEntity
  8
INTERIOR_LOOPS
  6
CONTINUOUS
 62
     3
100
AcDbLine
 10
822.9280334079
 20
902.1475849457
 30
0.0
 11
819.750448177
 21
921.6908940872
 31
0.0
  0
LINE
  5
194
330
1F
100
AcDbEntity
  8
INTERIOR_LOOPS
  6
CONTINUOUS
 62
     3
100
AcDbLine
 10
824.5472428738
 20
889.2145871749
 30
0.0
 11
822.9280334079
 21
902.1475849457
 31
0.0
  0
LINE
  5
195
330
1F
100
AcDbEntity
  8
INTERIOR_LOOPS
  6
CONTINUOUS
 62
     3
100
AcDbLine
 10
825.8553549423
 20
874.6097935493
 30
0.0
 11
824.5472428738
 21
889.2145871749
 31
0.0
  0
LINE
  5
196
330
1F
100
AcDbEntity
  8
INTERIOR_LOOPS
  6
CONTINUOUS
 62
     3
100
AcDbLine
 10
826.8787117695
 20
856.1858424873
 30
0.0
 11
825.8553549423
 21
874.6097935493
 31
0.0
  0
ARC
  5
197
330
1F
100
AcDbEntity
  8
INTERIOR_LOOPS
  6
CONTINUOUS
 62
     3
100
AcDbCircle
 10
202.2047838113
 20
1581.503623767
 30
0.0
 40
125.6538854482911
100
AcDbArc
 50
355.4207608566
 51
0.7908435286
  0
LINE
  5
198
330
1F
100
AcDbEntity
  8
INTERIOR_LOOPS
  6
CONTINUOUS
 62
     3
100
AcDbLine
 10
327.4126649231
 20
1570.9154866131
 30
0.0
 11
327.4575660644
 21
1571.4717014141
 31
0.0
  0
LINE
  5
199
330
1F
100
AcDbEntity
  8
INTERIOR_LOOPS
  6
CONTINUOUS
 62
     3
100
AcDbLine
 10
327.2486706972
 20
1568.9153657534
 30
0.0
 11
327.4126649231
 21
1570.9154866131
 31
0.0
  0
LINE
  5
19A
330
1F
100
AcDbEntity
  8
INTERIOR_LOOPS
  6
CONTINUOUS
 62
     3
100
AcDbLine
 10
327.0252822911
 20
1566.2028380035
 30
0.0
 11
327.2486706972
 21
1568.9153657534
 31
0.0
  0
LINE
  5
19B
330
1F
100
AcDbEntity
  8
INTERIOR_LOOPS
  6
CONTINUOUS
 62
     3
100
AcDbLine
 10
327.0205500306
 20
1566.1449953308
 30
0.0
 11
327.0252822911
 21
1566.2028380035
 31
0.0
  0
LINE
  5
19C
330
1F
100
AcDbEntity
  8
INTERIOR_LOOPS
  6
CONTINUOUS
 62
     3
100
AcDbLine
 10
326.6694191482
 20
1561.6589393537
 30
0.0
 11
327.0205500306
 21
1566.1449953308
 31
0.0
  0
LINE
  5
19D
330
1F
100
AcDbEntity
  8
INTERIOR_LOOPS
  6
CONTINUOUS
 62
     3
100
AcDbLine
 10
326.5488459383
 20
1559.9781539024
 30
0.0
 11
326.6694191482
 21
1561.6589393537
 31
0.0
  0
LINE
  5
19E
330
1F
100
AcDbEntity
  8
INTERIOR_LOOPS
  6
CONTINUOUS
 62
     3
100
AcDbLine
 10
326.1318090636
 20
1551.403958553
 30
0.0
 11
326.5488459383
 21
1559.9781539024
 31
0.0
  0
LINE
  5
19F
330
1F
100
AcDbEntity
  8
INTERIOR_LOOPS
  6
CONTINUOUS
 62
     3
100
AcDbLine
 10
326.0756763869
 20
1545.2242214524
 30
0.0
 11
326.1318090636
 21
1551.403958553
 31
0.0
  0
LINE
  5
1A0
330
1F
100
AcDbEntity
  8
INTERIOR_LOOPS
  6
CONTINUOUS
 62
     3
100
AcDbLine
 10
326.2208588571
 20
1540.7434081933
 30
0.0
 11
326.0756763869
 21
1545.2242214524
 31
0.0
  0
ARC
  5
1A1
330
1F
100
AcDbEntity
  8
INTERIOR_LOOPS
  6
CONTINUOUS
 62
     3
100
AcDbCircle
 10
811.2392738345
 20
1567.015321616
 30
0.0
 40
485.7294270497184
100
AcDbArc
 50
183.1005011802
 51
185.5899301078
  0
LINE
  5
1A2
330
1F
100
AcDbEntity
  8
INTERIOR_LOOPS
  6
CONTINUOUS
 62
     3
100
AcDbLine
 10
327.9053141581
 20
1518.7933354713
 30
0.0
 11
327.8197160375
 21
1519.7013972231
 31
0.0
  0
LINE
  5
1A3
330
1F
100
AcDbEntity
  8
INTERIOR_LOOPS
  6
CONTINUOUS
 62
     3
100
AcDbLine
 10
329.6080192044
 20
1499.234222285
 30
0.0
 11
327.9053141581
 21
1518.7933354713
 31
0.0
  0
LINE
  5
1A4
330
1F
100
AcDbEntity
  8
INTERIOR_LOOPS
  6
CONTINUOUS
 62
     3
100
AcDbLine
 10
331.1303003699
 20
1482.1938423997
 30
0.0
 11
329.6080192044
 21
1499.234222285
 31
0.0
  0
LINE
  5
1A5
330
1F
100
AcDbEntity
  8
INTERIOR_LOOPS
  6
CONTINUOUS
 62
     3
100
AcDbLine
 10
331.6675716762
 20
1476.8803839654
 30
0.0
 11
331.1303003699
 21
1482.1938423997
 31
0.0
  0
LINE
  5
1A6
330
1F
100
AcDbEntity
  8
INTERIOR_LOOPS
  6
CONTINUOUS
 62
     3
100
AcDbLine
 10
333.4233177338
 20
1462.5484272975
 30
0.0
 11
331.6675716762
 21
1476.8803839654
 31
0.0
  0
LINE
  5
1A7
330
1F
100
AcDbEntity
  8
INTERIOR_LOOPS
  6
CONTINUOUS
 62
     3
100
AcDbLine
 10
334.9301961527
 20
1452.7423785428
 30
0.0
 11
333.4233177338
 21
1462.5484272975
 31
0.0
  0
ARC
  5
1A8
330
1F
100
AcDbEntity
  8
INTERIOR_LOOPS
  6
CONTINUOUS
 62
     3
100
AcDbCircle
 10
602.2595772039
 20
1498.0143216385
 30
0.0
 40
271.1356612525312
100
AcDbArc
 50
189.6117853275
 51
195.857563637
  0
ARC
  5
1A9
330
1F
100
AcDbEntity
  8
INTERIOR_LOOPS
  6
CONTINUOUS
 62
     3
100
AcDbCircle
 10
557.5699663714
 20
1485.3204897543
 30
0.0
 40
224.6782110005064
100
AcDbArc
 50
195.8577012069
 51
202.1020113119
  0
ARC
  5
1AA
330
1F
100
AcDbEntity
  8
INTERIOR_LOOPS
  6
CONTINUOUS
 62
     3
100
AcDbCircle
 10
570.0932920796
 20
1490.4061971097
 30
0.0
 40
238.1947973298269
100
AcDbArc
 50
202.1020113119
 51
208.9080388953
  0
ARC
  5
1AB
330
1F
100
AcDbEntity
  8
INTERIOR_LOOPS
  6
CONTINUOUS
 62
     3
100
AcDbCircle
 10
563.1688925148
 20
1486.5821802685
 30
0.0
 40
230.2846510558174
100
AcDbArc
 50
208.9079789493
 51
215.7175568392
  0
ARC
  5
1AC
330
1F
100
AcDbEntity
  8
INTERIOR_LOOPS
  6
CONTINUOUS
 62
     3
100
AcDbCircle
 10
552.1570797532
 20
1478.6642723641
 30
0.0
 40
216.7217130978978
100
AcDbArc
 50
215.7175568392
 51
223.7449808119
  0
ARC
  5
1AD
330
1F
100
AcDbEntity
  8
INTERIOR_LOOPS
  6
CONTINUOUS
 62
     3
100
AcDbCircle
 10
528.6329272513
 20
1456.1479238217
 30
0.0
 40
184.1583640348676
100
AcDbArc
 50
223.7447963922
 51
231.7744907156
  0
ARC
  5
1AE
330
1F
100
AcDbEntity
  8
INTERIOR_LOOPS
  6
CONTINUOUS
 62
     3
100
AcDbCircle
 10
516.7879775425
 20
1441.1094596961
 30
0.0
 40
165.0152651085592
100
AcDbArc
 50
231.7744907156
 51
241.7862701675
  0
ARC
  5
1AF
330
1F
100
AcDbEntity
  8
INTERIOR_LOOPS
  6
CONTINUOUS
 62
     3
100
AcDbCircle
 10
521.4657055422
 20
1449.8293046976
 30
0.0
 40
174.9105587324437
100
AcDbArc
 50
241.7864152189
 51
251.8031775168
  0
ARC
  5
1B0
330
1F
100
AcDbEntity
  8
INTERIOR_LOOPS
  6
CONTINUOUS
 62
     3
100
AcDbCircle
 10
529.0521925546
 20
1472.9080496159
 30
0.0
 40
199.2042462292593
100
AcDbArc
 50
251.8031775168
 51
259.0166237855
  0
ARC
  5
1B1
330
1F
100
AcDbEntity
  8
INTERIOR_LOOPS
  6
CONTINUOUS
 62
     3
100
AcDbCircle
 10
508.4225802921
 20
1366.6132496492
 30
0.0
 40
90.9260609745722
100
AcDbArc
 50
259.0166237824
 51
266.2300700595
  0
ARC
  5
1B2
330
1F
100
AcDbEntity
  8
INTERIOR_LOOPS
  6
CONTINUOUS
 62
     3
100
AcDbCircle
 10
507.5517655557
 20
1353.3976232352
 30
0.0
 40
77.68177542120522
100
AcDbArc
 50
266.2300700595
 51
273.4274551536
  0
ARC
  5
1B3
330
1F
100
AcDbEntity
  8
INTERIOR_LOOPS
  6
CONTINUOUS
 62
     3
100
AcDbCircle
 10
508.2734402484
 20
1341.3479892057
 30
0.0
 40
65.61054952625616
100
AcDbArc
 50
273.4274551537
 51
280.6248402472
  0
ARC
  5
1B4
330
1F
100
AcDbEntity
  8
INTERIOR_LOOPS
  6
CONTINUOUS
 62
     3
100
AcDbCircle
 10
508.84960115
 20
1338.276665544
 30
0.0
 40
62.48565105159332
100
AcDbArc
 50
280.6248402472
 51
293.8016312915
  0
ARC
  5
1B5
330
1F
100
AcDbEntity
  8
INTERIOR_LOOPS
  6
CONTINUOUS
 62
     3
100
AcDbCircle
 10
510.5513914327
 20
1334.4178240761
 30
0.0
 40
58.26821728646772
100
AcDbArc
 50
293.8018947483
 51
306.9711424786
  0
ARC
  5
1B6
330
1F
100
AcDbEntity
  8
INTERIOR_LOOPS
  6
CONTINUOUS
 62
     3
100
AcDbCircle
 10
510.4766138347
 20
1334.5171613574
 30
0.0
 40
58.39255387388788
100
AcDbArc
 50
306.9711424786
 51
321.1779084617
  0
ARC
  5
1B7
330
1F
100
AcDbEntity
  8
INTERIOR_LOOPS
  6
CONTINUOUS
 62
     3
100
AcDbCircle
 10
509.1358141324
 20
1335.5958082262
 30
0.0
 40
60.11337428191479
100
AcDbArc
 50
321.1780831179
 51
335.3968769625
  0
LINE
  5
1B8
330
1F
100
AcDbEntity
  8
INTERIOR_LOOPS
  6
CONTINUOUS
 62
     3
100
AcDbLine
 10
565.1861782948
 20
1314.3720768003
 30
0.0
 11
563.7917005923
 21
1310.5687859734
 31
0.0
  0
LINE
  5
1B9
330
1F
100
AcDbEntity
  8
INTERIOR_LOOPS
  6
CONTINUOUS
 62
     3
100
AcDbLine
 10
565.3520401913
 20
1315.2097265032
 30
0.0
 11
565.1861782948
 21
1314.3720768003
 31
0.0
  0
LINE
  5
1BA
330
1F
100
AcDbEntity
  8
INTERIOR_LOOPS
  6
CONTINUOUS
 62
     3
100
AcDbLine
 10
565.3859756983
 20
1315.73693632
 30
0.0
 11
565.3520401913
 21
1315.2097265032
 31
0.0
  0
LINE
  5
1BB
330
1F
100
AcDbEntity
  8
INTERIOR_LOOPS
  6
CONTINUOUS
 62
     3
100
AcDbLine
 10
565.3720642266
 20
1316.0666189605
 30
0.0
 11
565.3859756983
 21
1315.73693632
 31
0.0
  0
LINE
  5
1BC
330
1F
100
AcDbEntity
  8
INTERIOR_LOOPS
  6
CONTINUOUS
 62
     3
100
AcDbLine
 10
565.3520095847
 20
1316.4703069764
 30
0.0
 11
565.3720642266
 21
1316.0666189605
 31
0.0
  0
LINE
  5
1BD
330
1F
100
AcDbEntity
  8
INTERIOR_LOOPS
  6
CONTINUOUS
 62
     3
100
AcDbLine
 10
565.3739690737
 20
1316.9943336672
 30
0.0
 11
565.3520095847
 21
1316.4703069764
 31
0.0
  0
LINE
  5
1BE
330
1F
100
AcDbEntity
  8
INTERIOR_LOOPS
  6
CONTINUOUS
 62
     3
100
AcDbLine
 10
565.4000477055
 20
1317.2466386217
 30
0.0
 11
565.3739690737
 21
1316.9943336672
 31
0.0
  0
LINE
  5
1BF
330
1F
100
AcDbEntity
  8
INTERIOR_LOOPS
  6
CONTINUOUS
 62
     3
100
AcDbLine
 10
565.5352263444
 20
1318.2516108388
 30
0.0
 11
565.4000477055
 21
1317.2466386217
 31
0.0
  0
LINE
  5
1C0
330
1F
100
AcDbEntity
  8
INTERIOR_LOOPS
  6
CONTINUOUS
 62
     3
100
AcDbLine
 10
565.5493940128
 20
1318.3455018805
 30
0.0
 11
565.5352263444
 21
1318.2516108388
 31
0.0
  0
LINE
  5
1C1
330
1F
100
AcDbEntity
  8
INTERIOR_LOOPS
  6
CONTINUOUS
 62
     3
100
AcDbLine
 10
565.5889089868
 20
1318.6049042389
 30
0.0
 11
565.5493940128
 21
1318.3455018805
 31
0.0
  0
LINE
  5
1C2
330
1F
100
AcDbEntity
  8
INTERIOR_LOOPS
  6
CONTINUOUS
 62
     3
100
AcDbLine
 10
565.6027349524
 20
1318.6951938639
 30
0.0
 11
565.5889089868
 21
1318.6049042389
 31
0.0
  0
LINE
  5
1C3
330
1F
100
AcDbEntity
  8
INTERIOR_LOOPS
  6
CONTINUOUS
 62
     3
100
AcDbLine
 10
565.6166738726
 20
1318.7862163296
 30
0.0
 11
565.6027349524
 21
1318.6951938639
 31
0.0
  0
LINE
  5
1C4
330
1F
100
AcDbEntity
  8
INTERIOR_LOOPS
  6
CONTINUOUS
 62
     3
100
AcDbLine
 10
565.6353598374
 20
1318.9084667986
 30
0.0
 11
565.6166738726
 21
1318.7862163296
 31
0.0
  0
LINE
  5
1C5
330
1F
100
AcDbEntity
  8
INTERIOR_LOOPS
  6
CONTINUOUS
 62
     3
100
AcDbLine
 10
565.6447922417
 20
1318.9703524444
 30
0.0
 11
565.6353598374
 21
1318.9084667986
 31
0.0
  0
LINE
  5
1C6
330
1F
100
AcDbEntity
  8
INTERIOR_LOOPS
  6
CONTINUOUS
 62
     3
100
AcDbLine
 10
565.7214966643
 20
1319.4842164858
 30
0.0
 11
565.6447922417
 21
1318.9703524444
 31
0.0
  0
LINE
  5
1C7
330
1F
100
AcDbEntity
  8
INTERIOR_LOOPS
  6
CONTINUOUS
 62
     3
100
AcDbLine
 10
565.7568671541
 20
1319.7308435968
 30
0.0
 11
565.7214966643
 21
1319.4842164858
 31
0.0
  0
LINE
  5
1C8
330
1F
100
AcDbEntity
  8
INTERIOR_LOOPS
  6
CONTINUOUS
 62
     3
100
AcDbLine
 10
565.9747841766
 20
1322.030925857
 30
0.0
 11
565.7568671541
 21
1319.7308435968
 31
0.0
  0
LINE
  5
1C9
330
1F
100
AcDbEntity
  8
INTERIOR_LOOPS
  6
CONTINUOUS
 62
     3
100
AcDbLine
 10
565.9785195646
 20
1322.9155166811
 30
0.0
 11
565.9747841766
 21
1322.030925857
 31
0.0
  0
LINE
  5
1CA
330
1F
100
AcDbEntity
  8
INTERIOR_LOOPS
  6
CONTINUOUS
 62
     3
100
AcDbLine
 10
565.8946212492
 20
1323.8140710837
 30
0.0
 11
565.9785195646
 21
1322.9155166811
 31
0.0
  0
LINE
  5
1CB
330
1F
100
AcDbEntity
  8
INTERIOR_LOOPS
  6
CONTINUOUS
 62
     3
100
AcDbLine
 10
565.7771412522
 20
1324.4011274121
 30
0.0
 11
565.8946212492
 21
1323.8140710837
 31
0.0
  0
LINE
  5
1CC
330
1F
100
AcDbEntity
  8
INTERIOR_LOOPS
  6
CONTINUOUS
 62
     3
100
AcDbLine
 10
565.7648547113
 20
1324.4471188724
 30
0.0
 11
565.7771412522
 21
1324.4011274121
 31
0.0
  0
LINE
  5
1CD
330
1F
100
AcDbEntity
  8
INTERIOR_LOOPS
  6
CONTINUOUS
 62
     3
100
AcDbLine
 10
565.6786490988
 20
1324.7427492609
 30
0.0
 11
565.7648547113
 21
1324.4471188724
 31
0.0
  0
LINE
  5
1CE
330
1F
100
AcDbEntity
  8
INTERIOR_LOOPS
  6
CONTINUOUS
 62
     3
100
AcDbLine
 10
565.6223275374
 20
1324.9311130089
 30
0.0
 11
565.6786490988
 21
1324.7427492609
 31
0.0
  0
LINE
  5
1CF
330
1F
100
AcDbEntity
  8
INTERIOR_LOOPS
  6
CONTINUOUS
 62
     3
100
AcDbLine
 10
565.5811724831
 20
1325.0734378682
 30
0.0
 11
565.6223275374
 21
1324.9311130089
 31
0.0
  0
LINE
  5
1D0
330
1F
100
AcDbEntity
  8
INTERIOR_LOOPS
  6
CONTINUOUS
 62
     3
100
AcDbLine
 10
565.4856199827
 20
1325.426327796
 30
0.0
 11
565.5811724831
 21
1325.0734378682
 31
0.0
  0
LINE
  5
1D1
330
1F
100
AcDbEntity
  8
INTERIOR_LOOPS
  6
CONTINUOUS
 62
     3
100
AcDbLine
 10
565.4025529488
 20
1325.7663603547
 30
0.0
 11
565.4856199827
 21
1325.426327796
 31
0.0
  0
LINE
  5
1D2
330
1F
100
AcDbEntity
  8
INTERIOR_LOOPS
  6
CONTINUOUS
 62
     3
100
AcDbLine
 10
565.2954072558
 20
1326.270982213
 30
0.0
 11
565.4025529488
 21
1325.7663603547
 31
0.0
  0
LINE
  5
1D3
330
1F
100
AcDbEntity
  8
INTERIOR_LOOPS
  6
CONTINUOUS
 62
     3
100
AcDbLine
 10
565.0335179869
 20
1327.769050427
 30
0.0
 11
565.2954072558
 21
1326.270982213
 31
0.0
  0
LINE
  5
1D4
330
1F
100
AcDbEntity
  8
INTERIOR_LOOPS
  6
CONTINUOUS
 62
     3
100
AcDbLine
 10
564.9395065473
 20
1328.392971989
 30
0.0
 11
565.0335179869
 21
1327.769050427
 31
0.0
  0
LINE
  5
1D5
330
1F
100
AcDbEntity
  8
INTERIOR_LOOPS
  6
CONTINUOUS
 62
     3
100
AcDbLine
 10
564.5018395846
 20
1331.52879875
 30
0.0
 11
564.9395065473
 21
1328.392971989
 31
0.0
  0
LINE
  5
1D6
330
1F
100
AcDbEntity
  8
INTERIOR_LOOPS
  6
CONTINUOUS
 62
     3
100
AcDbLine
 10
564.4450414958
 20
1331.9557686784
 30
0.0
 11
564.5018395846
 21
1331.52879875
 31
0.0
  0
LINE
  5
1D7
330
1F
100
AcDbEntity
  8
INTERIOR_LOOPS
  6
CONTINUOUS
 62
     3
100
AcDbLine
 10
563.6312190428
 20
1338.1671230656
 30
0.0
 11
564.4450414958
 21
1331.9557686784
 31
0.0
  0
LINE
  5
1D8
330
1F
100
AcDbEntity
  8
INTERIOR_LOOPS
  6
CONTINUOUS
 62
     3
100
AcDbLine
 10
562.4181848841
 20
1347.4824095941
 30
0.0
 11
563.6312190428
 21
1338.1671230656
 31
0.0
  0
LINE
  5
1D9
330
1F
100
AcDbEntity
  8
INTERIOR_LOOPS
  6
CONTINUOUS
 62
     3
100
AcDbLine
 10
562.2453576621
 20
1348.8055411156
 30
0.0
 11
562.4181848841
 21
1347.4824095941
 31
0.0
  0
LINE
  5
1DA
330
1F
100
AcDbEntity
  8
INTERIOR_LOOPS
  6
CONTINUOUS
 62
     3
100
AcDbLine
 10
321.3187487581
 20
1591.6226435669
 30
0.0
 11
316.2163251267
 21
1596.64837308
 31
0.0
  0
ARC
  5
1DB
330
1F
100
AcDbEntity
  8
INTERIOR_LOOPS
  6
CONTINUOUS
 62
     3
100
AcDbCircle
 10
276.8454808897
 20
1549.0971775495
 30
0.0
 40
61.5328108807708
100
AcDbArc
 50
35.3142302777
 51
43.717427496
  0
LINE
  5
1DC
330
1F
100
AcDbEntity
  8
INTERIOR_LOOPS
  6
CONTINUOUS
 62
     3
100
AcDbLine
 10
327.8386888252
 20
1583.3698361731
 30
0.0
 11
327.0558881519
 21
1584.6668530815
 31
0.0
  0
LINE
  5
1DD
330
1F
100
AcDbEntity
  8
INTERIOR_LOOPS
  6
CONTINUOUS
 62
     3
100
AcDbLine
 10
1045.1444446272
 20
901.9250458103
 30
0.0
 11
1045.2208068015
 21
903.6571580524
 31
0.0
  0
LINE
  5
1DE
330
1F
100
AcDbEntity
  8
INTERIOR_LOOPS
  6
CONTINUOUS
 62
     3
100
AcDbLine
 10
1045.0686859121
 20
900.1146760337
 30
0.0
 11
1045.1444446272
 21
901.9250458103
 31
0.0
  0
LINE
  5
1DF
330
1F
100
AcDbEntity
  8
INTERIOR_LOOPS
  6
CONTINUOUS
 62
     3
100
AcDbLine
 10
1044.9131648231
 20
896.3253868535
 30
0.0
 11
1045.0686859121
 21
900.1146760337
 31
0.0
  0
LINE
  5
1E0
330
1F
100
AcDbEntity
  8
INTERIOR_LOOPS
  6
CONTINUOUS
 62
     3
100
AcDbLine
 10
1044.8948249479
 20
895.8738047772
 30
0.0
 11
1044.9131648231
 21
896.3253868535
 31
0.0
  0
LINE
  5
1E1
330
1F
100
AcDbEntity
  8
INTERIOR_LOOPS
  6
CONTINUOUS
 62
     3
100
AcDbLine
 10
1044.8563585245
 20
894.9254094031
 30
0.0
 11
1044.8948249479
 21
895.8738047772
 31
0.0
  0
LINE
  5
1E2
330
1F
100
AcDbEntity
  8
INTERIOR_LOOPS
  6
CONTINUOUS
 62
     3
100
AcDbLine
 10
1044.8496961061
 20
894.7610294738
 30
0.0
 11
1044.8563585245
 21
894.9254094031
 31
0.0
  0
LINE
  5
1E3
330
1F
100
AcDbEntity
  8
INTERIOR_LOOPS
  6
CONTINUOUS
 62
     3
100
AcDbLine
 10
1044.8421739604
 20
894.5754215796
 30
0.0
 11
1044.8496961061
 21
894.7610294738
 31
0.0
  0
LINE
  5
1E4
330
1F
100
AcDbEntity
  8
INTERIOR_LOOPS
  6
CONTINUOUS
 62
     3
100
AcDbLine
 10
1044.8279908741
 20
894.2254375727
 30
0.0
 11
1044.8421739604
 21
894.5754215796
 31
0.0
  0
LINE
  5
1E5
330
1F
100
AcDbEntity
  8
INTERIOR_LOOPS
  6
CONTINUOUS
 62
     3
100
AcDbLine
 10
1044.8116721174
 20
893.8228106471
 30
0.0
 11
1044.8279908741
 21
894.2254375727
 31
0.0
  0
LINE
  5
1E6
330
1F
100
AcDbEntity
  8
INTERIOR_LOOPS
  6
CONTINUOUS
 62
     3
100
AcDbLine
 10
1044.7996184819
 20
893.5254834114
 30
0.0
 11
1044.8116721174
 21
893.8228106471
 31
0.0
  0
LINE
  5
1E7
330
1F
100
AcDbEntity
  8
INTERIOR_LOOPS
  6
CONTINUOUS
 62
     3
100
AcDbLine
 10
1044.7182393751
 20
891.5235479909
 30
0.0
 11
1044.7996184819
 21
893.5254834114
 31
0.0
  0
LINE
  5
1E8
330
1F
100
AcDbEntity
  8
INTERIOR_LOOPS
  6
CONTINUOUS
 62
     3
100
AcDbLine
 10
1044.6856553757
 20
890.7259395447
 30
0.0
 11
1044.7182393751
 21
891.5235479909
 31
0.0
  0
LINE
  5
1E9
330
1F
100
AcDbEntity
  8
INTERIOR_LOOPS
  6
CONTINUOUS
 62
     3
100
AcDbLine
 10
1044.3509259788
 20
882.8650872015
 30
0.0
 11
1044.6856553757
 21
890.7259395447
 31
0.0
  0
LINE
  5
1EA
330
1F
100
AcDbEntity
  8
INTERIOR_LOOPS
  6
CONTINUOUS
 62
     3
100
AcDbLine
 10
1044.19836372
 20
879.5375094491
 30
0.0
 11
1044.3509259788
 21
882.8650872015
 31
0.0
  0
LINE
  5
1EB
330
1F
100
AcDbEntity
  8
INTERIOR_LOOPS
  6
CONTINUOUS
 62
     3
100
AcDbLine
 10
1043.3813739342
 20
865.1372350723
 30
0.0
 11
1044.19836372
 21
879.5375094491
 31
0.0
  0
LINE
  5
1EC
330
1F
100
AcDbEntity
  8
INTERIOR_LOOPS
  6
CONTINUOUS
 62
     3
100
AcDbLine
 10
1042.7892476604
 20
857.2713830749
 30
0.0
 11
1043.3813739342
 21
865.1372350723
 31
0.0
  0
ARC
  5
1ED
330
1F
100
AcDbEntity
  8
INTERIOR_LOOPS
  6
CONTINUOUS
 62
     3
100
AcDbCircle
 10
721.4809532653
 20
884.4425111354
 30
0.0
 40
322.4550980227501
100
AcDbArc
 50
350.2221437757
 51
355.1663373771
  0
ARC
  5
1EE
330
1F
100
AcDbEntity
  8
INTERIOR_LOOPS
  6
CONTINUOUS
 62
     3
100
AcDbCircle
 10
852.8836839099
 20
861.796355848
 30
0.0
 40
189.1152091389103
100
AcDbArc
 50
345.2768838747
 51
350.2225196848
  0
LINE
  5
1EF
330
1F
100
AcDbEntity
  8
INTERIOR_LOOPS
  6
CONTINUOUS
 62
     3
100
AcDbLine
 10
1032.9513201861
 20
804.0942073736
 30
0.0
 11
1035.789350904
 21
813.7330714295
 31
0.0
  0
LINE
  5
1F0
330
1F
100
AcDbEntity
  8
INTERIOR_LOOPS
  6
CONTINUOUS
 62
     3
100
AcDbLine
 10
1028.8755330526
 20
792.7570989329
 30
0.0
 11
1032.9513201861
 21
804.0942073736
 31
0.0
  0
LINE
  5
1F1
330
1F
100
AcDbEntity
  8
INTERIOR_LOOPS
  6
CONTINUOUS
 62
     3
100
AcDbLine
 10
1025.9670099448
 20
785.6894662414
 30
0.0
 11
1028.8755330526
 21
792.7570989329
 31
0.0
  0
LINE
  5
1F2
330
1F
100
AcDbEntity
  8
INTERIOR_LOOPS
  6
CONTINUOUS
 62
     3
100
AcDbLine
 10
1019.9183166173
 20
772.2237242958
 30
0.0
 11
1025.9670099448
 21
785.6894662414
 31
0.0
  0
LINE
  5
1F3
330
1F
100
AcDbEntity
  8
INTERIOR_LOOPS
  6
CONTINUOUS
 62
     3
100
AcDbLine
 10
1005.2881933989
 20
741.7400723832
 30
0.0
 11
1019.9183166173
 21
772.2237242958
 31
0.0
  0
LINE
  5
1F4
330
1F
100
AcDbEntity
  8
INTERIOR_LOOPS
  6
CONTINUOUS
 62
     3
100
AcDbLine
 10
1000.1315049397
 20
731.4936533093
 30
0.0
 11
1005.2881933989
 21
741.7400723832
 31
0.0
  0
ARC
  5
1F5
330
1F
100
AcDbEntity
  8
INTERIOR_LOOPS
  6
CONTINUOUS
 62
     3
100
AcDbCircle
 10
712.76780965
 20
879.5155904598
 30
0.0
 40
323.2466353240362
100
AcDbArc
 50
327.4888285265
 51
332.7468627964
  0
ARC
  5
1F6
330
1F
100
AcDbEntity
  8
INTERIOR_LOOPS
  6
CONTINUOUS
 62
     3
100
AcDbCircle
 10
848.1005733542
 20
793.26201033
 30
0.0
 40
162.764122204907
100
AcDbArc
 50
322.2307942576
 51
327.488828526
  0
LINE
  5
1F7
330
1F
100
AcDbEntity
  8
INTERIOR_LOOPS
  6
CONTINUOUS
 62
     3
100
AcDbLine
 10
971.1651962254
 20
686.8057981076
 30
0.0
 11
976.7630585116
 21
693.5718684389
 31
0.0
  0
ARC
  5
1F8
330
1F
100
AcDbEntity
  8
INTERIOR_LOOPS
  6
CONTINUOUS
 62
     3
100
AcDbCircle
 10
815.4656434717
 20
824.2456487715
 30
0.0
 40
207.6826022521937
100
AcDbArc
 50
314.8979229264
 51
318.5643583947
  0
LINE
  5
1F9
330
1F
100
AcDbEntity
  8
INTERIOR_LOOPS
  6
CONTINUOUS
 62
     3
100
AcDbLine
 10
961.0137273923
 20
676.0948643344
 30
0.0
 11
962.0575550363
 21
677.1304736805
 31
0.0
  0
LINE
  5
1FA
330
1F
100
AcDbEntity
  8
INTERIOR_LOOPS
  6
CONTINUOUS
 62
     3
100
AcDbLine
 10
958.1047861482
 20
673.2337101383
 30
0.0
 11
961.0137273923
 21
676.0948643344
 31
0.0
  0
LINE
  5
1FB
330
1F
100
AcDbEntity
  8
INTERIOR_LOOPS
  6
CONTINUOUS
 62
     3
100
AcDbLine
 10
958.0897842227
 20
673.2190203292
 30
0.0
 11
958.1047861482
 21
673.2337101383
 31
0.0
  0
LINE
  5
1FC
330
1F
100
AcDbEntity
  8
INTERIOR_LOOPS
  6
CONTINUOUS
 62
     3
100
AcDbLine
 10
957.1112222955
 20
672.2610676143
 30
0.0
 11
958.0897842227
 21
673.2190203292
 31
0.0
  0
LINE
  5
1FD
330
1F
100
AcDbEntity
  8
INTERIOR_LOOPS
  6
CONTINUOUS
 62
     3
100
AcDbLine
 10
956.3670559515
 20
671.5324890889
 30
0.0
 11
957.1112222955
 21
672.2610676143
 31
0.0
  0
LINE
  5
1FE
330
1F
100
AcDbEntity
  8
INTERIOR_LOOPS
  6
CONTINUOUS
 62
     3
100
AcDbLine
 10
956.1170104014
 20
671.2875602301
 30
0.0
 11
956.3670559515
 21
671.5324890889
 31
0.0
  0
LINE
  5
1FF
330
1F
100
AcDbEntity
  8
INTERIOR_LOOPS
  6
CONTINUOUS
 62
     3
100
AcDbLine
 10
954.818452076
 20
670.0131761858
 30
0.0
 11
956.1170104014
 21
671.2875602301
 31
0.0
  0
LINE
  5
200
330
1F
100
AcDbEntity
  8
INTERIOR_LOOPS
  6
CONTINUOUS
 62
     3
100
AcDbLine
 10
954.1296437103
 20
669.3349824718
 30
0.0
 11
954.818452076
 21
670.0131761858
 31
0.0
  0
LINE
  5
201
330
1F
100
AcDbEntity
  8
INTERIOR_LOOPS
  6
CONTINUOUS
 62
     3
100
AcDbLine
 10
948.7416537305
 20
663.9057346588
 30
0.0
 11
954.1296437103
 21
669.3349824718
 31
0.0
  0
LINE
  5
202
330
1F
100
AcDbEntity
  8
INTERIOR_LOOPS
  6
CONTINUOUS
 62
     3
100
AcDbLine
 10
946.3043163626
 20
661.3416565589
 30
0.0
 11
948.7416537305
 21
663.9057346588
 31
0.0
  0
ARC
  5
203
330
1F
100
AcDbEntity
  8
INTERIOR_LOOPS
  6
CONTINUOUS
 62
     3
100
AcDbCircle
 10
1040.3258069604
 20
573.8740947885
 30
0.0
 40
128.4157897468226
100
AcDbArc
 50
137.0681652783
 51
143.9898628618
  0
ARC
  5
204
330
1F
100
AcDbEntity
  8
INTERIOR_LOOPS
  6
CONTINUOUS
 62
     3
100
AcDbCircle
 10
985.0765159808
 20
614.0299912052
 30
0.0
 40
60.11512964179162
100
AcDbArc
 50
143.9898628577
 51
150.9115604527
  0
ARC
  5
205
330
1F
100
AcDbEntity
  8
INTERIOR_LOOPS
  6
CONTINUOUS
 62
     3
100
AcDbCircle
 10
962.7969978755
 20
626.4247246482
 30
0.0
 40
34.61990765557591
100
AcDbArc
 50
150.9115604527
 51
163.002172527
  0
LINE
  5
206
330
1F
100
AcDbEntity
  8
INTERIOR_LOOPS
  6
CONTINUOUS
 62
     3
100
AcDbLine
 10
928.9819010229
 20
632.8892480903
 30
0.0
 11
929.6894317583
 21
636.5453507097
 31
0.0
  0
LINE
  5
207
330
1F
100
AcDbEntity
  8
INTERIOR_LOOPS
  6
CONTINUOUS
 62
     3
100
AcDbLine
 10
929.0495856732
 20
629.0796445367
 30
0.0
 11
928.9819010229
 21
632.8892480903
 31
0.0
  0
ARC
  5
208
330
1F
100
AcDbEntity
  8
INTERIOR_LOOPS
  6
CONTINUOUS
 62
     3
100
AcDbCircle
 10
962.8800061249
 20
633.1992981705
 30
0.0
 40
34.08033001606893
100
AcDbArc
 50
186.9429321189
 51
198.7930796373
  0
LINE
  5
209
330
1F
100
AcDbEntity
  8
INTERIOR_LOOPS
  6
CONTINUOUS
 62
     3
100
AcDbLine
 10
931.0889299303
 20
620.9506689726
 30
0.0
 11
930.6165606146
 21
622.2202737235
 31
0.0
  0
LINE
  5
20A
330
1F
100
AcDbEntity
  8
INTERIOR_LOOPS
  6
CONTINUOUS
 62
     3
100
AcDbLine
 10
935.2207718915
 20
611.5105626579
 30
0.0
 11
931.0889299303
 21
620.9506689726
 31
0.0
  0
LINE
  5
20B
330
1F
100
AcDbEntity
  8
INTERIOR_LOOPS
  6
CONTINUOUS
 62
     3
100
AcDbLine
 10
937.9797830123
 20
605.5085826057
 30
0.0
 11
935.2207718915
 21
611.5105626579
 31
0.0
  0
LINE
  5
20C
330
1F
100
AcDbEntity
  8
INTERIOR_LOOPS
  6
CONTINUOUS
 62
     3
100
AcDbLine
 10
939.9774971616
 20
600.9261130278
 30
0.0
 11
937.9797830123
 21
605.5085826057
 31
0.0
  0
LINE
  5
20D
330
1F
100
AcDbEntity
  8
INTERIOR_LOOPS
  6
CONTINUOUS
 62
     3
100
AcDbLine
 10
944.4018850511
 20
589.74131817
 30
0.0
 11
939.9774971616
 21
600.9261130278
 31
0.0
  0
LINE
  5
20E
330
1F
100
AcDbEntity
  8
INTERIOR_LOOPS
  6
CONTINUOUS
 62
     3
100
AcDbLine
 10
947.708078689
 20
580.0140426251
 30
0.0
 11
944.4018850511
 21
589.74131817
 31
0.0
  0
ARC
  5
20F
330
1F
100
AcDbEntity
  8
INTERIOR_LOOPS
  6
CONTINUOUS
 62
     3
100
AcDbCircle
 10
765.1776955104
 20
522.9241511304
 30
0.0
 40
191.2500888766496
100
AcDbArc
 50
11.1456246498
 51
17.3680780758
  0
ARC
  5
210
330
1F
100
AcDbEntity
  8
INTERIOR_LOOPS
  6
CONTINUOUS
 62
     3
100
AcDbCircle
 10
745.4589985184
 20
519.0388243516
 30
0.0
 40
211.3479189864912
100
AcDbArc
 50
4.9252035078
 51
11.1457212784
  0
ARC
  5
211
330
1F
100
AcDbEntity
  8
INTERIOR_LOOPS
  6
CONTINUOUS
 62
     3
100
AcDbCircle
 10
708.2690964639
 20
515.8340449489
 30
0.0
 40
248.6756489810995
100
AcDbArc
 50
0.6215092401
 51
4.9252035078
  0
ARC
  5
212
330
1F
100
AcDbEntity
  8
INTERIOR_LOOPS
  6
CONTINUOUS
 62
     3
100
AcDbCircle
 10
610.8448901169
 20
514.7755988279
 30
0.0
 40
346.1056047887691
100
AcDbArc
 50
356.3197049601
 51
0.6217752592
  0
ARC
  5
213
330
1F
100
AcDbEntity
  8
INTERIOR_LOOPS
  6
CONTINUOUS
 62
     3
100
AcDbCircle
 10
503.376068361
 20
521.6881817508
 30
0.0
 40
453.7965117936916
100
AcDbArc
 50
353.237782093
 51
356.3197049601
  0
ARC
  5
214
330
1F
100
AcDbEntity
  8
INTERIOR_LOOPS
  6
CONTINUOUS
 62
     3
100
AcDbCircle
 10
584.8836656014
 20
512.0241757452
 30
0.0
 40
371.7180041353223
100
AcDbArc
 50
350.1568001609
 51
353.2376782098
  0
ARC
  5
215
330
1F
100
AcDbEntity
  8
INTERIOR_LOOPS
  6
CONTINUOUS
 62
     3
100
AcDbCircle
 10
707.8831499162
 20
490.6829572409
 30
0.0
 40
246.8808271848869
100
AcDbArc
 50
343.4867976764
 51
350.1568001609
  0
ARC
  5
216
330
1F
100
AcDbEntity
  8
INTERIOR_LOOPS
  6
CONTINUOUS
 62
     3
100
AcDbCircle
 10
808.3152743178
 20
460.9084324402
 30
0.0
 40
142.1280995882162
100
AcDbArc
 50
336.8167951919
 51
343.4867976764
  0
ARC
  5
217
330
1F
100
AcDbEntity
  8
INTERIOR_LOOPS
  6
CONTINUOUS
 62
     3
100
AcDbCircle
 10
839.9919468786
 20
447.3427830043
 30
0.0
 40
107.6688710835727
100
AcDbArc
 50
329.5532026029
 51
336.8167951919
  0
ARC
  5
218
330
1F
100
AcDbEntity
  8
INTERIOR_LOOPS
  6
CONTINUOUS
 62
     3
100
AcDbCircle
 10
866.628677111
 20
431.6858474162
 30
0.0
 40
76.7713787987981
100
AcDbArc
 50
322.289610019
 51
329.5532026019
  0
ARC
  5
219
330
1F
100
AcDbEntity
  8
INTERIOR_LOOPS
  6
CONTINUOUS
 62
     3
100
AcDbCircle
 10
870.8793602718
 20
428.3993146879
 30
0.0
 40
71.39833453066905
100
AcDbArc
 50
310.1355186362
 51
322.289610019
  0
ARC
  5
21A
330
1F
100
AcDbEntity
  8
INTERIOR_LOOPS
  6
CONTINUOUS
 62
     3
100
AcDbCircle
 10
890.5284557917
 20
405.0946007877
 30
0.0
 40
40.91560754111904
100
AcDbArc
 50
297.9814272535
 51
310.1355186362
  0
ARC
  5
21B
330
1F
100
AcDbEntity
  8
INTERIOR_LOOPS
  6
CONTINUOUS
 62
     3
100
AcDbCircle
 10
900.9443853945
 20
385.4897578876
 30
0.0
 40
18.71557477926694
100
AcDbArc
 50
276.980453608
 51
297.9814272535
  0
ARC
  5
21C
330
1F
100
AcDbEntity
  8
INTERIOR_LOOPS
  6
CONTINUOUS
 62
     3
100
AcDbCircle
 10
901.6573121883
 20
379.6670137705
 30
0.0
 40
12.849348252214
100
AcDbArc
 50
255.9794799614
 51
276.9804536083
  0
ARC
  5
21D
330
1F
100
AcDbEntity
  8
INTERIOR_LOOPS
  6
CONTINUOUS
 62
     3
100
AcDbCircle
 10
901.2997268247
 20
378.2350022627
 30
0.0
 40
11.37336578256382
100
AcDbArc
 50
228.0637644466
 51
255.9794799614
  0
ARC
  5
21E
330
1F
100
AcDbEntity
  8
INTERIOR_LOOPS
  6
CONTINUOUS
 62
     3
100
AcDbCircle
 10
900.825829857
 20
377.7075069752
 30
0.0
 40
10.66426098467577
100
AcDbArc
 50
200.1480489391
 51
228.0637644464
  0
LINE
  5
21F
330
1F
100
AcDbEntity
  8
INTERIOR_LOOPS
  6
CONTINUOUS
 62
     3
100
AcDbLine
 10
890.2301056867
 20
376.0379074555
 30
0.0
 11
890.8141605949
 21
374.0342331036
 31
0.0
  0
LINE
  5
220
330
1F
100
AcDbEntity
  8
INTERIOR_LOOPS
  6
CONTINUOUS
 62
     3
100
AcDbLine
 10
889.6597808784
 20
379.8738060012
 30
0.0
 11
890.2301056867
 21
376.0379074555
 31
0.0
  0
LINE
  5
221
330
1F
100
AcDbEntity
  8
INTERIOR_LOOPS
  6
CONTINUOUS
 62
     3
100
AcDbLine
 10
889.5535800154
 20
381.9338340231
 30
0.0
 11
889.6597808784
 21
379.8738060012
 31
0.0
  0
LINE
  5
222
330
1F
100
AcDbEntity
  8
INTERIOR_LOOPS
  6
CONTINUOUS
 62
     3
100
AcDbLine
 10
889.5751979128
 20
386.5895911946
 30
0.0
 11
889.5535800154
 21
381.9338340231
 31
0.0
  0
LINE
  5
223
330
1F
100
AcDbEntity
  8
INTERIOR_LOOPS
  6
CONTINUOUS
 62
     3
100
AcDbLine
 10
889.6088200273
 20
387.5027571111
 30
0.0
 11
889.5751979128
 21
386.5895911946
 31
0.0
  0
LINE
  5
224
330
1F
100
AcDbEntity
  8
INTERIOR_LOOPS
  6
CONTINUOUS
 62
     3
100
AcDbLine
 10
889.7255617656
 20
390.0969535352
 30
0.0
 11
889.6088200273
 21
387.5027571111
 31
0.0
  0
LINE
  5
225
330
1F
100
AcDbEntity
  8
INTERIOR_LOOPS
  6
CONTINUOUS
 62
     3
100
AcDbLine
 10
889.7267516383
 20
390.1211285102
 30
0.0
 11
889.7255617656
 21
390.0969535352
 31
0.0
  0
LINE
  5
226
330
1F
100
AcDbEntity
  8
INTERIOR_LOOPS
  6
CONTINUOUS
 62
     3
100
AcDbLine
 10
889.7691025565
 20
390.9772366548
 30
0.0
 11
889.7267516383
 21
390.1211285102
 31
0.0
  0
LINE
  5
227
330
1F
100
AcDbEntity
  8
INTERIOR_LOOPS
  6
CONTINUOUS
 62
     3
100
AcDbLine
 10
889.8020162347
 20
391.6439876721
 30
0.0
 11
889.7691025565
 21
390.9772366548
 31
0.0
  0
LINE
  5
228
330
1F
100
AcDbEntity
  8
INTERIOR_LOOPS
  6
CONTINUOUS
 62
     3
100
AcDbLine
 10
889.8124167979
 20
391.8566579148
 30
0.0
 11
889.8020162347
 21
391.6439876721
 31
0.0
  0
LINE
  5
229
330
1F
100
AcDbEntity
  8
INTERIOR_LOOPS
  6
CONTINUOUS
 62
     3
100
AcDbLine
 10
889.8668044371
 20
393.010469981
 30
0.0
 11
889.8124167979
 21
391.8566579148
 31
0.0
  0
LINE
  5
22A
330
1F
100
AcDbEntity
  8
INTERIOR_LOOPS
  6
CONTINUOUS
 62
     3
100
AcDbLine
 10
889.893152671
 20
393.6084371095
 30
0.0
 11
889.8668044371
 21
393.010469981
 31
0.0
  0
LINE
  5
22B
330
1F
100
AcDbEntity
  8
INTERIOR_LOOPS
  6
CONTINUOUS
 62
     3
100
AcDbLine
 10
889.9950504066
 20
397.903975316
 30
0.0
 11
889.893152671
 21
393.6084371095
 31
0.0
  0
LINE
  5
22C
330
1F
100
AcDbEntity
  8
INTERIOR_LOOPS
  6
CONTINUOUS
 62
     3
100
AcDbLine
 10
889.9608922672
 20
400.3702574928
 30
0.0
 11
889.9950504066
 21
397.903975316
 31
0.0
  0
ARC
  5
22D
330
1F
100
AcDbEntity
  8
INTERIOR_LOOPS
  6
CONTINUOUS
 62
     3
100
AcDbCircle
 10
822.7693512584
 20
398.1768570517
 30
0.0
 40
67.22733215466268
100
AcDbArc
 50
1.8696992882
 51
10.3794019526
  0
ARC
  5
22E
330
1F
100
AcDbEntity
  8
INTERIOR_LOOPS
  6
CONTINUOUS
 62
     3
100
AcDbCircle
 10
799.2288149959
 20
393.8651075638
 30
0.0
 40
91.15948690870081
100
AcDbArc
 50
10.3794019525
 51
18.8891046166
  0
LINE
  5
22F
330
1F
100
AcDbEntity
  8
INTERIOR_LOOPS
  6
CONTINUOUS
 62
     3
100
AcDbLine
 10
882.4081199847
 20
431.703711648
 30
0.0
 11
885.4790844005
 21
423.3768523629
 31
0.0
  0
LINE
  5
230
330
1F
100
AcDbEntity
  8
INTERIOR_LOOPS
  6
CONTINUOUS
 62
     3
100
AcDbLine
 10
877.03944996
 20
444.379758323
 30
0.0
 11
882.4081199847
 21
431.703711648
 31
0.0
  0
LINE
  5
231
330
1F
100
AcDbEntity
  8
INTERIOR_LOOPS
  6
CONTINUOUS
 62
     3
100
AcDbLine
 10
988.4775266717
 20
632.9853833781
 30
0.0
 11
984.7802498904
 21
629.2510721697
 31
0.0
  0
LINE
  5
232
330
1F
100
AcDbEntity
  8
INTERIOR_LOOPS
  6
CONTINUOUS
 62
     3
100
AcDbLine
 10
989.0266245584
 20
633.5274419771
 30
0.0
 11
988.4775266717
 21
632.9853833781
 31
0.0
  0
LINE
  5
233
330
1F
100
AcDbEntity
  8
INTERIOR_LOOPS
  6
CONTINUOUS
 62
     3
100
AcDbLine
 10
991.7677313802
 20
636.2184972806
 30
0.0
 11
989.0266245584
 21
633.5274419771
 31
0.0
  0
LINE
  5
234
330
1F
100
AcDbEntity
  8
INTERIOR_LOOPS
  6
CONTINUOUS
 62
     3
100
AcDbLine
 10
994.8445992291
 20
639.2362794801
 30
0.0
 11
991.7677313802
 21
636.2184972806
 31
0.0
  0
LINE
  5
235
330
1F
100
AcDbEntity
  8
INTERIOR_LOOPS
  6
CONTINUOUS
 62
     3
100
AcDbLine
 10
995.3871786505
 20
639.7703603685
 30
0.0
 11
994.8445992291
 21
639.2362794801
 31
0.0
  0
ARC
  5
236
330
1F
100
AcDbEntity
  8
INTERIOR_LOOPS
  6
CONTINUOUS
 62
     3
100
AcDbCircle
 10
772.2128731883
 20
866.0878786481
 30
0.0
 40
317.8464876300923
100
AcDbArc
 50
314.5993477887
 51
317.4763357486
  0
LINE
  5
237
330
1F
100
AcDbEntity
  8
INTERIOR_LOOPS
  6
CONTINUOUS
 62
     3
100
AcDbLine
 10
1012.0846373584
 20
657.7022114373
 30
0.0
 11
1006.4651758844
 21
651.2571350839
 31
0.0
  0
ARC
  5
238
330
1F
100
AcDbEntity
  8
INTERIOR_LOOPS
  6
CONTINUOUS
 62
     3
100
AcDbCircle
 10
854.721685184
 20
788.1002442728
 30
0.0
 40
204.369140734159
100
AcDbArc
 50
320.3533237084
 51
325.769656472
  0
ARC
  5
239
330
1F
100
AcDbEntity
  8
INTERIOR_LOOPS
  6
CONTINUOUS
 62
     3
100
AcDbCircle
 10
767.4947578809
 20
847.4471514091
 30
0.0
 40
309.8707626808512
100
AcDbArc
 50
325.769657392
 51
331.1859946396
  0
LINE
  5
23A
330
1F
100
AcDbEntity
  8
INTERIOR_LOOPS
  6
CONTINUOUS
 62
     3
100
AcDbLine
 10
1043.0046268753
 20
705.5709864022
 30
0.0
 11
1039.0000787683
 21
698.0994018638
 31
0.0
  0
LINE
  5
23B
330
1F
100
AcDbEntity
  8
INTERIOR_LOOPS
  6
CONTINUOUS
 62
     3
100
AcDbLine
 10
1049.1604204817
 20
717.6830251372
 30
0.0
 11
1043.0046268753
 21
705.5709864022
 31
0.0
  0
LINE
  5
23C
330
1F
100
AcDbEntity
  8
INTERIOR_LOOPS
  6
CONTINUOUS
 62
     3
100
AcDbLine
 10
1049.7256531422
 20
718.8342829337
 30
0.0
 11
1049.1604204817
 21
717.6830251372
 31
0.0
  0
LINE
  5
23D
330
1F
100
AcDbEntity
  8
INTERIOR_LOOPS
  6
CONTINUOUS
 62
     3
100
AcDbLine
 10
1058.1212036903
 20
736.1897599741
 30
0.0
 11
1049.7256531422
 21
718.8342829337
 31
0.0
  0
LINE
  5
23E
330
1F
100
AcDbEntity
  8
INTERIOR_LOOPS
  6
CONTINUOUS
 62
     3
100
AcDbLine
 10
1066.586454002
 20
754.0115084047
 30
0.0
 11
1058.1212036903
 21
736.1897599741
 31
0.0
  0
LINE
  5
23F
330
1F
100
AcDbEntity
  8
INTERIOR_LOOPS
  6
CONTINUOUS
 62
     3
100
AcDbLine
 10
1067.0188083474
 20
754.9417739338
 30
0.0
 11
1066.586454002
 21
754.0115084047
 31
0.0
  0
LINE
  5
240
330
1F
100
AcDbEntity
  8
INTERIOR_LOOPS
  6
CONTINUOUS
 62
     3
100
AcDbLine
 10
1072.6975554298
 20
767.8168691952
 30
0.0
 11
1067.0188083474
 21
754.9417739338
 31
0.0
  0
LINE
  5
241
330
1F
100
AcDbEntity
  8
INTERIOR_LOOPS
  6
CONTINUOUS
 62
     3
100
AcDbLine
 10
1075.9814225869
 20
775.9337105317
 30
0.0
 11
1072.6975554298
 21
767.8168691952
 31
0.0
  0
ARC
  5
242
330
1F
100
AcDbEntity
  8
INTERIOR_LOOPS
  6
CONTINUOUS
 62
     3
100
AcDbCircle
 10
856.3797711408
 20
860.8466679345
 30
0.0
 40
235.4465876904995
100
AcDbArc
 50
338.8601028225
 51
344.5577373581
  0
ARC
  5
243
330
1F
100
AcDbEntity
  8
INTERIOR_LOOPS
  6
CONTINUOUS
 62
     3
100
AcDbCircle
 10
837.1634566197
 20
866.1544930651
 30
0.0
 40
255.3824787213442
100
AcDbArc
 50
344.5578417309
 51
350.2580459647
  0
ARC
  5
244
330
1F
100
AcDbEntity
  8
INTERIOR_LOOPS
  6
CONTINUOUS
 62
     3
100
AcDbCircle
 10
801.3384430643
 20
872.3051769886
 30
0.0
 40
291.7316535258578
100
AcDbArc
 50
350.2580459647
 51
353.4435636134
  0
ARC
  5
245
330
1F
100
AcDbEntity
  8
INTERIOR_LOOPS
  6
CONTINUOUS
 62
     3
100
AcDbCircle
 10
583.112107411
 20
897.3866952952
 30
0.0
 40
511.3946138382882
100
AcDbArc
 50
353.4435636119
 51
356.629081255
  0
LINE
  5
246
330
1F
100
AcDbEntity
  8
INTERIOR_LOOPS
  6
CONTINUOUS
 62
     3
100
AcDbLine
 10
1093.9389040655
 20
873.1379111092
 30
0.0
 11
1093.6219068501
 21
867.3168476155
 31
0.0
  0
LINE
  5
247
330
1F
100
AcDbEntity
  8
INTERIOR_LOOPS
  6
CONTINUOUS
 62
     3
100
AcDbLine
 10
1094.6118426413
 20
887.9066511378
 30
0.0
 11
1093.9389040655
 21
873.1379111092
 31
0.0
  0
LINE
  5
248
330
1F
100
AcDbEntity
  8
INTERIOR_LOOPS
  6
CONTINUOUS
 62
     3
100
AcDbLine
 10
1094.6312103454
 20
888.3794930736
 30
0.0
 11
1094.6118426413
 21
887.9066511378
 31
0.0
  0
LINE
  5
249
330
1F
100
AcDbEntity
  8
INTERIOR_LOOPS
  6
CONTINUOUS
 62
     3
100
AcDbLine
 10
1094.8137868329
 20
892.8726969762
 30
0.0
 11
1094.6312103454
 21
888.3794930736
 31
0.0
  0
LINE
  5
24A
330
1F
100
AcDbEntity
  8
INTERIOR_LOOPS
  6
CONTINUOUS
 62
     3
100
AcDbLine
 10
1094.9708837289
 20
896.7311431118
 30
0.0
 11
1094.8137868329
 21
892.8726969762
 31
0.0
  0
LINE
  5
24B
330
1F
100
AcDbEntity
  8
INTERIOR_LOOPS
  6
CONTINUOUS
 62
     3
100
AcDbLine
 10
1095.0134079471
 20
897.7632036671
 30
0.0
 11
1094.9708837289
 21
896.7311431118
 31
0.0
  0
LINE
  5
24C
330
1F
100
AcDbEntity
  8
INTERIOR_LOOPS
  6
CONTINUOUS
 62
     3
100
AcDbLine
 10
1095.200243192
 20
902.1760843301
 30
0.0
 11
1095.0134079471
 21
897.7632036671
 31
0.0
  0
LINE
  5
24D
330
1F
100
AcDbEntity
  8
INTERIOR_LOOPS
  6
CONTINUOUS
 62
     3
100
AcDbLine
 10
1095.4332352271
 20
907.4565727236
 30
0.0
 11
1095.200243192
 21
902.1760843301
 31
0.0
  0
LINE
  5
24E
330
1F
100
AcDbEntity
  8
INTERIOR_LOOPS
  6
CONTINUOUS
 62
     3
100
AcDbLine
 10
1095.7371514744
 20
914.0563730403
 30
0.0
 11
1095.4332352271
 21
907.4565727236
 31
0.0
  0
LINE
  5
24F
330
1F
100
AcDbEntity
  8
INTERIOR_LOOPS
  6
CONTINUOUS
 62
     3
100
AcDbLine
 10
1096.3586503324
 20
926.971027523
 30
0.0
 11
1095.7371514744
 21
914.0563730403
 31
0.0
  0
LINE
  5
250
330
1F
100
AcDbEntity
  8
INTERIOR_LOOPS
  6
CONTINUOUS
 62
     3
100
AcDbLine
 10
1096.4670100859
 20
929.1686338595
 30
0.0
 11
1096.3586503324
 21
926.971027523
 31
0.0
  0
LINE
  5
251
330
1F
100
AcDbEntity
  8
INTERIOR_LOOPS
  6
CONTINUOUS
 62
     3
100
AcDbLine
 10
1096.8452771511
 20
936.7937954287
 30
0.0
 11
1096.4670100859
 21
929.1686338595
 31
0.0
  0
LINE
  5
252
330
1F
100
AcDbEntity
  8
INTERIOR_LOOPS
  6
CONTINUOUS
 62
     3
100
AcDbLine
 10
1097.3006396819
 20
945.9625167141
 30
0.0
 11
1096.8452771511
 21
936.7937954287
 31
0.0
  0
LINE
  5
253
330
1F
100
AcDbEntity
  8
INTERIOR_LOOPS
  6
CONTINUOUS
 62
     3
100
AcDbLine
 10
1097.3351637545
 20
946.6602404689
 30
0.0
 11
1097.3006396819
 21
945.9625167141
 31
0.0
  0
LINE
  5
254
330
1F
100
AcDbEntity
  8
INTERIOR_LOOPS
  6
CONTINUOUS
 62
     3
100
AcDbLine
 10
839.5266231136
 20
402.4835049324
 30
0.0
 11
839.2329981671
 21
403.6224162212
 31
0.0
  0
LINE
  5
255
330
1F
100
AcDbEntity
  8
INTERIOR_LOOPS
  6
CONTINUOUS
 62
     3
100
AcDbLine
 10
839.8189671429
 20
400.7926073979
 30
0.0
 11
839.5266231136
 21
402.4835049324
 31
0.0
  0
LINE
  5
256
330
1F
100
AcDbEntity
  8
INTERIOR_LOOPS
  6
CONTINUOUS
 62
     3
100
AcDbLine
 10
839.9678025694
 20
399.1961673489
 30
0.0
 11
839.8189671429
 21
400.7926073979
 31
0.0
  0
LINE
  5
257
330
1F
100
AcDbEntity
  8
INTERIOR_LOOPS
  6
CONTINUOUS
 62
     3
100
AcDbLine
 10
839.9954075917
 20
398.3776511315
 30
0.0
 11
839.9678025694
 21
399.1961673489
 31
0.0
  0
LINE
  5
258
330
1F
100
AcDbEntity
  8
INTERIOR_LOOPS
  6
CONTINUOUS
 62
     3
100
AcDbLine
 10
839.9869953356
 20
397.0920746999
 30
0.0
 11
839.9954075917
 21
398.3776511315
 31
0.0
  0
LINE
  5
259
330
1F
100
AcDbEntity
  8
INTERIOR_LOOPS
  6
CONTINUOUS
 62
     3
100
AcDbLine
 10
839.9665074887
 20
396.4481284319
 30
0.0
 11
839.9869953356
 21
397.0920746999
 31
0.0
  0
LINE
  5
25A
330
1F
100
AcDbEntity
  8
INTERIOR_LOOPS
  6
CONTINUOUS
 62
     3
100
AcDbLine
 10
839.9018971864
 20
394.9133532578
 30
0.0
 11
839.9665074887
 21
396.4481284319
 31
0.0
  0
LINE
  5
25B
330
1F
100
AcDbEntity
  8
INTERIOR_LOOPS
  6
CONTINUOUS
 62
     3
100
AcDbLine
 10
839.8956626468
 20
394.783023478
 30
0.0
 11
839.9018971864
 21
394.9133532578
 31
0.0
  0
LINE
  5
25C
330
1F
100
AcDbEntity
  8
INTERIOR_LOOPS
  6
CONTINUOUS
 62
     3
100
AcDbLine
 10
839.8295188778
 20
393.433894695
 30
0.0
 11
839.8956626468
 21
394.783023478
 31
0.0
  0
LINE
  5
25D
330
1F
100
AcDbEntity
  8
INTERIOR_LOOPS
  6
CONTINUOUS
 62
     3
100
AcDbLine
 10
839.764424396
 20
392.1086041066
 30
0.0
 11
839.8295188778
 21
393.433894695
 31
0.0
  0
LINE
  5
25E
330
1F
100
AcDbEntity
  8
INTERIOR_LOOPS
  6
CONTINUOUS
 62
     3
100
AcDbLine
 10
839.745310309
 20
391.711281818
 30
0.0
 11
839.764424396
 21
392.1086041066
 31
0.0
  0
ARC
  5
25F
330
1F
100
AcDbEntity
  8
INTERIOR_LOOPS
  6
CONTINUOUS
 62
     3
100
AcDbCircle
 10
981.7741185951
 20
384.9508935438
 30
0.0
 40
142.1896101435593
100
AcDbArc
 50
177.2748515433
 51
183.661673286
  0
ARC
  5
260
330
1F
100
AcDbEntity
  8
INTERIOR_LOOPS
  6
CONTINUOUS
 62
     3
100
AcDbCircle
 10
907.5235419655
 20
380.1991979472
 30
0.0
 40
67.78714552801034
100
AcDbArc
 50
183.6616732944
 51
190.0484950131
  0
ARC
  5
261
330
1F
100
AcDbEntity
  8
INTERIOR_LOOPS
  6
CONTINUOUS
 62
     3
100
AcDbCircle
 10
908.7874492692
 20
380.4231620994
 30
0.0
 40
69.07074265770963
100
AcDbArc
 50
190.0484950131
 51
199.6233971268
  0
ARC
  5
262
330
1F
100
AcDbEntity
  8
INTERIOR_LOOPS
  6
CONTINUOUS
 62
     3
100
AcDbCircle
 10
901.9458609588
 20
377.9841924208
 30
0.0
 40
61.80741672703472
100
AcDbArc
 50
199.6237104588
 51
209.1929666309
  0
ARC
  5
263
330
1F
100
AcDbEntity
  8
INTERIOR_LOOPS
  6
CONTINUOUS
 62
     3
100
AcDbCircle
 10
900.306134324
 20
377.0680443181
 30
0.0
 40
59.9291114280382
100
AcDbArc
 50
209.1929666309
 51
223.3117945553
  0
ARC
  5
264
330
1F
100
AcDbEntity
  8
INTERIOR_LOOPS
  6
CONTINUOUS
 62
     3
100
AcDbCircle
 10
900.1342082838
 20
376.9059067965
 30
0.0
 40
59.69279143829097
100
AcDbArc
 50
223.3117555951
 51
237.4503046506
  0
ARC
  5
265
330
1F
100
AcDbEntity
  8
INTERIOR_LOOPS
  6
CONTINUOUS
 62
     3
100
AcDbCircle
 10
901.5162523051
 20
379.0711347728
 30
0.0
 40
62.26149887355997
100
AcDbArc
 50
237.4503046506
 51
260.0359133322
  0
ARC
  5
266
330
1F
100
AcDbEntity
  8
INTERIOR_LOOPS
  6
CONTINUOUS
 62
     3
100
AcDbCircle
 10
901.8455576752
 20
380.9448441751
 30
0.0
 40
64.16392599046698
100
AcDbArc
 50
260.0357983985
 51
282.6137691885
  0
ARC
  5
267
330
1F
100
AcDbEntity
  8
INTERIOR_LOOPS
  6
CONTINUOUS
 62
     3
100
AcDbCircle
 10
901.84939842
 20
380.9276810463
 30
0.0
 40
64.1463383722809
100
AcDbArc
 50
282.6137691885
 51
294.581428717
  0
ARC
  5
268
330
1F
100
AcDbEntity
  8
INTERIOR_LOOPS
  6
CONTINUOUS
 62
     3
100
AcDbCircle
 10
891.7552214264
 20
402.9941698535
 30
0.0
 40
88.41200006648265
100
AcDbArc
 50
294.5814287171
 51
306.5490882468
  0
ARC
  5
269
330
1F
100
AcDbEntity
  8
INTERIOR_LOOPS
  6
CONTINUOUS
 62
     3
100
AcDbCircle
 10
878.2204612186
 20
421.2526123244
 30
0.0
 40
111.1399664426881
100
AcDbArc
 50
306.5490882468
 51
315.8382965939
  0
ARC
  5
26A
330
1F
100
AcDbEntity
  8
INTERIOR_LOOPS
  6
CONTINUOUS
 62
     3
100
AcDbCircle
 10
869.8111156167
 20
429.4199426211
 30
0.0
 40
122.8626955403374
100
AcDbArc
 50
315.8381198858
 51
325.123800883
  0
ARC
  5
26B
330
1F
100
AcDbEntity
  8
INTERIOR_LOOPS
  6
CONTINUOUS
 62
     3
100
AcDbCircle
 10
862.0971855067
 20
434.7964923383
 30
0.0
 40
132.2654613405609
100
AcDbArc
 50
325.123800883
 51
331.4025833211
  0
ARC
  5
26C
330
1F
100
AcDbEntity
  8
INTERIOR_LOOPS
  6
CONTINUOUS
 62
     3
100
AcDbCircle
 10
834.2852362509
 20
449.9591325856
 30
0.0
 40
163.9421117375648
100
AcDbArc
 50
331.4023685408
 51
337.6791425739
  0
ARC
  5
26D
330
1F
100
AcDbEntity
  8
INTERIOR_LOOPS
  6
CONTINUOUS
 62
     3
100
AcDbCircle
 10
801.2742351948
 20
463.5119712575
 30
0.0
 40
199.6269212059048
100
AcDbArc
 50
337.6791425739
 51
343.7390254111
  0
ARC
  5
26E
330
1F
100
AcDbEntity
  8
INTERIOR_LOOPS
  6
CONTINUOUS
 62
     3
100
AcDbCircle
 10
710.583144575
 20
489.9648616368
 30
0.0
 40
294.0971775156146
100
AcDbArc
 50
343.7390254114
 51
349.7989082503
  0
ARC
  5
26F
330
1F
100
AcDbEntity
  8
INTERIOR_LOOPS
  6
CONTINUOUS
 62
     3
100
AcDbCircle
 10
616.9961168616
 20
506.8056667305
 30
0.0
 40
389.1873687721894
100
AcDbArc
 50
349.7989082503
 51
352.6697014028
  0
ARC
  5
270
330
1F
100
AcDbEntity
  8
INTERIOR_LOOPS
  6
CONTINUOUS
 62
     3
100
AcDbCircle
 10
482.7758640622
 20
524.0730592483
 30
0.0
 40
524.5137856492818
100
AcDbArc
 50
352.6695676116
 51
355.5394574279
  0
ARC
  5
271
330
1F
100
AcDbEntity
  8
INTERIOR_LOOPS
  6
CONTINUOUS
 62
     3
100
AcDbCircle
 10
585.4897527372
 20
516.0604703347
 30
0.0
 40
421.4878447001611
100
AcDbArc
 50
355.5394574279
 51
359.1979722506
  0
ARC
  5
272
330
1F
100
AcDbEntity
  8
INTERIOR_LOOPS
  6
CONTINUOUS
 62
     3
100
AcDbCircle
 10
683.9313251018
 20
514.6817223126
 30
0.0
 40
323.0366176121393
100
AcDbArc
 50
359.1980911504
 51
2.8557068092
  0
ARC
  5
273
330
1F
100
AcDbEntity
  8
INTERIOR_LOOPS
  6
CONTINUOUS
 62
     3
100
AcDbCircle
 10
721.1817904986
 20
516.5398797899
 30
0.0
 40
285.7398359558429
100
AcDbArc
 50
2.8557068092
 51
8.3336463573
  0
ARC
  5
274
330
1F
100
AcDbEntity
  8
INTERIOR_LOOPS
  6
CONTINUOUS
 62
     3
100
AcDbCircle
 10
769.9858078027
 20
523.6895831309
 30
0.0
 40
236.4148893029338
100
AcDbArc
 50
8.333479681
 51
13.8131836668
  0
ARC
  5
275
330
1F
100
AcDbEntity
  8
INTERIOR_LOOPS
  6
CONTINUOUS
 62
     3
100
AcDbCircle
 10
762.3070920811
 20
521.8016360885
 30
0.0
 40
244.3222921178962
100
AcDbArc
 50
13.8131836668
 51
19.0762119397
  0
ARC
  5
276
330
1F
100
AcDbEntity
  8
INTERIOR_LOOPS
  6
CONTINUOUS
 62
     3
100
AcDbCircle
 10
708.558163689
 20
503.2133414464
 30
0.0
 40
301.1947107423882
100
AcDbArc
 50
19.0764002028
 51
24.3412342845
  0
ARC
  5
277
330
1F
100
AcDbEntity
  8
INTERIOR_LOOPS
  6
CONTINUOUS
 62
     3
100
AcDbCircle
 10
-355.3528054023
 20
1043.8164726199
 30
0.0
 40
1455.60437851188
100
AcDbArc
 50
358.0828360737
 51
359.4751441968
  0
LINE
  5
278
330
1F
100
AcDbEntity
  8
INTERIOR_LOOPS
  6
CONTINUOUS
 62
     3
100
AcDbLine
 10
1100.1905006989
 20
1030.482650706
 30
0.0
 11
1100.1222325786
 21
1053.2953307996
 31
0.0
  0
ARC
  5
279
330
1F
100
AcDbEntity
  8
INTERIOR_LOOPS
  6
CONTINUOUS
 62
     3
100
AcDbCircle
 10
272.6189984995
 20
1040.7596057111
 30
0.0
 40
827.5981795623239
100
AcDbArc
 50
0.8678989712
 51
3.1908435036
  0
ARC
  5
27A
330
1F
100
AcDbEntity
  8
INTERIOR_LOOPS
  6
CONTINUOUS
 62
     3
100
AcDbCircle
 10
454.8459791285
 20
1050.9174209325
 30
0.0
 40
645.0883067393717
100
AcDbArc
 50
3.1909359131
 51
5.5131347864
  0
ARC
  5
27B
330
1F
100
AcDbEntity
  8
INTERIOR_LOOPS
  6
CONTINUOUS
 62
     3
100
AcDbCircle
 10
457.5811374829
 20
1051.1814195767
 30
0.0
 40
642.3404372867219
100
AcDbArc
 50
5.5131347864
 51
7.7216810315
  0
ARC
  5
27C
330
1F
100
AcDbEntity
  8
INTERIOR_LOOPS
  6
CONTINUOUS
 62
     3
100
AcDbCircle
 10
194.1550931724
 20
1015.4657413988
 30
0.0
 40
908.1766471692139
100
AcDbArc
 50
7.7215291372
 51
9.9291894429
  0
LINE
  5
27D
330
1F
100
AcDbEntity
  8
INTERIOR_LOOPS
  6
CONTINUOUS
 62
     3
100
AcDbLine
 10
1088.728715173
 20
1172.0634977628
 30
0.0
 11
1085.5528165236
 21
1189.3308055295
 31
0.0
  0
LINE
  5
27E
330
1F
100
AcDbEntity
  8
INTERIOR_LOOPS
  6
CONTINUOUS
 62
     3
100
AcDbLine
 10
1085.5528165236
 20
1189.3308055295
 30
0.0
 11
1077.5804487302
 21
1228.8489736157
 31
0.0
  0
LINE
  5
27F
330
1F
100
AcDbEntity
  8
INTERIOR_LOOPS
  6
CONTINUOUS
 62
     3
100
AcDbLine
 10
1077.5804487302
 20
1228.8489736157
 30
0.0
 11
1076.6763861454
 21
1233.1281328803
 31
0.0
  0
LINE
  5
280
330
1F
100
AcDbEntity
  8
INTERIOR_LOOPS
  6
CONTINUOUS
 62
     3
100
AcDbLine
 10
1076.6763861454
 20
1233.1281328803
 30
0.0
 11
1074.6480052465
 21
1242.6766503921
 31
0.0
  0
LINE
  5
281
330
1F
100
AcDbEntity
  8
INTERIOR_LOOPS
  6
CONTINUOUS
 62
     3
100
AcDbLine
 10
1074.6480052465
 20
1242.6766503921
 30
0.0
 11
1074.3972142128
 21
1243.8537968536
 31
0.0
  0
LINE
  5
282
330
1F
100
AcDbEntity
  8
INTERIOR_LOOPS
  6
CONTINUOUS
 62
     3
100
AcDbLine
 10
1074.3972142128
 20
1243.8537968536
 30
0.0
 11
1073.9163065477
 21
1246.1102346837
 31
0.0
  0
LINE
  5
283
330
1F
100
AcDbEntity
  8
INTERIOR_LOOPS
  6
CONTINUOUS
 62
     3
100
AcDbLine
 10
1073.9163065477
 20
1246.1102346837
 30
0.0
 11
1073.5510778441
 21
1247.8235108378
 31
0.0
  0
LINE
  5
284
330
1F
100
AcDbEntity
  8
INTERIOR_LOOPS
  6
CONTINUOUS
 62
     3
100
AcDbLine
 10
1073.5510778441
 20
1247.8235108378
 30
0.0
 11
1073.2389802724
 21
1249.2875824819
 31
0.0
  0
LINE
  5
285
330
1F
100
AcDbEntity
  8
INTERIOR_LOOPS
  6
CONTINUOUS
 62
     3
100
AcDbLine
 10
1073.2389802724
 20
1249.2875824819
 30
0.0
 11
1073.1863620122
 21
1249.5344391779
 31
0.0
  0
LINE
  5
286
330
1F
100
AcDbEntity
  8
INTERIOR_LOOPS
  6
CONTINUOUS
 62
     3
100
AcDbLine
 10
1073.1863620122
 20
1249.5344391779
 30
0.0
 11
1072.1596394922
 21
1254.3544129025
 31
0.0
  0
LINE
  5
287
330
1F
100
AcDbEntity
  8
INTERIOR_LOOPS
  6
CONTINUOUS
 62
     3
100
AcDbLine
 10
1072.1596394922
 20
1254.3544129025
 30
0.0
 11
1071.7341140192
 21
1256.3546171004
 31
0.0
  0
LINE
  5
288
330
1F
100
AcDbEntity
  8
INTERIOR_LOOPS
  6
CONTINUOUS
 62
     3
100
AcDbLine
 10
1071.7341140192
 20
1256.3546171004
 30
0.0
 11
1067.7328201133
 21
1275.3836557112
 31
0.0
  0
LINE
  5
289
330
1F
100
AcDbEntity
  8
INTERIOR_LOOPS
  6
CONTINUOUS
 62
     3
100
AcDbLine
 10
1067.7328201133
 20
1275.3836557112
 30
0.0
 11
1066.1140287655
 21
1283.2562509749
 31
0.0
  0
LINE
  5
28A
330
1F
100
AcDbEntity
  8
INTERIOR_LOOPS
  6
CONTINUOUS
 62
     3
100
AcDbLine
 10
1066.1140287655
 20
1283.2562509749
 30
0.0
 11
1060.1744782493
 21
1313.8730316842
 31
0.0
  0
LINE
  5
28B
330
1F
100
AcDbEntity
  8
INTERIOR_LOOPS
  6
CONTINUOUS
 62
     3
100
AcDbLine
 10
1060.1744782493
 20
1313.8730316842
 30
0.0
 11
1056.2508920306
 21
1336.2310907995
 31
0.0
  0
LINE
  5
28C
330
1F
100
AcDbEntity
  8
INTERIOR_LOOPS
  6
CONTINUOUS
 62
     3
100
AcDbLine
 10
1056.2508920306
 20
1336.2310907995
 30
0.0
 11
1053.0924174941
 21
1356.345194734
 31
0.0
  0
LINE
  5
28D
330
1F
100
AcDbEntity
  8
INTERIOR_LOOPS
  6
CONTINUOUS
 62
     3
100
AcDbLine
 10
1053.0924174941
 20
1356.345194734
 30
0.0
 11
1052.2659418329
 21
1362.308474198
 31
0.0
  0
ARC
  5
28E
330
1F
100
AcDbEntity
  8
INTERIOR_LOOPS
  6
CONTINUOUS
 62
     3
100
AcDbCircle
 10
1249.1550195824
 20
1387.788390087
 30
0.0
 40
198.5309423005631
100
AcDbArc
 50
183.1210642346
 51
187.3738101192
  0
LINE
  5
28F
330
1F
100
AcDbEntity
  8
INTERIOR_LOOPS
  6
CONTINUOUS
 62
     3
100
AcDbLine
 10
1050.9185540003
 20
1376.9791919545
 30
0.0
 11
1050.814424261
 21
1382.9766257564
 31
0.0
  0
ARC
  5
290
330
1F
100
AcDbEntity
  8
INTERIOR_LOOPS
  6
CONTINUOUS
 62
     3
100
AcDbCircle
 10
1112.7925362054
 20
1381.7523014734
 30
0.0
 40
61.99020350140874
100
AcDbArc
 50
170.7570326915
 51
178.8683183547
  0
LINE
  5
291
330
1F
100
AcDbEntity
  8
INTERIOR_LOOPS
  6
CONTINUOUS
 62
     3
100
AcDbLine
 10
1051.6072079737
 20
1391.7092557927
 30
0.0
 11
1052.7508117648
 21
1396.5475649614
 31
0.0
  0
ARC
  5
292
330
1F
100
AcDbEntity
  8
INTERIOR_LOOPS
  6
CONTINUOUS
 62
     3
100
AcDbCircle
 10
1088.5070458051
 20
1385.3735880794
 30
0.0
 40
37.46152735947069
100
AcDbArc
 50
153.0622659884
 51
162.6457509221
  0
ARC
  5
293
330
1F
100
AcDbEntity
  8
INTERIOR_LOOPS
  6
CONTINUOUS
 62
     3
100
AcDbCircle
 10
1084.1253913064
 20
1387.600157893
 30
0.0
 40
32.54660016968973
100
AcDbArc
 50
143.4787811982
 51
153.0622659776
  0
ARC
  5
294
330
1F
100
AcDbEntity
  8
INTERIOR_LOOPS
  6
CONTINUOUS
 62
     3
100
AcDbCircle
 10
1078.8296654854
 20
1391.5218247496
 30
0.0
 40
25.95689737626639
100
AcDbArc
 50
132.4471899955
 51
143.4787811982
  0
ARC
  5
295
330
1F
100
AcDbEntity
  8
INTERIOR_LOOPS
  6
CONTINUOUS
 62
     3
100
AcDbCircle
 10
1076.0280723034
 20
1394.5848905
 30
0.0
 40
21.80583773454849
100
AcDbArc
 50
121.4155987921
 51
132.4471899956
  0
LINE
  5
296
330
1F
100
AcDbEntity
  8
INTERIOR_LOOPS
  6
CONTINUOUS
 62
     3
100
AcDbLine
 10
1064.661954006
 20
1413.1941869444
 30
0.0
 11
1069.091525549
 21
1415.4635132695
 31
0.0
  0
ARC
  5
297
330
1F
100
AcDbEntity
  8
INTERIOR_LOOPS
  6
CONTINUOUS
 62
     3
100
AcDbCircle
 10
1091.1635526637
 20
1363.052777859
 30
0.0
 40
56.86879255991983
100
AcDbArc
 50
104.2597862267
 51
112.8376925086
  0
ARC
  5
298
330
1F
100
AcDbEntity
  8
INTERIOR_LOOPS
  6
CONTINUOUS
 62
     3
100
AcDbCircle
 10
1092.7326790394
 20
1356.8787482304
 30
0.0
 40
63.23909863082397
100
AcDbArc
 50
97.3045236269
 51
104.2597862267
  0
ARC
  5
299
330
1F
100
AcDbEntity
  8
INTERIOR_LOOPS
  6
CONTINUOUS
 62
     3
100
AcDbCircle
 10
1091.8540108315
 20
1363.7335325563
 30
0.0
 40
56.3282284993327
100
AcDbArc
 50
90.3492609708
 51
97.3045236303
  0
LINE
  5
29A
330
1F
100
AcDbEntity
  8
INTERIOR_LOOPS
  6
CONTINUOUS
 62
     3
100
AcDbLine
 10
1091.51064994
 20
1420.0607145307
 30
0.0
 11
1094.8914941909
 21
1419.9979790253
 31
0.0
  0
LINE
  5
29B
330
1F
100
AcDbEntity
  8
INTERIOR_LOOPS
  6
CONTINUOUS
 62
     3
100
AcDbLine
 10
1094.8914941909
 20
1419.9979790253
 30
0.0
 11
1100.8714458358
 21
1419.5915938094
 31
0.0
  0
LINE
  5
29C
330
1F
100
AcDbEntity
  8
INTERIOR_LOOPS
  6
CONTINUOUS
 62
     3
100
AcDbLine
 10
1100.8714458358
 20
1419.5915938094
 30
0.0
 11
1102.0759105726
 21
1419.4717086909
 31
0.0
  0
LINE
  5
29D
330
1F
100
AcDbEntity
  8
INTERIOR_LOOPS
  6
CONTINUOUS
 62
     3
100
AcDbLine
 10
1102.0759105726
 20
1419.4717086909
 30
0.0
 11
1107.6514994643
 21
1418.8411473037
 31
0.0
  0
LINE
  5
29E
330
1F
100
AcDbEntity
  8
INTERIOR_LOOPS
  6
CONTINUOUS
 62
     3
100
AcDbLine
 10
1107.6514994643
 20
1418.8411473037
 30
0.0
 11
1116.4704076822
 21
1417.958795481
 31
0.0
  0
LINE
  5
29F
330
1F
100
AcDbEntity
  8
INTERIOR_LOOPS
  6
CONTINUOUS
 62
     3
100
AcDbLine
 10
1116.4704076822
 20
1417.958795481
 30
0.0
 11
1119.9893896286
 21
1417.7455515505
 31
0.0
  0
ARC
  5
2A0
330
1F
100
AcDbEntity
  8
INTERIOR_LOOPS
  6
CONTINUOUS
 62
     3
100
AcDbCircle
 10
1123.4553686291
 20
1502.387065608
 30
0.0
 40
84.71244839083326
100
AcDbArc
 50
267.6551094922
 51
276.3530574752
  0
ARC
  5
2A1
330
1F
100
AcDbEntity
  8
INTERIOR_LOOPS
  6
CONTINUOUS
 62
     3
100
AcDbCircle
 10
1125.8340528831
 20
1481.0226179265
 30
0.0
 40
63.2159890657426
100
AcDbArc
 50
276.3530574632
 51
285.0510055282
  0
ARC
  5
2A2
330
1F
100
AcDbEntity
  8
INTERIOR_LOOPS
  6
CONTINUOUS
 62
     3
100
AcDbCircle
 10
1126.9598159263
 20
1476.836124121
 30
0.0
 40
58.8807759437807
100
AcDbArc
 50
285.0510055282
 51
308.3942999417
  0
ARC
  5
2A3
330
1F
100
AcDbEntity
  8
INTERIOR_LOOPS
  6
CONTINUOUS
 62
     3
100
AcDbCircle
 10
1129.3696710492
 20
1473.7946969614
 30
0.0
 40
55.00035317855244
100
AcDbArc
 50
308.3945103649
 51
331.7316293585
  0
ARC
  5
2A4
330
1F
100
AcDbEntity
  8
INTERIOR_LOOPS
  6
CONTINUOUS
 62
     3
100
AcDbCircle
 10
1128.7058355522
 20
1474.1516629829
 30
0.0
 40
55.75407879113735
100
AcDbArc
 50
331.7316293585
 51
347.9050979834
  0
ARC
  5
2A5
330
1F
100
AcDbEntity
  8
INTERIOR_LOOPS
  6
CONTINUOUS
 62
     3
100
AcDbCircle
 10
1117.2512032463
 20
1476.606257359
 30
0.0
 40
67.46875483509557
100
AcDbArc
 50
347.9050979804
 51
4.0785665741
  0
LINE
  5
2A6
330
1F
100
AcDbEntity
  8
INTERIOR_LOOPS
  6
CONTINUOUS
 62
     3
100
AcDbLine
 10
1184.5490907057
 20
1481.4049261855
 30
0.0
 11
1183.8233920405
 21
1487.8256777662
 31
0.0
  0
ARC
  5
2A7
330
1F
100
AcDbEntity
  8
INTERIOR_LOOPS
  6
CONTINUOUS
 62
     3
100
AcDbCircle
 10
1067.9296498156
 20
1469.8464890463
 30
0.0
 40
117.2800524979821
100
AcDbArc
 50
8.8182925755
 51
13.5580185696
  0
ARC
  5
2A8
330
1F
100
AcDbEntity
  8
INTERIOR_LOOPS
  6
CONTINUOUS
 62
     3
100
AcDbCircle
 10
1060.8708290257
 20
1468.1442544139
 30
0.0
 40
124.5412200134014
100
AcDbArc
 50
13.5580185696
 51
24.8282780055
  0
ARC
  5
2A9
330
1F
100
AcDbEntity
  8
INTERIOR_LOOPS
  6
CONTINUOUS
 62
     3
100
AcDbCircle
 10
1060.7195386165
 20
1468.074208684
 30
0.0
 40
124.7079389092074
100
AcDbArc
 50
24.8282984853
 51
36.1291758205
  0
ARC
  5
2AA
330
1F
100
AcDbEntity
  8
INTERIOR_LOOPS
  6
CONTINUOUS
 62
     3
100
AcDbCircle
 10
1056.1261813358
 20
1464.7210908435
 30
0.0
 40
130.3949706857425
100
AcDbArc
 50
36.1291758205
 51
44.3812086306
  0
ARC
  5
2AB
330
1F
100
AcDbEntity
  8
INTERIOR_LOOPS
  6
CONTINUOUS
 62
     3
100
AcDbCircle
 10
1033.8728591441
 20
1442.9422680261
 30
0.0
 40
161.532206777349
100
AcDbArc
 50
44.3814754636
 51
52.6360099669
  0
ARC
  5
2AC
330
1F
100
AcDbEntity
  8
INTERIOR_LOOPS
  6
CONTINUOUS
 62
     3
100
AcDbCircle
 10
1017.7836746739
 20
1421.8710551212
 30
0.0
 40
188.043673552898
100
AcDbArc
 50
52.6360099669
 51
57.8254574644
  0
ARC
  5
2AD
330
1F
100
AcDbEntity
  8
INTERIOR_LOOPS
  6
CONTINUOUS
 62
     3
100
AcDbCircle
 10
1002.640152392
 20
1397.798839736
 30
0.0
 40
216.4830445094636
100
AcDbArc
 50
57.8255980927
 51
63.0170459123
  0
ARC
  5
2AE
330
1F
100
AcDbEntity
  8
INTERIOR_LOOPS
  6
CONTINUOUS
 62
     3
100
AcDbCircle
 10
994.5662009388
 20
1381.9411565758
 30
0.0
 40
234.2778417107075
100
AcDbArc
 50
63.0170459123
 51
69.3318940557
  0
ARC
  5
2AF
330
1F
100
AcDbEntity
  8
INTERIOR_LOOPS
  6
CONTINUOUS
 62
     3
100
AcDbCircle
 10
944.2895957392
 20
1248.6636571174
 30
0.0
 40
376.7230202611988
100
AcDbArc
 50
69.3318940673
 51
75.6467422606
  0
ARC
  5
2B0
330
1F
100
AcDbEntity
  8
INTERIOR_LOOPS
  6
CONTINUOUS
 62
     3
100
AcDbCircle
 10
891.3768605802
 20
1041.881974213
 30
0.0
 40
590.1672095163483
100
AcDbArc
 50
75.6467422606
 51
77.9511782034
  0
ARC
  5
2B1
330
1F
100
AcDbEntity
  8
INTERIOR_LOOPS
  6
CONTINUOUS
 62
     3
100
AcDbCircle
 10
823.7107068509
 20
724.8766647205
 30
0.0
 40
914.3138963788238
100
AcDbArc
 50
77.9510422
 51
80.2548469024
  0
ARC
  5
2B2
330
1F
100
AcDbEntity
  8
INTERIOR_LOOPS
  6
CONTINUOUS
 62
     3
100
AcDbCircle
 10
877.3990627174
 20
1037.482932453
 30
0.0
 40
597.1307975568185
100
AcDbArc
 50
80.2548469024
 51
83.7285759472
  0
ARC
  5
2B3
330
1F
100
AcDbEntity
  8
INTERIOR_LOOPS
  6
CONTINUOUS
 62
     3
100
AcDbCircle
 10
896.8440308712
 20
1214.4086178498
 30
0.0
 40
419.1397726806953
100
AcDbArc
 50
83.72878003
 51
87.2013438288
  0
LINE
  5
2B4
330
1F
100
AcDbEntity
  8
INTERIOR_LOOPS
  6
CONTINUOUS
 62
     3
100
AcDbLine
 10
917.3090934057
 20
1633.0484753058
 30
0.0
 11
903.1522391295
 21
1633.4711471142
 31
0.0
  0
LINE
  5
2B5
330
1F
100
AcDbEntity
  8
INTERIOR_LOOPS
  6
CONTINUOUS
 62
     3
100
AcDbLine
 10
903.1522391295
 20
1633.4711471142
 30
0.0
 11
885.1257833575
 21
1633.324060865
 31
0.0
  0
LINE
  5
2B6
330
1F
100
AcDbEntity
  8
INTERIOR_LOOPS
  6
CONTINUOUS
 62
     3
100
AcDbLine
 10
885.1257833575
 20
1633.324060865
 30
0.0
 11
874.0609584621
 21
1633.1610091355
 31
0.0
  0
LINE
  5
2B7
330
1F
100
AcDbEntity
  8
INTERIOR_LOOPS
  6
CONTINUOUS
 62
     3
100
AcDbLine
 10
874.0609584621
 20
1633.1610091355
 30
0.0
 11
873.3199751029
 21
1633.1685130581
 31
0.0
  0
LINE
  5
2B8
330
1F
100
AcDbEntity
  8
INTERIOR_LOOPS
  6
CONTINUOUS
 62
     3
100
AcDbLine
 10
873.3199751029
 20
1633.1685130581
 30
0.0
 11
868.7857101056
 21
1633.4619766008
 31
0.0
  0
LINE
  5
2B9
330
1F
100
AcDbEntity
  8
INTERIOR_LOOPS
  6
CONTINUOUS
 62
     3
100
AcDbLine
 10
765.3905997533
 20
1664.4392603623
 30
0.0
 11
779.9031060033
 21
1650.3397782808
 31
0.0
  0
ARC
  5
2BA
330
1F
100
AcDbEntity
  8
INTERIOR_LOOPS
  6
CONTINUOUS
 62
     3
100
AcDbCircle
 10
-479.094559944
 20
386.479813221
 30
0.0
 40
1783.933052034634
100
AcDbArc
 50
43.6773365794
 51
45.1104259192
  0
LINE
  5
2BB
330
1F
100
AcDbEntity
  8
INTERIOR_LOOPS
  6
CONTINUOUS
 62
     3
100
AcDbLine
 10
811.1178385048
 20
1618.4575326033
 30
0.0
 11
811.1758871628
 21
1618.3967144513
 31
0.0
  0
LINE
  5
2BC
330
1F
100
AcDbEntity
  8
INTERIOR_LOOPS
  6
CONTINUOUS
 62
     3
100
AcDbLine
 10
811.1758871628
 20
1618.3967144513
 30
0.0
 11
813.9905845738
 21
1615.4452462112
 31
0.0
  0
LINE
  5
2BD
330
1F
100
AcDbEntity
  8
INTERIOR_LOOPS
  6
CONTINUOUS
 62
     3
100
AcDbLine
 10
813.9905845738
 20
1615.4452462112
 30
0.0
 11
816.1201166766
 21
1613.2157171746
 31
0.0
  0
LINE
  5
2BE
330
1F
100
AcDbEntity
  8
INTERIOR_LOOPS
  6
CONTINUOUS
 62
     3
100
AcDbLine
 10
816.1201166766
 20
1613.2157171746
 30
0.0
 11
816.8732961922
 21
1612.4302871437
 31
0.0
  0
LINE
  5
2BF
330
1F
100
AcDbEntity
  8
INTERIOR_LOOPS
  6
CONTINUOUS
 62
     3
100
AcDbLine
 10
816.8732961922
 20
1612.4302871437
 30
0.0
 11
820.6777777772
 21
1608.5201256536
 31
0.0
  0
LINE
  5
2C0
330
1F
100
AcDbEntity
  8
INTERIOR_LOOPS
  6
CONTINUOUS
 62
     3
100
AcDbLine
 10
820.6777777772
 20
1608.5201256536
 30
0.0
 11
822.70185
 21
1606.4913938109
 31
0.0
  0
LINE
  5
2C1
330
1F
100
AcDbEntity
  8
INTERIOR_LOOPS
  6
CONTINUOUS
 62
     3
100
AcDbLine
 10
822.70185
 20
1606.4913938109
 30
0.0
 11
830.4395806965
 21
1599.2982829568
 31
0.0
  0
LINE
  5
2C2
330
1F
100
AcDbEntity
  8
INTERIOR_LOOPS
  6
CONTINUOUS
 62
     3
100
AcDbLine
 10
830.4395806965
 20
1599.2982829568
 30
0.0
 11
834.8489468555
 21
1595.6866634331
 31
0.0
  0
ARC
  5
2C3
330
1F
100
AcDbEntity
  8
INTERIOR_LOOPS
  6
CONTINUOUS
 62
     3
100
AcDbCircle
 10
880.9075033755
 20
1655.6576136516
 30
0.0
 40
75.61683343547683
100
AcDbArc
 50
232.4752165213
 51
239.468017431
  0
LINE
  5
2C4
330
1F
100
AcDbEntity
  8
INTERIOR_LOOPS
  6
CONTINUOUS
 62
     3
100
AcDbLine
 10
842.4926966507
 20
1590.5253779836
 30
0.0
 11
848.1016807084
 21
1587.6630692089
 31
0.0
  0
ARC
  5
2C5
330
1F
100
AcDbEntity
  8
INTERIOR_LOOPS
  6
CONTINUOUS
 62
     3
100
AcDbCircle
 10
866.1272375309
 20
1629.0416230445
 30
0.0
 40
45.13430420737543
100
AcDbArc
 50
246.4608264393
 51
254.7873723614
  0
ARC
  5
2C6
330
1F
100
AcDbEntity
  8
INTERIOR_LOOPS
  6
CONTINUOUS
 62
     3
100
AcDbCircle
 10
870.1813488216
 20
1643.9502443773
 30
0.0
 40
60.5843141881049
100
AcDbArc
 50
254.7873723646
 51
263.1139183085
  0
LINE
  5
2C7
330
1F
100
AcDbEntity
  8
INTERIOR_LOOPS
  6
CONTINUOUS
 62
     3
100
AcDbLine
 10
862.9175516157
 20
1583.8029553628
 30
0.0
 11
867.7261632482
 21
1583.3855490442
 31
0.0
  0
LINE
  5
2C8
330
1F
100
AcDbEntity
  8
INTERIOR_LOOPS
  6
CONTINUOUS
 62
     3
100
AcDbLine
 10
867.7261632482
 20
1583.3855490442
 30
0.0
 11
878.9230996164
 21
1583.1684016813
 31
0.0
  0
LINE
  5
2C9
330
1F
100
AcDbEntity
  8
INTERIOR_LOOPS
  6
CONTINUOUS
 62
     3
100
AcDbLine
 10
878.9230996164
 20
1583.1684016813
 30
0.0
 11
879.2791568855
 21
1583.1745790627
 31
0.0
  0
LINE
  5
2CA
330
1F
100
AcDbEntity
  8
INTERIOR_LOOPS
  6
CONTINUOUS
 62
     3
100
AcDbLine
 10
879.2791568855
 20
1583.1745790627
 30
0.0
 11
887.1091861403
 21
1583.3596309025
 31
0.0
  0
LINE
  5
2CB
330
1F
100
AcDbEntity
  8
INTERIOR_LOOPS
  6
CONTINUOUS
 62
     3
100
AcDbLine
 10
887.1091861403
 20
1583.3596309025
 30
0.0
 11
892.769161907
 21
1583.4845882223
 31
0.0
  0
LINE
  5
2CC
330
1F
100
AcDbEntity
  8
INTERIOR_LOOPS
  6
CONTINUOUS
 62
     3
100
AcDbLine
 10
892.769161907
 20
1583.4845882223
 30
0.0
 11
895.2775884267
 21
1583.5164046677
 31
0.0
  0
LINE
  5
2CD
330
1F
100
AcDbEntity
  8
INTERIOR_LOOPS
  6
CONTINUOUS
 62
     3
100
AcDbLine
 10
895.2775884267
 20
1583.5164046677
 30
0.0
 11
910.393978234
 21
1583.2974934045
 31
0.0
  0
LINE
  5
2CE
330
1F
100
AcDbEntity
  8
INTERIOR_LOOPS
  6
CONTINUOUS
 62
     3
100
AcDbLine
 10
910.393978234
 20
1583.2974934045
 30
0.0
 11
927.2819583202
 21
1582.292876162
 31
0.0
  0
ARC
  5
2CF
330
1F
100
AcDbEntity
  8
INTERIOR_LOOPS
  6
CONTINUOUS
 62
     3
100
AcDbCircle
 10
895.1228649455
 20
1190.4098188382
 30
0.0
 40
393.2003788199007
100
AcDbArc
 50
82.0660753812
 51
85.3086495111
  0
ARC
  5
2D0
330
1F
100
AcDbEntity
  8
INTERIOR_LOOPS
  6
CONTINUOUS
 62
     3
100
AcDbCircle
 10
849.2042088278
 20
860.9432860045
 30
0.0
 40
725.8514260656113
100
AcDbArc
 50
78.8226318039
 51
82.0658761513
  0
LINE
  5
2D1
330
1F
100
AcDbEntity
  8
INTERIOR_LOOPS
  6
CONTINUOUS
 62
     3
100
AcDbLine
 10
989.908228081
 20
1573.0266179924
 30
0.0
 11
1010.8109267984
 21
1568.6426642933
 31
0.0
  0
LINE
  5
2D2
330
1F
100
AcDbEntity
  8
INTERIOR_LOOPS
  6
CONTINUOUS
 62
     3
100
AcDbLine
 10
1010.8109267984
 20
1568.6426642933
 30
0.0
 11
1021.489002263
 21
1566.1420227289
 31
0.0
  0
ARC
  5
2D3
330
1F
100
AcDbEntity
  8
INTERIOR_LOOPS
  6
CONTINUOUS
 62
     3
100
AcDbCircle
 10
926.55136284
 20
1181.0072031912
 30
0.0
 40
396.6635660096923
100
AcDbArc
 50
73.374824907
 51
76.1523830799
  0
LINE
  5
2D4
330
1F
100
AcDbEntity
  8
INTERIOR_LOOPS
  6
CONTINUOUS
 62
     3
100
AcDbLine
 10
1040.0405438629
 20
1561.0890238434
 30
0.0
 11
1052.5026626786
 21
1557.0365525094
 31
0.0
  0
ARC
  5
2D5
330
1F
100
AcDbEntity
  8
INTERIOR_LOOPS
  6
CONTINUOUS
 62
     3
100
AcDbCircle
 10
974.8000342903
 20
1336.4119310722
 30
0.0
 40
233.9079349717605
100
AcDbArc
 50
66.16128817
 51
70.5980512503
  0
ARC
  5
2D6
330
1F
100
AcDbEntity
  8
INTERIOR_LOOPS
  6
CONTINUOUS
 62
     3
100
AcDbCircle
 10
997.9180048714
 20
1388.7298896567
 30
0.0
 40
176.7099511472563
100
AcDbArc
 50
61.7231250373
 51
66.1615147565
  0
ARC
  5
2D7
330
1F
100
AcDbEntity
  8
INTERIOR_LOOPS
  6
CONTINUOUS
 62
     3
100
AcDbCircle
 10
1005.935399703
 20
1403.6342156038
 30
0.0
 40
159.7860759404581
100
AcDbArc
 50
55.2865795756
 51
61.7231250373
  0
ARC
  5
2D8
330
1F
100
AcDbEntity
  8
INTERIOR_LOOPS
  6
CONTINUOUS
 62
     3
100
AcDbCircle
 10
1028.7422375456
 20
1436.5563317874
 30
0.0
 40
119.7358876062019
100
AcDbArc
 50
48.852213671
 51
55.2862150579
  0
ARC
  5
2D9
330
1F
100
AcDbEntity
  8
INTERIOR_LOOPS
  6
CONTINUOUS
 62
     3
100
AcDbCircle
 10
1045.4333594621
 20
1455.6575411832
 30
0.0
 40
94.36957625226734
100
AcDbArc
 50
37.9531913391
 51
48.852213671
  0
ARC
  5
2DA
330
1F
100
AcDbEntity
  8
INTERIOR_LOOPS
  6
CONTINUOUS
 62
     3
100
AcDbCircle
 10
1062.2894173115
 20
1468.8047745086
 30
0.0
 40
72.99256920417272
100
AcDbArc
 50
27.0541693661
 51
37.9531912866
  0
ARC
  5
2DB
330
1F
100
AcDbEntity
  8
INTERIOR_LOOPS
  6
CONTINUOUS
 62
     3
100
AcDbCircle
 10
1062.5923027571
 20
1468.9594632268
 30
0.0
 40
72.65246893556993
100
AcDbArc
 50
20.4439253362
 51
27.0541693661
  0
ARC
  5
2DC
330
1F
100
AcDbEntity
  8
INTERIOR_LOOPS
  6
CONTINUOUS
 62
     3
100
AcDbCircle
 10
1059.4755072095
 20
1467.7974517324
 30
0.0
 40
75.97883108902917
100
AcDbArc
 50
13.8390041809
 51
20.4440418543
  0
LINE
  5
2DD
330
1F
100
AcDbEntity
  8
INTERIOR_LOOPS
  6
CONTINUOUS
 62
     3
100
AcDbLine
 10
1133.2487999418
 20
1485.9711704937
 30
0.0
 11
1134.4881593426
 21
1479.5977026916
 31
0.0
  0
LINE
  5
2DE
330
1F
100
AcDbEntity
  8
INTERIOR_LOOPS
  6
CONTINUOUS
 62
     3
100
AcDbLine
 10
1134.4881593426
 20
1479.5977026916
 30
0.0
 11
1134.7162402924
 21
1477.1550739822
 31
0.0
  0
ARC
  5
2DF
330
1F
100
AcDbEntity
  8
INTERIOR_LOOPS
  6
CONTINUOUS
 62
     3
100
AcDbCircle
 10
1120.7569604779
 20
1476.5456683082
 30
0.0
 40
13.97257557557755
100
AcDbArc
 50
340.4788605954
 51
2.4997146862
  0
LINE
  5
2E0
330
1F
100
AcDbEntity
  8
INTERIOR_LOOPS
  6
CONTINUOUS
 62
     3
100
AcDbLine
 10
1133.9263682111
 20
1471.8766675402
 30
0.0
 11
1133.0560137784
 21
1470.4009586732
 31
0.0
  0
LINE
  5
2E1
330
1F
100
AcDbEntity
  8
INTERIOR_LOOPS
  6
CONTINUOUS
 62
     3
100
AcDbLine
 10
1133.0560137784
 20
1470.4009586732
 30
0.0
 11
1131.5829439838
 21
1469.2541972297
 31
0.0
  0
ARC
  5
2E2
330
1F
100
AcDbEntity
  8
INTERIOR_LOOPS
  6
CONTINUOUS
 62
     3
100
AcDbCircle
 10
1125.337761058
 20
1481.3320915429
 30
0.0
 40
13.59697910626187
100
AcDbArc
 50
276.2267453966
 51
297.3423759512
  0
LINE
  5
2E3
330
1F
100
AcDbEntity
  8
INTERIOR_LOOPS
  6
CONTINUOUS
 62
     3
100
AcDbLine
 10
1126.812535762
 20
1467.8153286024
 30
0.0
 11
1124.6564501391
 21
1467.6927517549
 31
0.0
  0
LINE
  5
2E4
330
1F
100
AcDbEntity
  8
INTERIOR_LOOPS
  6
CONTINUOUS
 62
     3
100
AcDbLine
 10
1124.6564501391
 20
1467.6927517549
 30
0.0
 11
1117.7862743724
 21
1468.0157716882
 31
0.0
  0
LINE
  5
2E5
330
1F
100
AcDbEntity
  8
INTERIOR_LOOPS
  6
CONTINUOUS
 62
     3
100
AcDbLine
 10
1117.7862743724
 20
1468.0157716882
 30
0.0
 11
1116.979558574
 21
1468.1000813235
 31
0.0
  0
LINE
  5
2E6
330
1F
100
AcDbEntity
  8
INTERIOR_LOOPS
  6
CONTINUOUS
 62
     3
100
AcDbLine
 10
1116.979558574
 20
1468.1000813235
 30
0.0
 11
1112.9453566225
 21
1468.5646615649
 31
0.0
  0
LINE
  5
2E7
330
1F
100
AcDbEntity
  8
INTERIOR_LOOPS
  6
CONTINUOUS
 62
     3
100
AcDbLine
 10
1112.9453566225
 20
1468.5646615649
 30
0.0
 11
1109.5645295208
 21
1468.9595875424
 31
0.0
  0
LINE
  5
2E8
330
1F
100
AcDbEntity
  8
INTERIOR_LOOPS
  6
CONTINUOUS
 62
     3
100
AcDbLine
 10
1109.5645295208
 20
1468.9595875424
 30
0.0
 11
1108.2566475206
 21
1469.1027470123
 31
0.0
  0
LINE
  5
2E9
330
1F
100
AcDbEntity
  8
INTERIOR_LOOPS
  6
CONTINUOUS
 62
     3
100
AcDbLine
 10
1108.2566475206
 20
1469.1027470123
 30
0.0
 11
1103.3311635411
 21
1469.565525466
 31
0.0
  0
LINE
  5
2EA
330
1F
100
AcDbEntity
  8
INTERIOR_LOOPS
  6
CONTINUOUS
 62
     3
100
AcDbLine
 10
1103.3311635411
 20
1469.565525466
 30
0.0
 11
1099.6089244274
 21
1469.8274596311
 31
0.0
  0
ARC
  5
2EB
330
1F
100
AcDbEntity
  8
INTERIOR_LOOPS
  6
CONTINUOUS
 62
     3
100
AcDbCircle
 10
1092.5542329345
 20
1349.4563949577
 30
0.0
 40
120.5776176686668
100
AcDbArc
 50
86.645853361
 51
94.3060023828
  0
ARC
  5
2EC
330
1F
100
AcDbEntity
  8
INTERIOR_LOOPS
  6
CONTINUOUS
 62
     3
100
AcDbCircle
 10
1091.5850539811
 20
1362.322371886
 30
0.0
 40
107.6751888290962
100
AcDbArc
 50
94.3057764466
 51
101.9699224336
  0
ARC
  5
2ED
330
1F
100
AcDbEntity
  8
INTERIOR_LOOPS
  6
CONTINUOUS
 62
     3
100
AcDbCircle
 10
1092.1457003745
 20
1359.6779126286
 30
0.0
 40
110.3784256111296
100
AcDbArc
 50
101.9699224336
 51
111.4173400236
  0
ARC
  5
2EE
330
1F
100
AcDbEntity
  8
INTERIOR_LOOPS
  6
CONTINUOUS
 62
     3
100
AcDbCircle
 10
1082.9756451897
 20
1383.05795113
 30
0.0
 40
85.26436357512281
100
AcDbArc
 50
111.4177436048
 51
120.8620172291
  0
ARC
  5
2EF
330
1F
100
AcDbEntity
  8
INTERIOR_LOOPS
  6
CONTINUOUS
 62
     3
100
AcDbCircle
 10
1076.1397345069
 20
1394.4971280532
 30
0.0
 40
71.9382822384578
100
AcDbArc
 50
120.8620172291
 51
133.3195766216
  0
ARC
  5
2F0
330
1F
100
AcDbEntity
  8
INTERIOR_LOOPS
  6
CONTINUOUS
 62
     3
100
AcDbCircle
 10
1079.7726128975
 20
1390.6446492557
 30
0.0
 40
77.23350634006448
100
AcDbArc
 50
133.3195766271
 51
145.7771361746
  0
ARC
  5
2F1
330
1F
100
AcDbEntity
  8
INTERIOR_LOOPS
  6
CONTINUOUS
 62
     3
100
AcDbCircle
 10
1085.6318541607
 20
1386.6592940782
 30
0.0
 40
84.31967343315029
100
AcDbArc
 50
145.7771361746
 51
156.5530212216
  0
ARC
  5
2F2
330
1F
100
AcDbEntity
  8
INTERIOR_LOOPS
  6
CONTINUOUS
 62
     3
100
AcDbCircle
 10
1088.3810300009
 20
1385.4671477677
 30
0.0
 40
87.31620152274363
100
AcDbArc
 50
156.5531449465
 51
167.3361167381
  0
ARC
  5
2F3
330
1F
100
AcDbEntity
  8
INTERIOR_LOOPS
  6
CONTINUOUS
 62
     3
100
AcDbCircle
 10
1090.9197612186
 20
1384.8967013189
 30
0.0
 40
89.91823253266301
100
AcDbArc
 50
167.3361167381
 51
175.2363592732
  0
ARC
  5
2F4
330
1F
100
AcDbEntity
  8
INTERIOR_LOOPS
  6
CONTINUOUS
 62
     3
100
AcDbCircle
 10
1141.4921815846
 20
1380.6823338114
 30
0.0
 40
140.6659477044996
100
AcDbArc
 50
175.2363592731
 51
183.1366018075
  0
LINE
  5
2F5
330
1F
100
AcDbEntity
  8
INTERIOR_LOOPS
  6
CONTINUOUS
 62
     3
100
AcDbLine
 10
1001.0369627453
 20
1372.9855588766
 30
0.0
 11
1001.5987309389
 21
1365.9417500845
 31
0.0
  0
ARC
  5
2F6
330
1F
100
AcDbEntity
  8
INTERIOR_LOOPS
  6
CONTINUOUS
 62
     3
100
AcDbCircle
 10
1504.2815997458
 20
1418.62656078
 30
0.0
 40
505.4362035607915
100
AcDbArc
 50
185.9831695785
 51
188.8297373606
  0
LINE
  5
2F7
330
1F
100
AcDbEntity
  8
INTERIOR_LOOPS
  6
CONTINUOUS
 62
     3
100
AcDbLine
 10
1004.8353982552
 20
1341.0427500553
 30
0.0
 11
1007.228811671
 21
1326.2337064065
 31
0.0
  0
LINE
  5
2F8
330
1F
100
AcDbEntity
  8
INTERIOR_LOOPS
  6
CONTINUOUS
 62
     3
100
AcDbLine
 10
1007.228811671
 20
1326.2337064065
 30
0.0
 11
1010.1252242614
 21
1309.6072220203
 31
0.0
  0
LINE
  5
2F9
330
1F
100
AcDbEntity
  8
INTERIOR_LOOPS
  6
CONTINUOUS
 62
     3
100
AcDbLine
 10
1010.1252242614
 20
1309.6072220203
 30
0.0
 11
1013.8526133067
 21
1289.825880787
 31
0.0
  0
LINE
  5
2FA
330
1F
100
AcDbEntity
  8
INTERIOR_LOOPS
  6
CONTINUOUS
 62
     3
100
AcDbLine
 10
1013.8526133067
 20
1289.825880787
 30
0.0
 11
1022.5244655336
 21
1247.3870100037
 31
0.0
  0
LINE
  5
2FB
330
1F
100
AcDbEntity
  8
INTERIOR_LOOPS
  6
CONTINUOUS
 62
     3
100
AcDbLine
 10
1022.5244655336
 20
1247.3870100037
 30
0.0
 11
1023.0288370995
 21
1245.013710121
 31
0.0
  0
LINE
  5
2FC
330
1F
100
AcDbEntity
  8
INTERIOR_LOOPS
  6
CONTINUOUS
 62
     3
100
AcDbLine
 10
1023.0288370995
 20
1245.013710121
 30
0.0
 11
1024.1839048371
 21
1239.5884768567
 31
0.0
  0
LINE
  5
2FD
330
1F
100
AcDbEntity
  8
INTERIOR_LOOPS
  6
CONTINUOUS
 62
     3
100
AcDbLine
 10
1024.1839048371
 20
1239.5884768567
 30
0.0
 11
1024.3561500797
 21
1238.7802611419
 31
0.0
  0
LINE
  5
2FE
330
1F
100
AcDbEntity
  8
INTERIOR_LOOPS
  6
CONTINUOUS
 62
     3
100
AcDbLine
 10
1024.3561500797
 20
1238.7802611419
 30
0.0
 11
1024.599681777
 21
1237.6376892552
 31
0.0
  0
LINE
  5
2FF
330
1F
100
AcDbEntity
  8
INTERIOR_LOOPS
  6
CONTINUOUS
 62
     3
100
AcDbLine
 10
1024.599681777
 20
1237.6376892552
 30
0.0
 11
1024.6106125783
 21
1237.5864085621
 31
0.0
  0
LINE
  5
300
330
1F
100
AcDbEntity
  8
INTERIOR_LOOPS
  6
CONTINUOUS
 62
     3
100
AcDbLine
 10
1024.6106125783
 20
1237.5864085621
 30
0.0
 11
1024.8076334064
 21
1236.6621245201
 31
0.0
  0
LINE
  5
301
330
1F
100
AcDbEntity
  8
INTERIOR_LOOPS
  6
CONTINUOUS
 62
     3
100
AcDbLine
 10
1024.8076334064
 20
1236.6621245201
 30
0.0
 11
1024.926909367
 21
1236.1025671853
 31
0.0
  0
LINE
  5
302
330
1F
100
AcDbEntity
  8
INTERIOR_LOOPS
  6
CONTINUOUS
 62
     3
100
AcDbLine
 10
1024.926909367
 20
1236.1025671853
 30
0.0
 11
1025.0156091038
 21
1235.6864463646
 31
0.0
  0
LINE
  5
303
330
1F
100
AcDbEntity
  8
INTERIOR_LOOPS
  6
CONTINUOUS
 62
     3
100
AcDbLine
 10
1025.0156091038
 20
1235.6864463646
 30
0.0
 11
1025.6327240487
 21
1232.7907280724
 31
0.0
  0
LINE
  5
304
330
1F
100
AcDbEntity
  8
INTERIOR_LOOPS
  6
CONTINUOUS
 62
     3
100
AcDbLine
 10
1025.6327240487
 20
1232.7907280724
 30
0.0
 11
1025.8474820013
 21
1231.7826075907
 31
0.0
  0
LINE
  5
305
330
1F
100
AcDbEntity
  8
INTERIOR_LOOPS
  6
CONTINUOUS
 62
     3
100
AcDbLine
 10
1025.8474820013
 20
1231.7826075907
 30
0.0
 11
1028.1840060949
 21
1220.7755331761
 31
0.0
  0
LINE
  5
306
330
1F
100
AcDbEntity
  8
INTERIOR_LOOPS
  6
CONTINUOUS
 62
     3
100
AcDbLine
 10
1028.1840060949
 20
1220.7755331761
 30
0.0
 11
1029.1593432099
 21
1216.1496846323
 31
0.0
  0
LINE
  5
307
330
1F
100
AcDbEntity
  8
INTERIOR_LOOPS
  6
CONTINUOUS
 62
     3
100
AcDbLine
 10
1029.1593432099
 20
1216.1496846323
 30
0.0
 11
1033.3207535942
 21
1195.9549010036
 31
0.0
  0
LINE
  5
308
330
1F
100
AcDbEntity
  8
INTERIOR_LOOPS
  6
CONTINUOUS
 62
     3
100
AcDbLine
 10
1033.3207535942
 20
1195.9549010036
 30
0.0
 11
1035.5279462334
 21
1184.8048685242
 31
0.0
  0
ARC
  5
309
330
1F
100
AcDbEntity
  8
INTERIOR_LOOPS
  6
CONTINUOUS
 62
     3
100
AcDbCircle
 10
-55.0612618769
 20
973.326851046
 30
0.0
 40
1110.904033984628
100
AcDbArc
 50
8.9042667804
 51
10.9741264501
  0
ARC
  5
30A
330
1F
100
AcDbEntity
  8
INTERIOR_LOOPS
  6
CONTINUOUS
 62
     3
100
AcDbCircle
 10
395.6719159299
 20
1043.9428917063
 30
0.0
 40
654.6727080416841
100
AcDbArc
 50
6.8340893149
 51
8.9043775139
  0
ARC
  5
30B
330
1F
100
AcDbEntity
  8
INTERIOR_LOOPS
  6
CONTINUOUS
 62
     3
100
AcDbCircle
 10
465.7743836749
 20
1052.3444098719
 30
0.0
 40
584.0685899475993
100
AcDbArc
 50
4.0581284818
 51
6.8340893149
  0
ARC
  5
30C
330
1F
100
AcDbEntity
  8
INTERIOR_LOOPS
  6
CONTINUOUS
 62
     3
100
AcDbCircle
 10
325.1299703497
 20
1042.3645448268
 30
0.0
 40
725.0666349826331
100
AcDbArc
 50
1.2835078764
 51
4.0582587936
  0
LINE
  5
30D
330
1F
100
AcDbEntity
  8
INTERIOR_LOOPS
  6
CONTINUOUS
 62
     3
100
AcDbLine
 10
1050.0146848678
 20
1058.6057219508
 30
0.0
 11
1050.2100133913
 21
1034.7572705666
 31
0.0
  0
LINE
  5
30E
330
1F
100
AcDbEntity
  8
INTERIOR_LOOPS
  6
CONTINUOUS
 62
     3
100
AcDbLine
 10
867.881560845
 20
1633.5974960606
 30
0.0
 11
867.1748144404
 21
1634.0181091186
 31
0.0
  0
LINE
  5
30F
330
1F
100
AcDbEntity
  8
INTERIOR_LOOPS
  6
CONTINUOUS
 62
     3
100
AcDbLine
 10
867.1748144404
 20
1634.0181091186
 30
0.0
 11
864.6486895426
 21
1635.8553206245
 31
0.0
  0
LINE
  5
310
330
1F
100
AcDbEntity
  8
INTERIOR_LOOPS
  6
CONTINUOUS
 62
     3
100
AcDbLine
 10
864.6486895426
 20
1635.8553206245
 30
0.0
 11
862.7352934294
 21
1637.4676348248
 31
0.0
  0
LINE
  5
311
330
1F
100
AcDbEntity
  8
INTERIOR_LOOPS
  6
CONTINUOUS
 62
     3
100
AcDbLine
 10
862.7352934294
 20
1637.4676348248
 30
0.0
 11
858.2665099027
 21
1641.6395322196
 31
0.0
  0
LINE
  5
312
330
1F
100
AcDbEntity
  8
INTERIOR_LOOPS
  6
CONTINUOUS
 62
     3
100
AcDbLine
 10
858.2665099027
 20
1641.6395322196
 30
0.0
 11
857.3994526479
 21
1642.5053236275
 31
0.0
  0
LINE
  5
313
330
1F
100
AcDbEntity
  8
INTERIOR_LOOPS
  6
CONTINUOUS
 62
     3
100
AcDbLine
 10
857.3994526479
 20
1642.5053236275
 30
0.0
 11
849.6266361857
 21
1650.525412165
 31
0.0
  0
LINE
  5
314
330
1F
100
AcDbEntity
  8
INTERIOR_LOOPS
  6
CONTINUOUS
 62
     3
100
AcDbLine
 10
849.6266361857
 20
1650.525412165
 30
0.0
 11
843.4138632417
 21
1657.0250788459
 31
0.0
  0
LINE
  5
315
330
1F
100
AcDbEntity
  8
INTERIOR_LOOPS
  6
CONTINUOUS
 62
     3
100
AcDbLine
 10
843.4138632417
 20
1657.0250788459
 30
0.0
 11
839.7955741216
 21
1660.7910650611
 31
0.0
  0
ARC
  5
316
330
1F
100
AcDbEntity
  8
INTERIOR_LOOPS
  6
CONTINUOUS
 62
     3
100
AcDbCircle
 10
-300.3929642207
 20
562.5199253005
 30
0.0
 40
1583.107513530945
100
AcDbArc
 50
43.9272045499
 51
45.2390735175
  0
ARC
  5
317
330
1F
100
AcDbEntity
  8
INTERIOR_LOOPS
  6
CONTINUOUS
 62
     3
100
AcDbCircle
 10
435.628603907
 20
1336.0300554729
 30
0.0
 40
514.8077915511086
100
AcDbArc
 50
51.3819377713
 51
54.1686696749
  0
ARC
  5
318
330
1F
100
AcDbEntity
  8
INTERIOR_LOOPS
  6
CONTINUOUS
 62
     3
100
AcDbCircle
 10
416.7097792614
 20
1309.8296417504
 30
0.0
 40
547.1247159854543
100
AcDbArc
 50
54.1686100234
 51
56.9533817818
  0
LINE
  5
319
330
1F
100
AcDbEntity
  8
INTERIOR_LOOPS
  6
CONTINUOUS
 62
     3
100
AcDbLine
 10
715.0685033091
 20
1768.4444328681
 30
0.0
 11
701.5059808209
 21
1777.0202788214
 31
0.0
  0
ARC
  5
31A
330
1F
100
AcDbEntity
  8
INTERIOR_LOOPS
  6
CONTINUOUS
 62
     3
100
AcDbCircle
 10
16.5893557193
 20
662.1819187823
 30
0.0
 40
1308.424759913788
100
AcDbArc
 50
58.4349290473
 51
59.9168973758
  0
LINE
  5
31B
330
1F
100
AcDbEntity
  8
INTERIOR_LOOPS
  6
CONTINUOUS
 62
     3
100
AcDbLine
 10
672.4445537187
 20
1794.3609292034
 30
0.0
 11
668.7317440148
 21
1796.506852949
 31
0.0
  0
LINE
  5
31C
330
1F
100
AcDbEntity
  8
INTERIOR_LOOPS
  6
CONTINUOUS
 62
     3
100
AcDbLine
 10
668.7317440148
 20
1796.506852949
 30
0.0
 11
661.9349478275
 21
1800.4175563332
 31
0.0
  0
LINE
  5
31D
330
1F
100
AcDbEntity
  8
INTERIOR_LOOPS
  6
CONTINUOUS
 62
     3
100
AcDbLine
 10
661.9349478275
 20
1800.4175563332
 30
0.0
 11
660.3875738918
 21
1801.3055129447
 31
0.0
  0
LINE
  5
31E
330
1F
100
AcDbEntity
  8
INTERIOR_LOOPS
  6
CONTINUOUS
 62
     3
100
AcDbLine
 10
660.3875738918
 20
1801.3055129447
 30
0.0
 11
656.7180814179
 21
1803.4095804707
 31
0.0
  0
LINE
  5
31F
330
1F
100
AcDbEntity
  8
INTERIOR_LOOPS
  6
CONTINUOUS
 62
     3
100
AcDbLine
 10
656.7180814179
 20
1803.4095804707
 30
0.0
 11
656.350191815
 21
1803.6204382842
 31
0.0
  0
LINE
  5
320
330
1F
100
AcDbEntity
  8
INTERIOR_LOOPS
  6
CONTINUOUS
 62
     3
100
AcDbLine
 10
656.350191815
 20
1803.6204382842
 30
0.0
 11
655.4182590144
 21
1804.1545571059
 31
0.0
  0
LINE
  5
321
330
1F
100
AcDbEntity
  8
INTERIOR_LOOPS
  6
CONTINUOUS
 62
     3
100
AcDbLine
 10
655.4182590144
 20
1804.1545571059
 30
0.0
 11
654.8501625731
 21
1804.4801426282
 31
0.0
  0
LINE
  5
322
330
1F
100
AcDbEntity
  8
INTERIOR_LOOPS
  6
CONTINUOUS
 62
     3
100
AcDbLine
 10
654.8501625731
 20
1804.4801426282
 30
0.0
 11
654.7690348701
 21
1804.5266384026
 31
0.0
  0
LINE
  5
323
330
1F
100
AcDbEntity
  8
INTERIOR_LOOPS
  6
CONTINUOUS
 62
     3
100
AcDbLine
 10
654.7690348701
 20
1804.5266384026
 30
0.0
 11
654.3182923222
 21
1804.7849697462
 31
0.0
  0
LINE
  5
324
330
1F
100
AcDbEntity
  8
INTERIOR_LOOPS
  6
CONTINUOUS
 62
     3
100
AcDbLine
 10
654.3182923222
 20
1804.7849697462
 30
0.0
 11
654.1202755344
 21
1804.8984598403
 31
0.0
  0
LINE
  5
325
330
1F
100
AcDbEntity
  8
INTERIOR_LOOPS
  6
CONTINUOUS
 62
     3
100
AcDbLine
 10
654.1202755344
 20
1804.8984598403
 30
0.0
 11
652.2782290498
 21
1805.9543275192
 31
0.0
  0
LINE
  5
326
330
1F
100
AcDbEntity
  8
INTERIOR_LOOPS
  6
CONTINUOUS
 62
     3
100
AcDbLine
 10
652.2782290498
 20
1805.9543275192
 30
0.0
 11
651.5299878326
 21
1806.3833193246
 31
0.0
  0
LINE
  5
327
330
1F
100
AcDbEntity
  8
INTERIOR_LOOPS
  6
CONTINUOUS
 62
     3
100
AcDbLine
 10
651.5299878326
 20
1806.3833193246
 30
0.0
 11
636.1517387696
 21
1815.2493499492
 31
0.0
  0
LINE
  5
328
330
1F
100
AcDbEntity
  8
INTERIOR_LOOPS
  6
CONTINUOUS
 62
     3
100
AcDbLine
 10
636.1517387696
 20
1815.2493499492
 30
0.0
 11
631.1173089332
 21
1818.1835810837
 31
0.0
  0
LINE
  5
329
330
1F
100
AcDbEntity
  8
INTERIOR_LOOPS
  6
CONTINUOUS
 62
     3
100
AcDbLine
 10
631.1173089332
 20
1818.1835810837
 30
0.0
 11
609.9806761675
 21
1830.92995917
 31
0.0
  0
LINE
  5
32A
330
1F
100
AcDbEntity
  8
INTERIOR_LOOPS
  6
CONTINUOUS
 62
     3
100
AcDbLine
 10
609.9806761675
 20
1830.92995917
 30
0.0
 11
592.0298993605
 21
1842.3811188987
 31
0.0
  0
LINE
  5
32B
330
1F
100
AcDbEntity
  8
INTERIOR_LOOPS
  6
CONTINUOUS
 62
     3
100
AcDbLine
 10
592.0298993605
 20
1842.3811188987
 30
0.0
 11
589.9559746602
 21
1843.7440908796
 31
0.0
  0
LINE
  5
32C
330
1F
100
AcDbEntity
  8
INTERIOR_LOOPS
  6
CONTINUOUS
 62
     3
100
AcDbLine
 10
589.9559746602
 20
1843.7440908796
 30
0.0
 11
582.0333844797
 21
1848.9734887515
 31
0.0
  0
LINE
  5
32D
330
1F
100
AcDbEntity
  8
INTERIOR_LOOPS
  6
CONTINUOUS
 62
     3
100
AcDbLine
 10
582.0333844797
 20
1848.9734887515
 30
0.0
 11
572.6401003605
 21
1855.1780606656
 31
0.0
  0
LINE
  5
32E
330
1F
100
AcDbEntity
  8
INTERIOR_LOOPS
  6
CONTINUOUS
 62
     3
100
AcDbLine
 10
572.6401003605
 20
1855.1780606656
 30
0.0
 11
571.7514675307
 21
1855.7633172551
 31
0.0
  0
LINE
  5
32F
330
1F
100
AcDbEntity
  8
INTERIOR_LOOPS
  6
CONTINUOUS
 62
     3
100
AcDbLine
 10
571.7514675307
 20
1855.7633172551
 30
0.0
 11
557.3540754491
 21
1865.0895321745
 31
0.0
  0
LINE
  5
330
330
1F
100
AcDbEntity
  8
INTERIOR_LOOPS
  6
CONTINUOUS
 62
     3
100
AcDbLine
 10
557.3540754491
 20
1865.0895321745
 30
0.0
 11
550.1894664746
 21
1869.5909856566
 31
0.0
  0
ARC
  5
331
330
1F
100
AcDbEntity
  8
INTERIOR_LOOPS
  6
CONTINUOUS
 62
     3
100
AcDbCircle
 10
299.858523099
 20
1464.9724703831
 30
0.0
 40
475.7958849269731
100
AcDbArc
 50
58.2555901584
 51
62.4141010475
  0
ARC
  5
332
330
1F
100
AcDbEntity
  8
INTERIOR_LOOPS
  6
CONTINUOUS
 62
     3
100
AcDbCircle
 10
389.6224368088
 20
1636.7805081612
 30
0.0
 40
281.9517154316999
100
AcDbArc
 50
62.4138624454
 51
66.5733060434
  0
ARC
  5
333
330
1F
100
AcDbEntity
  8
INTERIOR_LOOPS
  6
CONTINUOUS
 62
     3
100
AcDbCircle
 10
404.1309045772
 20
1670.2647895106
 30
0.0
 40
245.4593499984495
100
AcDbArc
 50
66.5733060434
 51
73.7119409137
  0
ARC
  5
334
330
1F
100
AcDbEntity
  8
INTERIOR_LOOPS
  6
CONTINUOUS
 62
     3
100
AcDbCircle
 10
407.3886513339
 20
1681.4152540523
 30
0.0
 40
233.8427337396662
100
AcDbArc
 50
73.7118574579
 51
80.8539357163
  0
LINE
  5
335
330
1F
100
AcDbEntity
  8
INTERIOR_LOOPS
  6
CONTINUOUS
 62
     3
100
AcDbLine
 10
444.5583912657
 20
1912.2849890844
 30
0.0
 11
434.1658579663
 21
1913.7649652547
 31
0.0
  0
LINE
  5
336
330
1F
100
AcDbEntity
  8
INTERIOR_LOOPS
  6
CONTINUOUS
 62
     3
100
AcDbLine
 10
434.1658579663
 20
1913.7649652547
 30
0.0
 11
417.3248713765
 21
1915.5419278437
 31
0.0
  0
LINE
  5
337
330
1F
100
AcDbEntity
  8
INTERIOR_LOOPS
  6
CONTINUOUS
 62
     3
100
AcDbLine
 10
417.3248713765
 20
1915.5419278437
 30
0.0
 11
413.1355693235
 21
1915.8919681032
 31
0.0
  0
LINE
  5
338
330
1F
100
AcDbEntity
  8
INTERIOR_LOOPS
  6
CONTINUOUS
 62
     3
100
AcDbLine
 10
413.1355693235
 20
1915.8919681032
 30
0.0
 11
404.9221319292
 21
1916.5187858553
 31
0.0
  0
LINE
  5
339
330
1F
100
AcDbEntity
  8
INTERIOR_LOOPS
  6
CONTINUOUS
 62
     3
100
AcDbLine
 10
404.9221319292
 20
1916.5187858553
 30
0.0
 11
404.0425269352
 21
1916.5823576846
 31
0.0
  0
LINE
  5
33A
330
1F
100
AcDbEntity
  8
INTERIOR_LOOPS
  6
CONTINUOUS
 62
     3
100
AcDbLine
 10
404.0425269352
 20
1916.5823576846
 30
0.0
 11
399.0830115838
 21
1916.9365457229
 31
0.0
  0
LINE
  5
33B
330
1F
100
AcDbEntity
  8
INTERIOR_LOOPS
  6
CONTINUOUS
 62
     3
100
AcDbLine
 10
399.0830115838
 20
1916.9365457229
 30
0.0
 11
394.4812622606
 21
1917.2657657121
 31
0.0
  0
LINE
  5
33C
330
1F
100
AcDbEntity
  8
INTERIOR_LOOPS
  6
CONTINUOUS
 62
     3
100
AcDbLine
 10
388.5055774885
 20
1867.5699808497
 30
0.0
 11
390.1319501784
 21
1867.4503559828
 31
0.0
  0
LINE
  5
33D
330
1F
100
AcDbEntity
  8
INTERIOR_LOOPS
  6
CONTINUOUS
 62
     3
100
AcDbLine
 10
390.1319501784
 20
1867.4503559828
 30
0.0
 11
394.1192262992
 21
1867.1633628353
 31
0.0
  0
LINE
  5
33E
330
1F
100
AcDbEntity
  8
INTERIOR_LOOPS
  6
CONTINUOUS
 62
     3
100
AcDbLine
 10
394.1192262992
 20
1867.1633628353
 30
0.0
 11
394.4902848888
 21
1867.1369630414
 31
0.0
  0
LINE
  5
33F
330
1F
100
AcDbEntity
  8
INTERIOR_LOOPS
  6
CONTINUOUS
 62
     3
100
AcDbLine
 10
394.4902848888
 20
1867.1369630414
 30
0.0
 11
395.5360620762
 21
1867.0626549116
 31
0.0
  0
LINE
  5
340
330
1F
100
AcDbEntity
  8
INTERIOR_LOOPS
  6
CONTINUOUS
 62
     3
100
AcDbLine
 10
395.5360620762
 20
1867.0626549116
 30
0.0
 11
395.5834110293
 21
1867.0592927659
 31
0.0
  0
LINE
  5
341
330
1F
100
AcDbEntity
  8
INTERIOR_LOOPS
  6
CONTINUOUS
 62
     3
100
AcDbLine
 10
395.5834110293
 20
1867.0592927659
 30
0.0
 11
396.2073916289
 21
1867.0149880806
 31
0.0
  0
LINE
  5
342
330
1F
100
AcDbEntity
  8
INTERIOR_LOOPS
  6
CONTINUOUS
 62
     3
100
AcDbLine
 10
396.2073916289
 20
1867.0149880806
 30
0.0
 11
396.2463262949
 21
1867.0122234442
 31
0.0
  0
LINE
  5
343
330
1F
100
AcDbEntity
  8
INTERIOR_LOOPS
  6
CONTINUOUS
 62
     3
100
AcDbLine
 10
396.2463262949
 20
1867.0122234442
 30
0.0
 11
396.7886317667
 21
1866.9737062872
 31
0.0
  0
LINE
  5
344
330
1F
100
AcDbEntity
  8
INTERIOR_LOOPS
  6
CONTINUOUS
 62
     3
100
AcDbLine
 10
396.7886317667
 20
1866.9737062872
 30
0.0
 11
396.9577808658
 21
1866.9616870962
 31
0.0
  0
LINE
  5
345
330
1F
100
AcDbEntity
  8
INTERIOR_LOOPS
  6
CONTINUOUS
 62
     3
100
AcDbLine
 10
396.9577808658
 20
1866.9616870962
 30
0.0
 11
398.9115679626
 21
1866.8224419924
 31
0.0
  0
LINE
  5
346
330
1F
100
AcDbEntity
  8
INTERIOR_LOOPS
  6
CONTINUOUS
 62
     3
100
AcDbLine
 10
398.9115679626
 20
1866.8224419924
 30
0.0
 11
399.8148946494
 21
1866.7576947422
 31
0.0
  0
LINE
  5
347
330
1F
100
AcDbEntity
  8
INTERIOR_LOOPS
  6
CONTINUOUS
 62
     3
100
AcDbLine
 10
399.8148946494
 20
1866.7576947422
 30
0.0
 11
407.8143449614
 21
1866.1578295854
 31
0.0
  0
LINE
  5
348
330
1F
100
AcDbEntity
  8
INTERIOR_LOOPS
  6
CONTINUOUS
 62
     3
100
AcDbLine
 10
407.8143449614
 20
1866.1578295854
 30
0.0
 11
411.390028597
 21
1865.8674772717
 31
0.0
  0
LINE
  5
349
330
1F
100
AcDbEntity
  8
INTERIOR_LOOPS
  6
CONTINUOUS
 62
     3
100
AcDbLine
 10
411.390028597
 20
1865.8674772717
 30
0.0
 11
426.4608246331
 21
1864.3383798064
 31
0.0
  0
LINE
  5
34A
330
1F
100
AcDbEntity
  8
INTERIOR_LOOPS
  6
CONTINUOUS
 62
     3
100
AcDbLine
 10
426.4608246331
 20
1864.3383798064
 30
0.0
 11
434.8396558845
 21
1863.1993998539
 31
0.0
  0
ARC
  5
34B
330
1F
100
AcDbEntity
  8
INTERIOR_LOOPS
  6
CONTINUOUS
 62
     3
100
AcDbCircle
 10
406.1464907393
 20
1676.0043008432
 30
0.0
 40
189.3813687237312
100
AcDbArc
 50
74.2108206767
 51
81.2855584345
  0
ARC
  5
34C
330
1F
100
AcDbEntity
  8
INTERIOR_LOOPS
  6
CONTINUOUS
 62
     3
100
AcDbCircle
 10
405.8571699837
 20
1674.9816087635
 30
0.0
 40
190.4441977656851
100
AcDbArc
 50
67.1219041697
 51
74.2107811124
  0
ARC
  5
34D
330
1F
100
AcDbEntity
  8
INTERIOR_LOOPS
  6
CONTINUOUS
 62
     3
100
AcDbCircle
 10
391.812908569
 20
1641.6986943881
 30
0.0
 40
226.5688938694342
100
AcDbArc
 50
62.814062177
 51
67.1219041697
  0
ARC
  5
34E
330
1F
100
AcDbEntity
  8
INTERIOR_LOOPS
  6
CONTINUOUS
 62
     3
100
AcDbCircle
 10
311.1843671149
 20
1484.7125552578
 30
0.0
 40
403.0500814586153
100
AcDbArc
 50
58.5077654488
 51
62.814400485
  0
LINE
  5
34F
330
1F
100
AcDbEntity
  8
INTERIOR_LOOPS
  6
CONTINUOUS
 62
     3
100
AcDbLine
 10
521.7308775549
 20
1828.3977820461
 30
0.0
 11
528.6893504108
 21
1824.061949222
 31
0.0
  0
LINE
  5
350
330
1F
100
AcDbEntity
  8
INTERIOR_LOOPS
  6
CONTINUOUS
 62
     3
100
AcDbLine
 10
528.6893504108
 20
1824.061949222
 30
0.0
 11
542.0114051152
 21
1815.4776669837
 31
0.0
  0
LINE
  5
351
330
1F
100
AcDbEntity
  8
INTERIOR_LOOPS
  6
CONTINUOUS
 62
     3
100
AcDbLine
 10
542.0114051152
 20
1815.4776669837
 30
0.0
 11
544.440796127
 21
1813.8821223992
 31
0.0
  0
LINE
  5
352
330
1F
100
AcDbEntity
  8
INTERIOR_LOOPS
  6
CONTINUOUS
 62
     3
100
AcDbLine
 10
544.440796127
 20
1813.8821223992
 30
0.0
 11
552.097306074
 21
1808.8287362687
 31
0.0
  0
LINE
  5
353
330
1F
100
AcDbEntity
  8
INTERIOR_LOOPS
  6
CONTINUOUS
 62
     3
100
AcDbLine
 10
552.097306074
 20
1808.8287362687
 30
0.0
 11
561.8902044258
 21
1802.358096865
 31
0.0
  0
LINE
  5
354
330
1F
100
AcDbEntity
  8
INTERIOR_LOOPS
  6
CONTINUOUS
 62
     3
100
AcDbLine
 10
561.8902044258
 20
1802.358096865
 30
0.0
 11
562.1868901678
 21
1802.1625893515
 31
0.0
  0
LINE
  5
355
330
1F
100
AcDbEntity
  8
INTERIOR_LOOPS
  6
CONTINUOUS
 62
     3
100
AcDbLine
 10
562.1868901678
 20
1802.1625893515
 30
0.0
 11
583.0315339019
 21
1788.8130241992
 31
0.0
  0
LINE
  5
356
330
1F
100
AcDbEntity
  8
INTERIOR_LOOPS
  6
CONTINUOUS
 62
     3
100
AcDbLine
 10
583.0315339019
 20
1788.8130241992
 30
0.0
 11
603.056162159
 21
1776.6795643214
 31
0.0
  0
LINE
  5
357
330
1F
100
AcDbEntity
  8
INTERIOR_LOOPS
  6
CONTINUOUS
 62
     3
100
AcDbLine
 10
603.056162159
 20
1776.6795643214
 30
0.0
 11
609.2358408639
 21
1773.0626902565
 31
0.0
  0
LINE
  5
358
330
1F
100
AcDbEntity
  8
INTERIOR_LOOPS
  6
CONTINUOUS
 62
     3
100
AcDbLine
 10
609.2358408639
 20
1773.0626902565
 30
0.0
 11
623.7225764547
 21
1764.6925613804
 31
0.0
  0
LINE
  5
359
330
1F
100
AcDbEntity
  8
INTERIOR_LOOPS
  6
CONTINUOUS
 62
     3
100
AcDbLine
 10
623.7225764547
 20
1764.6925613804
 30
0.0
 11
625.2376044153
 21
1763.8232154165
 31
0.0
  0
LINE
  5
35A
330
1F
100
AcDbEntity
  8
INTERIOR_LOOPS
  6
CONTINUOUS
 62
     3
100
AcDbLine
 10
625.2376044153
 20
1763.8232154165
 30
0.0
 11
628.8849658918
 21
1761.7319561117
 31
0.0
  0
LINE
  5
35B
330
1F
100
AcDbEntity
  8
INTERIOR_LOOPS
  6
CONTINUOUS
 62
     3
100
AcDbLine
 10
628.8849658918
 20
1761.7319561117
 30
0.0
 11
629.4084786019
 21
1761.4319222179
 31
0.0
  0
LINE
  5
35C
330
1F
100
AcDbEntity
  8
INTERIOR_LOOPS
  6
CONTINUOUS
 62
     3
100
AcDbLine
 10
629.4084786019
 20
1761.4319222179
 30
0.0
 11
630.1745398567
 21
1760.9928942928
 31
0.0
  0
LINE
  5
35D
330
1F
100
AcDbEntity
  8
INTERIOR_LOOPS
  6
CONTINUOUS
 62
     3
100
AcDbLine
 10
630.1745398567
 20
1760.9928942928
 30
0.0
 11
630.8191434724
 21
1760.6234808598
 31
0.0
  0
LINE
  5
35E
330
1F
100
AcDbEntity
  8
INTERIOR_LOOPS
  6
CONTINUOUS
 62
     3
100
AcDbLine
 10
630.8191434724
 20
1760.6234808598
 30
0.0
 11
631.0648358703
 21
1760.4826766143
 31
0.0
  0
LINE
  5
35F
330
1F
100
AcDbEntity
  8
INTERIOR_LOOPS
  6
CONTINUOUS
 62
     3
100
AcDbLine
 10
631.0648358703
 20
1760.4826766143
 30
0.0
 11
631.4636176055
 21
1760.2541346054
 31
0.0
  0
LINE
  5
360
330
1F
100
AcDbEntity
  8
INTERIOR_LOOPS
  6
CONTINUOUS
 62
     3
100
AcDbLine
 10
631.4636176055
 20
1760.2541346054
 30
0.0
 11
633.2577772099
 21
1759.2257691515
 31
0.0
  0
LINE
  5
361
330
1F
100
AcDbEntity
  8
INTERIOR_LOOPS
  6
CONTINUOUS
 62
     3
100
AcDbLine
 10
633.2577772099
 20
1759.2257691515
 30
0.0
 11
634.040110738
 21
1758.7772542894
 31
0.0
  0
LINE
  5
362
330
1F
100
AcDbEntity
  8
INTERIOR_LOOPS
  6
CONTINUOUS
 62
     3
100
AcDbLine
 10
634.040110738
 20
1758.7772542894
 30
0.0
 11
641.1936748801
 21
1754.6686931188
 31
0.0
  0
LINE
  5
363
330
1F
100
AcDbEntity
  8
INTERIOR_LOOPS
  6
CONTINUOUS
 62
     3
100
AcDbLine
 10
641.1936748801
 20
1754.6686931188
 30
0.0
 11
644.3175487856
 21
1752.8684515037
 31
0.0
  0
LINE
  5
364
330
1F
100
AcDbEntity
  8
INTERIOR_LOOPS
  6
CONTINUOUS
 62
     3
100
AcDbLine
 10
644.3175487856
 20
1752.8684515037
 30
0.0
 11
672.8018207938
 21
1735.9775661304
 31
0.0
  0
LINE
  5
365
330
1F
100
AcDbEntity
  8
INTERIOR_LOOPS
  6
CONTINUOUS
 62
     3
100
AcDbLine
 10
672.8018207938
 20
1735.9775661304
 30
0.0
 11
684.5816237325
 21
1728.6139041959
 31
0.0
  0
ARC
  5
366
330
1F
100
AcDbEntity
  8
INTERIOR_LOOPS
  6
CONTINUOUS
 62
     3
100
AcDbCircle
 10
402.3069497154
 20
1288.6094688043
 30
0.0
 40
522.7646647926309
100
AcDbArc
 50
54.5895125772
 51
57.3187369792
  0
ARC
  5
367
330
1F
100
AcDbEntity
  8
INTERIOR_LOOPS
  6
CONTINUOUS
 62
     3
100
AcDbCircle
 10
780.1646007106
 20
407.1917252186
 30
0.0
 40
104.6958360812128
100
AcDbArc
 50
50.6698712384
 51
57.0543667266
  0
LINE
  5
368
330
1F
100
AcDbEntity
  8
INTERIOR_LOOPS
  6
CONTINUOUS
 62
     3
100
AcDbLine
 10
833.3942996305
 20
497.3655427115
 30
0.0
 11
837.1026976198
 21
495.0511084005
 31
0.0
  0
LINE
  5
369
330
1F
100
AcDbEntity
  8
INTERIOR_LOOPS
  6
CONTINUOUS
 62
     3
100
AcDbLine
 10
828.0339216098
 20
500.4623374343
 30
0.0
 11
833.3942996305
 21
497.3655427115
 31
0.0
  0
LINE
  5
36A
330
1F
100
AcDbEntity
  8
INTERIOR_LOOPS
  6
CONTINUOUS
 62
     3
100
AcDbLine
 10
826.0039916862
 20
501.5749191523
 30
0.0
 11
828.0339216098
 21
500.4623374343
 31
0.0
  0
LINE
  5
36B
330
1F
100
AcDbEntity
  8
INTERIOR_LOOPS
  6
CONTINUOUS
 62
     3
100
AcDbLine
 10
823.1896724761
 20
503.077637101
 30
0.0
 11
826.0039916862
 21
501.5749191523
 31
0.0
  0
LINE
  5
36C
330
1F
100
AcDbEntity
  8
INTERIOR_LOOPS
  6
CONTINUOUS
 62
     3
100
AcDbLine
 10
822.8842084488
 20
503.2384205037
 30
0.0
 11
823.1896724761
 21
503.077637101
 31
0.0
  0
LINE
  5
36D
330
1F
100
AcDbEntity
  8
INTERIOR_LOOPS
  6
CONTINUOUS
 62
     3
100
AcDbLine
 10
821.9482144295
 20
503.7299825005
 30
0.0
 11
822.8842084488
 21
503.2384205037
 31
0.0
  0
LINE
  5
36E
330
1F
100
AcDbEntity
  8
INTERIOR_LOOPS
  6
CONTINUOUS
 62
     3
100
AcDbLine
 10
820.7086258201
 20
504.3806220768
 30
0.0
 11
821.9482144295
 21
503.7299825005
 31
0.0
  0
LINE
  5
36F
330
1F
100
AcDbEntity
  8
INTERIOR_LOOPS
  6
CONTINUOUS
 62
     3
100
AcDbLine
 10
820.7002035218
 20
504.3850478124
 30
0.0
 11
820.7086258201
 21
504.3806220768
 31
0.0
  0
LINE
  5
370
330
1F
100
AcDbEntity
  8
INTERIOR_LOOPS
  6
CONTINUOUS
 62
     3
100
AcDbLine
 10
818.9966622001
 20
505.2862467241
 30
0.0
 11
820.7002035218
 21
504.3850478124
 31
0.0
  0
LINE
  5
371
330
1F
100
AcDbEntity
  8
INTERIOR_LOOPS
  6
CONTINUOUS
 62
     3
100
AcDbLine
 10
818.2015938438
 20
505.7120211365
 30
0.0
 11
818.9966622001
 21
505.2862467241
 31
0.0
  0
LINE
  5
372
330
1F
100
AcDbEntity
  8
INTERIOR_LOOPS
  6
CONTINUOUS
 62
     3
100
AcDbLine
 10
811.2763940345
 20
509.8118332253
 30
0.0
 11
818.2015938438
 21
505.7120211365
 31
0.0
  0
LINE
  5
373
330
1F
100
AcDbEntity
  8
INTERIOR_LOOPS
  6
CONTINUOUS
 62
     3
100
AcDbLine
 10
808.7985767152
 20
511.5628590683
 30
0.0
 11
811.2763940345
 21
509.8118332253
 31
0.0
  0
ARC
  5
374
330
1F
100
AcDbEntity
  8
INTERIOR_LOOPS
  6
CONTINUOUS
 62
     3
100
AcDbCircle
 10
827.6802807984
 20
536.1174755549
 30
0.0
 40
30.97495665678005
100
AcDbArc
 50
220.5529762533
 51
232.4408829008
  0
LINE
  5
375
330
1F
100
AcDbEntity
  8
INTERIOR_LOOPS
  6
CONTINUOUS
 62
     3
100
AcDbLine
 10
801.9806232898
 20
519.1159728372
 30
0.0
 11
804.1453490714
 21
515.9790811677
 31
0.0
  0
ARC
  5
376
330
1F
100
AcDbEntity
  8
INTERIOR_LOOPS
  6
CONTINUOUS
 62
     3
100
AcDbCircle
 10
817.8663751031
 20
527.8005844599
 30
0.0
 40
18.10468419253236
100
AcDbArc
 50
194.4626089448
 51
208.6650696056
  0
ARC
  5
377
330
1F
100
AcDbEntity
  8
INTERIOR_LOOPS
  6
CONTINUOUS
 62
     3
100
AcDbCircle
 10
823.6767268911
 20
529.2991988593
 30
0.0
 40
24.10518692302704
100
AcDbArc
 50
180.260148289
 51
194.4626089454
  0
LINE
  5
378
330
1F
100
AcDbEntity
  8
INTERIOR_LOOPS
  6
CONTINUOUS
 62
     3
100
AcDbLine
 10
799.683854007
 20
531.8350930089
 30
0.0
 11
799.5717884395
 21
529.1897509795
 31
0.0
  0
LINE
  5
379
330
1F
100
AcDbEntity
  8
INTERIOR_LOOPS
  6
CONTINUOUS
 62
     3
100
AcDbLine
 10
800.1239240353
 20
535.04865448
 30
0.0
 11
799.683854007
 21
531.8350930089
 31
0.0
  0
LINE
  5
37A
330
1F
100
AcDbEntity
  8
INTERIOR_LOOPS
  6
CONTINUOUS
 62
     3
100
AcDbLine
 10
800.17382188
 20
535.3109817459
 30
0.0
 11
800.1239240353
 21
535.04865448
 31
0.0
  0
LINE
  5
37B
330
1F
100
AcDbEntity
  8
INTERIOR_LOOPS
  6
CONTINUOUS
 62
     3
100
AcDbLine
 10
800.4264784309
 20
536.570611435
 30
0.0
 11
800.17382188
 21
535.3109817459
 31
0.0
  0
LINE
  5
37C
330
1F
100
AcDbEntity
  8
INTERIOR_LOOPS
  6
CONTINUOUS
 62
     3
100
AcDbLine
 10
800.6827390993
 20
537.8481920161
 30
0.0
 11
800.4264784309
 21
536.570611435
 31
0.0
  0
LINE
  5
37D
330
1F
100
AcDbEntity
  8
INTERIOR_LOOPS
  6
CONTINUOUS
 62
     3
100
AcDbLine
 10
800.7224751638
 20
538.0570868311
 30
0.0
 11
800.6827390993
 21
537.8481920161
 31
0.0
  0
LINE
  5
37E
330
1F
100
AcDbEntity
  8
INTERIOR_LOOPS
  6
CONTINUOUS
 62
     3
100
AcDbLine
 10
800.9891318597
 20
540.1163758851
 30
0.0
 11
800.7224751638
 21
538.0570868311
 31
0.0
  0
LINE
  5
37F
330
1F
100
AcDbEntity
  8
INTERIOR_LOOPS
  6
CONTINUOUS
 62
     3
100
AcDbLine
 10
801.0008455579
 20
540.6918747352
 30
0.0
 11
800.9891318597
 21
540.1163758851
 31
0.0
  0
ARC
  5
380
330
1F
100
AcDbEntity
  8
INTERIOR_LOOPS
  6
CONTINUOUS
 62
     3
100
AcDbCircle
 10
797.8170182843
 20
540.5840297661
 30
0.0
 40
3.185653252532753
100
AcDbArc
 50
1.9400235806
 51
36.5022238196
  0
ARC
  5
381
330
1F
100
AcDbEntity
  8
INTERIOR_LOOPS
  6
CONTINUOUS
 62
     3
100
AcDbCircle
 10
797.931818641
 20
540.6689844572
 30
0.0
 40
3.042837211936321
100
AcDbArc
 50
36.5022238175
 51
71.0644241459
  0
LINE
  5
382
330
1F
100
AcDbEntity
  8
INTERIOR_LOOPS
  6
CONTINUOUS
 62
     3
100
AcDbLine
 10
798.0211830965
 20
543.7493831896
 30
0.0
 11
798.9192339069
 21
543.5471556459
 31
0.0
  0
ARC
  5
383
330
1F
100
AcDbEntity
  8
INTERIOR_LOOPS
  6
CONTINUOUS
 62
     3
100
AcDbCircle
 10
795.8501657496
 20
524.531699358
 30
0.0
 40
19.3399247199131
100
AcDbArc
 50
83.5546351443
 51
96.0448461417
  0
LINE
  5
384
330
1F
100
AcDbEntity
  8
INTERIOR_LOOPS
  6
CONTINUOUS
 62
     3
100
AcDbLine
 10
793.6329076233
 20
543.74174877
 30
0.0
 11
793.8135390778
 21
543.7640897443
 31
0.0
  0
LINE
  5
385
330
1F
100
AcDbEntity
  8
INTERIOR_LOOPS
  6
CONTINUOUS
 62
     3
100
AcDbLine
 10
787.0629418935
 20
542.6938363994
 30
0.0
 11
793.6329076233
 21
543.74174877
 31
0.0
  0
LINE
  5
386
330
1F
100
AcDbEntity
  8
INTERIOR_LOOPS
  6
CONTINUOUS
 62
     3
100
AcDbLine
 10
781.4969239268
 20
541.8403862379
 30
0.0
 11
787.0629418935
 21
542.6938363994
 31
0.0
  0
LINE
  5
387
330
1F
100
AcDbEntity
  8
INTERIOR_LOOPS
  6
CONTINUOUS
 62
     3
100
AcDbLine
 10
780.0470159143
 20
541.6875910184
 30
0.0
 11
781.4969239268
 21
541.8403862379
 31
0.0
  0
ARC
  5
388
330
1F
100
AcDbEntity
  8
INTERIOR_LOOPS
  6
CONTINUOUS
 62
     3
100
AcDbCircle
 10
777.1747710333
 20
576.8868867057
 30
0.0
 40
35.3162881247119
100
AcDbArc
 50
256.065207901
 51
274.6649713336
  0
ARC
  5
389
330
1F
100
AcDbEntity
  8
INTERIOR_LOOPS
  6
CONTINUOUS
 62
     3
100
AcDbCircle
 10
776.8592212962
 20
575.6145012498
 30
0.0
 40
34.00535854547397
100
AcDbArc
 50
237.478502249
 51
256.0649562078
  0
LINE
  5
38A
330
1F
100
AcDbEntity
  8
INTERIOR_LOOPS
  6
CONTINUOUS
 62
     3
100
AcDbLine
 10
755.6604404682
 20
548.979015051
 30
0.0
 11
758.5773958952
 21
546.9415301827
 31
0.0
  0
LINE
  5
38B
330
1F
100
AcDbEntity
  8
INTERIOR_LOOPS
  6
CONTINUOUS
 62
     3
100
AcDbLine
 10
750.4339654487
 20
553.3273047821
 30
0.0
 11
755.6604404682
 21
548.979015051
 31
0.0
  0
LINE
  5
38C
330
1F
100
AcDbEntity
  8
INTERIOR_LOOPS
  6
CONTINUOUS
 62
     3
100
AcDbLine
 10
749.4049046412
 20
554.2720809225
 30
0.0
 11
750.4339654487
 21
553.3273047821
 31
0.0
  0
LINE
  5
38D
330
1F
100
AcDbEntity
  8
INTERIOR_LOOPS
  6
CONTINUOUS
 62
     3
100
AcDbLine
 10
746.5888865121
 20
556.9276370456
 30
0.0
 11
749.4049046412
 21
554.2720809225
 31
0.0
  0
LINE
  5
38E
330
1F
100
AcDbEntity
  8
INTERIOR_LOOPS
  6
CONTINUOUS
 62
     3
100
AcDbLine
 10
746.5134380697
 20
556.999776899
 30
0.0
 11
746.5888865121
 21
556.9276370456
 31
0.0
  0
LINE
  5
38F
330
1F
100
AcDbEntity
  8
INTERIOR_LOOPS
  6
CONTINUOUS
 62
     3
100
AcDbLine
 10
745.6308537726
 20
557.8444207335
 30
0.0
 11
746.5134380697
 21
556.999776899
 31
0.0
  0
LINE
  5
390
330
1F
100
AcDbEntity
  8
INTERIOR_LOOPS
  6
CONTINUOUS
 62
     3
100
AcDbLine
 10
744.8884891024
 20
558.5547084379
 30
0.0
 11
745.6308537726
 21
557.8444207335
 31
0.0
  0
LINE
  5
391
330
1F
100
AcDbEntity
  8
INTERIOR_LOOPS
  6
CONTINUOUS
 62
     3
100
AcDbLine
 10
744.6703550399
 20
558.7631323819
 30
0.0
 11
744.8884891024
 21
558.5547084379
 31
0.0
  0
LINE
  5
392
330
1F
100
AcDbEntity
  8
INTERIOR_LOOPS
  6
CONTINUOUS
 62
     3
100
AcDbLine
 10
743.4004465685
 20
559.9699212962
 30
0.0
 11
744.6703550399
 21
558.7631323819
 31
0.0
  0
LINE
  5
393
330
1F
100
AcDbEntity
  8
INTERIOR_LOOPS
  6
CONTINUOUS
 62
     3
100
AcDbLine
 10
742.7344380126
 20
560.5968349838
 30
0.0
 11
743.4004465685
 21
559.9699212962
 31
0.0
  0
LINE
  5
394
330
1F
100
AcDbEntity
  8
INTERIOR_LOOPS
  6
CONTINUOUS
 62
     3
100
AcDbLine
 10
737.2361669291
 20
565.4309978054
 30
0.0
 11
742.7344380126
 21
560.5968349838
 31
0.0
  0
LINE
  5
395
330
1F
100
AcDbEntity
  8
INTERIOR_LOOPS
  6
CONTINUOUS
 62
     3
100
AcDbLine
 10
734.5160831602
 20
567.5335643198
 30
0.0
 11
737.2361669291
 21
565.4309978054
 31
0.0
  0
LINE
  5
396
330
1F
100
AcDbEntity
  8
INTERIOR_LOOPS
  6
CONTINUOUS
 62
     3
100
AcDbLine
 10
730.1740063133
 20
570.395625441
 30
0.0
 11
734.5160831602
 21
567.5335643198
 31
0.0
  0
LINE
  5
397
330
1F
100
AcDbEntity
  8
INTERIOR_LOOPS
  6
CONTINUOUS
 62
     3
100
AcDbLine
 10
725.0704418658
 20
573.153358101
 30
0.0
 11
730.1740063133
 21
570.395625441
 31
0.0
  0
ARC
  5
398
330
1F
100
AcDbEntity
  8
INTERIOR_LOOPS
  6
CONTINUOUS
 62
     3
100
AcDbCircle
 10
691.9716182591
 20
504.9338392651
 30
0.0
 40
75.82502802859548
100
AcDbArc
 50
64.1182134241
 51
80.3348165118
  0
ARC
  5
399
330
1F
100
AcDbEntity
  8
INTERIOR_LOOPS
  6
CONTINUOUS
 62
     3
100
AcDbCircle
 10
690.039588211
 20
493.5867821666
 30
0.0
 40
87.33539052172014
100
AcDbArc
 50
80.3351153207
 51
96.5559540516
  0
ARC
  5
39A
330
1F
100
AcDbEntity
  8
INTERIOR_LOOPS
  6
CONTINUOUS
 62
     3
100
AcDbCircle
 10
689.3301252069
 20
499.7600528826
 30
0.0
 40
81.12148602557012
100
AcDbArc
 50
96.5559540516
 51
105.2730114008
  0
ARC
  5
39B
330
1F
100
AcDbEntity
  8
INTERIOR_LOOPS
  6
CONTINUOUS
 62
     3
100
AcDbCircle
 10
686.1625342803
 20
511.3602812849
 30
0.0
 40
69.09655645135999
100
AcDbArc
 50
105.273011484
 51
113.990067794
  0
LINE
  5
39C
330
1F
100
AcDbEntity
  8
INTERIOR_LOOPS
  6
CONTINUOUS
 62
     3
100
AcDbLine
 10
652.8708037748
 20
571.8859452646
 30
0.0
 11
658.0693756095
 21
574.4879974588
 31
0.0
  0
LINE
  5
39D
330
1F
100
AcDbEntity
  8
INTERIOR_LOOPS
  6
CONTINUOUS
 62
     3
100
AcDbLine
 10
648.4040584944
 20
569.1177221099
 30
0.0
 11
652.8708037748
 21
571.8859452646
 31
0.0
  0
LINE
  5
39E
330
1F
100
AcDbEntity
  8
INTERIOR_LOOPS
  6
CONTINUOUS
 62
     3
100
AcDbLine
 10
647.8075453319
 20
568.7036018677
 30
0.0
 11
648.4040584944
 21
569.1177221099
 31
0.0
  0
LINE
  5
39F
330
1F
100
AcDbEntity
  8
INTERIOR_LOOPS
  6
CONTINUOUS
 62
     3
100
AcDbLine
 10
646.189093499
 20
567.5477171827
 30
0.0
 11
647.8075453319
 21
568.7036018677
 31
0.0
  0
LINE
  5
3A0
330
1F
100
AcDbEntity
  8
INTERIOR_LOOPS
  6
CONTINUOUS
 62
     3
100
AcDbLine
 10
646.0931477033
 20
567.4781977532
 30
0.0
 11
646.189093499
 21
567.5477171827
 31
0.0
  0
LINE
  5
3A1
330
1F
100
AcDbEntity
  8
INTERIOR_LOOPS
  6
CONTINUOUS
 62
     3
100
AcDbLine
 10
645.9194837324
 20
567.3522796028
 30
0.0
 11
646.0931477033
 21
567.4781977532
 31
0.0
  0
LINE
  5
3A2
330
1F
100
AcDbEntity
  8
INTERIOR_LOOPS
  6
CONTINUOUS
 62
     3
100
AcDbLine
 10
645.8902767134
 20
567.3310943295
 30
0.0
 11
645.9194837324
 21
567.3522796028
 31
0.0
  0
LINE
  5
3A3
330
1F
100
AcDbEntity
  8
INTERIOR_LOOPS
  6
CONTINUOUS
 62
     3
100
AcDbLine
 10
645.7853414452
 20
567.2549714708
 30
0.0
 11
645.8902767134
 21
567.3310943295
 31
0.0
  0
LINE
  5
3A4
330
1F
100
AcDbEntity
  8
INTERIOR_LOOPS
  6
CONTINUOUS
 62
     3
100
AcDbLine
 10
645.6566863776
 20
567.1616393884
 30
0.0
 11
645.7853414452
 21
567.2549714708
 31
0.0
  0
LINE
  5
3A5
330
1F
100
AcDbEntity
  8
INTERIOR_LOOPS
  6
CONTINUOUS
 62
     3
100
AcDbLine
 10
645.6516489623
 20
567.1579852379
 30
0.0
 11
645.6566863776
 21
567.1616393884
 31
0.0
  0
LINE
  5
3A6
330
1F
100
AcDbEntity
  8
INTERIOR_LOOPS
  6
CONTINUOUS
 62
     3
100
AcDbLine
 10
645.2599178437
 20
566.874101662
 30
0.0
 11
645.6516489623
 21
567.1579852379
 31
0.0
  0
LINE
  5
3A7
330
1F
100
AcDbEntity
  8
INTERIOR_LOOPS
  6
CONTINUOUS
 62
     3
100
AcDbLine
 10
645.1214981782
 20
566.7739812017
 30
0.0
 11
645.2599178437
 21
566.874101662
 31
0.0
  0
LINE
  5
3A8
330
1F
100
AcDbEntity
  8
INTERIOR_LOOPS
  6
CONTINUOUS
 62
     3
100
AcDbLine
 10
644.4305453132
 20
566.2777612992
 30
0.0
 11
645.1214981782
 21
566.7739812017
 31
0.0
  0
LINE
  5
3A9
330
1F
100
AcDbEntity
  8
INTERIOR_LOOPS
  6
CONTINUOUS
 62
     3
100
AcDbLine
 10
644.0846280032
 20
566.0323972432
 30
0.0
 11
644.4305453132
 21
566.2777612992
 31
0.0
  0
LINE
  5
3AA
330
1F
100
AcDbEntity
  8
INTERIOR_LOOPS
  6
CONTINUOUS
 62
     3
100
AcDbLine
 10
641.0566765591
 20
564.1264456032
 30
0.0
 11
644.0846280032
 21
566.0323972432
 31
0.0
  0
LINE
  5
3AB
330
1F
100
AcDbEntity
  8
INTERIOR_LOOPS
  6
CONTINUOUS
 62
     3
100
AcDbLine
 10
640.3064041813
 20
563.7571971504
 30
0.0
 11
641.0566765591
 21
564.1264456032
 31
0.0
  0
ARC
  5
3AC
330
1F
100
AcDbEntity
  8
INTERIOR_LOOPS
  6
CONTINUOUS
 62
     3
100
AcDbCircle
 10
638.1003165397
 20
568.901384737
 30
0.0
 40
5.597275105694787
100
AcDbArc
 50
270.072124525
 51
293.2120997148
  0
LINE
  5
3AD
330
1F
100
AcDbEntity
  8
INTERIOR_LOOPS
  6
CONTINUOUS
 62
     3
100
AcDbLine
 10
637.2678043708
 20
563.4748914785
 30
0.0
 11
638.1073624461
 21
563.304114066
 31
0.0
  0
LINE
  5
3AE
330
1F
100
AcDbEntity
  8
INTERIOR_LOOPS
  6
CONTINUOUS
 62
     3
100
AcDbLine
 10
636.5920415264
 20
563.9328640889
 30
0.0
 11
637.2678043708
 21
563.4748914785
 31
0.0
  0
ARC
  5
3AF
330
1F
100
AcDbEntity
  8
INTERIOR_LOOPS
  6
CONTINUOUS
 62
     3
100
AcDbCircle
 10
641.396690301
 20
568.7067387031
 30
0.0
 40
6.773073798472128
100
AcDbArc
 50
202.6996888169
 51
224.8159190753
  0
ARC
  5
3B0
330
1F
100
AcDbEntity
  8
INTERIOR_LOOPS
  6
CONTINUOUS
 62
     3
100
AcDbCircle
 10
649.0793853184
 20
571.9204306178
 30
0.0
 40
15.10083570987797
100
AcDbArc
 50
189.4777718686
 51
202.6996888169
  0
ARC
  5
3B1
330
1F
100
AcDbEntity
  8
INTERIOR_LOOPS
  6
CONTINUOUS
 62
     3
100
AcDbCircle
 10
662.4697082285
 20
574.1558622323
 30
0.0
 40
28.67647205372051
100
AcDbArc
 50
176.2558549197
 51
189.4777718685
  0
ARC
  5
3B2
330
1F
100
AcDbEntity
  8
INTERIOR_LOOPS
  6
CONTINUOUS
 62
     3
100
AcDbCircle
 10
660.2751181099
 20
574.2994780463
 30
0.0
 40
26.47718778582768
100
AcDbArc
 50
159.325413315
 51
176.2558549197
  0
ARC
  5
3B3
330
1F
100
AcDbEntity
  8
INTERIOR_LOOPS
  6
CONTINUOUS
 62
     3
100
AcDbCircle
 10
674.5361942777
 20
568.9178938247
 30
0.0
 40
41.71988250163388
100
AcDbArc
 50
142.3949716931
 51
159.3254133119
  0
ARC
  5
3B4
330
1F
100
AcDbEntity
  8
INTERIOR_LOOPS
  6
CONTINUOUS
 62
     3
100
AcDbCircle
 10
690.7791492399
 20
556.4068635145
 30
0.0
 40
62.22255221379689
100
AcDbArc
 50
133.665552412
 51
142.3949716931
  0
ARC
  5
3B5
330
1F
100
AcDbEntity
  8
INTERIOR_LOOPS
  6
CONTINUOUS
 62
     3
100
AcDbCircle
 10
796.6446312022
 20
445.4915345136
 30
0.0
 40
215.5513181987882
100
AcDbArc
 50
124.9361333711
 51
133.6655524974
  0
ARC
  5
3B6
330
1F
100
AcDbEntity
  8
INTERIOR_LOOPS
  6
CONTINUOUS
 62
     3
100
AcDbCircle
 10
800.3233520589
 20
440.2252925418
 30
0.0
 40
221.9752026726596
100
AcDbArc
 50
115.5202057195
 51
124.9361333711
  0
ARC
  5
3B7
330
1F
100
AcDbEntity
  8
INTERIOR_LOOPS
  6
CONTINUOUS
 62
     3
100
AcDbCircle
 10
825.0255123735
 20
388.4808235968
 30
0.0
 40
279.3135562402438
100
AcDbArc
 50
106.1023146853
 51
115.5200041949
  0
ARC
  5
3B8
330
1F
100
AcDbEntity
  8
INTERIOR_LOOPS
  6
CONTINUOUS
 62
     3
100
AcDbCircle
 10
844.9081708057
 20
319.6061808548
 30
0.0
 40
351.0006298186357
100
AcDbArc
 50
102.4603454373
 51
106.1023146853
  0
ARC
  5
3B9
330
1F
100
AcDbEntity
  8
INTERIOR_LOOPS
  6
CONTINUOUS
 62
     3
100
AcDbCircle
 10
838.3906484469
 20
349.104185827
 30
0.0
 40
320.7911876747246
100
AcDbArc
 50
98.8161089003
 51
102.4604521945
  0
ARC
  5
3BA
330
1F
100
AcDbEntity
  8
INTERIOR_LOOPS
  6
CONTINUOUS
 62
     3
100
AcDbCircle
 10
820.9023202615
 20
461.8622119907
 30
0.0
 40
206.6850349613641
100
AcDbArc
 50
91.2146649474
 51
98.8161089003
  0
ARC
  5
3BB
330
1F
100
AcDbEntity
  8
INTERIOR_LOOPS
  6
CONTINUOUS
 62
     3
100
AcDbCircle
 10
818.8227104586
 20
559.9427681562
 30
0.0
 40
108.5824342074708
100
AcDbArc
 50
83.6132209962
 51
91.2146649466
  0
LINE
  5
3BC
330
1F
100
AcDbEntity
  8
INTERIOR_LOOPS
  6
CONTINUOUS
 62
     3
100
AcDbLine
 10
833.4418425488
 20
667.5337363677
 30
0.0
 11
830.901378894
 21
667.8512978805
 31
0.0
  0
LINE
  5
3BD
330
1F
100
AcDbEntity
  8
INTERIOR_LOOPS
  6
CONTINUOUS
 62
     3
100
AcDbLine
 10
835.7802418371
 20
667.1801064908
 30
0.0
 11
833.4418425488
 21
667.5337363677
 31
0.0
  0
LINE
  5
3BE
330
1F
100
AcDbEntity
  8
INTERIOR_LOOPS
  6
CONTINUOUS
 62
     3
100
AcDbLine
 10
836.7469867132
 20
667.0151545037
 30
0.0
 11
835.7802418371
 21
667.1801064908
 31
0.0
  0
LINE
  5
3BF
330
1F
100
AcDbEntity
  8
INTERIOR_LOOPS
  6
CONTINUOUS
 62
     3
100
AcDbLine
 10
838.1756848297
 20
666.7535111557
 30
0.0
 11
836.7469867132
 21
667.0151545037
 31
0.0
  0
LINE
  5
3C0
330
1F
100
AcDbEntity
  8
INTERIOR_LOOPS
  6
CONTINUOUS
 62
     3
100
AcDbLine
 10
838.2650013448
 20
666.736577587
 30
0.0
 11
838.1756848297
 21
666.7535111557
 31
0.0
  0
LINE
  5
3C1
330
1F
100
AcDbEntity
  8
INTERIOR_LOOPS
  6
CONTINUOUS
 62
     3
100
AcDbLine
 10
838.4727494727
 20
666.6971149262
 30
0.0
 11
838.2650013448
 21
666.736577587
 31
0.0
  0
LINE
  5
3C2
330
1F
100
AcDbEntity
  8
INTERIOR_LOOPS
  6
CONTINUOUS
 62
     3
100
AcDbLine
 10
838.5469180549
 20
666.6830107634
 30
0.0
 11
838.4727494727
 21
666.6971149262
 31
0.0
  0
LINE
  5
3C3
330
1F
100
AcDbEntity
  8
INTERIOR_LOOPS
  6
CONTINUOUS
 62
     3
100
AcDbLine
 10
838.6210463685
 20
666.6689129113
 30
0.0
 11
838.5469180549
 21
666.6830107634
 31
0.0
  0
LINE
  5
3C4
330
1F
100
AcDbEntity
  8
INTERIOR_LOOPS
  6
CONTINUOUS
 62
     3
100
AcDbLine
 10
838.7273444202
 20
666.6487029213
 30
0.0
 11
838.6210463685
 21
666.6689129113
 31
0.0
  0
LINE
  5
3C5
330
1F
100
AcDbEntity
  8
INTERIOR_LOOPS
  6
CONTINUOUS
 62
     3
100
AcDbLine
 10
838.7691797145
 20
666.640752845
 30
0.0
 11
838.7273444202
 21
666.6487029213
 31
0.0
  0
LINE
  5
3C6
330
1F
100
AcDbEntity
  8
INTERIOR_LOOPS
  6
CONTINUOUS
 62
     3
100
AcDbLine
 10
839.1839637037
 20
666.5622531553
 30
0.0
 11
838.7691797145
 21
666.640752845
 31
0.0
  0
LINE
  5
3C7
330
1F
100
AcDbEntity
  8
INTERIOR_LOOPS
  6
CONTINUOUS
 62
     3
100
AcDbLine
 10
839.359978614
 20
666.5292002964
 30
0.0
 11
839.1839637037
 21
666.5622531553
 31
0.0
  0
LINE
  5
3C8
330
1F
100
AcDbEntity
  8
INTERIOR_LOOPS
  6
CONTINUOUS
 62
     3
100
AcDbLine
 10
840.1204354235
 20
666.3901351115
 30
0.0
 11
839.359978614
 21
666.5292002964
 31
0.0
  0
LINE
  5
3C9
330
1F
100
AcDbEntity
  8
INTERIOR_LOOPS
  6
CONTINUOUS
 62
     3
100
AcDbLine
 10
840.5322214098
 20
666.3182658335
 30
0.0
 11
840.1204354235
 21
666.3901351115
 31
0.0
  0
LINE
  5
3CA
330
1F
100
AcDbEntity
  8
INTERIOR_LOOPS
  6
CONTINUOUS
 62
     3
100
AcDbLine
 10
843.7743678812
 20
665.9512619054
 30
0.0
 11
840.5322214098
 21
666.3182658335
 31
0.0
  0
LINE
  5
3CB
330
1F
100
AcDbEntity
  8
INTERIOR_LOOPS
  6
CONTINUOUS
 62
     3
100
AcDbLine
 10
845.0500008374
 20
665.9504258779
 30
0.0
 11
843.7743678812
 21
665.9512619054
 31
0.0
  0
LINE
  5
3CC
330
1F
100
AcDbEntity
  8
INTERIOR_LOOPS
  6
CONTINUOUS
 62
     3
100
AcDbLine
 10
846.9987843863
 20
666.2422003765
 30
0.0
 11
845.0500008374
 21
665.9504258779
 31
0.0
  0
LINE
  5
3CD
330
1F
100
AcDbEntity
  8
INTERIOR_LOOPS
  6
CONTINUOUS
 62
     3
100
AcDbLine
 10
849.1898166131
 20
667.0051915593
 30
0.0
 11
846.9987843863
 21
666.2422003765
 31
0.0
  0
ARC
  5
3CE
330
1F
100
AcDbEntity
  8
INTERIOR_LOOPS
  6
CONTINUOUS
 62
     3
100
AcDbCircle
 10
842.0842586941
 20
682.5665458897
 30
0.0
 40
17.10686125314061
100
AcDbArc
 50
294.5421810081
 51
311.4077365762
  0
ARC
  5
3CF
330
1F
100
AcDbEntity
  8
INTERIOR_LOOPS
  6
CONTINUOUS
 62
     3
100
AcDbCircle
 10
823.7255829727
 20
703.3847084646
 30
0.0
 40
44.86360578921288
100
AcDbArc
 50
311.4077365755
 51
328.273292142
  0
ARC
  5
3D0
330
1F
100
AcDbEntity
  8
INTERIOR_LOOPS
  6
CONTINUOUS
 62
     3
100
AcDbCircle
 10
816.6372645872
 20
707.7671089424
 30
0.0
 40
53.19725393879764
100
AcDbArc
 50
328.273292142
 51
336.54514584
  0
ARC
  5
3D1
330
1F
100
AcDbEntity
  8
INTERIOR_LOOPS
  6
CONTINUOUS
 62
     3
100
AcDbCircle
 10
788.402954367
 20
720.017292325
 30
0.0
 40
83.97457134169002
100
AcDbArc
 50
336.5451458685
 51
344.8169996933
  0
LINE
  5
3D2
330
1F
100
AcDbEntity
  8
INTERIOR_LOOPS
  6
CONTINUOUS
 62
     3
100
AcDbLine
 10
871.2674777997
 20
705.9236887012
 30
0.0
 11
869.446329785
 21
698.0241130895
 31
0.0
  0
ARC
  5
3D3
330
1F
100
AcDbEntity
  8
INTERIOR_LOOPS
  6
CONTINUOUS
 62
     3
100
AcDbCircle
 10
693.8319368699
 20
739.7103986028
 30
0.0
 40
180.6236777142031
100
AcDbArc
 50
349.2189852353
 51
353.620970776
  0
LINE
  5
3D4
330
1F
100
AcDbEntity
  8
INTERIOR_LOOPS
  6
CONTINUOUS
 62
     3
100
AcDbLine
 10
873.7748187927
 20
724.6319945044
 30
0.0
 11
873.3373104007
 21
719.6421693692
 31
0.0
  0
ARC
  5
3D5
330
1F
100
AcDbEntity
  8
INTERIOR_LOOPS
  6
CONTINUOUS
 62
     3
100
AcDbCircle
 10
-946.3770992335
 20
840.5094778025
 30
0.0
 40
1823.836778834689
100
AcDbArc
 50
356.35725864
 51
359.0935465033
  0
ARC
  5
3D6
330
1F
100
AcDbEntity
  8
INTERIOR_LOOPS
  6
CONTINUOUS
 62
     3
100
AcDbCircle
 10
829.8580386821
 20
538.5404074371
 30
0.0
 40
84.21802645151905
100
AcDbArc
 50
222.4145119913
 51
234.4925981655
  0
LINE
  5
3D7
330
1F
100
AcDbEntity
  8
INTERIOR_LOOPS
  6
CONTINUOUS
 62
     3
100
AcDbLine
 10
785.8458692455
 20
466.7293914923
 30
0.0
 11
780.9435247735
 21
469.9835236946
 31
0.0
  0
ARC
  5
3D8
330
1F
100
AcDbEntity
  8
INTERIOR_LOOPS
  6
CONTINUOUS
 62
     3
100
AcDbCircle
 10
887.1727724854
 20
631.1489553486
 30
0.0
 40
193.1344979512332
100
AcDbArc
 50
238.3557027785
 51
242.218807334
  0
ARC
  5
3D9
330
1F
100
AcDbEntity
  8
INTERIOR_LOOPS
  6
CONTINUOUS
 62
     3
100
AcDbCircle
 10
686.2482558376
 20
249.7582994407
 30
0.0
 40
237.9449538949432
100
AcDbArc
 50
58.6126474868
 51
62.218807334
  0
LINE
  5
3DA
330
1F
100
AcDbEntity
  8
INTERIOR_LOOPS
  6
CONTINUOUS
 62
     3
100
AcDbLine
 10
811.7990130668
 20
451.8214500762
 30
0.0
 11
810.1750337106
 21
452.8837651265
 31
0.0
  0
ARC
  5
3DB
330
1F
100
AcDbEntity
  8
INTERIOR_LOOPS
  6
CONTINUOUS
 62
     3
100
AcDbCircle
 10
830.843334866
 20
387.4451924187
 30
0.0
 40
331.6807889967452
100
AcDbArc
 50
95.0859287457
 51
101.7259795865
  0
ARC
  5
3DC
330
1F
100
AcDbEntity
  8
INTERIOR_LOOPS
  6
CONTINUOUS
 62
     3
100
AcDbCircle
 10
847.2829622801
 20
308.2421058467
 30
0.0
 40
412.5720139318506
100
AcDbArc
 50
101.7259795865
 51
105.9411525103
  0
ARC
  5
3DD
330
1F
100
AcDbEntity
  8
INTERIOR_LOOPS
  6
CONTINUOUS
 62
     3
100
AcDbCircle
 10
825.6141132473
 20
384.1067122998
 30
0.0
 40
333.6734871385165
100
AcDbArc
 50
105.9412640674
 51
110.1553818518
  0
ARC
  5
3DE
330
1F
100
AcDbEntity
  8
INTERIOR_LOOPS
  6
CONTINUOUS
 62
     3
100
AcDbCircle
 10
817.3176480686
 20
406.7101460707
 30
0.0
 40
309.5955604601172
100
AcDbArc
 50
110.1553818518
 51
115.5884082295
  0
ARC
  5
3DF
330
1F
100
AcDbEntity
  8
INTERIOR_LOOPS
  6
CONTINUOUS
 62
     3
100
AcDbCircle
 10
804.2910472584
 20
433.9112670171
 30
0.0
 40
279.4360957953102
100
AcDbArc
 50
115.5882652535
 51
121.0240840354
  0
LINE
  5
3E0
330
1F
100
AcDbEntity
  8
INTERIOR_LOOPS
  6
CONTINUOUS
 62
     3
100
AcDbLine
 10
648.1223439337
 20
665.6263891308
 30
0.0
 11
660.270148467
 21
673.3742335582
 31
0.0
  0
LINE
  5
3E1
330
1F
100
AcDbEntity
  8
INTERIOR_LOOPS
  6
CONTINUOUS
 62
     3
100
AcDbLine
 10
636.494166209
 20
657.3214877098
 30
0.0
 11
648.1223439337
 21
665.6263891308
 31
0.0
  0
ARC
  5
3E2
330
1F
100
AcDbEntity
  8
INTERIOR_LOOPS
  6
CONTINUOUS
 62
     3
100
AcDbCircle
 10
808.9160051464
 20
428.7921708849
 30
0.0
 40
286.2777308681522
100
AcDbArc
 50
127.0339893069
 51
130.7098363833
  0
LINE
  5
3E3
330
1F
100
AcDbEntity
  8
INTERIOR_LOOPS
  6
CONTINUOUS
 62
     3
100
AcDbLine
 10
613.2725918699
 20
637.6052314652
 30
0.0
 11
622.1974962293
 21
645.7970962179
 31
0.0
  0
ARC
  5
3E4
330
1F
100
AcDbEntity
  8
INTERIOR_LOOPS
  6
CONTINUOUS
 62
     3
100
AcDbCircle
 10
707.7609918348
 20
541.0686121669
 30
0.0
 40
135.0828508488447
100
AcDbArc
 50
134.3856834733
 51
139.3960920025
  0
LINE
  5
3E5
330
1F
100
AcDbEntity
  8
INTERIOR_LOOPS
  6
CONTINUOUS
 62
     3
100
AcDbLine
 10
599.7594569162
 20
622.0420075203
 30
0.0
 11
605.2024553188
 21
628.9840441521
 31
0.0
  0
ARC
  5
3E6
330
1F
100
AcDbEntity
  8
INTERIOR_LOOPS
  6
CONTINUOUS
 62
     3
100
AcDbCircle
 10
675.4801859865
 20
567.8442832817
 30
0.0
 40
93.11832324295456
100
AcDbArc
 50
144.4065005813
 51
153.2244011371
  0
ARC
  5
3E7
330
1F
100
AcDbEntity
  8
INTERIOR_LOOPS
  6
CONTINUOUS
 62
     3
100
AcDbCircle
 10
664.4652278768
 20
573.4024522847
 30
0.0
 40
80.78047315372649
100
AcDbArc
 50
153.2244011734
 51
162.0423012186
  0
ARC
  5
3E8
330
1F
100
AcDbEntity
  8
INTERIOR_LOOPS
  6
CONTINUOUS
 62
     3
100
AcDbCircle
 10
662.4165146784
 20
574.066447715
 30
0.0
 40
78.62684464957462
100
AcDbArc
 50
162.0423012186
 51
173.852481364
  0
ARC
  5
3E9
330
1F
100
AcDbEntity
  8
INTERIOR_LOOPS
  6
CONTINUOUS
 62
     3
100
AcDbCircle
 10
661.3088587231
 20
574.1856202926
 30
0.0
 40
77.51279626578665
100
AcDbArc
 50
173.8523851533
 51
185.6760497213
  0
ARC
  5
3EA
330
1F
100
AcDbEntity
  8
INTERIOR_LOOPS
  6
CONTINUOUS
 62
     3
100
AcDbCircle
 10
658.3865691218
 20
573.8951706816
 30
0.0
 40
74.57610808166451
100
AcDbArc
 50
185.6760497213
 51
194.2054565136
  0
ARC
  5
3EB
330
1F
100
AcDbEntity
  8
INTERIOR_LOOPS
  6
CONTINUOUS
 62
     3
100
AcDbCircle
 10
647.0609200464
 20
571.0281931539
 30
0.0
 40
62.89321943529752
100
AcDbArc
 50
194.2054564638
 51
202.7348638424
  0
ARC
  5
3EC
330
1F
100
AcDbEntity
  8
INTERIOR_LOOPS
  6
CONTINUOUS
 62
     3
100
AcDbCircle
 10
640.8102992458
 20
568.409031728
 30
0.0
 40
56.1160321892704
100
AcDbArc
 50
202.7348638424
 51
229.2415583627
  0
ARC
  5
3ED
330
1F
100
AcDbEntity
  8
INTERIOR_LOOPS
  6
CONTINUOUS
 62
     3
100
AcDbCircle
 10
638.1239566241
 20
565.2923063663
 30
0.0
 40
52.00137379987947
100
AcDbArc
 50
229.2415583627
 51
255.7482528827
  0
ARC
  5
3EE
330
1F
100
AcDbEntity
  8
INTERIOR_LOOPS
  6
CONTINUOUS
 62
     3
100
AcDbCircle
 10
638.1394099825
 20
565.3531463344
 30
0.0
 40
52.06414568228314
100
AcDbArc
 50
255.7482528827
 51
277.0746034423
  0
ARC
  5
3EF
330
1F
100
AcDbEntity
  8
INTERIOR_LOOPS
  6
CONTINUOUS
 62
     3
100
AcDbCircle
 10
637.3961026713
 20
571.3453465195
 30
0.0
 40
58.1022719397109
100
AcDbArc
 50
277.0742476637
 51
298.3941069964
  0
LINE
  5
3F0
330
1F
100
AcDbEntity
  8
INTERIOR_LOOPS
  6
CONTINUOUS
 62
     3
100
AcDbLine
 10
668.2302159575
 20
522.1044187254
 30
0.0
 11
665.025692923
 21
520.2329238898
 31
0.0
  0
LINE
  5
3F1
330
1F
100
AcDbEntity
  8
INTERIOR_LOOPS
  6
CONTINUOUS
 62
     3
100
AcDbLine
 10
675.1037075905
 20
526.7526493883
 30
0.0
 11
668.2302159575
 21
522.1044187254
 31
0.0
  0
LINE
  5
3F2
330
1F
100
AcDbEntity
  8
INTERIOR_LOOPS
  6
CONTINUOUS
 62
     3
100
AcDbLine
 10
677.681961942
 20
528.4529071421
 30
0.0
 11
675.1037075905
 21
526.7526493883
 31
0.0
  0
LINE
  5
3F3
330
1F
100
AcDbEntity
  8
INTERIOR_LOOPS
  6
CONTINUOUS
 62
     3
100
AcDbLine
 10
677.9966751762
 20
528.6222875422
 30
0.0
 11
677.681961942
 21
528.4529071421
 31
0.0
  0
LINE
  5
3F4
330
1F
100
AcDbEntity
  8
INTERIOR_LOOPS
  6
CONTINUOUS
 62
     3
100
AcDbLine
 10
680.8565566011
 20
529.7059567174
 30
0.0
 11
677.9966751762
 21
528.6222875422
 31
0.0
  0
ARC
  5
3F5
330
1F
100
AcDbEntity
  8
INTERIOR_LOOPS
  6
CONTINUOUS
 62
     3
100
AcDbCircle
 10
689.377353137
 20
499.5399919301
 30
0.0
 40
31.34628215841687
100
AcDbArc
 50
95.8137117525
 51
105.7730712643
  0
ARC
  5
3F6
330
1F
100
AcDbEntity
  8
INTERIOR_LOOPS
  6
CONTINUOUS
 62
     3
100
AcDbCircle
 10
690.010325976
 20
493.3232885612
 30
0.0
 40
37.59512648295659
100
AcDbArc
 50
76.9724269882
 51
95.8137117525
  0
ARC
  5
3F7
330
1F
100
AcDbEntity
  8
INTERIOR_LOOPS
  6
CONTINUOUS
 62
     3
100
AcDbCircle
 10
693.9103664761
 20
510.1792072344
 30
0.0
 40
20.29390368740977
100
AcDbArc
 50
58.1311422245
 51
76.9724269879
  0
LINE
  5
3F8
330
1F
100
AcDbEntity
  8
INTERIOR_LOOPS
  6
CONTINUOUS
 62
     3
100
AcDbLine
 10
705.063400489
 20
527.1135616845
 30
0.0
 11
704.625077036
 21
527.4139832553
 31
0.0
  0
LINE
  5
3F9
330
1F
100
AcDbEntity
  8
INTERIOR_LOOPS
  6
CONTINUOUS
 62
     3
100
AcDbLine
 10
707.2443422455
 20
525.3131040754
 30
0.0
 11
705.063400489
 21
527.1135616845
 31
0.0
  0
LINE
  5
3FA
330
1F
100
AcDbEntity
  8
INTERIOR_LOOPS
  6
CONTINUOUS
 62
     3
100
AcDbLine
 10
707.8544487331
 20
524.7539128638
 30
0.0
 11
707.2443422455
 21
525.3131040754
 31
0.0
  0
LINE
  5
3FB
330
1F
100
AcDbEntity
  8
INTERIOR_LOOPS
  6
CONTINUOUS
 62
     3
100
AcDbLine
 10
710.5840583773
 20
522.1795736609
 30
0.0
 11
707.8544487331
 21
524.7539128638
 31
0.0
  0
LINE
  5
3FC
330
1F
100
AcDbEntity
  8
INTERIOR_LOOPS
  6
CONTINUOUS
 62
     3
100
AcDbLine
 10
715.1269435747
 20
517.8715933184
 30
0.0
 11
710.5840583773
 21
522.1795736609
 31
0.0
  0
LINE
  5
3FD
330
1F
100
AcDbEntity
  8
INTERIOR_LOOPS
  6
CONTINUOUS
 62
     3
100
AcDbLine
 10
715.5479957186
 20
517.4792810356
 30
0.0
 11
715.1269435747
 21
517.8715933184
 31
0.0
  0
ARC
  5
3FE
330
1F
100
AcDbEntity
  8
INTERIOR_LOOPS
  6
CONTINUOUS
 62
     3
100
AcDbCircle
 10
810.7208777452
 20
620.5282332991
 30
0.0
 40
140.2746022480842
100
AcDbArc
 50
227.2753715805
 51
232.4366766695
  0
LINE
  5
3FF
330
1F
100
AcDbEntity
  8
INTERIOR_LOOPS
  6
CONTINUOUS
 62
     3
100
AcDbLine
 10
731.8547093809
 20
504.6815919196
 30
0.0
 11
725.2041677863
 21
509.335354239
 31
0.0
  0
ARC
  5
400
330
1F
100
AcDbEntity
  8
INTERIOR_LOOPS
  6
CONTINUOUS
 62
     3
100
AcDbCircle
 10
778.4509068903
 20
578.0997339642
 30
0.0
 40
86.95647878739057
100
AcDbArc
 50
237.5979817612
 51
247.7054895687
  0
ARC
  5
401
330
1F
100
AcDbEntity
  8
INTERIOR_LOOPS
  6
CONTINUOUS
 62
     3
100
AcDbCircle
 10
776.1425515911
 20
572.4693562887
 30
0.0
 40
80.87127896160204
100
AcDbArc
 50
247.7053580011
 51
257.8164943981
  0
LINE
  5
402
330
1F
100
AcDbEntity
  8
INTERIOR_LOOPS
  6
CONTINUOUS
 62
     3
100
AcDbLine
 10
825.7782424239
 20
763.1209783443
 30
0.0
 11
826.9958806706
 21
801.0660484523
 31
0.0
  0
LINE
  5
403
330
1F
100
AcDbEntity
  8
INTERIOR_LOOPS
  6
CONTINUOUS
 62
     3
100
AcDbLine
 10
824.7279110747
 20
738.4786404632
 30
0.0
 11
825.7782424239
 21
763.1209783443
 31
0.0
  0
LINE
  5
404
330
1F
100
AcDbEntity
  8
INTERIOR_LOOPS
  6
CONTINUOUS
 62
     3
100
AcDbLine
 10
824.7233651495
 20
738.3932793746
 30
0.0
 11
824.7279110747
 21
738.4786404632
 31
0.0
  0
LINE
  5
405
330
1F
100
AcDbEntity
  8
INTERIOR_LOOPS
  6
CONTINUOUS
 62
     3
100
AcDbLine
 10
823.5305942117
 20
724.2799999969
 30
0.0
 11
824.7233651495
 21
738.3932793746
 31
0.0
  0
LINE
  5
406
330
1F
100
AcDbEntity
  8
INTERIOR_LOOPS
  6
CONTINUOUS
 62
     3
100
AcDbLine
 10
822.7368964499
 20
718.4767077344
 30
0.0
 11
823.5305942117
 21
724.2799999969
 31
0.0
  0
ARC
  5
407
330
1F
100
AcDbEntity
  8
INTERIOR_LOOPS
  6
CONTINUOUS
 62
     3
100
AcDbCircle
 10
313.9104231045
 20
1691.1834215205
 30
0.0
 40
230.6276265338128
100
AcDbArc
 50
92.593918709
 51
99.9826225747
  0
ARC
  5
408
330
1F
100
AcDbEntity
  8
INTERIOR_LOOPS
  6
CONTINUOUS
 62
     3
100
AcDbCircle
 10
303.5699301031
 20
1749.9314579384
 30
0.0
 40
170.9764942759043
100
AcDbArc
 50
99.9826225747
 51
109.2607882453
  0
ARC
  5
409
330
1F
100
AcDbEntity
  8
INTERIOR_LOOPS
  6
CONTINUOUS
 62
     3
100
AcDbCircle
 10
286.2801072164
 20
1799.4145431569
 30
0.0
 40
118.5597631954669
100
AcDbArc
 50
109.2611980109
 51
118.5371002442
  0
ARC
  5
40A
330
1F
100
AcDbEntity
  8
INTERIOR_LOOPS
  6
CONTINUOUS
 62
     3
100
AcDbCircle
 10
282.4502143105
 20
1806.4574491967
 30
0.0
 40
110.5428682100855
100
AcDbArc
 50
118.5371002442
 51
126.2551195478
  0
ARC
  5
40B
330
1F
100
AcDbEntity
  8
INTERIOR_LOOPS
  6
CONTINUOUS
 62
     3
100
AcDbCircle
 10
276.0605624921
 20
1815.1706195078
 30
0.0
 40
99.73791623595322
100
AcDbArc
 50
126.25526138
 51
133.9705204129
  0
ARC
  5
40C
330
1F
100
AcDbEntity
  8
INTERIOR_LOOPS
  6
CONTINUOUS
 62
     3
100
AcDbCircle
 10
269.1377500555
 20
1822.3467869789
 30
0.0
 40
89.7668224340893
100
AcDbArc
 50
133.9705204129
 51
141.0668820418
  0
ARC
  5
40D
330
1F
100
AcDbEntity
  8
INTERIOR_LOOPS
  6
CONTINUOUS
 62
     3
100
AcDbCircle
 10
302.4253162828
 20
1795.4553240445
 30
0.0
 40
132.5594952191769
100
AcDbArc
 50
141.06688204
 51
148.1632436599
  0
LINE
  5
40E
330
1F
100
AcDbEntity
  8
INTERIOR_LOOPS
  6
CONTINUOUS
 62
     3
100
AcDbLine
 10
293.7488763045
 20
1674.9061671613
 30
0.0
 11
301.8619587007
 21
1669.6918556281
 31
0.0
  0
LINE
  5
40F
330
1F
100
AcDbEntity
  8
INTERIOR_LOOPS
  6
CONTINUOUS
 62
     3
100
AcDbLine
 10
292.7419382013
 20
1675.5488544792
 30
0.0
 11
293.7488763045
 21
1674.9061671613
 31
0.0
  0
LINE
  5
410
330
1F
100
AcDbEntity
  8
INTERIOR_LOOPS
  6
CONTINUOUS
 62
     3
100
AcDbLine
 10
290.7964037566
 20
1676.789448972
 30
0.0
 11
292.7419382013
 21
1675.5488544792
 31
0.0
  0
LINE
  5
411
330
1F
100
AcDbEntity
  8
INTERIOR_LOOPS
  6
CONTINUOUS
 62
     3
100
AcDbLine
 10
290.4596947797
 20
1677.0040401276
 30
0.0
 11
290.7964037566
 21
1676.789448972
 31
0.0
  0
LINE
  5
412
330
1F
100
AcDbEntity
  8
INTERIOR_LOOPS
  6
CONTINUOUS
 62
     3
100
AcDbLine
 10
289.3189605328
 20
1677.7309674474
 30
0.0
 11
290.4596947797
 21
1677.0040401276
 31
0.0
  0
LINE
  5
413
330
1F
100
AcDbEntity
  8
INTERIOR_LOOPS
  6
CONTINUOUS
 62
     3
100
AcDbLine
 10
288.0539554299
 20
1678.5370802486
 30
0.0
 11
289.3189605328
 21
1677.7309674474
 31
0.0
  0
LINE
  5
414
330
1F
100
AcDbEntity
  8
INTERIOR_LOOPS
  6
CONTINUOUS
 62
     3
100
AcDbLine
 10
287.8408788347
 20
1678.6728753947
 30
0.0
 11
288.0539554299
 21
1678.5370802486
 31
0.0
  0
LINE
  5
415
330
1F
100
AcDbEntity
  8
INTERIOR_LOOPS
  6
CONTINUOUS
 62
     3
100
AcDbLine
 10
283.5490910526
 20
1681.4119278444
 30
0.0
 11
287.8408788347
 21
1678.6728753947
 31
0.0
  0
LINE
  5
416
330
1F
100
AcDbEntity
  8
INTERIOR_LOOPS
  6
CONTINUOUS
 62
     3
100
AcDbLine
 10
281.9246596809
 20
1682.4514682796
 30
0.0
 11
283.5490910526
 21
1681.4119278444
 31
0.0
  0
LINE
  5
417
330
1F
100
AcDbEntity
  8
INTERIOR_LOOPS
  6
CONTINUOUS
 62
     3
100
AcDbLine
 10
279.9625274361
 20
1683.7172739821
 30
0.0
 11
281.9246596809
 21
1682.4514682796
 31
0.0
  0
LINE
  5
418
330
1F
100
AcDbEntity
  8
INTERIOR_LOOPS
  6
CONTINUOUS
 62
     3
100
AcDbLine
 10
258.2606577747
 20
1697.9058150856
 30
0.0
 11
279.9625274361
 21
1683.7172739821
 31
0.0
  0
LINE
  5
419
330
1F
100
AcDbEntity
  8
INTERIOR_LOOPS
  6
CONTINUOUS
 62
     3
100
AcDbLine
 10
240.1499881596
 20
1709.6684534982
 30
0.0
 11
258.2606577747
 21
1697.9058150856
 31
0.0
  0
LINE
  5
41A
330
1F
100
AcDbEntity
  8
INTERIOR_LOOPS
  6
CONTINUOUS
 62
     3
100
AcDbLine
 10
234.4196075073
 20
1713.2920479898
 30
0.0
 11
240.1499881596
 21
1709.6684534982
 31
0.0
  0
LINE
  5
41B
330
1F
100
AcDbEntity
  8
INTERIOR_LOOPS
  6
CONTINUOUS
 62
     3
100
AcDbLine
 10
219.7598310711
 20
1722.1197647791
 30
0.0
 11
234.4196075073
 21
1713.2920479898
 31
0.0
  0
LINE
  5
41C
330
1F
100
AcDbEntity
  8
INTERIOR_LOOPS
  6
CONTINUOUS
 62
     3
100
AcDbLine
 10
210.0796664934
 20
1727.5402936342
 30
0.0
 11
219.7598310711
 21
1722.1197647791
 31
0.0
  0
LINE
  5
41D
330
1F
100
AcDbEntity
  8
INTERIOR_LOOPS
  6
CONTINUOUS
 62
     3
100
AcDbLine
 10
202.8980202338
 20
1731.2506172066
 30
0.0
 11
210.0796664934
 21
1727.5402936342
 31
0.0
  0
LINE
  5
41E
330
1F
100
AcDbEntity
  8
INTERIOR_LOOPS
  6
CONTINUOUS
 62
     3
100
AcDbLine
 10
184.9460771204
 20
1739.7296312173
 30
0.0
 11
202.8980202338
 21
1731.2506172066
 31
0.0
  0
LINE
  5
41F
330
1F
100
AcDbEntity
  8
INTERIOR_LOOPS
  6
CONTINUOUS
 62
     3
100
AcDbLine
 10
174.9171175255
 20
1744.3473797731
 30
0.0
 11
184.9460771204
 21
1739.7296312173
 31
0.0
  0
LINE
  5
420
330
1F
100
AcDbEntity
  8
INTERIOR_LOOPS
  6
CONTINUOUS
 62
     3
100
AcDbLine
 10
172.1568922739
 20
1745.672586483
 30
0.0
 11
174.9171175255
 21
1744.3473797731
 31
0.0
  0
LINE
  5
421
330
1F
100
AcDbEntity
  8
INTERIOR_LOOPS
  6
CONTINUOUS
 62
     3
100
AcDbLine
 10
164.0879791331
 20
1749.8527243756
 30
0.0
 11
172.1568922739
 21
1745.672586483
 31
0.0
  0
LINE
  5
422
330
1F
100
AcDbEntity
  8
INTERIOR_LOOPS
  6
CONTINUOUS
 62
     3
100
AcDbLine
 10
159.4082942804
 20
1752.5485606193
 30
0.0
 11
164.0879791331
 21
1749.8527243756
 31
0.0
  0
ARC
  5
423
330
1F
100
AcDbEntity
  8
INTERIOR_LOOPS
  6
CONTINUOUS
 62
     3
100
AcDbCircle
 10
206.0392195148
 20
1829.4718480276
 30
0.0
 40
89.9535176295553
100
AcDbArc
 50
233.0216363479
 51
238.7757409553
  0
LINE
  5
424
330
1F
100
AcDbEntity
  8
INTERIOR_LOOPS
  6
CONTINUOUS
 62
     3
100
AcDbLine
 10
147.6485215195
 20
1761.1863643057
 30
0.0
 11
151.9309737235
 21
1757.611336818
 31
0.0
  0
ARC
  5
425
330
1F
100
AcDbEntity
  8
INTERIOR_LOOPS
  6
CONTINUOUS
 62
     3
100
AcDbCircle
 10
179.3244333122
 20
1795.4742148033
 30
0.0
 40
46.67997514621707
100
AcDbArc
 50
217.1914684354
 51
227.2675317377
  0
ARC
  5
426
330
1F
100
AcDbEntity
  8
INTERIOR_LOOPS
  6
CONTINUOUS
 62
     3
100
AcDbCircle
 10
169.8536137475
 20
1788.2876939789
 30
0.0
 40
34.79121975348739
100
AcDbArc
 50
207.1154051258
 51
217.1914684367
  0
ARC
  5
427
330
1F
100
AcDbEntity
  8
INTERIOR_LOOPS
  6
CONTINUOUS
 62
     3
100
AcDbCircle
 10
168.761174172
 20
1787.7282937136
 30
0.0
 40
33.5638840650081
100
AcDbArc
 50
194.0271730884
 51
207.1154051258
  0
ARC
  5
428
330
1F
100
AcDbEntity
  8
INTERIOR_LOOPS
  6
CONTINUOUS
 62
     3
100
AcDbCircle
 10
167.6647403689
 20
1787.454274962
 30
0.0
 40
32.43372772526747
100
AcDbArc
 50
180.948258373
 51
194.0270107569
  0
ARC
  5
429
330
1F
100
AcDbEntity
  8
INTERIOR_LOOPS
  6
CONTINUOUS
 62
     3
100
AcDbCircle
 10
159.1268664717
 20
1787.3129582758
 30
0.0
 40
23.89468438955789
100
AcDbArc
 50
157.8391420301
 51
180.948258373
  0
ARC
  5
42A
330
1F
100
AcDbEntity
  8
INTERIOR_LOOPS
  6
CONTINUOUS
 62
     3
100
AcDbCircle
 10
147.7309344559
 20
1791.9544727577
 30
0.0
 40
11.58976979430768
100
AcDbArc
 50
134.7300256875
 51
157.83914203
  0
LINE
  5
42B
330
1F
100
AcDbEntity
  8
INTERIOR_LOOPS
  6
CONTINUOUS
 62
     3
100
AcDbLine
 10
140.5362184169
 20
1801.0068596743
 30
0.0
 11
139.5744357941
 21
1800.1882017711
 31
0.0
  0
ARC
  5
42C
330
1F
100
AcDbEntity
  8
INTERIOR_LOOPS
  6
CONTINUOUS
 62
     3
100
AcDbCircle
 10
162.6002781594
 20
1770.7251083132
 30
0.0
 40
37.46741514725881
100
AcDbArc
 50
117.4260536106
 51
126.0780396489
  0
LINE
  5
42D
330
1F
100
AcDbEntity
  8
INTERIOR_LOOPS
  6
CONTINUOUS
 62
     3
100
AcDbLine
 10
150.3003855547
 20
1806.8412271431
 30
0.0
 11
145.3426576393
 21
1803.9814119533
 31
0.0
  0
LINE
  5
42E
330
1F
100
AcDbEntity
  8
INTERIOR_LOOPS
  6
CONTINUOUS
 62
     3
100
AcDbLine
 10
151.3055541839
 20
1807.5472019653
 30
0.0
 11
150.3003855547
 21
1806.8412271431
 31
0.0
  0
LINE
  5
42F
330
1F
100
AcDbEntity
  8
INTERIOR_LOOPS
  6
CONTINUOUS
 62
     3
100
AcDbLine
 10
152.1412327667
 20
1808.2163193254
 30
0.0
 11
151.3055541839
 21
1807.5472019653
 31
0.0
  0
LINE
  5
430
330
1F
100
AcDbEntity
  8
INTERIOR_LOOPS
  6
CONTINUOUS
 62
     3
100
AcDbLine
 10
153.8380375584
 20
1809.680097592
 30
0.0
 11
152.1412327667
 21
1808.2163193254
 31
0.0
  0
LINE
  5
431
330
1F
100
AcDbEntity
  8
INTERIOR_LOOPS
  6
CONTINUOUS
 62
     3
100
AcDbLine
 10
154.0457766844
 20
1809.8665747313
 30
0.0
 11
153.8380375584
 21
1809.680097592
 31
0.0
  0
LINE
  5
432
330
1F
100
AcDbEntity
  8
INTERIOR_LOOPS
  6
CONTINUOUS
 62
     3
100
AcDbLine
 10
154.4414265256
 20
1810.223724053
 30
0.0
 11
154.0457766844
 21
1809.8665747313
 31
0.0
  0
LINE
  5
433
330
1F
100
AcDbEntity
  8
INTERIOR_LOOPS
  6
CONTINUOUS
 62
     3
100
AcDbLine
 10
154.506942973
 20
1810.2830544868
 30
0.0
 11
154.4414265256
 21
1810.223724053
 31
0.0
  0
LINE
  5
434
330
1F
100
AcDbEntity
  8
INTERIOR_LOOPS
  6
CONTINUOUS
 62
     3
100
AcDbLine
 10
154.7404557325
 20
1810.4946877814
 30
0.0
 11
154.506942973
 21
1810.2830544868
 31
0.0
  0
LINE
  5
435
330
1F
100
AcDbEntity
  8
INTERIOR_LOOPS
  6
CONTINUOUS
 62
     3
100
AcDbLine
 10
155.0106892367
 20
1810.7396303666
 30
0.0
 11
154.7404557325
 21
1810.4946877814
 31
0.0
  0
LINE
  5
436
330
1F
100
AcDbEntity
  8
INTERIOR_LOOPS
  6
CONTINUOUS
 62
     3
100
AcDbLine
 10
155.0381431198
 20
1810.7645009605
 30
0.0
 11
155.0106892367
 21
1810.7396303666
 31
0.0
  0
LINE
  5
437
330
1F
100
AcDbEntity
  8
INTERIOR_LOOPS
  6
CONTINUOUS
 62
     3
100
AcDbLine
 10
155.9084002125
 20
1811.5462946429
 30
0.0
 11
155.0381431198
 21
1810.7645009605
 31
0.0
  0
LINE
  5
438
330
1F
100
AcDbEntity
  8
INTERIOR_LOOPS
  6
CONTINUOUS
 62
     3
100
AcDbLine
 10
156.2219999443
 20
1811.8234849634
 30
0.0
 11
155.9084002125
 21
1811.5462946429
 31
0.0
  0
LINE
  5
439
330
1F
100
AcDbEntity
  8
INTERIOR_LOOPS
  6
CONTINUOUS
 62
     3
100
AcDbLine
 10
159.5941325611
 20
1814.368367732
 30
0.0
 11
156.2219999443
 21
1811.8234849634
 31
0.0
  0
LINE
  5
43A
330
1F
100
AcDbEntity
  8
INTERIOR_LOOPS
  6
CONTINUOUS
 62
     3
100
AcDbLine
 10
161.2088206225
 20
1815.2501160131
 30
0.0
 11
159.5941325611
 21
1814.368367732
 31
0.0
  0
ARC
  5
43B
330
1F
100
AcDbEntity
  8
INTERIOR_LOOPS
  6
CONTINUOUS
 62
     3
100
AcDbCircle
 10
167.2603623726
 20
1801.9321316479
 30
0.0
 40
14.62839243067918
100
AcDbArc
 50
100.4180380445
 51
114.4365114005
  0
ARC
  5
43C
330
1F
100
AcDbEntity
  8
INTERIOR_LOOPS
  6
CONTINUOUS
 62
     3
100
AcDbCircle
 10
171.4346519687
 20
1779.2284748918
 30
0.0
 40
37.71260183296129
100
AcDbArc
 50
86.3995646877
 51
100.4180380442
  0
LINE
  5
43D
330
1F
100
AcDbEntity
  8
INTERIOR_LOOPS
  6
CONTINUOUS
 62
     3
100
AcDbLine
 10
175.7490412364
 20
1816.7111794679
 30
0.0
 11
173.8029317916
 21
1816.8666415274
 31
0.0
  0
LINE
  5
43E
330
1F
100
AcDbEntity
  8
INTERIOR_LOOPS
  6
CONTINUOUS
 62
     3
100
AcDbLine
 10
181.0492968839
 20
1816.1071981249
 30
0.0
 11
175.7490412364
 21
1816.7111794679
 31
0.0
  0
LINE
  5
43F
330
1F
100
AcDbEntity
  8
INTERIOR_LOOPS
  6
CONTINUOUS
 62
     3
100
AcDbLine
 10
181.5776127925
 20
1816.0374431442
 30
0.0
 11
181.0492968839
 21
1816.1071981249
 31
0.0
  0
LINE
  5
440
330
1F
100
AcDbEntity
  8
INTERIOR_LOOPS
  6
CONTINUOUS
 62
     3
100
AcDbLine
 10
182.9195851502
 20
1815.8577055573
 30
0.0
 11
181.5776127925
 21
1816.0374431442
 31
0.0
  0
LINE
  5
441
330
1F
100
AcDbEntity
  8
INTERIOR_LOOPS
  6
CONTINUOUS
 62
     3
100
AcDbLine
 10
183.0225706424
 20
1815.8438095806
 30
0.0
 11
182.9195851502
 21
1815.8577055573
 31
0.0
  0
LINE
  5
442
330
1F
100
AcDbEntity
  8
INTERIOR_LOOPS
  6
CONTINUOUS
 62
     3
100
AcDbLine
 10
183.3898113826
 20
1815.7942221292
 30
0.0
 11
183.0225706424
 21
1815.8438095806
 31
0.0
  0
LINE
  5
443
330
1F
100
AcDbEntity
  8
INTERIOR_LOOPS
  6
CONTINUOUS
 62
     3
100
AcDbLine
 10
183.8330167696
 20
1815.7343688367
 30
0.0
 11
183.3898113826
 21
1815.7942221292
 31
0.0
  0
LINE
  5
444
330
1F
100
AcDbEntity
  8
INTERIOR_LOOPS
  6
CONTINUOUS
 62
     3
100
AcDbLine
 10
183.8609833504
 20
1815.7305936377
 30
0.0
 11
183.8330167696
 21
1815.7343688367
 31
0.0
  0
LINE
  5
445
330
1F
100
AcDbEntity
  8
INTERIOR_LOOPS
  6
CONTINUOUS
 62
     3
100
AcDbLine
 10
184.5042899026
 20
1815.6439541744
 30
0.0
 11
183.8609833504
 21
1815.7305936377
 31
0.0
  0
LINE
  5
446
330
1F
100
AcDbEntity
  8
INTERIOR_LOOPS
  6
CONTINUOUS
 62
     3
100
AcDbLine
 10
184.8059326298
 20
1815.603499566
 30
0.0
 11
184.5042899026
 21
1815.6439541744
 31
0.0
  0
LINE
  5
447
330
1F
100
AcDbEntity
  8
INTERIOR_LOOPS
  6
CONTINUOUS
 62
     3
100
AcDbLine
 10
187.4386316804
 20
1815.2618993169
 30
0.0
 11
184.8059326298
 21
1815.603499566
 31
0.0
  0
LINE
  5
448
330
1F
100
AcDbEntity
  8
INTERIOR_LOOPS
  6
CONTINUOUS
 62
     3
100
AcDbLine
 10
188.6119660604
 20
1815.1192258382
 30
0.0
 11
187.4386316804
 21
1815.2618993169
 31
0.0
  0
ARC
  5
449
330
1F
100
AcDbEntity
  8
INTERIOR_LOOPS
  6
CONTINUOUS
 62
     3
100
AcDbCircle
 10
198.396073614
 20
1898.3708593192
 30
0.0
 40
83.82459804780882
100
AcDbArc
 50
263.2970888812
 51
270.4318188827
  0
LINE
  5
44A
330
1F
100
AcDbEntity
  8
INTERIOR_LOOPS
  6
CONTINUOUS
 62
     3
100
AcDbLine
 10
203.7305264926
 20
1814.8774195257
 30
0.0
 11
199.0278252352
 21
1814.5486419317
 31
0.0
  0
ARC
  5
44B
330
1F
100
AcDbEntity
  8
INTERIOR_LOOPS
  6
CONTINUOUS
 62
     3
100
AcDbCircle
 10
198.8751270999
 20
1851.4297190318
 30
0.0
 40
36.87337118354883
100
AcDbArc
 50
277.5665488853
 51
290.4815855818
  0
ARC
  5
44C
330
1F
100
AcDbEntity
  8
INTERIOR_LOOPS
  6
CONTINUOUS
 62
     3
100
AcDbCircle
 10
202.7395387119
 20
1841.083745235
 30
0.0
 40
25.82923921632778
100
AcDbArc
 50
290.4815855975
 51
303.3966222048
  0
ARC
  5
44D
330
1F
100
AcDbEntity
  8
INTERIOR_LOOPS
  6
CONTINUOUS
 62
     3
100
AcDbCircle
 10
204.7914309234
 20
1837.9714881289
 30
0.0
 40
22.10145087170145
100
AcDbArc
 50
303.3966222048
 51
314.7016618751
  0
ARC
  5
44E
330
1F
100
AcDbEntity
  8
INTERIOR_LOOPS
  6
CONTINUOUS
 62
     3
100
AcDbCircle
 10
186.2528562706
 20
1856.704135137
 30
0.0
 40
48.45654172881635
100
AcDbArc
 50
314.701661875
 51
326.0067015451
  0
LINE
  5
44F
330
1F
100
AcDbEntity
  8
INTERIOR_LOOPS
  6
CONTINUOUS
 62
     3
100
AcDbLine
 10
227.1495687958
 20
1830.7096221635
 30
0.0
 11
226.4283190472
 21
1829.6122797741
 31
0.0
  0
LINE
  5
450
330
1F
100
AcDbEntity
  8
INTERIOR_LOOPS
  6
CONTINUOUS
 62
     3
100
AcDbLine
 10
230.3338464983
 20
1835.8133568585
 30
0.0
 11
227.1495687958
 21
1830.7096221635
 31
0.0
  0
LINE
  5
451
330
1F
100
AcDbEntity
  8
INTERIOR_LOOPS
  6
CONTINUOUS
 62
     3
100
AcDbLine
 10
233.7006207914
 20
1841.2309325732
 30
0.0
 11
230.3338464983
 21
1835.8133568585
 31
0.0
  0
LINE
  5
452
330
1F
100
AcDbEntity
  8
INTERIOR_LOOPS
  6
CONTINUOUS
 62
     3
100
AcDbLine
 10
234.2547167386
 20
1842.0837959052
 30
0.0
 11
233.7006207914
 21
1841.2309325732
 31
0.0
  0
ARC
  5
453
330
1F
100
AcDbEntity
  8
INTERIOR_LOOPS
  6
CONTINUOUS
 62
     3
100
AcDbCircle
 10
283.0604725167
 20
1809.6726937686
 30
0.0
 40
58.58738207829546
100
AcDbArc
 50
138.5076317854
 51
146.4125152696
  0
ARC
  5
454
330
1F
100
AcDbEntity
  8
INTERIOR_LOOPS
  6
CONTINUOUS
 62
     3
100
AcDbCircle
 10
273.5119550497
 20
1818.1182412891
 30
0.0
 40
45.83977607795793
100
AcDbArc
 50
130.6027482592
 51
138.5076317912
  0
LINE
  5
455
330
1F
100
AcDbEntity
  8
INTERIOR_LOOPS
  6
CONTINUOUS
 62
     3
100
AcDbLine
 10
248.7937223688
 20
1856.7877226139
 30
0.0
 11
243.6789412329
 21
1852.9216370643
 31
0.0
  0
ARC
  5
456
330
1F
100
AcDbEntity
  8
INTERIOR_LOOPS
  6
CONTINUOUS
 62
     3
100
AcDbCircle
 10
284.2332358437
 20
1803.3782129633
 30
0.0
 40
64.09785360254091
100
AcDbArc
 50
116.5292314703
 51
123.5659898756
  0
ARC
  5
457
330
1F
100
AcDbEntity
  8
INTERIOR_LOOPS
  6
CONTINUOUS
 62
     3
100
AcDbCircle
 10
288.2643564399
 20
1795.3033552794
 30
0.0
 40
73.1229995779036
100
AcDbArc
 50
108.0264097146
 51
116.5292314703
  0
ARC
  5
458
330
1F
100
AcDbEntity
  8
INTERIOR_LOOPS
  6
CONTINUOUS
 62
     3
100
AcDbCircle
 10
304.5265118992
 20
1745.3319732277
 30
0.0
 40
125.6738960911407
100
AcDbArc
 50
99.5235879766
 51
108.0264097183
  0
ARC
  5
459
330
1F
100
AcDbEntity
  8
INTERIOR_LOOPS
  6
CONTINUOUS
 62
     3
100
AcDbCircle
 10
314.7439464744
 20
1684.4290285556
 30
0.0
 40
187.4279618679483
100
AcDbArc
 50
92.4472512243
 51
99.5235879766
  0
ARC
  5
45A
330
1F
100
AcDbEntity
  8
INTERIOR_LOOPS
  6
CONTINUOUS
 62
     3
100
AcDbCircle
 10
318.3342209493
 20
1600.4555344882
 30
0.0
 40
271.4781717154839
100
AcDbArc
 50
85.3727753661
 51
92.4475392927
  0
ARC
  5
45B
330
1F
100
AcDbEntity
  8
INTERIOR_LOOPS
  6
CONTINUOUS
 62
     3
100
AcDbCircle
 10
145.305761656
 20
1794.2515313049
 30
0.0
 40
58.25086973167225
100
AcDbArc
 50
127.2631128575
 51
136.8224341834
  0
ARC
  5
45C
330
1F
100
AcDbEntity
  8
INTERIOR_LOOPS
  6
CONTINUOUS
 62
     3
100
AcDbCircle
 10
147.9782694833
 20
1791.7438478801
 30
0.0
 40
61.91567181366621
100
AcDbArc
 50
136.8224341834
 51
150.5331442198
  0
ARC
  5
45D
330
1F
100
AcDbEntity
  8
INTERIOR_LOOPS
  6
CONTINUOUS
 62
     3
100
AcDbCircle
 10
152.1802266284
 20
1789.3700208249
 30
0.0
 40
66.74179848691162
100
AcDbArc
 50
150.5333820167
 51
164.2504313706
  0
ARC
  5
45E
330
1F
100
AcDbEntity
  8
INTERIOR_LOOPS
  6
CONTINUOUS
 62
     3
100
AcDbCircle
 10
157.8026477114
 20
1787.7843797802
 30
0.0
 40
72.58353421838908
100
AcDbArc
 50
164.2504313706
 51
179.6284059282
  0
ARC
  5
45F
330
1F
100
AcDbEntity
  8
INTERIOR_LOOPS
  6
CONTINUOUS
 62
     3
100
AcDbCircle
 10
169.0916522087
 20
1787.7111634536
 30
0.0
 40
83.87277614026151
100
AcDbArc
 50
179.6284059217
 51
195.0063803892
  0
ARC
  5
460
330
1F
100
AcDbEntity
  8
INTERIOR_LOOPS
  6
CONTINUOUS
 62
     3
100
AcDbCircle
 10
167.6577844753
 20
1787.3267886094
 30
0.0
 40
82.38828273349354
100
AcDbArc
 50
195.0063803892
 51
206.8270324434
  0
ARC
  5
461
330
1F
100
AcDbEntity
  8
INTERIOR_LOOPS
  6
CONTINUOUS
 62
     3
100
AcDbCircle
 10
172.1413554666
 20
1789.5945800557
 30
0.0
 40
87.41275154131404
100
AcDbArc
 50
206.8272202019
 51
218.6542175233
  0
ARC
  5
462
330
1F
100
AcDbEntity
  8
INTERIOR_LOOPS
  6
CONTINUOUS
 62
     3
100
AcDbCircle
 10
176.2557064166
 20
1792.8854024651
 30
0.0
 40
92.68128035591808
100
AcDbArc
 50
218.6542175233
 51
226.4225672055
  0
ARC
  5
463
330
1F
100
AcDbEntity
  8
INTERIOR_LOOPS
  6
CONTINUOUS
 62
     3
100
AcDbCircle
 10
190.3818489656
 20
1807.7310176122
 30
0.0
 40
113.1737226800426
100
AcDbArc
 50
226.4225672054
 51
234.1909168865
  0
ARC
  5
464
330
1F
100
AcDbEntity
  8
INTERIOR_LOOPS
  6
CONTINUOUS
 62
     3
100
AcDbCircle
 10
195.9266260827
 20
1815.4164723525
 30
0.0
 40
122.650577002265
100
AcDbArc
 50
234.1909168865
 51
239.7155953178
  0
ARC
  5
465
330
1F
100
AcDbEntity
  8
INTERIOR_LOOPS
  6
CONTINUOUS
 62
     3
100
AcDbCircle
 10
273.0863055279
 20
1947.5419841365
 30
0.0
 40
275.6563513908796
100
AcDbArc
 50
239.7155953178
 51
245.240273749
  0
LINE
  5
466
330
1F
100
AcDbEntity
  8
INTERIOR_LOOPS
  6
CONTINUOUS
 62
     3
100
AcDbLine
 10
159.3864640749
 20
1696.4238569971
 30
0.0
 11
157.6375957494
 21
1697.2261447004
 31
0.0
  0
LINE
  5
467
330
1F
100
AcDbEntity
  8
INTERIOR_LOOPS
  6
CONTINUOUS
 62
     3
100
AcDbLine
 10
164.4068221319
 20
1694.1455193846
 30
0.0
 11
159.3864640749
 21
1696.4238569971
 31
0.0
  0
LINE
  5
468
330
1F
100
AcDbEntity
  8
INTERIOR_LOOPS
  6
CONTINUOUS
 62
     3
100
AcDbLine
 10
164.6938000311
 20
1694.0160060898
 30
0.0
 11
164.4068221319
 21
1694.1455193846
 31
0.0
  0
LINE
  5
469
330
1F
100
AcDbEntity
  8
INTERIOR_LOOPS
  6
CONTINUOUS
 62
     3
100
AcDbLine
 10
165.2060980493
 20
1693.7848680856
 30
0.0
 11
164.6938000311
 21
1694.0160060898
 31
0.0
  0
LINE
  5
46A
330
1F
100
AcDbEntity
  8
INTERIOR_LOOPS
  6
CONTINUOUS
 62
     3
100
AcDbLine
 10
165.3450209142
 20
1693.7221991886
 30
0.0
 11
165.2060980493
 21
1693.7848680856
 31
0.0
  0
LINE
  5
46B
330
1F
100
AcDbEntity
  8
INTERIOR_LOOPS
  6
CONTINUOUS
 62
     3
100
AcDbLine
 10
165.601796089
 20
1693.6063709448
 30
0.0
 11
165.3450209142
 21
1693.7221991886
 31
0.0
  0
LINE
  5
46C
330
1F
100
AcDbEntity
  8
INTERIOR_LOOPS
  6
CONTINUOUS
 62
     3
100
AcDbLine
 10
165.9948636915
 20
1693.4290642942
 30
0.0
 11
165.601796089
 21
1693.6063709448
 31
0.0
  0
LINE
  5
46D
330
1F
100
AcDbEntity
  8
INTERIOR_LOOPS
  6
CONTINUOUS
 62
     3
100
AcDbLine
 10
167.1442243913
 20
1692.9103965756
 30
0.0
 11
165.9948636915
 21
1693.4290642942
 31
0.0
  0
LINE
  5
46E
330
1F
100
AcDbEntity
  8
INTERIOR_LOOPS
  6
CONTINUOUS
 62
     3
100
AcDbLine
 10
167.5407723654
 20
1692.7313148621
 30
0.0
 11
167.1442243913
 21
1692.9103965756
 31
0.0
  0
LINE
  5
46F
330
1F
100
AcDbEntity
  8
INTERIOR_LOOPS
  6
CONTINUOUS
 62
     3
100
AcDbLine
 10
169.5405010682
 20
1691.8256489709
 30
0.0
 11
167.5407723654
 21
1692.7313148621
 31
0.0
  0
LINE
  5
470
330
1F
100
AcDbEntity
  8
INTERIOR_LOOPS
  6
CONTINUOUS
 62
     3
100
AcDbLine
 10
170.5054567792
 20
1691.3864579958
 30
0.0
 11
169.5405010682
 21
1691.8256489709
 31
0.0
  0
LINE
  5
471
330
1F
100
AcDbEntity
  8
INTERIOR_LOOPS
  6
CONTINUOUS
 62
     3
100
AcDbLine
 10
176.7888625005
 20
1688.4347552843
 30
0.0
 11
170.5054567792
 21
1691.3864579958
 31
0.0
  0
LINE
  5
472
330
1F
100
AcDbEntity
  8
INTERIOR_LOOPS
  6
CONTINUOUS
 62
     3
100
AcDbLine
 10
181.043701974
 20
1686.3192793665
 30
0.0
 11
176.7888625005
 21
1688.4347552843
 31
0.0
  0
LINE
  5
473
330
1F
100
AcDbEntity
  8
INTERIOR_LOOPS
  6
CONTINUOUS
 62
     3
100
AcDbLine
 10
189.5256143542
 20
1681.7874036333
 30
0.0
 11
181.043701974
 21
1686.3192793665
 31
0.0
  0
LINE
  5
474
330
1F
100
AcDbEntity
  8
INTERIOR_LOOPS
  6
CONTINUOUS
 62
     3
100
AcDbLine
 10
202.2498292106
 20
1674.381914476
 30
0.0
 11
189.5256143542
 21
1681.7874036333
 31
0.0
  0
LINE
  5
475
330
1F
100
AcDbEntity
  8
INTERIOR_LOOPS
  6
CONTINUOUS
 62
     3
100
AcDbLine
 10
209.0362475929
 20
1670.1857822342
 30
0.0
 11
202.2498292106
 21
1674.381914476
 31
0.0
  0
LINE
  5
476
330
1F
100
AcDbEntity
  8
INTERIOR_LOOPS
  6
CONTINUOUS
 62
     3
100
AcDbLine
 10
224.6255942004
 20
1660.1755525955
 30
0.0
 11
209.0362475929
 21
1670.1857822342
 31
0.0
  0
LINE
  5
477
330
1F
100
AcDbEntity
  8
INTERIOR_LOOPS
  6
CONTINUOUS
 62
     3
100
AcDbLine
 10
226.7139683602
 20
1658.8073046528
 30
0.0
 11
224.6255942004
 21
1660.1755525955
 31
0.0
  0
LINE
  5
478
330
1F
100
AcDbEntity
  8
INTERIOR_LOOPS
  6
CONTINUOUS
 62
     3
100
AcDbLine
 10
230.417108312
 20
1656.3740485231
 30
0.0
 11
226.7139683602
 21
1658.8073046528
 31
0.0
  0
LINE
  5
479
330
1F
100
AcDbEntity
  8
INTERIOR_LOOPS
  6
CONTINUOUS
 62
     3
100
AcDbLine
 10
231.2128670838
 20
1655.8502819412
 30
0.0
 11
230.417108312
 21
1656.3740485231
 31
0.0
  0
LINE
  5
47A
330
1F
100
AcDbEntity
  8
INTERIOR_LOOPS
  6
CONTINUOUS
 62
     3
100
AcDbLine
 10
233.3447914041
 20
1654.4463218654
 30
0.0
 11
231.2128670838
 21
1655.8502819412
 31
0.0
  0
LINE
  5
47B
330
1F
100
AcDbEntity
  8
INTERIOR_LOOPS
  6
CONTINUOUS
 62
     3
100
AcDbLine
 10
233.5647404387
 20
1654.3014361688
 30
0.0
 11
233.3447914041
 21
1654.4463218654
 31
0.0
  0
LINE
  5
47C
330
1F
100
AcDbEntity
  8
INTERIOR_LOOPS
  6
CONTINUOUS
 62
     3
100
AcDbLine
 10
234.0801456825
 20
1653.9619192933
 30
0.0
 11
233.5647404387
 21
1654.3014361688
 31
0.0
  0
LINE
  5
47D
330
1F
100
AcDbEntity
  8
INTERIOR_LOOPS
  6
CONTINUOUS
 62
     3
100
AcDbLine
 10
234.7094466332
 20
1653.5473743453
 30
0.0
 11
234.0801456825
 21
1653.9619192933
 31
0.0
  0
LINE
  5
47E
330
1F
100
AcDbEntity
  8
INTERIOR_LOOPS
  6
CONTINUOUS
 62
     3
100
AcDbLine
 10
234.8168983537
 20
1653.4765928642
 30
0.0
 11
234.7094466332
 21
1653.5473743453
 31
0.0
  0
LINE
  5
47F
330
1F
100
AcDbEntity
  8
INTERIOR_LOOPS
  6
CONTINUOUS
 62
     3
100
AcDbLine
 10
235.7987900876
 20
1652.8298517969
 30
0.0
 11
234.8168983537
 21
1653.4765928642
 31
0.0
  0
LINE
  5
480
330
1F
100
AcDbEntity
  8
INTERIOR_LOOPS
  6
CONTINUOUS
 62
     3
100
AcDbLine
 10
236.2946488555
 20
1652.5032974478
 30
0.0
 11
235.7987900876
 21
1652.8298517969
 31
0.0
  0
LINE
  5
481
330
1F
100
AcDbEntity
  8
INTERIOR_LOOPS
  6
CONTINUOUS
 62
     3
100
AcDbLine
 10
245.114430616
 20
1646.7158447468
 30
0.0
 11
236.2946488555
 21
1652.5032974478
 31
0.0
  0
LINE
  5
482
330
1F
100
AcDbEntity
  8
INTERIOR_LOOPS
  6
CONTINUOUS
 62
     3
100
AcDbLine
 10
248.3318162436
 20
1644.6195061677
 30
0.0
 11
245.114430616
 21
1646.7158447468
 31
0.0
  0
LINE
  5
483
330
1F
100
AcDbEntity
  8
INTERIOR_LOOPS
  6
CONTINUOUS
 62
     3
100
AcDbLine
 10
251.9213860448
 20
1642.2996356882
 30
0.0
 11
248.3318162436
 21
1644.6195061677
 31
0.0
  0
LINE
  5
484
330
1F
100
AcDbEntity
  8
INTERIOR_LOOPS
  6
CONTINUOUS
 62
     3
100
AcDbLine
 10
260.4552372942
 20
1636.8350743076
 30
0.0
 11
251.9213860448
 21
1642.2996356882
 31
0.0
  0
LINE
  5
485
330
1F
100
AcDbEntity
  8
INTERIOR_LOOPS
  6
CONTINUOUS
 62
     3
100
AcDbLine
 10
260.9633132987
 20
1636.5112738785
 30
0.0
 11
260.4552372942
 21
1636.8350743076
 31
0.0
  0
LINE
  5
486
330
1F
100
AcDbEntity
  8
INTERIOR_LOOPS
  6
CONTINUOUS
 62
     3
100
AcDbLine
 10
261.9330870354
 20
1635.8933591145
 30
0.0
 11
260.9633132987
 21
1636.5112738785
 31
0.0
  0
LINE
  5
487
330
1F
100
AcDbEntity
  8
INTERIOR_LOOPS
  6
CONTINUOUS
 62
     3
100
AcDbLine
 10
261.9925269118
 20
1635.855489493
 30
0.0
 11
261.9330870354
 21
1635.8933591145
 31
0.0
  0
LINE
  5
488
330
1F
100
AcDbEntity
  8
INTERIOR_LOOPS
  6
CONTINUOUS
 62
     3
100
AcDbLine
 10
262.3011106134
 20
1635.6588924946
 30
0.0
 11
261.9925269118
 21
1635.855489493
 31
0.0
  0
LINE
  5
489
330
1F
100
AcDbEntity
  8
INTERIOR_LOOPS
  6
CONTINUOUS
 62
     3
100
AcDbLine
 10
262.3470728225
 20
1635.6296105681
 30
0.0
 11
262.3011106134
 21
1635.6588924946
 31
0.0
  0
LINE
  5
48A
330
1F
100
AcDbEntity
  8
INTERIOR_LOOPS
  6
CONTINUOUS
 62
     3
100
AcDbLine
 10
262.6226555051
 20
1635.4540410865
 30
0.0
 11
262.3470728225
 21
1635.6296105681
 31
0.0
  0
LINE
  5
48B
330
1F
100
AcDbEntity
  8
INTERIOR_LOOPS
  6
CONTINUOUS
 62
     3
100
AcDbLine
 10
262.668554149
 20
1635.4247997522
 30
0.0
 11
262.6226555051
 21
1635.4540410865
 31
0.0
  0
LINE
  5
48C
330
1F
100
AcDbEntity
  8
INTERIOR_LOOPS
  6
CONTINUOUS
 62
     3
100
AcDbLine
 10
263.1504095492
 20
1635.1178110313
 30
0.0
 11
262.668554149
 21
1635.4247997522
 31
0.0
  0
LINE
  5
48D
330
1F
100
AcDbEntity
  8
INTERIOR_LOOPS
  6
CONTINUOUS
 62
     3
100
AcDbLine
 10
263.401692095
 20
1634.957713912
 30
0.0
 11
263.1504095492
 21
1635.1178110313
 31
0.0
  0
LINE
  5
48E
330
1F
100
AcDbEntity
  8
INTERIOR_LOOPS
  6
CONTINUOUS
 62
     3
100
AcDbLine
 10
265.4703759559
 20
1633.6391741431
 30
0.0
 11
263.401692095
 21
1634.957713912
 31
0.0
  0
LINE
  5
48F
330
1F
100
AcDbEntity
  8
INTERIOR_LOOPS
  6
CONTINUOUS
 62
     3
100
AcDbLine
 10
266.3105922541
 20
1633.1032262598
 30
0.0
 11
265.4703759559
 21
1633.6391741431
 31
0.0
  0
LINE
  5
490
330
1F
100
AcDbEntity
  8
INTERIOR_LOOPS
  6
CONTINUOUS
 62
     3
100
AcDbLine
 10
269.9855014021
 20
1630.752968293
 30
0.0
 11
266.3105922541
 21
1633.1032262598
 31
0.0
  0
LINE
  5
491
330
1F
100
AcDbEntity
  8
INTERIOR_LOOPS
  6
CONTINUOUS
 62
     3
100
AcDbLine
 10
272.0112030918
 20
1629.4516673776
 30
0.0
 11
269.9855014021
 21
1630.752968293
 31
0.0
  0
LINE
  5
492
330
1F
100
AcDbEntity
  8
INTERIOR_LOOPS
  6
CONTINUOUS
 62
     3
100
AcDbLine
 10
178.8741599319
 20
1866.6296626785
 30
0.0
 11
181.4775000838
 21
1866.3873054681
 31
0.0
  0
ARC
  5
493
330
1F
100
AcDbEntity
  8
INTERIOR_LOOPS
  6
CONTINUOUS
 62
     3
100
AcDbCircle
 10
170.5529954956
 20
1761.6696862923
 30
0.0
 40
105.2893081967845
100
AcDbArc
 50
85.4671056005
 51
90.660965916
  0
LINE
  5
494
330
1F
100
AcDbEntity
  8
INTERIOR_LOOPS
  6
CONTINUOUS
 62
     3
100
AcDbLine
 10
162.2224047111
 20
1866.5469291822
 30
0.0
 11
169.3384016621
 21
1866.9519886151
 31
0.0
  0
ARC
  5
495
330
1F
100
AcDbEntity
  8
INTERIOR_LOOPS
  6
CONTINUOUS
 62
     3
100
AcDbCircle
 10
169.6468772329
 20
1794.1435389522
 30
0.0
 40
72.78305921723032
100
AcDbArc
 50
95.8548262261
 51
106.089531495
  0
ARC
  5
496
330
1F
100
AcDbEntity
  8
INTERIOR_LOOPS
  6
CONTINUOUS
 62
     3
100
AcDbCircle
 10
167.6509514248
 20
1801.0633310857
 30
0.0
 40
65.58116759060381
100
AcDbArc
 50
106.0895314862
 51
116.3242369235
  0
ARC
  5
497
330
1F
100
AcDbEntity
  8
INTERIOR_LOOPS
  6
CONTINUOUS
 62
     3
100
AcDbCircle
 10
165.388107874
 20
1805.6369752724
 30
0.0
 40
60.47835639658933
100
AcDbArc
 50
116.3242369235
 51
124.2433511215
  0
ARC
  5
498
330
1F
100
AcDbEntity
  8
INTERIOR_LOOPS
  6
CONTINUOUS
 62
     3
100
AcDbCircle
 10
181.2498762058
 20
1782.3350360537
 30
0.0
 40
88.66658205840199
100
AcDbArc
 50
124.2433511128
 51
132.162465265
  0
ENDSEC
  0
SECTION
  2
OBJECTS
  0
DICTIONARY
  5
C
330
0
100
AcDbDictionary
  3
ACAD_GROUP
350
D
  3
ACAD_LAYOUT
350
1A
  3
ACAD_MATERIAL
350
43
  3
ACAD_MLEADERSTYLE
350
6B
  3
ACAD_MLINESTYLE
350
17
  3
ACAD_PLOTSETTINGS
350
19
  3
ACAD_SCALELIST
350
47
  3
ACAD_VISUALSTYLE
350
2A
  3
ACDBHEADERROUNDTRIPXREC
350
499
  3
ACDBVARIABLEDICTIONARY
350
4BA
  0
DICTIONARY
  5
4C5
330
8
100
AcDbDictionary
280
     1
  3
ACAD_XREC_ROUNDTRIP
360
4C6
  0
DICTIONARY
  5
D
102
{ACAD_REACTORS
330
C
102
}
330
C
100
AcDbDictionary
  0
DICTIONARY
  5
1A
102
{ACAD_REACTORS
330
C
102
}
330
C
100
AcDbDictionary
  0
DICTIONARY
  5
43
102
{ACAD_REACTORS
330
C
102
}
330
C
100
AcDbDictionary
  3
BYBLOCK
350
45
  3
BYLAYER
350
44
  3
GLOBAL
350
46
  0
DICTIONARY
  5
6B
102
{ACAD_REACTORS
330
C
102
}
330
C
100
AcDbDictionary
  3
STANDARD
350
6C
  0
DICTIONARY
  5
17
102
{ACAD_REACTORS
330
C
102
}
330
C
100
AcDbDictionary
  3
STANDARD
350
18
  0
DICTIONARY
  5
19
102
{ACAD_REACTORS
330
C
102
}
330
C
100
AcDbDictionary
  0
DICTIONARY
  5
47
102
{ACAD_REACTORS
330
C
102
}
330
C
100
AcDbDictionary
  3
A0
350
48
  3
A1
350
49
  3
A2
350
4A
  3
A3
350
4B
  3
A4
350
4C
  3
A5
350
4D
  3
A6
350
4E
  3
A7
350
4F
  3
A8
350
50
  3
A9
350
51
  3
B0
350
52
  3
B1
350
53
  3
B2
350
54
  3
B3
350
55
  3
B4
350
56
  3
B5
350
57
  3
B6
350
58
  3
B7
350
59
  3
B8
350
5A
  3
B9
350
5B
  3
C0
350
5C
  3
C1
350
5D
  3
C2
350
5E
  3
C3
350
5F
  3
C4
350
60
  3
C5
350
61
  3
C6
350
62
  3
C7
350
63
  3
C8
350
64
  3
C9
350
65
  3
D0
350
66
  3
D1
350
67
  3
D2
350
68
  0
DICTIONARY
  5
2A
102
{ACAD_REACTORS
330
C
102
}
330
C
100
AcDbDictionary
  3
2DWIREFRAME
350
2F
  3
BASIC
350
32
  3
BRIGHTEN
350
36
  3
COLORCHANGE
350
3A
  3
CONCEPTUAL
350
34
  3
DIM
350
35
  3
EDGECOLOROFF
350
3D
  3
FACEPATTERN
350
39
  3
FLAT
350
2B
  3
FLATWITHEDGES
350
2C
  3
GOURAUD
350
2D
  3
GOURAUDWITHEDGES
350
2E
  3
HIDDEN
350
31
  3
JITTEROFF
350
3B
  3
LINEPATTERN
350
38
  3
OVERHANGOFF
350
3C
  3
REALISTIC
350
33
  3
SHADED
350
42
  3
SHADED_WITH_EDGES
350
41
  3
SHADES_OF_GRAY
350
3E
  3
SKETCHY
350
3F
  3
THICKEN
350
37
  3
WIREFRAME
350
30
  3
X-RAY
350
40
  0
DICTIONARY
  5
499
102
{ACAD_REACTORS
330
C
102
}
330
C
100
AcDbDictionary
  3
CEPSNID
350
4A3
  3
CEPSNTYPE
350
4A2
  3
DIMSTYLEDATA
350
4B9
  3
FINGERPRINTGUID
350
4A4
  3
HYPERLINKBASE
350
49C
  3
INSUNITS
350
4A1
  3
LAYOUTDICT
350
49E
  3
LWETCUNION
350
4A0
  3
PLOTSETDICT
350
49F
  3
PSVPSCALE
350
4A6
  3
PUCSBASE
350
4A9
  3
PUCSORGBACK
350
4AF
  3
PUCSORGBOTTOM
350
4AB
  3
PUCSORGFRONT
350
4AE
  3
PUCSORGLEFT
350
4AC
  3
PUCSORGRIGHT
350
4AD
  3
PUCSORGTOP
350
4AA
  3
PUCSORTHOREF
350
4A7
  3
PUCSORTHOVIEW
350
4A8
  3
STYLESHEET
350
49D
  3
TSTACKALIGN
350
49A
  3
TSTACKSIZE
350
49B
  3
UCSBASE
350
4B2
  3
UCSORGBACK
350
4B8
  3
UCSORGBOTTOM
350
4B4
  3
UCSORGFRONT
350
4B7
  3
UCSORGLEFT
350
4B5
  3
UCSORGRIGHT
350
4B6
  3
UCSORGTOP
350
4B3
  3
UCSORTHOREF
350
4B0
  3
UCSORTHOVIEW
350
4B1
  3
VERSIONGUID
350
4A5
  0
DICTIONARY
  5
4BA
102
{ACAD_REACTORS
330
C
102
}
330
C
100
AcDbDictionary
  3
CANNOSCALE
350
4C7
  3
CENTEREXE
350
4C1
  3
CENTERLTYPEFILE
350
4C2
  3
CMLEADERSTYLE
350
4BC
  3
CTABLESTYLE
350
4BB
  3
DIMASSOC
350
4C3
  3
HIDETEXT
350
4C4
  3
MSLTSCALE
350
4C8
  3
PSOLHEIGHT
350
4BE
  3
PSOLWIDTH
350
4BD
  0
XRECORD
  5
4C6
102
{ACAD_REACTORS
330
4C5
102
}
330
4C5
100
AcDbXrecord
102
VTR_0.000_0.000_1.000_1.000_VISUALSTYLE
340
2F
102
VTR_0.000_0.000_1.000_1.000_GRIDDISPLAY
 70
     3
102
VTR_0.000_0.000_1.000_1.000_GRIDMAJOR
 70
     5
102
VTR_0.000_0.000_1.000_1.000_DEFAULTLIGHTING
280
     1
102
VTR_0.000_0.000_1.000_1.000_DEFAULTLIGHTINGTYPE
 70
     1
102
VTR_0.000_0.000_1.000_1.000_BRIGHTNESS
141
0.0
102
VTR_0.000_0.000_1.000_1.000_CONTRAST
142
0.0
  0
MATERIAL
  5
45
102
{ACAD_REACTORS
330
43
102
}
102
{ACAD_XDICTIONARY
360
4CB
102
}
330
43
100
AcDbMaterial
  1
BYBLOCK
  0
MATERIAL
  5
44
102
{ACAD_REACTORS
330
43
102
}
102
{ACAD_XDICTIONARY
360
4C9
102
}
330
43
100
AcDbMaterial
  1
BYLAYER
  0
MATERIAL
  5
46
102
{ACAD_REACTORS
330
43
102
}
102
{ACAD_XDICTIONARY
360
4CD
102
}
330
43
100
AcDbMaterial
  1
GLOBAL
  0
ACAD_PROXY_OBJECT
  5
6C
102
{ACAD_REACTORS
330
6B
102
}
330
6B
100
AcDbProxyObject
 90
      499
 91
      505
 93
      610
310
40901902A4063FBFFFFFE0000000000000020400000000000020404214DD185B99185C990000000000000104090141901A00000000000004100000000000000041025764000000000000039000
340
14
340
0
340
11
340
0
 94
        0
1001
ACAD_MLEADERVER
1070
     2
  0
MLINESTYLE
  5
18
102
{ACAD_REACTORS
330
17
102
}
330
17
100
AcDbMlineStyle
  2
Standard
 70
     0
  3

 62
   256
 51
90.0
 52
90.0
 71
     2
 49
0.5
 62
   256
  6
BYLAYER
 49
-0.5
 62
   256
  6
BYLAYER
  0
ACAD_PROXY_OBJECT
  5
48
102
{ACAD_REACTORS
330
47
102
}
330
47
100
AcDbProxyObject
 90
      499
 91
      503
 93
       41
310
903313A31580
  0
ACAD_PROXY_OBJECT
  5
49
102
{ACAD_REACTORS
330
47
102
}
330
47
100
AcDbProxyObject
 90
      499
 91
      503
 93
      105
310
903313A324000000000000004000
  0
ACAD_PROXY_OBJECT
  5
4A
102
{ACAD_REACTORS
330
47
102
}
330
47
100
AcDbProxyObject
 90
      499
 91
      503
 93
      105
310
903313A344000000000000104000
  0
ACAD_PROXY_OBJECT
  5
4B
102
{ACAD_REACTORS
330
47
102
}
330
47
100
AcDbProxyObject
 90
      499
 91
      503
 93
      105
310
903313A354000000000000144000
  0
ACAD_PROXY_OBJECT
  5
4C
102
{ACAD_REACTORS
330
47
102
}
330
47
100
AcDbProxyObject
 90
      499
 91
      503
 93
      105
310
903313A384000000000000204000
  0
ACAD_PROXY_OBJECT
  5
4D
102
{ACAD_REACTORS
330
47
102
}
330
47
100
AcDbProxyObject
 90
      499
 91
      503
 93
      113
310
904313A31304000000000000244000
  0
ACAD_PROXY_OBJECT
  5
4E
102
{ACAD_REACTORS
330
47
102
}
330
47
100
AcDbProxyObject
 90
      499
 91
      503
 93
      113
310
904313A31364000000000000304000
  0
ACAD_PROXY_OBJECT
  5
4F
102
{ACAD_REACTORS
330
47
102
}
330
47
100
AcDbProxyObject
 90
      499
 91
      503
 93
      113
310
904313A32304000000000000344000
  0
ACAD_PROXY_OBJECT
  5
50
102
{ACAD_REACTORS
330
47
102
}
330
47
100
AcDbProxyObject
 90
      499
 91
      503
 93
      113
310
904313A333040000000000003E4000
  0
ACAD_PROXY_OBJECT
  5
51
102
{ACAD_REACTORS
330
47
102
}
330
47
100
AcDbProxyObject
 90
      499
 91
      503
 93
      113
310
904313A34304000000000000444000
  0
ACAD_PROXY_OBJECT
  5
52
102
{ACAD_REACTORS
330
47
102
}
330
47
100
AcDbProxyObject
 90
      499
 91
      503
 93
      113
310
904313A35304000000000000494000
  0
ACAD_PROXY_OBJECT
  5
53
102
{ACAD_REACTORS
330
47
102
}
330
47
100
AcDbProxyObject
 90
      499
 91
      503
 93
      121
310
905313A3130304000000000000594000
  0
ACAD_PROXY_OBJECT
  5
54
102
{ACAD_REACTORS
330
47
102
}
330
47
100
AcDbProxyObject
 90
      499
 91
      503
 93
      105
310
903323A310000000000000010100
  0
ACAD_PROXY_OBJECT
  5
55
102
{ACAD_REACTORS
330
47
102
}
330
47
100
AcDbProxyObject
 90
      499
 91
      503
 93
      105
310
903343A310000000000000410100
  0
ACAD_PROXY_OBJECT
  5
56
102
{ACAD_REACTORS
330
47
102
}
330
47
100
AcDbProxyObject
 90
      499
 91
      503
 93
      105
310
903383A310000000000000810100
  0
ACAD_PROXY_OBJECT
  5
57
102
{ACAD_REACTORS
330
47
102
}
330
47
100
AcDbProxyObject
 90
      499
 91
      503
 93
      113
310
90431303A310000000000000910100
  0
ACAD_PROXY_OBJECT
  5
58
102
{ACAD_REACTORS
330
47
102
}
330
47
100
AcDbProxyObject
 90
      499
 91
      503
 93
      121
310
9053130303A310000000000001650100
  0
ACAD_PROXY_OBJECT
  5
59
102
{ACAD_REACTORS
330
47
102
}
330
47
100
AcDbProxyObject
 90
      499
 91
      503
 93
      257
310
90E312F31323822203D2031272D3022000000000000200FC000000000000284000
  0
ACAD_PROXY_OBJECT
  5
5A
102
{ACAD_REACTORS
330
47
102
}
330
47
100
AcDbProxyObject
 90
      499
 91
      503
 93
      249
310
90D312F363422203D2031272D3022000000000000240FC000000000000284000
  0
ACAD_PROXY_OBJECT
  5
5B
102
{ACAD_REACTORS
330
47
102
}
330
47
100
AcDbProxyObject
 90
      499
 91
      503
 93
      249
310
90D312F333222203D2031272D3022000000000000280FC000000000000284000
  0
ACAD_PROXY_OBJECT
  5
5C
102
{ACAD_REACTORS
330
47
102
}
330
47
100
AcDbProxyObject
 90
      499
 91
      503
 93
      249
310
90D312F313622203D2031272D30220000000000002C0FC000000000000284000
  0
ACAD_PROXY_OBJECT
  5
5D
102
{ACAD_REACTORS
330
47
102
}
330
47
100
AcDbProxyObject
 90
      499
 91
      503
 93
      249
310
90D332F333222203D2031272D30220000000000002E0FC000000000000284000
  0
ACAD_PROXY_OBJECT
  5
5E
102
{ACAD_REACTORS
330
47
102
}
330
47
100
AcDbProxyObject
 90
      499
 91
      503
 93
      241
310
90C312F3822203D2031272D3022000000000000300FC000000000000284000
  0
ACAD_PROXY_OBJECT
  5
5F
102
{ACAD_REACTORS
330
47
102
}
330
47
100
AcDbProxyObject
 90
      499
 91
      503
 93
      249
310
90D332F313622203D2031272D3022000000000000320FC000000000000284000
  0
ACAD_PROXY_OBJECT
  5
60
102
{ACAD_REACTORS
330
47
102
}
330
47
100
AcDbProxyObject
 90
      499
 91
      503
 93
      241
310
90C312F3422203D2031272D3022000000000000340FC000000000000284000
  0
ACAD_PROXY_OBJECT
  5
61
102
{ACAD_REACTORS
330
47
102
}
330
47
100
AcDbProxyObject
 90
      499
 91
      503
 93
      241
310
90C332F3822203D2031272D3022000000000000360FC000000000000284000
  0
ACAD_PROXY_OBJECT
  5
62
102
{ACAD_REACTORS
330
47
102
}
330
47
100
AcDbProxyObject
 90
      499
 91
      503
 93
      241
310
90C312F3222203D2031272D3022000000000000380FC000000000000284000
  0
ACAD_PROXY_OBJECT
  5
63
102
{ACAD_REACTORS
330
47
102
}
330
47
100
AcDbProxyObject
 90
      499
 91
      503
 93
      241
310
90C332F3422203D2031272D30220000000000003A0FC000000000000284000
  0
ACAD_PROXY_OBJECT
  5
64
102
{ACAD_REACTORS
330
47
102
}
330
47
100
AcDbProxyObject
 90
      499
 91
      503
 93
      161
310
90A3122203D2031272D30224000000000000284000
  0
ACAD_PROXY_OBJECT
  5
65
102
{ACAD_REACTORS
330
47
102
}
330
47
100
AcDbProxyObject
 90
      499
 91
      503
 93
      257
310
90E312D312F3222203D2031272D30220000000000003E0FC000000000000284000
  0
ACAD_PROXY_OBJECT
  5
66
102
{ACAD_REACTORS
330
47
102
}
330
47
100
AcDbProxyObject
 90
      499
 91
      503
 93
      225
310
90A3322203D2031272D302200000000000002100000000000000284000
  0
ACAD_PROXY_OBJECT
  5
67
102
{ACAD_REACTORS
330
47
102
}
330
47
100
AcDbProxyObject
 90
      499
 91
      503
 93
      225
310
90A3622203D2031272D302200000000000006100000000000000284000
  0
ACAD_PROXY_OBJECT
  5
68
102
{ACAD_REACTORS
330
47
102
}
330
47
100
AcDbProxyObject
 90
      499
 91
      503
 93
      249
310
90D31272D3022203D2031272D30220000000000000A100000000000000284000
  0
ACAD_PROXY_OBJECT
  5
2F
102
{ACAD_REACTORS
330
2A
102
}
330
2A
100
AcDbProxyObject
 90
      499
 91
      501
 93
      436
310
42CC9915DA5C99599C985B595049028333333333333E33F0000000000000F90107901411070040501600405405064090741402480A0340
1001
ACAD
1000
AcDbSavedByObjectVersion
1070
     0
  0
ACAD_PROXY_OBJECT
  5
32
102
{ACAD_REACTORS
330
2A
102
}
330
2A
100
AcDbProxyObject
 90
      499
 91
      501
 93
      388
310
4150985CDA58D07406404333333333333E33F0000000000000F90107A41107004050150841D405064090741402480A0350
1001
ACAD
1000
AcDbSavedByObjectVersion
1070
     0
  0
ACAD_PROXY_OBJECT
  5
36
102
{ACAD_REACTORS
330
2A
102
}
330
2A
100
AcDbProxyObject
 90
      499
 91
      501
 93
      428
310
42109C9A59DA1D195B90C409028333333333333E33F0000000000000F9010790141107004050150841D405064090741402480A029950
1001
ACAD
1000
AcDbSavedByObjectVersion
1070
     0
  0
ACAD_PROXY_OBJECT
  5
3A
102
{ACAD_REACTORS
330
2A
102
}
330
2A
100
AcDbProxyObject
 90
      499
 91
      501
 93
      452
310
42D0DBDB1BDC90DA185B99D95104090240C333333333333E33F0000000000000F90108901411070040501508421405064090741402480A0350
1001
ACAD
1000
AcDbSavedByObjectVersion
1070
     0
  0
ACAD_PROXY_OBJECT
  5
34
102
{ACAD_REACTORS
330
2A
102
}
330
2A
100
AcDbProxyObject
 90
      499
 91
      501
 93
      500
310
4290DBDB98D95C1D1D585B10940D028333333333333E33F0000000000000F90107902409070040501000000000018199010841D405064090740C02480A0340
1001
ACAD
1000
AcDbSavedByObjectVersion
1070
     0
  0
ACAD_PROXY_OBJECT
  5
35
102
{ACAD_REACTORS
330
2A
102
}
330
2A
100
AcDbProxyObject
 90
      499
 91
      501
 93
      412
310
40D11A5B50B409028333333333333E33F0000000000000F9010790141107004050150841D405064090741402480A02677FFFFFD0
1001
ACAD
1000
AcDbSavedByObjectVersion
1070
     0
  0
ACAD_PROXY_OBJECT
  5
3D
102
{ACAD_REACTORS
330
2A
102
}
330
2A
100
AcDbProxyObject
 90
      499
 91
      501
 93
      452
310
43115919D950DBDB1BDC93D999916409028333333333333E33F0000000000000F9010790141107004050150841D405064090741402480A0350
1001
ACAD
1000
AcDbSavedByObjectVersion
1070
     0
  0
ACAD_PROXY_OBJECT
  5
39
102
{ACAD_REACTORS
330
2A
102
}
330
2A
100
AcDbProxyObject
 90
      499
 91
      501
 93
      444
310
42D19858D95C185D1D195C9B90F409028333333333333E33F0000000000000F9010790141107004050150841D405064090741402480A0350
1001
ACAD
1000
AcDbSavedByObjectVersion
1070
     0
  0
ACAD_PROXY_OBJECT
  5
2B
102
{ACAD_REACTORS
330
2A
102
}
330
2A
100
AcDbProxyObject
 90
      499
 91
      501
 93
      380
310
41119B185D240901404333333333333E33F0000000000000F9010740A907004050150841D405064090741402480A1B50
1001
ACAD
1000
AcDbSavedByObjectVersion
1070
     0
  0
ACAD_PROXY_OBJECT
  5
2C
102
{ACAD_REACTORS
330
2A
102
}
330
2A
100
AcDbProxyObject
 90
      499
 91
      501
 93
      468
310
43519B185D15DA5D1A115919D95CD0140901404333333333333E33F0000000000000F90107409019070040501600405405064090741402480A1B50
1001
ACAD
1000
AcDbSavedByObjectVersion
1070
     0
  0
ACAD_PROXY_OBJECT
  5
2D
102
{ACAD_REACTORS
330
2A
102
}
330
2A
100
AcDbProxyObject
 90
      499
 91
      501
 93
      404
310
41D1DBDD5C985D5910240902404333333333333E33F0000000000000F9010740A9070040501641D405064090741402480A1B50
1001
ACAD
1000
AcDbSavedByObjectVersion
1070
     0
  0
ACAD_PROXY_OBJECT
  5
2E
102
{ACAD_REACTORS
330
2A
102
}
330
2A
100
AcDbProxyObject
 90
      499
 91
      501
 93
      492
310
4411DBDD5C985D5915DA5D1A115919D95CD0340902404333333333333E33F0000000000000F90107409019070040501600405405064090741402480A1B50
1001
ACAD
1000
AcDbSavedByObjectVersion
1070
     0
  0
ACAD_PROXY_OBJECT
  5
31
102
{ACAD_REACTORS
330
2A
102
}
330
2A
100
AcDbProxyObject
 90
      499
 91
      501
 93
      476
310
41921A5919195B90640502408333333333333E33F0000000000000F901079024090700405020000000000001110200405405064090740C02480A0340
1001
ACAD
1000
AcDbSavedByObjectVersion
1070
     0
  0
ACAD_PROXY_OBJECT
  5
3B
102
{ACAD_REACTORS
330
2A
102
}
330
2A
100
AcDbProxyObject
 90
      499
 91
      501
 93
      428
310
42529A5D1D195C93D999914409028333333333333E33F0000000000000F9010790141107004050150A41D405064090741402480A0350
1001
ACAD
1000
AcDbSavedByObjectVersion
1070
     0
  0
ACAD_PROXY_OBJECT
  5
38
102
{ACAD_REACTORS
330
2A
102
}
330
2A
100
AcDbProxyObject
 90
      499
 91
      501
 93
      444
310
42D31A5B995C185D1D195C9B90E409028333333333333E33F0000000000000F9010790141107004050750841D405064090741402483A0350
1001
ACAD
1000
AcDbSavedByObjectVersion
1070
     0
  0
ACAD_PROXY_OBJECT
  5
3C
102
{ACAD_REACTORS
330
2A
102
}
330
2A
100
AcDbProxyObject
 90
      499
 91
      501
 93
      444
310
42D3DD995C9A185B99D3D999915409028333333333333E33F0000000000000F9010790141107004050150941D405064090741402480A0350
1001
ACAD
1000
AcDbSavedByObjectVersion
1070
     0
  0
ACAD_PROXY_OBJECT
  5
33
102
{ACAD_REACTORS
330
2A
102
}
330
2A
100
AcDbProxyObject
 90
      499
 91
      501
 93
      428
310
425499585B1A5CDD1A58D08409038333333333333E33F0000000000000F9010740A907004050150800405405064090740C02480A1B40
1001
ACAD
1000
AcDbSavedByObjectVersion
1070
     0
  0
ACAD_PROXY_OBJECT
  5
42
102
{ACAD_REACTORS
330
2A
102
}
330
2A
100
AcDbProxyObject
 90
      499
 91
      501
 93
      420
310
4194DA1859195911B40902404333333333333E33F0000000000000F9010740A41107004050150800405405064090840C02480A0B40
1001
ACAD
1000
AcDbSavedByObjectVersion
1070
     0
  0
ACAD_PROXY_OBJECT
  5
41
102
{ACAD_REACTORS
330
2A
102
}
330
2A
100
AcDbProxyObject
 90
      499
 91
      501
 93
      516
310
4454DA18591959081DDA5D1A08195919D95CD1A40902404333333333333E33F0000000000000F901074090142907004050250800405405064090740C02480A0B40
1001
ACAD
1000
AcDbSavedByObjectVersion
1070
     0
  0
ACAD_PROXY_OBJECT
  5
3E
102
{ACAD_REACTORS
330
2A
102
}
330
2A
100
AcDbProxyObject
 90
      499
 91
      501
 93
      532
310
4394DA1859195CC81BD98811DC985E5174090240C333333333333E33F0000000000000F901079024090741D01000000000000111010841D405064090740C02480A0340
1001
ACAD
1000
AcDbSavedByObjectVersion
1070
     0
  0
ACAD_PROXY_OBJECT
  5
3F
102
{ACAD_REACTORS
330
2A
102
}
330
2A
100
AcDbProxyObject
 90
      499
 91
      501
 93
      476
310
41D4DAD95D18DA1E51840502408333333333333E33F0000000000000F901079024090741D01000000000000111010B41D405064090741802480A0340
1001
ACAD
1000
AcDbSavedByObjectVersion
1070
     0
  0
ACAD_PROXY_OBJECT
  5
37
102
{ACAD_REACTORS
330
2A
102
}
330
2A
100
AcDbProxyObject
 90
      499
 91
      501
 93
      412
310
41D51A1A58DAD95B90D409028333333333333E33F0000000000000F9010790141107004050150C41D405064090741402480A0350
1001
ACAD
1000
AcDbSavedByObjectVersion
1070
     0
  0
ACAD_PROXY_OBJECT
  5
30
102
{ACAD_REACTORS
330
2A
102
}
330
2A
100
AcDbProxyObject
 90
      499
 91
      501
 93
      420
310
4255DA5C99599C985B595059028333333333333E33F0000000000000F90107901411070040501600405405064090740C02480A0340
1001
ACAD
1000
AcDbSavedByObjectVersion
1070
     0
  0
ACAD_PROXY_OBJECT
  5
40
102
{ACAD_REACTORS
330
2A
102
}
330
2A
100
AcDbProxyObject
 90
      499
 91
      501
 93
      404
310
41560B54985E51940902404000000000000E03F0000000000000F9010740501907004050150841D405064090740C02480A1B40
1001
ACAD
1000
AcDbSavedByObjectVersion
1070
     0
  0
XRECORD
  5
4A3
102
{ACAD_REACTORS
330
499
102
}
330
499
100
AcDbXrecord
340
0
  0
XRECORD
  5
4A2
102
{ACAD_REACTORS
330
499
102
}
330
499
100
AcDbXrecord
 90
        0
  0
XRECORD
  5
4B9
102
{ACAD_REACTORS
330
499
102
}
330
499
100
AcDbXrecord
1000
DSTYLE
1002
{
1070
   340
340
11
1002
}
  0
XRECORD
  5
4A4
102
{ACAD_REACTORS
330
499
102
}
330
499
100
AcDbXrecord
  1
{a69ce80a-2917-4260-806c-9d1a902af106}
  0
XRECORD
  5
49C
102
{ACAD_REACTORS
330
499
102
}
330
499
100
AcDbXrecord
  1

  0
XRECORD
  5
4A1
102
{ACAD_REACTORS
330
499
102
}
330
499
100
AcDbXrecord
 90
        4
  0
XRECORD
  5
49E
102
{ACAD_REACTORS
330
499
102
}
330
499
100
AcDbXrecord
340
1A
  0
XRECORD
  5
4A0
102
{ACAD_REACTORS
330
499
102
}
330
499
100
AcDbXrecord
 90
    10781
  0
XRECORD
  5
49F
102
{ACAD_REACTORS
330
499
102
}
330
499
100
AcDbXrecord
340
19
  0
XRECORD
  5
4A6
102
{ACAD_REACTORS
330
499
102
}
330
499
100
AcDbXrecord
 40
0.0
  0
XRECORD
  5
4A9
102
{ACAD_REACTORS
330
499
102
}
330
499
100
AcDbXrecord
340
0
  0
XRECORD
  5
4AF
102
{ACAD_REACTORS
330
499
102
}
330
499
100
AcDbXrecord
 10
0.0
 20
0.0
 30
0.0
  0
XRECORD
  5
4AB
102
{ACAD_REACTORS
330
499
102
}
330
499
100
AcDbXrecord
 10
0.0
 20
0.0
 30
0.0
  0
XRECORD
  5
4AE
102
{ACAD_REACTORS
330
499
102
}
330
499
100
AcDbXrecord
 10
0.0
 20
0.0
 30
0.0
  0
XRECORD
  5
4AC
102
{ACAD_REACTORS
330
499
102
}
330
499
100
AcDbXrecord
 10
0.0
 20
0.0
 30
0.0
  0
XRECORD
  5
4AD
102
{ACAD_REACTORS
330
499
102
}
330
499
100
AcDbXrecord
 10
0.0
 20
0.0
 30
0.0
  0
XRECORD
  5
4AA
102
{ACAD_REACTORS
330
499
102
}
330
499
100
AcDbXrecord
 10
0.0
 20
0.0
 30
0.0
  0
XRECORD
  5
4A7
102
{ACAD_REACTORS
330
499
102
}
330
499
100
AcDbXrecord
340
0
  0
XRECORD
  5
4A8
102
{ACAD_REACTORS
330
499
102
}
330
499
100
AcDbXrecord
 70
     0
  0
XRECORD
  5
49D
102
{ACAD_REACTORS
330
499
102
}
330
499
100
AcDbXrecord
  1

  0
XRECORD
  5
49A
102
{ACAD_REACTORS
330
499
102
}
330
499
100
AcDbXrecord
 90
        1
  0
XRECORD
  5
49B
102
{ACAD_REACTORS
330
499
102
}
330
499
100
AcDbXrecord
 90
       70
  0
XRECORD
  5
4B2
102
{ACAD_REACTORS
330
499
102
}
330
499
100
AcDbXrecord
340
0
  0
XRECORD
  5
4B8
102
{ACAD_REACTORS
330
499
102
}
330
499
100
AcDbXrecord
 10
0.0
 20
0.0
 30
0.0
  0
XRECORD
  5
4B4
102
{ACAD_REACTORS
330
499
102
}
330
499
100
AcDbXrecord
 10
0.0
 20
0.0
 30
0.0
  0
XRECORD
  5
4B7
102
{ACAD_REACTORS
330
499
102
}
330
499
100
AcDbXrecord
 10
0.0
 20
0.0
 30
0.0
  0
XRECORD
  5
4B5
102
{ACAD_REACTORS
330
499
102
}
330
499
100
AcDbXrecord
 10
0.0
 20
0.0
 30
0.0
  0
XRECORD
  5
4B6
102
{ACAD_REACTORS
330
499
102
}
330
499
100
AcDbXrecord
 10
0.0
 20
0.0
 30
0.0
  0
XRECORD
  5
4B3
102
{ACAD_REACTORS
330
499
102
}
330
499
100
AcDbXrecord
 10
0.0
 20
0.0
 30
0.0
  0
XRECORD
  5
4B0
102
{ACAD_REACTORS
330
499
102
}
330
499
100
AcDbXrecord
340
0
  0
XRECORD
  5
4B1
102
{ACAD_REACTORS
330
499
102
}
330
499
100
AcDbXrecord
 70
     0
  0
XRECORD
  5
4A5
102
{ACAD_REACTORS
330
499
102
}
330
499
100
AcDbXrecord
  1
{FAEB1C32-E019-11D5-929B-00C0DF256EC4}
  0
DICTIONARYVAR
  5
4C7
102
{ACAD_REACTORS
330
4BA
102
}
330
4BA
100
DictionaryVariables
280
     0
  1
1:1
  0
DICTIONARYVAR
  5
4C1
102
{ACAD_REACTORS
330
4BA
102
}
330
4BA
100
DictionaryVariables
280
     0
  1
3.500000
  0
DICTIONARYVAR
  5
4C2
102
{ACAD_REACTORS
330
4BA
102
}
330
4BA
100
DictionaryVariables
280
     0
  1
acadiso.lin
  0
DICTIONARYVAR
  5
4BC
102
{ACAD_REACTORS
330
4BA
102
}
330
4BA
100
DictionaryVariables
280
     0
  1
Standard
  0
DICTIONARYVAR
  5
4BB
102
{ACAD_REACTORS
330
4BA
102
}
330
4BA
100
DictionaryVariables
280
     0
  1
Standard
  0
DICTIONARYVAR
  5
4C3
102
{ACAD_REACTORS
330
4BA
102
}
330
4BA
100
DictionaryVariables
280
     0
  1
2
  0
DICTIONARYVAR
  5
4C4
102
{ACAD_REACTORS
330
4BA
102
}
330
4BA
100
DictionaryVariables
280
     0
  1
1
  0
DICTIONARYVAR
  5
4C8
102
{ACAD_REACTORS
330
4BA
102
}
330
4BA
100
DictionaryVariables
280
     0
  1
1
  0
DICTIONARYVAR
  5
4BE
102
{ACAD_REACTORS
330
4BA
102
}
330
4BA
100
DictionaryVariables
280
     0
  1
80.000000
  0
DICTIONARYVAR
  5
4BD
102
{ACAD_REACTORS
330
4BA
102
}
330
4BA
100
DictionaryVariables
280
     0
  1
5.000000
  0
DICTIONARY
  5
4CB
330
45
100
AcDbDictionary
280
     1
  3
ACAD_XREC_ROUNDTRIP
360
4CC
  0
DICTIONARY
  5
4C9
330
44
100
AcDbDictionary
280
     1
  3
ACAD_XREC_ROUNDTRIP
360
4CA
  0
DICTIONARY
  5
4CD
330
46
100
AcDbDictionary
280
     1
  3
ACAD_XREC_ROUNDTRIP
360
4CE
  0
XRECORD
  5
4CC
102
{ACAD_REACTORS
330
4CB
102
}
330
4CB
100
AcDbXrecord
102
MATERIAL
148
0.0
149
0.0
149
0.0
 93
        0
 94
      127
282
     0
 72
     1
 77
     1
171
     1
175
     1
179
     1
273
     0
  0
XRECORD
  5
4CA
102
{ACAD_REACTORS
330
4C9
102
}
330
4C9
100
AcDbXrecord
102
MATERIAL
148
0.0
149
0.0
149
0.0
 93
        0
 94
      127
282
     0
 72
     1
 77
     1
171
     1
175
     1
179
     1
273
     0
  0
XRECORD
  5
4CE
102
{ACAD_REACTORS
330
4CD
102
}
330
4CD
100
AcDbXrecord
102
MATERIAL
148
0.0
149
0.0
149
0.0
 93
        0
 94
      127
282
     0
 72
     1
 77
     1
171
     1
175
     1
179
     1
273
     0
  0
ENDSEC
  0
EOF
