ISO-10303-21;
HEADER;
FILE_DESCRIPTION (( 'STEP AP214' ),
    '1' );
FILE_NAME ('testfuerforum.STEP',
    '2016-10-07T07:23:43',
    ( '' ),
    ( '' ),
    'SwSTEP 2.0',
    'SolidWorks 2015',
    '' );
FILE_SCHEMA (( 'AUTOMOTIVE_DESIGN' ));
ENDSEC;

DATA;
#1 = CARTESIAN_POINT ( 'NONE',  ( -98.42143536845581800, 36.00000000000000700, 0.0000000000000000000 ) ) ;
#2 = EDGE_LOOP ( 'NONE', ( #278, #206, #3, #174 ) ) ;
#3 = ORIENTED_EDGE ( 'NONE', *, *, #330, .F. ) ;
#4 = EDGE_LOOP ( 'NONE', ( #271, #230, #78, #221 ) ) ;
#5 = UNCERTAINTY_MEASURE_WITH_UNIT (LENGTH_MEASURE( 1.000000000000000100E-005 ), #357, 'distance_accuracy_value', 'NONE');
#6 = EDGE_CURVE ( 'NONE', #162, #199, #191, .T. ) ;
#7 = DIRECTION ( 'NONE',  ( 1.000000000000000000, 0.0000000000000000000, 0.0000000000000000000 ) ) ;
#8 = CARTESIAN_POINT ( 'NONE',  ( 0.0000000000000000000, 36.00000000000000700, 0.0000000000000000000 ) ) ;
#9 = VECTOR ( 'NONE', #151, 1000.000000000000000 ) ;
#10 = CARTESIAN_POINT ( 'NONE',  ( 0.0000000000000000000, 0.0000000000000000000, 0.0000000000000000000 ) ) ;
#11 = STYLED_ITEM ( 'NONE', ( #59 ), #137 ) ;
#12 = ADVANCED_FACE ( 'NONE', ( #258 ), #235, .F. ) ;
#13 = APPLICATION_CONTEXT ( 'automotive_design' ) ;
#14 = LINE ( 'NONE', #286, #62 ) ;
#15 = ORIENTED_EDGE ( 'NONE', *, *, #239, .T. ) ;
#16 = PRODUCT_DEFINITION_FORMATION_WITH_SPECIFIED_SOURCE ( 'ANY', '', #160, .NOT_KNOWN. ) ;
#17 = ADVANCED_FACE ( 'NONE', ( #320 ), #344, .T. ) ;
#18 = PRESENTATION_LAYER_ASSIGNMENT (  '', '', ( #362 ) ) ;
#19 = CARTESIAN_POINT ( 'NONE',  ( -98.42143536845581800, 36.00000000000000700, -40.19366402472267200 ) ) ;
#20 = EDGE_CURVE ( 'NONE', #167, #185, #133, .T. ) ;
#21 = SURFACE_STYLE_FILL_AREA ( #309 ) ;
#22 = VECTOR ( 'NONE', #28, 1000.000000000000000 ) ;
#23 = VECTOR ( 'NONE', #75, 1000.000000000000000 ) ;
#24 = LINE ( 'NONE', #201, #22 ) ;
#25 = ORIENTED_EDGE ( 'NONE', *, *, #349, .T. ) ;
#26 = CARTESIAN_POINT ( 'NONE',  ( 0.0000000000000000000, 36.00000000000000700, 0.0000000000000000000 ) ) ;
#27 = EDGE_CURVE ( 'NONE', #119, #136, #14, .T. ) ;
#28 = DIRECTION ( 'NONE',  ( 0.0000000000000000000, 0.0000000000000000000, 1.000000000000000000 ) ) ;
#29 = DIRECTION ( 'NONE',  ( -1.000000000000000000, 0.0000000000000000000, -0.0000000000000000000 ) ) ;
#30 = VECTOR ( 'NONE', #279, 1000.000000000000000 ) ;
#31 = AXIS2_PLACEMENT_3D ( 'NONE', #308, #100, #144 ) ;
#32 = PLANE ( 'NONE',  #143 ) ;
#33 = VECTOR ( 'NONE', #339, 1000.000000000000000 ) ;
#34 =( NAMED_UNIT ( * ) PLANE_ANGLE_UNIT ( ) SI_UNIT ( $, .RADIAN. ) );
#35 = ORIENTED_EDGE ( 'NONE', *, *, #20, .F. ) ;
#36 = DIRECTION ( 'NONE',  ( 0.0000000000000000000, -0.0000000000000000000, 1.000000000000000000 ) ) ;
#37 = CARTESIAN_POINT ( 'NONE',  ( -98.42143536845581800, 0.0000000000000000000, 0.0000000000000000000 ) ) ;
#38 = PRODUCT_RELATED_PRODUCT_CATEGORY ( 'part', '', ( #160 ) ) ;
#39 = VECTOR ( 'NONE', #223, 1000.000000000000000 ) ;
#40 = MECHANICAL_DESIGN_GEOMETRIC_PRESENTATION_REPRESENTATION (  '', ( #362 ), #64 ) ;
#41 = DIRECTION ( 'NONE',  ( -0.0000000000000000000, -1.000000000000000000, -0.0000000000000000000 ) ) ;
#42 = SURFACE_STYLE_FILL_AREA ( #343 ) ;
#43 = LINE ( 'NONE', #1, #33 ) ;
#44 = VERTEX_POINT ( 'NONE', #168 ) ;
#45 = EDGE_LOOP ( 'NONE', ( #346, #249, #120, #54 ) ) ;
#46 = DIRECTION ( 'NONE',  ( 1.000000000000000000, 0.0000000000000000000, 0.0000000000000000000 ) ) ;
#47 =( LENGTH_UNIT ( ) NAMED_UNIT ( * ) SI_UNIT ( .MILLI., .METRE. ) );
#48 = ADVANCED_FACE ( 'NONE', ( #138 ), #87, .F. ) ;
#49 = VECTOR ( 'NONE', #98, 1000.000000000000000 ) ;
#50 = EDGE_CURVE ( 'NONE', #238, #176, #175, .T. ) ;
#51 = PRESENTATION_LAYER_ASSIGNMENT (  '', '', ( #11 ) ) ;
#52 = VECTOR ( 'NONE', #298, 1000.000000000000000 ) ;
#53 = VECTOR ( 'NONE', #7, 1000.000000000000000 ) ;
#54 = ORIENTED_EDGE ( 'NONE', *, *, #269, .F. ) ;
#55 = LINE ( 'NONE', #267, #132 ) ;
#56 = EDGE_CURVE ( 'NONE', #327, #238, #104, .T. ) ;
#57 = EDGE_LOOP ( 'NONE', ( #109, #99, #165, #359 ) ) ;
#58 = CARTESIAN_POINT ( 'NONE',  ( 130.7644535940113400, -41.25582010323114400, 36.00000000000000700 ) ) ;
#59 = PRESENTATION_STYLE_ASSIGNMENT (( #306 ) ) ;
#60 = EDGE_CURVE ( 'NONE', #218, #119, #55, .T. ) ;
#61 =( LENGTH_UNIT ( ) NAMED_UNIT ( * ) SI_UNIT ( .MILLI., .METRE. ) );
#62 = VECTOR ( 'NONE', #124, 1000.000000000000000 ) ;
#63 = DIRECTION ( 'NONE',  ( 0.0000000000000000000, -0.0000000000000000000, 1.000000000000000000 ) ) ;
#64 =( GEOMETRIC_REPRESENTATION_CONTEXT ( 3 ) GLOBAL_UNCERTAINTY_ASSIGNED_CONTEXT ( ( #150 ) ) GLOBAL_UNIT_ASSIGNED_CONTEXT ( ( #47, #333, #291 ) ) REPRESENTATION_CONTEXT ( 'NONE', 'WORKASPACE' ) );
#65 = CARTESIAN_POINT ( 'NONE',  ( 32.09953267052867400, -41.25582010323114400, 36.00000000000000700 ) ) ;
#66 = DIRECTION ( 'NONE',  ( -1.000000000000000000, -0.0000000000000000000, -0.0000000000000000000 ) ) ;
#67 = LINE ( 'NONE', #302, #52 ) ;
#68 = PLANE ( 'NONE',  #275 ) ;
#69 = VERTEX_POINT ( 'NONE', #361 ) ;
#70 = PLANE ( 'NONE',  #352 ) ;
#71 = SURFACE_STYLE_USAGE ( .BOTH. , #285 ) ;
#72 = CARTESIAN_POINT ( 'NONE',  ( 32.09953267052867400, 32.34716671306614400, 0.0000000000000000000 ) ) ;
#73 = ORIENTED_EDGE ( 'NONE', *, *, #292, .F. ) ;
#74 = EDGE_CURVE ( 'NONE', #264, #199, #231, .T. ) ;
#75 = DIRECTION ( 'NONE',  ( 1.000000000000000000, 0.0000000000000000000, 0.0000000000000000000 ) ) ;
#76 = VECTOR ( 'NONE', #180, 1000.000000000000000 ) ;
#77 = MECHANICAL_DESIGN_GEOMETRIC_PRESENTATION_REPRESENTATION (  '', ( #11 ), #93 ) ;
#78 = ORIENTED_EDGE ( 'NONE', *, *, #60, .F. ) ;
#79 = LINE ( 'NONE', #169, #30 ) ;
#80 = ORIENTED_EDGE ( 'NONE', *, *, #219, .T. ) ;
#81 = ADVANCED_FACE ( 'NONE', ( #152 ), #68, .F. ) ;
#82 = UNCERTAINTY_MEASURE_WITH_UNIT (LENGTH_MEASURE( 1.000000000000000100E-005 ), #90, 'distance_accuracy_value', 'NONE');
#83 = VECTOR ( 'NONE', #66, 1000.000000000000000 ) ;
#84 = CARTESIAN_POINT ( 'NONE',  ( 32.09953267052867400, 32.34716671306614400, 36.00000000000000700 ) ) ;
#85 = ORIENTED_EDGE ( 'NONE', *, *, #300, .F. ) ;
#86 = ORIENTED_EDGE ( 'NONE', *, *, #60, .T. ) ;
#87 = PLANE ( 'NONE',  #122 ) ;
#88 = ORIENTED_EDGE ( 'NONE', *, *, #6, .T. ) ;
#89 = PLANE ( 'NONE',  #323 ) ;
#90 =( LENGTH_UNIT ( ) NAMED_UNIT ( * ) SI_UNIT ( .MILLI., .METRE. ) );
#91 = LINE ( 'NONE', #207, #9 ) ;
#92 = CARTESIAN_POINT ( 'NONE',  ( 130.7644535940113400, -41.25582010323114400, 36.00000000000000700 ) ) ;
#93 =( GEOMETRIC_REPRESENTATION_CONTEXT ( 3 ) GLOBAL_UNCERTAINTY_ASSIGNED_CONTEXT ( ( #82 ) ) GLOBAL_UNIT_ASSIGNED_CONTEXT ( ( #90, #220, #242 ) ) REPRESENTATION_CONTEXT ( 'NONE', 'WORKASPACE' ) );
#94 = DIRECTION ( 'NONE',  ( 0.0000000000000000000, 1.000000000000000000, 0.0000000000000000000 ) ) ;
#95 = CARTESIAN_POINT ( 'NONE',  ( 0.0000000000000000000, 36.00000000000000700, -40.19366402472267200 ) ) ;
#96 = ORIENTED_EDGE ( 'NONE', *, *, #314, .F. ) ;
#97 = ORIENTED_EDGE ( 'NONE', *, *, #252, .T. ) ;
#98 = DIRECTION ( 'NONE',  ( -0.0000000000000000000, -1.000000000000000000, -0.0000000000000000000 ) ) ;
#99 = ORIENTED_EDGE ( 'NONE', *, *, #166, .F. ) ;
#100 = DIRECTION ( 'NONE',  ( 0.0000000000000000000, 0.0000000000000000000, -1.000000000000000000 ) ) ;
#101 = CARTESIAN_POINT ( 'NONE',  ( -98.42143536845581800, 36.00000000000000700, 0.0000000000000000000 ) ) ;
#102 = DIRECTION ( 'NONE',  ( 0.0000000000000000000, 0.0000000000000000000, -1.000000000000000000 ) ) ;
#103 = COLOUR_RGB ( '',0.7921568627450980000, 0.8196078431372548800, 0.9333333333333333500 ) ;
#104 = LINE ( 'NONE', #121, #39 ) ;
#105 = ORIENTED_EDGE ( 'NONE', *, *, #330, .T. ) ;
#106 = ORIENTED_EDGE ( 'NONE', *, *, #50, .T. ) ;
#107 = ADVANCED_FACE ( 'NONE', ( #259 ), #246, .F. ) ;
#108 = PRESENTATION_STYLE_ASSIGNMENT (( #71 ) ) ;
#109 = ORIENTED_EDGE ( 'NONE', *, *, #128, .F. ) ;
#110 = DIRECTION ( 'NONE',  ( 0.0000000000000000000, 1.000000000000000000, 0.0000000000000000000 ) ) ;
#111 = ORIENTED_EDGE ( 'NONE', *, *, #296, .T. ) ;
#112 = DIRECTION ( 'NONE',  ( 0.0000000000000000000, 0.0000000000000000000, -1.000000000000000000 ) ) ;
#113 = EDGE_CURVE ( 'NONE', #167, #176, #79, .T. ) ;
#114 = DIRECTION ( 'NONE',  ( 1.000000000000000000, 0.0000000000000000000, -0.0000000000000000000 ) ) ;
#115 = SURFACE_SIDE_STYLE ('',( #288 ) ) ;
#116 = CARTESIAN_POINT ( 'NONE',  ( 130.7644535940113400, -41.25582010323114400, 0.0000000000000000000 ) ) ;
#117 = LINE ( 'NONE', #254, #324 ) ;
#118 = SURFACE_SIDE_STYLE ('',( #21 ) ) ;
#119 = VERTEX_POINT ( 'NONE', #281 ) ;
#120 = ORIENTED_EDGE ( 'NONE', *, *, #355, .F. ) ;
#121 = CARTESIAN_POINT ( 'NONE',  ( 32.09953267052867400, 32.34716671306614400, 36.00000000000000700 ) ) ;
#122 = AXIS2_PLACEMENT_3D ( 'NONE', #331, #304, #114 ) ;
#123 =( NAMED_UNIT ( * ) SI_UNIT ( $, .STERADIAN. ) SOLID_ANGLE_UNIT ( ) );
#124 = DIRECTION ( 'NONE',  ( -0.0000000000000000000, -1.000000000000000000, -0.0000000000000000000 ) ) ;
#125 = ADVANCED_FACE ( 'NONE', ( #350 ), #70, .F. ) ;
#126 = SHAPE_DEFINITION_REPRESENTATION ( #340, #195 ) ;
#127 = ORIENTED_EDGE ( 'NONE', *, *, #322, .F. ) ;
#128 = EDGE_CURVE ( 'NONE', #136, #264, #24, .T. ) ;
#129 = ADVANCED_FACE ( 'NONE', ( #154 ), #172, .F. ) ;
#130 = VECTOR ( 'NONE', #274, 1000.000000000000000 ) ;
#131 = VECTOR ( 'NONE', #163, 1000.000000000000000 ) ;
#132 = VECTOR ( 'NONE', #336, 1000.000000000000000 ) ;
#133 = LINE ( 'NONE', #255, #23 ) ;
#134 = FILL_AREA_STYLE_COLOUR ( '', #103 ) ;
#135 = DIRECTION ( 'NONE',  ( 1.000000000000000000, 0.0000000000000000000, 0.0000000000000000000 ) ) ;
#136 = VERTEX_POINT ( 'NONE', #171 ) ;
#137 = MANIFOLD_SOLID_BREP ( 'Aufsatz-Linear austragen2', #148 ) ;
#138 = FACE_OUTER_BOUND ( 'NONE', #4, .T. ) ;
#139 = DIRECTION ( 'NONE',  ( -1.000000000000000000, -0.0000000000000000000, -0.0000000000000000000 ) ) ;
#140 = CARTESIAN_POINT ( 'NONE',  ( -98.42143536845581800, 36.00000000000000700, 0.0000000000000000000 ) ) ;
#141 = DIRECTION ( 'NONE',  ( -0.0000000000000000000, -0.0000000000000000000, -1.000000000000000000 ) ) ;
#142 = LINE ( 'NONE', #161, #131 ) ;
#143 = AXIS2_PLACEMENT_3D ( 'NONE', #358, #135, #112 ) ;
#144 = DIRECTION ( 'NONE',  ( -1.000000000000000000, 0.0000000000000000000, -0.0000000000000000000 ) ) ;
#145 = APPLICATION_CONTEXT ( 'automotive_design' ) ;
#146 = CARTESIAN_POINT ( 'NONE',  ( 32.09953267052867400, -41.25582010323114400, 0.0000000000000000000 ) ) ;
#147 = CARTESIAN_POINT ( 'NONE',  ( 0.0000000000000000000, 0.0000000000000000000, 0.0000000000000000000 ) ) ;
#148 = CLOSED_SHELL ( 'NONE', ( #107, #12, #213, #81, #129, #17 ) ) ;
#149 = ORIENTED_EDGE ( 'NONE', *, *, #20, .T. ) ;
#150 = UNCERTAINTY_MEASURE_WITH_UNIT (LENGTH_MEASURE( 1.000000000000000100E-005 ), #47, 'distance_accuracy_value', 'NONE');
#151 = DIRECTION ( 'NONE',  ( 1.000000000000000000, 0.0000000000000000000, 0.0000000000000000000 ) ) ;
#152 = FACE_OUTER_BOUND ( 'NONE', #325, .T. ) ;
#153 = LINE ( 'NONE', #307, #83 ) ;
#154 = FACE_OUTER_BOUND ( 'NONE', #289, .T. ) ;
#155 = EDGE_LOOP ( 'NONE', ( #106, #348, #96, #240 ) ) ;
#156 = ORIENTED_EDGE ( 'NONE', *, *, #113, .T. ) ;
#157 = EDGE_LOOP ( 'NONE', ( #321, #335, #85, #15 ) ) ;
#158 = STYLED_ITEM ( 'NONE', ( #108 ), #260 ) ;
#159 = ADVANCED_FACE ( 'NONE', ( #353 ), #32, .F. ) ;
#160 = PRODUCT ( 'testfuerforum', 'testfuerforum', '', ( #212 ) ) ;
#161 = CARTESIAN_POINT ( 'NONE',  ( 32.09953267052867400, 32.34716671306614400, 0.0000000000000000000 ) ) ;
#162 = VERTEX_POINT ( 'NONE', #26 ) ;
#163 = DIRECTION ( 'NONE',  ( -1.000000000000000000, -0.0000000000000000000, -0.0000000000000000000 ) ) ;
#164 = DIRECTION ( 'NONE',  ( -0.0000000000000000000, -0.0000000000000000000, -1.000000000000000000 ) ) ;
#165 = ORIENTED_EDGE ( 'NONE', *, *, #252, .F. ) ;
#166 = EDGE_CURVE ( 'NONE', #44, #136, #181, .T. ) ;
#167 = VERTEX_POINT ( 'NONE', #65 ) ;
#168 = CARTESIAN_POINT ( 'NONE',  ( 0.0000000000000000000, 0.0000000000000000000, -40.19366402472267200 ) ) ;
#169 = CARTESIAN_POINT ( 'NONE',  ( 32.09953267052867400, -41.25582010323114400, 36.00000000000000700 ) ) ;
#170 = CARTESIAN_POINT ( 'NONE',  ( 0.0000000000000000000, 36.00000000000000700, -40.19366402472267200 ) ) ;
#171 = CARTESIAN_POINT ( 'NONE',  ( -98.42143536845581800, 0.0000000000000000000, -40.19366402472267200 ) ) ;
#172 = PLANE ( 'NONE',  #31 ) ;
#173 = APPLICATION_PROTOCOL_DEFINITION ( 'draft international standard', 'automotive_design', 1998, #145 ) ;
#174 = ORIENTED_EDGE ( 'NONE', *, *, #27, .T. ) ;
#175 = LINE ( 'NONE', #146, #49 ) ;
#176 = VERTEX_POINT ( 'NONE', #301 ) ;
#177 = DIRECTION ( 'NONE',  ( -0.0000000000000000000, -0.0000000000000000000, -1.000000000000000000 ) ) ;
#178 = AXIS2_PLACEMENT_3D ( 'NONE', #92, #196, #366 ) ;
#179 = CARTESIAN_POINT ( 'NONE',  ( 32.09953267052867400, -41.25582010323114400, 36.00000000000000700 ) ) ;
#180 = DIRECTION ( 'NONE',  ( 1.000000000000000000, 0.0000000000000000000, 0.0000000000000000000 ) ) ;
#181 = LINE ( 'NONE', #203, #338 ) ;
#182 = AXIS2_PLACEMENT_3D ( 'NONE', #140, #224, #29 ) ;
#183 = LINE ( 'NONE', #226, #247 ) ;
#184 = ORIENTED_EDGE ( 'NONE', *, *, #355, .T. ) ;
#185 = VERTEX_POINT ( 'NONE', #243 ) ;
#186 = APPLICATION_PROTOCOL_DEFINITION ( 'draft international standard', 'automotive_design', 1998, #13 ) ;
#187 = ORIENTED_EDGE ( 'NONE', *, *, #292, .T. ) ;
#188 = ADVANCED_FACE ( 'NONE', ( #262 ), #332, .F. ) ;
#189 = COLOUR_RGB ( '',0.7921568627450980000, 0.8196078431372548800, 0.9333333333333333500 ) ;
#190 = PRODUCT_DEFINITION_CONTEXT ( 'detailed design', #13, 'design' ) ;
#191 = LINE ( 'NONE', #208, #250 ) ;
#192 = PRESENTATION_LAYER_ASSIGNMENT (  '', '', ( #158 ) ) ;
#193 = FILL_AREA_STYLE_COLOUR ( '', #364 ) ;
#194 = LINE ( 'NONE', #170, #130 ) ;
#195 = ADVANCED_BREP_SHAPE_REPRESENTATION ( 'testfuerforum', ( #260, #137, #341 ), #305 ) ;
#196 = DIRECTION ( 'NONE',  ( -1.000000000000000000, 0.0000000000000000000, 0.0000000000000000000 ) ) ;
#197 = LINE ( 'NONE', #356, #257 ) ;
#198 = DIRECTION ( 'NONE',  ( 0.0000000000000000000, 0.0000000000000000000, -1.000000000000000000 ) ) ;
#199 = VERTEX_POINT ( 'NONE', #363 ) ;
#200 = EDGE_LOOP ( 'NONE', ( #97, #282, #266, #88 ) ) ;
#201 = CARTESIAN_POINT ( 'NONE',  ( -98.42143536845581800, 0.0000000000000000000, -40.19366402472267200 ) ) ;
#202 =( NAMED_UNIT ( * ) SI_UNIT ( $, .STERADIAN. ) SOLID_ANGLE_UNIT ( ) );
#203 = CARTESIAN_POINT ( 'NONE',  ( -98.42143536845581800, 0.0000000000000000000, -40.19366402472267200 ) ) ;
#204 = EDGE_CURVE ( 'NONE', #218, #44, #194, .T. ) ;
#205 = UNCERTAINTY_MEASURE_WITH_UNIT (LENGTH_MEASURE( 1.000000000000000100E-005 ), #61, 'distance_accuracy_value', 'NONE');
#206 = ORIENTED_EDGE ( 'NONE', *, *, #239, .F. ) ;
#207 = CARTESIAN_POINT ( 'NONE',  ( 32.09953267052867400, -41.25582010323114400, 0.0000000000000000000 ) ) ;
#208 = CARTESIAN_POINT ( 'NONE',  ( 0.0000000000000000000, 36.00000000000000700, 0.0000000000000000000 ) ) ;
#209 = VECTOR ( 'NONE', #217, 1000.000000000000000 ) ;
#210 = ORIENTED_EDGE ( 'NONE', *, *, #322, .T. ) ;
#211 = CARTESIAN_POINT ( 'NONE',  ( 0.0000000000000000000, 0.0000000000000000000, 0.0000000000000000000 ) ) ;
#212 = PRODUCT_CONTEXT ( 'NONE', #145, 'mechanical' ) ;
#213 = ADVANCED_FACE ( 'NONE', ( #272 ), #244, .F. ) ;
#214 = VERTEX_POINT ( 'NONE', #116 ) ;
#215 = MECHANICAL_DESIGN_GEOMETRIC_PRESENTATION_REPRESENTATION (  '', ( #158 ), #234 ) ;
#216 = LINE ( 'NONE', #58, #225 ) ;
#217 = DIRECTION ( 'NONE',  ( -0.0000000000000000000, -1.000000000000000000, -0.0000000000000000000 ) ) ;
#218 = VERTEX_POINT ( 'NONE', #253 ) ;
#219 = EDGE_CURVE ( 'NONE', #185, #214, #183, .T. ) ;
#220 =( NAMED_UNIT ( * ) PLANE_ANGLE_UNIT ( ) SI_UNIT ( $, .RADIAN. ) );
#221 = ORIENTED_EDGE ( 'NONE', *, *, #204, .T. ) ;
#222 = CARTESIAN_POINT ( 'NONE',  ( 32.09953267052867400, -41.25582010323114400, 36.00000000000000700 ) ) ;
#223 = DIRECTION ( 'NONE',  ( -0.0000000000000000000, -0.0000000000000000000, -1.000000000000000000 ) ) ;
#224 = DIRECTION ( 'NONE',  ( 0.0000000000000000000, 0.0000000000000000000, -1.000000000000000000 ) ) ;
#225 = VECTOR ( 'NONE', #265, 1000.000000000000000 ) ;
#226 = CARTESIAN_POINT ( 'NONE',  ( 130.7644535940113400, -41.25582010323114400, 36.00000000000000700 ) ) ;
#227 = CARTESIAN_POINT ( 'NONE',  ( 32.09953267052867400, -41.25582010323114400, 36.00000000000000700 ) ) ;
#228 = DIRECTION ( 'NONE',  ( -1.000000000000000000, 0.0000000000000000000, 0.0000000000000000000 ) ) ;
#229 = CARTESIAN_POINT ( 'NONE',  ( -98.42143536845581800, 36.00000000000000700, 0.0000000000000000000 ) ) ;
#230 = ORIENTED_EDGE ( 'NONE', *, *, #27, .F. ) ;
#231 = LINE ( 'NONE', #329, #53 ) ;
#232 = VERTEX_POINT ( 'NONE', #101 ) ;
#233 = PLANE ( 'NONE',  #284 ) ;
#234 =( GEOMETRIC_REPRESENTATION_CONTEXT ( 3 ) GLOBAL_UNCERTAINTY_ASSIGNED_CONTEXT ( ( #205 ) ) GLOBAL_UNIT_ASSIGNED_CONTEXT ( ( #61, #270, #123 ) ) REPRESENTATION_CONTEXT ( 'NONE', 'WORKASPACE' ) );
#235 = PLANE ( 'NONE',  #295 ) ;
#236 = ORIENTED_EDGE ( 'NONE', *, *, #219, .F. ) ;
#237 = DIRECTION ( 'NONE',  ( 0.0000000000000000000, 0.0000000000000000000, 1.000000000000000000 ) ) ;
#238 = VERTEX_POINT ( 'NONE', #72 ) ;
#239 = EDGE_CURVE ( 'NONE', #232, #264, #43, .T. ) ;
#240 = ORIENTED_EDGE ( 'NONE', *, *, #56, .T. ) ;
#241 = CARTESIAN_POINT ( 'NONE',  ( 32.09953267052867400, 32.34716671306614400, 36.00000000000000700 ) ) ;
#242 =( NAMED_UNIT ( * ) SI_UNIT ( $, .STERADIAN. ) SOLID_ANGLE_UNIT ( ) );
#243 = CARTESIAN_POINT ( 'NONE',  ( 130.7644535940113400, -41.25582010323114400, 36.00000000000000700 ) ) ;
#244 = PLANE ( 'NONE',  #178 ) ;
#245 = AXIS2_PLACEMENT_3D ( 'NONE', #10, #102, #317 ) ;
#246 = PLANE ( 'NONE',  #318 ) ;
#247 = VECTOR ( 'NONE', #141, 1000.000000000000000 ) ;
#248 = DIRECTION ( 'NONE',  ( 0.0000000000000000000, -1.000000000000000000, 0.0000000000000000000 ) ) ;
#249 = ORIENTED_EDGE ( 'NONE', *, *, #334, .F. ) ;
#250 = VECTOR ( 'NONE', #41, 1000.000000000000000 ) ;
#251 = DIRECTION ( 'NONE',  ( 0.0000000000000000000, -0.0000000000000000000, -1.000000000000000000 ) ) ;
#252 = EDGE_CURVE ( 'NONE', #199, #44, #117, .T. ) ;
#253 = CARTESIAN_POINT ( 'NONE',  ( 0.0000000000000000000, 36.00000000000000700, -40.19366402472267200 ) ) ;
#254 = CARTESIAN_POINT ( 'NONE',  ( 0.0000000000000000000, 0.0000000000000000000, -40.19366402472267200 ) ) ;
#255 = CARTESIAN_POINT ( 'NONE',  ( 32.09953267052867400, -41.25582010323114400, 36.00000000000000700 ) ) ;
#256 = PRESENTATION_STYLE_ASSIGNMENT (( #280 ) ) ;
#257 = VECTOR ( 'NONE', #110, 1000.000000000000000 ) ;
#258 = FACE_OUTER_BOUND ( 'NONE', #311, .T. ) ;
#259 = FACE_OUTER_BOUND ( 'NONE', #155, .T. ) ;
#260 = MANIFOLD_SOLID_BREP ( 'Aufsatz-Linear austragen1', #354 ) ;
#261 = ADVANCED_FACE ( 'NONE', ( #315 ), #233, .F. ) ;
#262 = FACE_OUTER_BOUND ( 'NONE', #157, .T. ) ;
#263 = VECTOR ( 'NONE', #328, 1000.000000000000000 ) ;
#264 = VERTEX_POINT ( 'NONE', #37 ) ;
#265 = DIRECTION ( 'NONE',  ( 0.0000000000000000000, 1.000000000000000000, 0.0000000000000000000 ) ) ;
#266 = ORIENTED_EDGE ( 'NONE', *, *, #349, .F. ) ;
#267 = CARTESIAN_POINT ( 'NONE',  ( -98.42143536845581800, 36.00000000000000700, -40.19366402472267200 ) ) ;
#268 = CARTESIAN_POINT ( 'NONE',  ( 130.7644535940113400, 32.34716671306614400, 36.00000000000000700 ) ) ;
#269 = EDGE_CURVE ( 'NONE', #176, #214, #91, .T. ) ;
#270 =( NAMED_UNIT ( * ) PLANE_ANGLE_UNIT ( ) SI_UNIT ( $, .RADIAN. ) );
#271 = ORIENTED_EDGE ( 'NONE', *, *, #166, .T. ) ;
#272 = FACE_OUTER_BOUND ( 'NONE', #312, .T. ) ;
#273 = FILL_AREA_STYLE ('',( #193 ) ) ;
#274 = DIRECTION ( 'NONE',  ( -0.0000000000000000000, -1.000000000000000000, -0.0000000000000000000 ) ) ;
#275 = AXIS2_PLACEMENT_3D ( 'NONE', #84, #248, #251 ) ;
#276 = VECTOR ( 'NONE', #164, 1000.000000000000000 ) ;
#277 = DIRECTION ( 'NONE',  ( 0.0000000000000000000, 1.000000000000000000, 0.0000000000000000000 ) ) ;
#278 = ORIENTED_EDGE ( 'NONE', *, *, #128, .T. ) ;
#279 = DIRECTION ( 'NONE',  ( -0.0000000000000000000, -0.0000000000000000000, -1.000000000000000000 ) ) ;
#280 = SURFACE_STYLE_USAGE ( .BOTH. , #118 ) ;
#281 = CARTESIAN_POINT ( 'NONE',  ( -98.42143536845581800, 36.00000000000000700, -40.19366402472267200 ) ) ;
#282 = ORIENTED_EDGE ( 'NONE', *, *, #204, .F. ) ;
#283 = FILL_AREA_STYLE_COLOUR ( '', #189 ) ;
#284 = AXIS2_PLACEMENT_3D ( 'NONE', #147, #277, #316 ) ;
#285 = SURFACE_SIDE_STYLE ('',( #42 ) ) ;
#286 = CARTESIAN_POINT ( 'NONE',  ( -98.42143536845581800, 36.00000000000000700, -40.19366402472267200 ) ) ;
#287 = FACE_OUTER_BOUND ( 'NONE', #319, .T. ) ;
#288 = SURFACE_STYLE_FILL_AREA ( #273 ) ;
#289 = EDGE_LOOP ( 'NONE', ( #337, #149, #111, #187 ) ) ;
#290 = ORIENTED_EDGE ( 'NONE', *, *, #269, .T. ) ;
#291 =( NAMED_UNIT ( * ) SI_UNIT ( $, .STERADIAN. ) SOLID_ANGLE_UNIT ( ) );
#292 = EDGE_CURVE ( 'NONE', #303, #327, #153, .T. ) ;
#293 = ADVANCED_FACE ( 'NONE', ( #287 ), #89, .T. ) ;
#294 = LINE ( 'NONE', #222, #209 ) ;
#295 = AXIS2_PLACEMENT_3D ( 'NONE', #227, #94, #36 ) ;
#296 = EDGE_CURVE ( 'NONE', #185, #303, #216, .T. ) ;
#297 = CARTESIAN_POINT ( 'NONE',  ( 130.7644535940113400, 32.34716671306614400, 36.00000000000000700 ) ) ;
#298 = DIRECTION ( 'NONE',  ( -0.0000000000000000000, -0.0000000000000000000, -1.000000000000000000 ) ) ;
#299 = ORIENTED_EDGE ( 'NONE', *, *, #300, .T. ) ;
#300 = EDGE_CURVE ( 'NONE', #232, #162, #365, .T. ) ;
#301 = CARTESIAN_POINT ( 'NONE',  ( 32.09953267052867400, -41.25582010323114400, 0.0000000000000000000 ) ) ;
#302 = CARTESIAN_POINT ( 'NONE',  ( 0.0000000000000000000, 36.00000000000000700, -40.19366402472267200 ) ) ;
#303 = VERTEX_POINT ( 'NONE', #268 ) ;
#304 = DIRECTION ( 'NONE',  ( 0.0000000000000000000, 0.0000000000000000000, 1.000000000000000000 ) ) ;
#305 =( GEOMETRIC_REPRESENTATION_CONTEXT ( 3 ) GLOBAL_UNCERTAINTY_ASSIGNED_CONTEXT ( ( #5 ) ) GLOBAL_UNIT_ASSIGNED_CONTEXT ( ( #357, #34, #202 ) ) REPRESENTATION_CONTEXT ( 'NONE', 'WORKASPACE' ) );
#306 = SURFACE_STYLE_USAGE ( .BOTH. , #115 ) ;
#307 = CARTESIAN_POINT ( 'NONE',  ( 32.09953267052867400, 32.34716671306614400, 36.00000000000000700 ) ) ;
#308 = CARTESIAN_POINT ( 'NONE',  ( 0.0000000000000000000, 0.0000000000000000000, 36.00000000000000700 ) ) ;
#309 = FILL_AREA_STYLE ('',( #134 ) ) ;
#310 = DIRECTION ( 'NONE',  ( 1.000000000000000000, 0.0000000000000000000, 0.0000000000000000000 ) ) ;
#311 = EDGE_LOOP ( 'NONE', ( #290, #236, #35, #156 ) ) ;
#312 = EDGE_LOOP ( 'NONE', ( #184, #127, #326, #80 ) ) ;
#313 = ORIENTED_EDGE ( 'NONE', *, *, #56, .F. ) ;
#314 = EDGE_CURVE ( 'NONE', #327, #167, #294, .T. ) ;
#315 = FACE_OUTER_BOUND ( 'NONE', #57, .T. ) ;
#316 = DIRECTION ( 'NONE',  ( 0.0000000000000000000, -0.0000000000000000000, 1.000000000000000000 ) ) ;
#317 = DIRECTION ( 'NONE',  ( -1.000000000000000000, 0.0000000000000000000, -0.0000000000000000000 ) ) ;
#318 = AXIS2_PLACEMENT_3D ( 'NONE', #179, #310, #198 ) ;
#319 = EDGE_LOOP ( 'NONE', ( #105, #299, #25, #86 ) ) ;
#320 = FACE_OUTER_BOUND ( 'NONE', #45, .T. ) ;
#321 = ORIENTED_EDGE ( 'NONE', *, *, #74, .T. ) ;
#322 = EDGE_CURVE ( 'NONE', #303, #69, #351, .T. ) ;
#323 = AXIS2_PLACEMENT_3D ( 'NONE', #8, #342, #63 ) ;
#324 = VECTOR ( 'NONE', #177, 1000.000000000000000 ) ;
#325 = EDGE_LOOP ( 'NONE', ( #347, #313, #73, #210 ) ) ;
#326 = ORIENTED_EDGE ( 'NONE', *, *, #296, .F. ) ;
#327 = VERTEX_POINT ( 'NONE', #241 ) ;
#328 = DIRECTION ( 'NONE',  ( 0.0000000000000000000, 0.0000000000000000000, 1.000000000000000000 ) ) ;
#329 = CARTESIAN_POINT ( 'NONE',  ( -98.42143536845581800, 0.0000000000000000000, 0.0000000000000000000 ) ) ;
#330 = EDGE_CURVE ( 'NONE', #119, #232, #345, .T. ) ;
#331 = CARTESIAN_POINT ( 'NONE',  ( -98.42143536845581800, 36.00000000000000700, -40.19366402472267200 ) ) ;
#332 = PLANE ( 'NONE',  #182 ) ;
#333 =( NAMED_UNIT ( * ) PLANE_ANGLE_UNIT ( ) SI_UNIT ( $, .RADIAN. ) );
#334 = EDGE_CURVE ( 'NONE', #69, #238, #142, .T. ) ;
#335 = ORIENTED_EDGE ( 'NONE', *, *, #6, .F. ) ;
#336 = DIRECTION ( 'NONE',  ( -1.000000000000000000, -0.0000000000000000000, -0.0000000000000000000 ) ) ;
#337 = ORIENTED_EDGE ( 'NONE', *, *, #314, .T. ) ;
#338 = VECTOR ( 'NONE', #139, 1000.000000000000000 ) ;
#339 = DIRECTION ( 'NONE',  ( -0.0000000000000000000, -1.000000000000000000, -0.0000000000000000000 ) ) ;
#340 = PRODUCT_DEFINITION_SHAPE ( 'NONE', 'NONE',  #360 ) ;
#341 = AXIS2_PLACEMENT_3D ( 'NONE', #211, #237, #46 ) ;
#342 = DIRECTION ( 'NONE',  ( 0.0000000000000000000, 1.000000000000000000, 0.0000000000000000000 ) ) ;
#343 = FILL_AREA_STYLE ('',( #283 ) ) ;
#344 = PLANE ( 'NONE',  #245 ) ;
#345 = LINE ( 'NONE', #19, #263 ) ;
#346 = ORIENTED_EDGE ( 'NONE', *, *, #50, .F. ) ;
#347 = ORIENTED_EDGE ( 'NONE', *, *, #334, .T. ) ;
#348 = ORIENTED_EDGE ( 'NONE', *, *, #113, .F. ) ;
#349 = EDGE_CURVE ( 'NONE', #162, #218, #67, .T. ) ;
#350 = FACE_OUTER_BOUND ( 'NONE', #200, .T. ) ;
#351 = LINE ( 'NONE', #297, #276 ) ;
#352 = AXIS2_PLACEMENT_3D ( 'NONE', #95, #228, #367 ) ;
#353 = FACE_OUTER_BOUND ( 'NONE', #2, .T. ) ;
#354 = CLOSED_SHELL ( 'NONE', ( #159, #188, #125, #48, #293, #261 ) ) ;
#355 = EDGE_CURVE ( 'NONE', #214, #69, #197, .T. ) ;
#356 = CARTESIAN_POINT ( 'NONE',  ( 130.7644535940113400, -41.25582010323114400, 0.0000000000000000000 ) ) ;
#357 =( LENGTH_UNIT ( ) NAMED_UNIT ( * ) SI_UNIT ( .MILLI., .METRE. ) );
#358 = CARTESIAN_POINT ( 'NONE',  ( -98.42143536845581800, 36.00000000000000700, -40.19366402472267200 ) ) ;
#359 = ORIENTED_EDGE ( 'NONE', *, *, #74, .F. ) ;
#360 = PRODUCT_DEFINITION ( 'UNKNOWN', '', #16, #190 ) ;
#361 = CARTESIAN_POINT ( 'NONE',  ( 130.7644535940113400, 32.34716671306614400, 0.0000000000000000000 ) ) ;
#362 = STYLED_ITEM ( 'NONE', ( #256 ), #195 ) ;
#363 = CARTESIAN_POINT ( 'NONE',  ( 0.0000000000000000000, 0.0000000000000000000, 0.0000000000000000000 ) ) ;
#364 = COLOUR_RGB ( '',0.7921568627450980000, 0.8196078431372548800, 0.9333333333333333500 ) ;
#365 = LINE ( 'NONE', #229, #76 ) ;
#366 = DIRECTION ( 'NONE',  ( 0.0000000000000000000, 0.0000000000000000000, 1.000000000000000000 ) ) ;
#367 = DIRECTION ( 'NONE',  ( 0.0000000000000000000, 0.0000000000000000000, 1.000000000000000000 ) ) ;
ENDSEC;
END-ISO-10303-21;
