ISO-10303-21;
HEADER;
/* Generated by software containing ST-Developer
 * from STEP Tools, Inc. (www.steptools.com) 
 */

FILE_DESCRIPTION(
/* description */ (''),
/* implementation_level */ '2;1');

FILE_NAME(
/* name */ 'C:\\Users\\sfl\\Desktop\\Bauteil1.stp',
/* time_stamp */ '2014-10-20T13:52:29+02:00',
/* author */ ('sfl'),
/* organization */ (''),
/* preprocessor_version */ 'ST-DEVELOPER v15.2',
/* originating_system */ 'Autodesk Inventor 2014',
/* authorisation */ '');

FILE_SCHEMA (('CONFIG_CONTROL_DESIGN'));
ENDSEC;

DATA;
#10=MECHANICAL_DESIGN_GEOMETRIC_PRESENTATION_REPRESENTATION('',(#13,#17,
#15,#14,#16),#409);
#11=SHAPE_REPRESENTATION_RELATIONSHIP('SRR','None',#419,#12);
#12=ADVANCED_BREP_SHAPE_REPRESENTATION($,(#223,#224,#225,#226,#227),#408);
#13=STYLED_ITEM('',(#428),#223);
#14=STYLED_ITEM('',(#428),#224);
#15=STYLED_ITEM('',(#428),#225);
#16=STYLED_ITEM('',(#428),#226);
#17=STYLED_ITEM('',(#428),#227);
#18=LINE('',#385,#22);
#19=LINE('',#388,#23);
#20=LINE('',#394,#24);
#21=LINE('',#400,#25);
#22=VECTOR('',#318,1.);
#23=VECTOR('',#321,1.);
#24=VECTOR('',#328,1.);
#25=VECTOR('',#335,1.);
#26=PLANE('',#232);
#27=PLANE('',#233);
#28=PLANE('',#237);
#29=PLANE('',#238);
#30=PLANE('',#245);
#31=PLANE('',#246);
#32=PLANE('',#250);
#33=PLANE('',#251);
#34=PLANE('',#264);
#35=PLANE('',#265);
#36=FACE_BOUND('',#63,.T.);
#37=FACE_BOUND('',#67,.T.);
#38=FACE_BOUND('',#71,.T.);
#39=FACE_BOUND('',#73,.T.);
#40=FACE_BOUND('',#74,.T.);
#41=FACE_BOUND('',#75,.T.);
#42=FACE_BOUND('',#76,.T.);
#43=FACE_BOUND('',#77,.T.);
#44=FACE_BOUND('',#79,.T.);
#45=FACE_OUTER_BOUND('',#62,.T.);
#46=FACE_OUTER_BOUND('',#64,.T.);
#47=FACE_OUTER_BOUND('',#65,.T.);
#48=FACE_OUTER_BOUND('',#66,.T.);
#49=FACE_OUTER_BOUND('',#68,.T.);
#50=FACE_OUTER_BOUND('',#69,.T.);
#51=FACE_OUTER_BOUND('',#70,.T.);
#52=FACE_OUTER_BOUND('',#72,.T.);
#53=FACE_OUTER_BOUND('',#78,.T.);
#54=FACE_OUTER_BOUND('',#80,.T.);
#55=FACE_OUTER_BOUND('',#81,.T.);
#56=FACE_OUTER_BOUND('',#82,.T.);
#57=FACE_OUTER_BOUND('',#83,.T.);
#58=FACE_OUTER_BOUND('',#84,.T.);
#59=FACE_OUTER_BOUND('',#85,.T.);
#60=FACE_OUTER_BOUND('',#86,.T.);
#61=FACE_OUTER_BOUND('',#87,.T.);
#62=EDGE_LOOP('',(#146));
#63=EDGE_LOOP('',(#147));
#64=EDGE_LOOP('',(#148));
#65=EDGE_LOOP('',(#149));
#66=EDGE_LOOP('',(#150));
#67=EDGE_LOOP('',(#151));
#68=EDGE_LOOP('',(#152));
#69=EDGE_LOOP('',(#153));
#70=EDGE_LOOP('',(#154));
#71=EDGE_LOOP('',(#155));
#72=EDGE_LOOP('',(#156));
#73=EDGE_LOOP('',(#157));
#74=EDGE_LOOP('',(#158));
#75=EDGE_LOOP('',(#159));
#76=EDGE_LOOP('',(#160));
#77=EDGE_LOOP('',(#161));
#78=EDGE_LOOP('',(#162));
#79=EDGE_LOOP('',(#163));
#80=EDGE_LOOP('',(#164));
#81=EDGE_LOOP('',(#165));
#82=EDGE_LOOP('',(#166,#167,#168,#169));
#83=EDGE_LOOP('',(#170,#171,#172,#173));
#84=EDGE_LOOP('',(#174,#175,#176,#177));
#85=EDGE_LOOP('',(#178,#179,#180,#181));
#86=EDGE_LOOP('',(#182,#183,#184,#185));
#87=EDGE_LOOP('',(#186,#187,#188,#189));
#88=CIRCLE('',#230,0.494952642052308);
#89=CIRCLE('',#231,0.494952642052308);
#90=CIRCLE('',#235,0.127432076249513);
#91=CIRCLE('',#236,0.127432076249513);
#92=CIRCLE('',#240,3.3165183973593);
#93=CIRCLE('',#241,3.3165183973593);
#94=CIRCLE('',#243,3.50000924653934);
#95=CIRCLE('',#244,3.50000924653934);
#96=CIRCLE('',#248,0.160553925584975);
#97=CIRCLE('',#249,0.160553925584975);
#98=CIRCLE('',#253,0.221653265018809);
#99=CIRCLE('',#254,0.221653265018809);
#100=CIRCLE('',#256,1.39015599132896);
#101=CIRCLE('',#257,1.39015599132896);
#102=CIRCLE('',#259,0.221653265018809);
#103=CIRCLE('',#260,0.221653265018809);
#104=CIRCLE('',#262,1.83346252136658);
#105=CIRCLE('',#263,1.83346252136658);
#106=VERTEX_POINT('',#348);
#107=VERTEX_POINT('',#350);
#108=VERTEX_POINT('',#355);
#109=VERTEX_POINT('',#357);
#110=VERTEX_POINT('',#362);
#111=VERTEX_POINT('',#364);
#112=VERTEX_POINT('',#367);
#113=VERTEX_POINT('',#369);
#114=VERTEX_POINT('',#374);
#115=VERTEX_POINT('',#376);
#116=VERTEX_POINT('',#381);
#117=VERTEX_POINT('',#382);
#118=VERTEX_POINT('',#384);
#119=VERTEX_POINT('',#386);
#120=VERTEX_POINT('',#390);
#121=VERTEX_POINT('',#392);
#122=VERTEX_POINT('',#396);
#123=VERTEX_POINT('',#398);
#124=EDGE_CURVE('',#106,#106,#88,.T.);
#125=EDGE_CURVE('',#107,#107,#89,.T.);
#126=EDGE_CURVE('',#108,#108,#90,.T.);
#127=EDGE_CURVE('',#109,#109,#91,.T.);
#128=EDGE_CURVE('',#110,#110,#92,.T.);
#129=EDGE_CURVE('',#111,#111,#93,.T.);
#130=EDGE_CURVE('',#112,#112,#94,.T.);
#131=EDGE_CURVE('',#113,#113,#95,.T.);
#132=EDGE_CURVE('',#114,#114,#96,.T.);
#133=EDGE_CURVE('',#115,#115,#97,.T.);
#134=EDGE_CURVE('',#116,#117,#98,.T.);
#135=EDGE_CURVE('',#117,#118,#18,.T.);
#136=EDGE_CURVE('',#119,#118,#99,.T.);
#137=EDGE_CURVE('',#116,#119,#19,.T.);
#138=EDGE_CURVE('',#120,#116,#100,.T.);
#139=EDGE_CURVE('',#121,#119,#101,.T.);
#140=EDGE_CURVE('',#120,#121,#20,.T.);
#141=EDGE_CURVE('',#122,#120,#102,.T.);
#142=EDGE_CURVE('',#123,#121,#103,.T.);
#143=EDGE_CURVE('',#122,#123,#21,.T.);
#144=EDGE_CURVE('',#117,#122,#104,.T.);
#145=EDGE_CURVE('',#118,#123,#105,.T.);
#146=ORIENTED_EDGE('',*,*,#124,.F.);
#147=ORIENTED_EDGE('',*,*,#125,.F.);
#148=ORIENTED_EDGE('',*,*,#125,.T.);
#149=ORIENTED_EDGE('',*,*,#124,.T.);
#150=ORIENTED_EDGE('',*,*,#126,.F.);
#151=ORIENTED_EDGE('',*,*,#127,.F.);
#152=ORIENTED_EDGE('',*,*,#127,.T.);
#153=ORIENTED_EDGE('',*,*,#126,.T.);
#154=ORIENTED_EDGE('',*,*,#128,.F.);
#155=ORIENTED_EDGE('',*,*,#129,.F.);
#156=ORIENTED_EDGE('',*,*,#130,.F.);
#157=ORIENTED_EDGE('',*,*,#131,.F.);
#158=ORIENTED_EDGE('',*,*,#129,.T.);
#159=ORIENTED_EDGE('',*,*,#131,.T.);
#160=ORIENTED_EDGE('',*,*,#128,.T.);
#161=ORIENTED_EDGE('',*,*,#130,.T.);
#162=ORIENTED_EDGE('',*,*,#132,.F.);
#163=ORIENTED_EDGE('',*,*,#133,.F.);
#164=ORIENTED_EDGE('',*,*,#133,.T.);
#165=ORIENTED_EDGE('',*,*,#132,.T.);
#166=ORIENTED_EDGE('',*,*,#134,.T.);
#167=ORIENTED_EDGE('',*,*,#135,.T.);
#168=ORIENTED_EDGE('',*,*,#136,.F.);
#169=ORIENTED_EDGE('',*,*,#137,.F.);
#170=ORIENTED_EDGE('',*,*,#138,.T.);
#171=ORIENTED_EDGE('',*,*,#137,.T.);
#172=ORIENTED_EDGE('',*,*,#139,.F.);
#173=ORIENTED_EDGE('',*,*,#140,.F.);
#174=ORIENTED_EDGE('',*,*,#141,.T.);
#175=ORIENTED_EDGE('',*,*,#140,.T.);
#176=ORIENTED_EDGE('',*,*,#142,.F.);
#177=ORIENTED_EDGE('',*,*,#143,.F.);
#178=ORIENTED_EDGE('',*,*,#144,.T.);
#179=ORIENTED_EDGE('',*,*,#143,.T.);
#180=ORIENTED_EDGE('',*,*,#145,.F.);
#181=ORIENTED_EDGE('',*,*,#135,.F.);
#182=ORIENTED_EDGE('',*,*,#145,.T.);
#183=ORIENTED_EDGE('',*,*,#142,.T.);
#184=ORIENTED_EDGE('',*,*,#139,.T.);
#185=ORIENTED_EDGE('',*,*,#136,.T.);
#186=ORIENTED_EDGE('',*,*,#144,.F.);
#187=ORIENTED_EDGE('',*,*,#134,.F.);
#188=ORIENTED_EDGE('',*,*,#138,.F.);
#189=ORIENTED_EDGE('',*,*,#141,.F.);
#190=CYLINDRICAL_SURFACE('',#229,0.494952642052308);
#191=CYLINDRICAL_SURFACE('',#234,0.127432076249513);
#192=CYLINDRICAL_SURFACE('',#239,3.3165183973593);
#193=CYLINDRICAL_SURFACE('',#242,3.50000924653934);
#194=CYLINDRICAL_SURFACE('',#247,0.160553925584975);
#195=CYLINDRICAL_SURFACE('',#252,0.221653265018809);
#196=CYLINDRICAL_SURFACE('',#255,1.39015599132896);
#197=CYLINDRICAL_SURFACE('',#258,0.221653265018809);
#198=CYLINDRICAL_SURFACE('',#261,1.83346252136658);
#199=ADVANCED_FACE('',(#45,#36),#190,.T.);
#200=ADVANCED_FACE('',(#46),#26,.F.);
#201=ADVANCED_FACE('',(#47),#27,.T.);
#202=ADVANCED_FACE('',(#48,#37),#191,.T.);
#203=ADVANCED_FACE('',(#49),#28,.F.);
#204=ADVANCED_FACE('',(#50),#29,.T.);
#205=ADVANCED_FACE('',(#51,#38),#192,.F.);
#206=ADVANCED_FACE('',(#52,#39),#193,.T.);
#207=ADVANCED_FACE('',(#40,#41),#30,.F.);
#208=ADVANCED_FACE('',(#42,#43),#31,.T.);
#209=ADVANCED_FACE('',(#53,#44),#194,.T.);
#210=ADVANCED_FACE('',(#54),#32,.F.);
#211=ADVANCED_FACE('',(#55),#33,.T.);
#212=ADVANCED_FACE('',(#56),#195,.T.);
#213=ADVANCED_FACE('',(#57),#196,.F.);
#214=ADVANCED_FACE('',(#58),#197,.T.);
#215=ADVANCED_FACE('',(#59),#198,.T.);
#216=ADVANCED_FACE('',(#60),#34,.T.);
#217=ADVANCED_FACE('',(#61),#35,.F.);
#218=CLOSED_SHELL('',(#199,#200,#201));
#219=CLOSED_SHELL('',(#202,#203,#204));
#220=CLOSED_SHELL('',(#205,#206,#207,#208));
#221=CLOSED_SHELL('',(#209,#210,#211));
#222=CLOSED_SHELL('',(#212,#213,#214,#215,#216,#217));
#223=MANIFOLD_SOLID_BREP('Volumenk\X\F6rper1',#218);
#224=MANIFOLD_SOLID_BREP('Volumenk\X\F6rper1',#219);
#225=MANIFOLD_SOLID_BREP('Volumenk\X\F6rper1',#220);
#226=MANIFOLD_SOLID_BREP('Volumenk\X\F6rper1',#221);
#227=MANIFOLD_SOLID_BREP('Volumenk\X\F6rper1',#222);
#228=AXIS2_PLACEMENT_3D('placement',#346,#266,#267);
#229=AXIS2_PLACEMENT_3D('',#347,#268,#269);
#230=AXIS2_PLACEMENT_3D('',#349,#270,#271);
#231=AXIS2_PLACEMENT_3D('',#351,#272,#273);
#232=AXIS2_PLACEMENT_3D('',#352,#274,#275);
#233=AXIS2_PLACEMENT_3D('',#353,#276,#277);
#234=AXIS2_PLACEMENT_3D('',#354,#278,#279);
#235=AXIS2_PLACEMENT_3D('',#356,#280,#281);
#236=AXIS2_PLACEMENT_3D('',#358,#282,#283);
#237=AXIS2_PLACEMENT_3D('',#359,#284,#285);
#238=AXIS2_PLACEMENT_3D('',#360,#286,#287);
#239=AXIS2_PLACEMENT_3D('',#361,#288,#289);
#240=AXIS2_PLACEMENT_3D('',#363,#290,#291);
#241=AXIS2_PLACEMENT_3D('',#365,#292,#293);
#242=AXIS2_PLACEMENT_3D('',#366,#294,#295);
#243=AXIS2_PLACEMENT_3D('',#368,#296,#297);
#244=AXIS2_PLACEMENT_3D('',#370,#298,#299);
#245=AXIS2_PLACEMENT_3D('',#371,#300,#301);
#246=AXIS2_PLACEMENT_3D('',#372,#302,#303);
#247=AXIS2_PLACEMENT_3D('',#373,#304,#305);
#248=AXIS2_PLACEMENT_3D('',#375,#306,#307);
#249=AXIS2_PLACEMENT_3D('',#377,#308,#309);
#250=AXIS2_PLACEMENT_3D('',#378,#310,#311);
#251=AXIS2_PLACEMENT_3D('',#379,#312,#313);
#252=AXIS2_PLACEMENT_3D('',#380,#314,#315);
#253=AXIS2_PLACEMENT_3D('',#383,#316,#317);
#254=AXIS2_PLACEMENT_3D('',#387,#319,#320);
#255=AXIS2_PLACEMENT_3D('',#389,#322,#323);
#256=AXIS2_PLACEMENT_3D('',#391,#324,#325);
#257=AXIS2_PLACEMENT_3D('',#393,#326,#327);
#258=AXIS2_PLACEMENT_3D('',#395,#329,#330);
#259=AXIS2_PLACEMENT_3D('',#397,#331,#332);
#260=AXIS2_PLACEMENT_3D('',#399,#333,#334);
#261=AXIS2_PLACEMENT_3D('',#401,#336,#337);
#262=AXIS2_PLACEMENT_3D('',#402,#338,#339);
#263=AXIS2_PLACEMENT_3D('',#403,#340,#341);
#264=AXIS2_PLACEMENT_3D('',#404,#342,#343);
#265=AXIS2_PLACEMENT_3D('',#405,#344,#345);
#266=DIRECTION('axis',(0.,0.,1.));
#267=DIRECTION('refdir',(1.,0.,0.));
#268=DIRECTION('center_axis',(0.,0.,1.));
#269=DIRECTION('ref_axis',(-1.,0.,0.));
#270=DIRECTION('center_axis',(0.,0.,1.));
#271=DIRECTION('ref_axis',(-1.,0.,0.));
#272=DIRECTION('center_axis',(0.,0.,-1.));
#273=DIRECTION('ref_axis',(-1.,0.,0.));
#274=DIRECTION('center_axis',(0.,0.,1.));
#275=DIRECTION('ref_axis',(1.,0.,0.));
#276=DIRECTION('center_axis',(0.,0.,1.));
#277=DIRECTION('ref_axis',(1.,0.,0.));
#278=DIRECTION('center_axis',(0.,0.,1.));
#279=DIRECTION('ref_axis',(-1.,0.,0.));
#280=DIRECTION('center_axis',(0.,0.,1.));
#281=DIRECTION('ref_axis',(-1.,0.,0.));
#282=DIRECTION('center_axis',(0.,0.,-1.));
#283=DIRECTION('ref_axis',(-1.,0.,0.));
#284=DIRECTION('center_axis',(0.,0.,1.));
#285=DIRECTION('ref_axis',(1.,0.,0.));
#286=DIRECTION('center_axis',(0.,0.,1.));
#287=DIRECTION('ref_axis',(1.,0.,0.));
#288=DIRECTION('center_axis',(0.,0.,1.));
#289=DIRECTION('ref_axis',(-1.,0.,0.));
#290=DIRECTION('center_axis',(0.,0.,-1.));
#291=DIRECTION('ref_axis',(-1.,0.,0.));
#292=DIRECTION('center_axis',(0.,0.,1.));
#293=DIRECTION('ref_axis',(-1.,0.,0.));
#294=DIRECTION('center_axis',(0.,0.,1.));
#295=DIRECTION('ref_axis',(-1.,0.,0.));
#296=DIRECTION('center_axis',(0.,0.,1.));
#297=DIRECTION('ref_axis',(-1.,0.,0.));
#298=DIRECTION('center_axis',(0.,0.,-1.));
#299=DIRECTION('ref_axis',(-1.,0.,0.));
#300=DIRECTION('center_axis',(0.,0.,1.));
#301=DIRECTION('ref_axis',(1.,0.,0.));
#302=DIRECTION('center_axis',(0.,0.,1.));
#303=DIRECTION('ref_axis',(1.,0.,0.));
#304=DIRECTION('center_axis',(0.,0.,1.));
#305=DIRECTION('ref_axis',(-1.,0.,0.));
#306=DIRECTION('center_axis',(0.,0.,1.));
#307=DIRECTION('ref_axis',(-1.,0.,0.));
#308=DIRECTION('center_axis',(0.,0.,-1.));
#309=DIRECTION('ref_axis',(-1.,0.,0.));
#310=DIRECTION('center_axis',(0.,0.,1.));
#311=DIRECTION('ref_axis',(1.,0.,0.));
#312=DIRECTION('center_axis',(0.,0.,1.));
#313=DIRECTION('ref_axis',(1.,0.,0.));
#314=DIRECTION('center_axis',(0.,0.,1.));
#315=DIRECTION('ref_axis',(0.992390221197037,-0.123132647468071,0.));
#316=DIRECTION('center_axis',(0.,0.,1.));
#317=DIRECTION('ref_axis',(0.992390221197037,-0.123132647468071,0.));
#318=DIRECTION('',(0.,0.,1.));
#319=DIRECTION('center_axis',(0.,0.,1.));
#320=DIRECTION('ref_axis',(0.992390221197037,-0.123132647468071,0.));
#321=DIRECTION('',(0.,0.,1.));
#322=DIRECTION('center_axis',(0.,0.,1.));
#323=DIRECTION('ref_axis',(0.992390221197037,-0.123132647468071,0.));
#324=DIRECTION('center_axis',(0.,0.,-1.));
#325=DIRECTION('ref_axis',(0.992390221197037,-0.123132647468071,0.));
#326=DIRECTION('center_axis',(0.,0.,-1.));
#327=DIRECTION('ref_axis',(0.992390221197037,-0.123132647468071,0.));
#328=DIRECTION('',(0.,0.,1.));
#329=DIRECTION('center_axis',(0.,0.,1.));
#330=DIRECTION('ref_axis',(0.989484957902208,0.14463581190447,0.));
#331=DIRECTION('center_axis',(0.,0.,1.));
#332=DIRECTION('ref_axis',(0.989484957902208,0.14463581190447,0.));
#333=DIRECTION('center_axis',(0.,0.,1.));
#334=DIRECTION('ref_axis',(0.989484957902208,0.14463581190447,0.));
#335=DIRECTION('',(0.,0.,1.));
#336=DIRECTION('center_axis',(0.,0.,1.));
#337=DIRECTION('ref_axis',(-0.992390221197037,0.123132647468071,0.));
#338=DIRECTION('center_axis',(0.,0.,1.));
#339=DIRECTION('ref_axis',(-0.992390221197037,0.123132647468071,0.));
#340=DIRECTION('center_axis',(0.,0.,1.));
#341=DIRECTION('ref_axis',(-0.992390221197037,0.123132647468071,0.));
#342=DIRECTION('center_axis',(0.,0.,1.));
#343=DIRECTION('ref_axis',(1.,0.,0.));
#344=DIRECTION('center_axis',(0.,0.,1.));
#345=DIRECTION('ref_axis',(1.,0.,0.));
#346=CARTESIAN_POINT('',(0.,0.,0.));
#347=CARTESIAN_POINT('Origin',(-0.190995904384499,-0.0947551217671497,0.));
#348=CARTESIAN_POINT('',(0.303956737667809,-0.0947551217671496,1.));
#349=CARTESIAN_POINT('Origin',(-0.190995904384499,-0.0947551217671497,1.));
#350=CARTESIAN_POINT('',(0.303956737667809,-0.0947551217671496,0.));
#351=CARTESIAN_POINT('Origin',(-0.190995904384499,-0.0947551217671497,0.));
#352=CARTESIAN_POINT('Origin',(-0.190995904384499,-0.0947551217671496,0.));
#353=CARTESIAN_POINT('Origin',(-0.190995904384499,-0.0947551217671496,1.));
#354=CARTESIAN_POINT('Origin',(-2.06684853673225,0.886766748232109,0.));
#355=CARTESIAN_POINT('',(-1.93941646048274,0.886766748232109,1.));
#356=CARTESIAN_POINT('Origin',(-2.06684853673225,0.886766748232109,1.));
#357=CARTESIAN_POINT('',(-1.93941646048274,0.886766748232109,0.));
#358=CARTESIAN_POINT('Origin',(-2.06684853673225,0.886766748232109,0.));
#359=CARTESIAN_POINT('Origin',(-2.06684853673225,0.886766748232109,0.));
#360=CARTESIAN_POINT('Origin',(-2.06684853673225,0.886766748232109,1.));
#361=CARTESIAN_POINT('Origin',(-0.190995904384499,-0.156889501610296,0.));
#362=CARTESIAN_POINT('',(3.1255224929748,-0.156889501610296,1.));
#363=CARTESIAN_POINT('Origin',(-0.190995904384499,-0.156889501610296,1.));
#364=CARTESIAN_POINT('',(3.1255224929748,-0.156889501610296,0.));
#365=CARTESIAN_POINT('Origin',(-0.190995904384499,-0.156889501610296,0.));
#366=CARTESIAN_POINT('Origin',(-0.190995904384499,-0.156889501610296,0.));
#367=CARTESIAN_POINT('',(3.30901334215485,-0.156889501610296,1.));
#368=CARTESIAN_POINT('Origin',(-0.190995904384499,-0.156889501610296,1.));
#369=CARTESIAN_POINT('',(3.30901334215485,-0.156889501610296,0.));
#370=CARTESIAN_POINT('Origin',(-0.190995904384499,-0.156889501610296,0.));
#371=CARTESIAN_POINT('Origin',(-0.190995904384499,-0.156889501610297,0.));
#372=CARTESIAN_POINT('Origin',(-0.190995904384499,-0.156889501610297,1.));
#373=CARTESIAN_POINT('Origin',(1.84174622085052,0.914051878946943,0.));
#374=CARTESIAN_POINT('',(2.0023001464355,0.914051878946943,1.));
#375=CARTESIAN_POINT('Origin',(1.84174622085052,0.914051878946943,1.));
#376=CARTESIAN_POINT('',(2.0023001464355,0.914051878946943,0.));
#377=CARTESIAN_POINT('Origin',(1.84174622085052,0.914051878946943,0.));
#378=CARTESIAN_POINT('Origin',(1.84174622085052,0.914051878946943,0.));
#379=CARTESIAN_POINT('Origin',(1.84174622085052,0.914051878946943,1.));
#380=CARTESIAN_POINT('Origin',(-1.87015201224414,-1.04210110753619,0.));
#381=CARTESIAN_POINT('',(-1.65018547954308,-1.0693938608779,0.));
#382=CARTESIAN_POINT('',(-2.0901185449452,-1.01480835419449,0.));
#383=CARTESIAN_POINT('Origin',(-1.87015201224414,-1.04210110753619,0.));
#384=CARTESIAN_POINT('',(-2.0901185449452,-1.01480835419449,1.));
#385=CARTESIAN_POINT('',(-2.0901185449452,-1.01480835419449,0.));
#386=CARTESIAN_POINT('',(-1.65018547954308,-1.0693938608779,1.));
#387=CARTESIAN_POINT('Origin',(-1.87015201224414,-1.04210110753619,1.));
#388=CARTESIAN_POINT('',(-1.65018547954308,-1.0693938608779,0.));
#389=CARTESIAN_POINT('Origin',(-0.270608267809745,-1.24056744848384,0.));
#390=CARTESIAN_POINT('',(1.1049301747479,-1.03950110800411,0.));
#391=CARTESIAN_POINT('Origin',(-0.270608267809745,-1.24056744848384,0.));
#392=CARTESIAN_POINT('',(1.1049301747479,-1.03950110800411,1.));
#393=CARTESIAN_POINT('Origin',(-0.270608267809745,-1.24056744848384,1.));
#394=CARTESIAN_POINT('',(1.1049301747479,-1.03950110800411,0.));
#395=CARTESIAN_POINT('Origin',(1.32425274635392,-1.00744210805684,0.));
#396=CARTESIAN_POINT('',(1.54357531795994,-0.975383108109567,0.));
#397=CARTESIAN_POINT('Origin',(1.32425274635392,-1.00744210805684,0.));
#398=CARTESIAN_POINT('',(1.54357531795994,-0.975383108109567,1.));
#399=CARTESIAN_POINT('Origin',(1.32425274635392,-1.00744210805684,1.));
#400=CARTESIAN_POINT('',(1.54357531795994,-0.975383108109567,0.));
#401=CARTESIAN_POINT('Origin',(-0.270608267809745,-1.24056744848384,0.));
#402=CARTESIAN_POINT('Origin',(-0.270608267809745,-1.24056744848384,0.));
#403=CARTESIAN_POINT('Origin',(-0.270608267809745,-1.24056744848384,1.));
#404=CARTESIAN_POINT('Origin',(-0.261850947371104,-2.04770055971015,1.));
#405=CARTESIAN_POINT('Origin',(-0.261850947371104,-2.04770055971015,0.));
#406=UNCERTAINTY_MEASURE_WITH_UNIT(LENGTH_MEASURE(0.001),#410,
'DISTANCE_ACCURACY_VALUE',
'Maximum model space distance between geometric entities at asserted c
onnectivities');
#407=UNCERTAINTY_MEASURE_WITH_UNIT(LENGTH_MEASURE(1.E-006),#411,
'DISTANCE_ACCURACY_VALUE',
'Maximum model space distance between geometric entities at asserted c
onnectivities');
#408=(
GEOMETRIC_REPRESENTATION_CONTEXT(3)
GLOBAL_UNCERTAINTY_ASSIGNED_CONTEXT((#406))
GLOBAL_UNIT_ASSIGNED_CONTEXT((#410,#414,#412))
REPRESENTATION_CONTEXT('','3D')
);
#409=(
GEOMETRIC_REPRESENTATION_CONTEXT(3)
GLOBAL_UNCERTAINTY_ASSIGNED_CONTEXT((#407))
GLOBAL_UNIT_ASSIGNED_CONTEXT((#411,#414,#412))
REPRESENTATION_CONTEXT('','3D')
);
#410=(
LENGTH_UNIT()
NAMED_UNIT(*)
SI_UNIT(.CENTI.,.METRE.)
);
#411=(
LENGTH_UNIT()
NAMED_UNIT(*)
SI_UNIT(.MILLI.,.METRE.)
);
#412=(
NAMED_UNIT(*)
SI_UNIT($,.STERADIAN.)
SOLID_ANGLE_UNIT()
);
#413=DIMENSIONAL_EXPONENTS(0.,0.,0.,0.,0.,0.,0.);
#414=(
CONVERSION_BASED_UNIT('degree',#416)
NAMED_UNIT(#413)
PLANE_ANGLE_UNIT()
);
#415=(
NAMED_UNIT(*)
PLANE_ANGLE_UNIT()
SI_UNIT($,.RADIAN.)
);
#416=PLANE_ANGLE_MEASURE_WITH_UNIT(PLANE_ANGLE_MEASURE(0.01745329252),#415);
#417=SHAPE_DEFINITION_REPRESENTATION(#418,#419);
#418=PRODUCT_DEFINITION_SHAPE('',$,#421);
#419=SHAPE_REPRESENTATION('',(#228),#408);
#420=DESIGN_CONTEXT('part definition',#425,'design');
#421=PRODUCT_DEFINITION('Bauteil1','Bauteil1',#422,#420);
#422=PRODUCT_DEFINITION_FORMATION('',$,#427);
#423=PRODUCT_RELATED_PRODUCT_CATEGORY('Bauteil1','Bauteil1',(#427));
#424=APPLICATION_PROTOCOL_DEFINITION('international standard',
'ap203_configuration_controlled_3d_design_of_mechanical_parts_and_asse
mblies_mim_lf',2004,#425);
#425=APPLICATION_CONTEXT(
'Configuration Controlled 3D Design of Mechanical Parts and Assemblies');
#426=MECHANICAL_CONTEXT('part definition',#425,'mechanical');
#427=PRODUCT('Bauteil1','Bauteil1',$,(#426));
#428=PRESENTATION_STYLE_ASSIGNMENT((#429));
#429=SURFACE_STYLE_USAGE(.BOTH.,#430);
#430=SURFACE_SIDE_STYLE($,(#431));
#431=SURFACE_STYLE_FILL_AREA(#432);
#432=FILL_AREA_STYLE($,(#433));
#433=FILL_AREA_STYLE_COLOUR($,#434);
#434=COLOUR_RGB('',0.749019607843137,0.749019607843137,0.749019607843137);
ENDSEC;
END-ISO-10303-21;
