  0
SECTION
  2
HEADER
  9
$ACADVER
  1
AC1014
  9
$ACADMAINTVER
 70
     0
  9
$DWGCODEPAGE
  3
ANSI_1252
  9
$INSBASE
 10
0.0
 20
0.0
 30
0.0
  9
$EXTMIN
 10
1.000000E+20
 20
1.000000E+20
 30
1.000000E+20
  9
$EXTMAX
 10
-1.000000E+20
 20
-1.000000E+20
 30
-1.000000E+20
  9
$LIMMIN
 10
0.0
 20
0.0
  9
$LIMMAX
 10
12.0
 20
9.0
  9
$ORTHOMODE
 70
     0
  9
$REGENMODE
 70
     1
  9
$FILLMODE
 70
     1
  9
$QTEXTMODE
 70
     0
  9
$MIRRTEXT
 70
     1
  9
$DRAGMODE
 70
     2
  9
$LTSCALE
 40
1.0
  9
$OSMODE
 70
     0
  9
$ATTMODE
 70
     2
  9
$TEXTSIZE
 40
1.87
  9
$TRACEWID
 40
0.05
  9
$TEXTSTYLE
  7
ARIAL
  9
$CLAYER
  8
0
  9
$CELTYPE
  6
BYLAYER
  9
$CECOLOR
 62
   256
  9
$CELTSCALE
 40
1.0
  9
$DELOBJ
 70
     1
  9
$DISPSILH
 70
     0
  9
$DIMSCALE
 40
1.0
  9
$DIMASZ
 40
0.18
  9
$DIMEXO
 40
0.06
  9
$DIMDLI
 40
0.38
  9
$DIMRND
 40
0.0
  9
$DIMDLE
 40
0.0
  9
$DIMEXE
 40
0.18
  9
$DIMTP
 40
0.0
  9
$DIMTM
 40
0.0
  9
$DIMTXT
 40
0.18
  9
$DIMCEN
 40
0.09
  9
$DIMTSZ
 40
0.0
  9
$DIMTOL
 70
     0
  9
$DIMLIM
 70
     0
  9
$DIMTIH
 70
     1
  9
$DIMTOH
 70
     1
  9
$DIMSE1
 70
     0
  9
$DIMSE2
 70
     0
  9
$DIMTAD
 70
     0
  9
$DIMZIN
 70
     0
  9
$DIMBLK
  1

  9
$DIMASO
 70
     0
  9
$DIMSHO
 70
     0
  9
$DIMPOST
  1

  9
$DIMAPOST
  1

  9
$DIMALT
 70
     0
  9
$DIMALTD
 70
     2
  9
$DIMALTF
 40
25.4
  9
$DIMLFAC
 40
1.0
  9
$DIMTOFL
 70
     0
  9
$DIMTVP
 40
0.0
  9
$DIMTIX
 70
     0
  9
$DIMSOXD
 70
     0
  9
$DIMSAH
 70
     0
  9
$DIMBLK1
  1

  9
$DIMBLK2
  1

  9
$DIMSTYLE
  2
STANDARD
  9
$DIMCLRD
 70
     0
  9
$DIMCLRE
 70
     0
  9
$DIMCLRT
 70
     0
  9
$DIMTFAC
 40
1.0
  9
$DIMGAP
 40
0.09
  9
$DIMJUST
 70
     0
  9
$DIMSD1
 70
     0
  9
$DIMSD2
 70
     0
  9
$DIMTOLJ
 70
     1
  9
$DIMTZIN
 70
     0
  9
$DIMALTZ
 70
     0
  9
$DIMALTTZ
 70
     0
  9
$DIMFIT
 70
     3
  9
$DIMUPT
 70
     0
  9
$DIMUNIT
 70
     2
  9
$DIMDEC
 70
     4
  9
$DIMTDEC
 70
     4
  9
$DIMALTU
 70
     2
  9
$DIMALTTD
 70
     2
  9
$DIMTXSTY
  7
STANDARD
  9
$DIMAUNIT
 70
     0
  9
$LUNITS
 70
     2
  9
$LUPREC
 70
     2
  9
$SKETCHINC
 40
0.1
  9
$FILLETRAD
 40
0.0
  9
$AUNITS
 70
     0
  9
$AUPREC
 70
     0
  9
$MENU
  1
bevneu
  9
$ELEVATION
 40
0.0
  9
$PELEVATION
 40
0.0
  9
$THICKNESS
 40
0.0
  9
$LIMCHECK
 70
     0
  9
$BLIPMODE
 70
     0
  9
$CHAMFERA
 40
0.0
  9
$CHAMFERB
 40
0.0
  9
$CHAMFERC
 40
0.0
  9
$CHAMFERD
 40
0.0
  9
$SKPOLY
 70
     0
  9
$TDCREATE
 40
2450329.597902083
  9
$TDUPDATE
 40
2456398.426691597
  9
$TDINDWG
 40
2.8695540856
  9
$TDUSRTIMER
 40
2.8695540856
  9
$USRTIMER
 70
     1
  9
$ANGBASE
 50
0.0
  9
$ANGDIR
 70
     0
  9
$PDMODE
 70
     0
  9
$PDSIZE
 40
0.0
  9
$PLINEWID
 40
0.0
  9
$COORDS
 70
     2
  9
$SPLFRAME
 70
     0
  9
$SPLINETYPE
 70
     6
  9
$SPLINESEGS
 70
     8
  9
$ATTDIA
 70
     0
  9
$ATTREQ
 70
     1
  9
$HANDLING
 70
     1
  9
$HANDSEED
  5
12946
  9
$SURFTAB1
 70
     6
  9
$SURFTAB2
 70
     6
  9
$SURFTYPE
 70
     6
  9
$SURFU
 70
     6
  9
$SURFV
 70
     6
  9
$UCSNAME
  2

  9
$UCSORG
 10
0.0
 20
0.0
 30
0.0
  9
$UCSXDIR
 10
1.0
 20
0.0
 30
0.0
  9
$UCSYDIR
 10
0.0
 20
1.0
 30
0.0
  9
$PUCSNAME
  2

  9
$PUCSORG
 10
0.0
 20
0.0
 30
0.0
  9
$PUCSXDIR
 10
1.0
 20
0.0
 30
0.0
  9
$PUCSYDIR
 10
0.0
 20
1.0
 30
0.0
  9
$USERI1
 70
     0
  9
$USERI2
 70
     0
  9
$USERI3
 70
     0
  9
$USERI4
 70
     0
  9
$USERI5
 70
     0
  9
$USERR1
 40
0.0
  9
$USERR2
 40
0.0
  9
$USERR3
 40
0.0
  9
$USERR4
 40
0.0
  9
$USERR5
 40
0.0
  9
$WORLDVIEW
 70
     1
  9
$SHADEDGE
 70
     3
  9
$SHADEDIF
 70
    70
  9
$TILEMODE
 70
     1
  9
$MAXACTVP
 70
    16
  9
$PINSBASE
 10
0.0
 20
0.0
 30
0.0
  9
$PLIMCHECK
 70
     0
  9
$PEXTMIN
 10
1.000000E+20
 20
1.000000E+20
 30
1.000000E+20
  9
$PEXTMAX
 10
-1.000000E+20
 20
-1.000000E+20
 30
-1.000000E+20
  9
$PLIMMIN
 10
0.0
 20
0.0
  9
$PLIMMAX
 10
12.0
 20
9.0
  9
$UNITMODE
 70
     0
  9
$VISRETAIN
 70
     0
  9
$PLINEGEN
 70
     0
  9
$PSLTSCALE
 70
     1
  9
$TREEDEPTH
 70
  3020
  9
$PICKSTYLE
 70
     1
  9
$CMLSTYLE
  2
STANDARD
  9
$CMLJUST
 70
     0
  9
$CMLSCALE
 40
1.0
  9
$PROXYGRAPHICS
 70
     1
  9
$MEASUREMENT
 70
     0
  0
ENDSEC
  0
SECTION
  2
CLASSES
  0
CLASS
  1
HATCH
  2
AcDbHatch
  3
"ACAD_SEDONA"
 90
        0
280
     0
281
     1
  0
CLASS
  1
XRECORD
  2
AcDbXrecord
  3
"<Built In>"
 90
        0
280
     0
281
     0
  0
CLASS
  1
LWPOLYLINE
  2
AcDbPolyline
  3
"AutoCAD"
 90
        0
280
     0
281
     1
  0
CLASS
  1
RASTERVARIABLES
  2
AcDbRasterVariables
  3
ISM
 90
        0
280
     0
281
     0
  0
CLASS
  1
IMAGEDEF
  2
AcDbRasterImageDef
  3
ISM
 90
        0
280
     0
281
     0
  0
CLASS
  1
IMAGEDEF_REACTOR
  2
AcDbRasterImageDefReactor
  3
ISM
 90
        1
280
     0
281
     0
  0
CLASS
  1
IMAGE
  2
AcDbRasterImage
  3
ISM
 90
      127
280
     0
281
     1
  0
ENDSEC
  0
SECTION
  2
TABLES
  0
TABLE
  2
VPORT
  5
8
100
AcDbSymbolTable
 70
     1
  0
VPORT
  5
1293D
100
AcDbSymbolTableRecord
100
AcDbViewportTableRecord
  2
*ACTIVE
 70
     0
 10
0.0
 20
0.0
 11
1.0
 21
1.0
 12
9.071686
 22
4.624204
 13
0.0
 23
0.0
 14
0.1
 24
0.1
 15
625.0
 25
500.0
 16
0.0
 26
0.0
 36
1.0
 17
0.0
 27
0.0
 37
0.0
 40
9.248408
 41
1.961783
 42
50.0
 43
0.0
 44
0.0
 50
0.0
 51
0.0
 71
     0
 72
   100
 73
     1
 74
     0
 75
     0
 76
     0
 77
     0
 78
     2
  0
ENDTAB
  0
TABLE
  2
LTYPE
  5
5
100
AcDbSymbolTable
 70
     9
  0
LTYPE
  5
13
100
AcDbSymbolTableRecord
100
AcDbLinetypeTableRecord
  2
BYBLOCK
 70
     0
  3

 72
    65
 73
     0
 40
0.0
  0
LTYPE
  5
14
100
AcDbSymbolTableRecord
100
AcDbLinetypeTableRecord
  2
BYLAYER
 70
     0
  3

 72
    65
 73
     0
 40
0.0
  0
LTYPE
  5
15
100
AcDbSymbolTableRecord
100
AcDbLinetypeTableRecord
  2
CONTINUOUS
 70
     0
  3
Solid line
 72
    65
 73
     0
 40
0.0
  0
LTYPE
  5
1F
100
AcDbSymbolTableRecord
100
AcDbLinetypeTableRecord
  2
DOT
 70
     0
  3
...............................................
 72
    65
 73
     2
 40
2.1
 49
0.1
 74
     0
 49
-2.0
 74
     0
  0
LTYPE
  5
20
100
AcDbSymbolTableRecord
100
AcDbLinetypeTableRecord
  2
DASHED
 70
     0
  3
_ _ ____ __ __ __ __ __ __ __ __ __ __ __
 72
    65
 73
     2
 40
1.8
 49
1.0
 74
     0
 49
-0.8
 74
     0
  0
LTYPE
  5
21
100
AcDbSymbolTableRecord
100
AcDbLinetypeTableRecord
  2
HIDDEN
 70
     0
  3
_ _ _ _ _ _ _ _ _ _ _ _ _ _ _ _ _ _ _ _ _ _ _
 72
    65
 73
     2
 40
1.0
 49
0.5
 74
     0
 49
-0.5
 74
     0
  0
LTYPE
  5
22
100
AcDbSymbolTableRecord
100
AcDbLinetypeTableRecord
  2
UGROUND
 70
     0
  3
__ __ __ __ __ __ __ __ __ __ __ __ __ __ __
 72
    65
 73
     2
 40
2.0
 49
1.2
 74
     0
 49
-0.8
 74
     0
  0
LTYPE
  5
C0EE
100
AcDbSymbolTableRecord
100
AcDbLinetypeTableRecord
  2
HIDDEN2
 70
     0
  3
_ _ _ _ _ _ _ _ _ _ _ _ _ _ _ _ _ _ _ _ _ _ _ _
 72
    65
 73
     2
 40
0.1875
 49
0.125
 74
     0
 49
-0.0625
 74
     0
  0
LTYPE
  5
C3FF
100
AcDbSymbolTableRecord
100
AcDbLinetypeTableRecord
  2
DASHDOT
 70
     0
  3
__ . __ . __ . __ . __ . __ . __ . __ . __ . __
 72
    65
 73
     4
 40
1.0
 49
0.5
 74
     0
 49
-0.25
 74
     0
 49
0.0
 74
     0
 49
-0.25
 74
     0
  0
LTYPE
  5
C400
100
AcDbSymbolTableRecord
100
AcDbLinetypeTableRecord
  2
DASHDOT2
 70
     0
  3
_._._._._._._._._._._._._._._._._._._._._._._._
 72
    65
 73
     4
 40
0.5
 49
0.25
 74
     0
 49
-0.125
 74
     0
 49
0.0
 74
     0
 49
-0.125
 74
     0
  0
LTYPE
  5
C419
100
AcDbSymbolTableRecord
100
AcDbLinetypeTableRecord
  2
DASHED2
 70
     0
  3
_ _ _ _ _ _ _ _ _ _ _ _ _ _ _ _ _ _ _ _ _ _ _ _
 72
    65
 73
     2
 40
0.375
 49
0.25
 74
     0
 49
-0.125
 74
     0
  0
ENDTAB
  0
TABLE
  2
LAYER
  5
2
100
AcDbSymbolTable
 70
   116
  0
LAYER
  5
F
100
AcDbSymbolTableRecord
100
AcDbLayerTableRecord
  2
0
 70
     0
 62
     7
  6
CONTINUOUS
  0
LAYER
  5
23
100
AcDbSymbolTableRecord
100
AcDbLayerTableRecord
  2
RL
 70
     0
 62
     6
  6
CONTINUOUS
  0
LAYER
  5
24
100
AcDbSymbolTableRecord
100
AcDbLayerTableRecord
  2
LG
 70
     0
 62
    11
  6
CONTINUOUS
  0
LAYER
  5
25
100
AcDbSymbolTableRecord
100
AcDbLayerTableRecord
  2
VG
 70
     0
 62
    21
  6
CONTINUOUS
  0
LAYER
  5
26
100
AcDbSymbolTableRecord
100
AcDbLayerTableRecord
  2
BG
 70
     0
 62
    42
  6
CONTINUOUS
  0
LAYER
  5
27
100
AcDbSymbolTableRecord
100
AcDbLayerTableRecord
  2
PG
 70
     0
 62
    51
  6
CONTINUOUS
  0
LAYER
  5
28
100
AcDbSymbolTableRecord
100
AcDbLayerTableRecord
  2
KG
 70
     0
 62
    62
  6
CONTINUOUS
  0
LAYER
  5
29
100
AcDbSymbolTableRecord
100
AcDbLayerTableRecord
  2
GG
 70
     0
 62
     7
  6
CONTINUOUS
  0
LAYER
  5
2A
100
AcDbSymbolTableRecord
100
AcDbLayerTableRecord
  2
GN
 70
     0
 62
     7
  6
CONTINUOUS
  0
LAYER
  5
2B
100
AcDbSymbolTableRecord
100
AcDbLayerTableRecord
  2
RN
 70
     0
 62
     6
  6
CONTINUOUS
  0
LAYER
  5
2C
100
AcDbSymbolTableRecord
100
AcDbLayerTableRecord
  2
PN
 70
     0
 62
     7
  6
CONTINUOUS
  0
LAYER
  5
2E
100
AcDbSymbolTableRecord
100
AcDbLayerTableRecord
  2
HG
 70
     0
 62
     1
  6
CONTINUOUS
  0
LAYER
  5
2F
100
AcDbSymbolTableRecord
100
AcDbLayerTableRecord
  2
HN
 70
     0
 62
     1
  6
CONTINUOUS
  0
LAYER
  5
30
100
AcDbSymbolTableRecord
100
AcDbLayerTableRecord
  2
HNA
 70
     1
 62
     1
  6
CONTINUOUS
  0
LAYER
  5
31
100
AcDbSymbolTableRecord
100
AcDbLayerTableRecord
  2
NG
 70
     0
 62
     3
  6
CONTINUOUS
  0
LAYER
  5
33
100
AcDbSymbolTableRecord
100
AcDbLayerTableRecord
  2
NS
 70
     0
 62
     3
  6
CONTINUOUS
  0
LAYER
  5
34
100
AcDbSymbolTableRecord
100
AcDbLayerTableRecord
  2
RS
 70
     0
 62
     6
  6
CONTINUOUS
  0
LAYER
  5
35
100
AcDbSymbolTableRecord
100
AcDbLayerTableRecord
  2
SG
 70
     0
 62
   150
  6
CONTINUOUS
  0
LAYER
  5
36
100
AcDbSymbolTableRecord
100
AcDbLayerTableRecord
  2
SS
 70
     0
 62
   150
  6
CONTINUOUS
  0
LAYER
  5
37
100
AcDbSymbolTableRecord
100
AcDbLayerTableRecord
  2
SB
 70
     0
 62
   150
  6
CONTINUOUS
  0
LAYER
  5
38
100
AcDbSymbolTableRecord
100
AcDbLayerTableRecord
  2
GP
 70
     0
 62
     7
  6
CONTINUOUS
  0
LAYER
  5
39
100
AcDbSymbolTableRecord
100
AcDbLayerTableRecord
  2
EP
 70
     0
 62
     7
  6
CONTINUOUS
  0
LAYER
  5
3A
100
AcDbSymbolTableRecord
100
AcDbLayerTableRecord
  2
PP
 70
     0
 62
     7
  6
CONTINUOUS
  0
LAYER
  5
3B
100
AcDbSymbolTableRecord
100
AcDbLayerTableRecord
  2
TP
 70
     0
 62
     7
  6
CONTINUOUS
  0
LAYER
  5
3C
100
AcDbSymbolTableRecord
100
AcDbLayerTableRecord
  2
HP
 70
     0
 62
     7
  6
CONTINUOUS
  0
LAYER
  5
3D
100
AcDbSymbolTableRecord
100
AcDbLayerTableRecord
  2
GF
 70
     0
 62
     6
  6
CONTINUOUS
  0
LAYER
  5
3F
100
AcDbSymbolTableRecord
100
AcDbLayerTableRecord
  2
PF
 70
     0
 62
     6
  6
CONTINUOUS
  0
LAYER
  5
41
100
AcDbSymbolTableRecord
100
AcDbLayerTableRecord
  2
NF
 70
     0
 62
     6
  6
CONTINUOUS
  0
LAYER
  5
44
100
AcDbSymbolTableRecord
100
AcDbLayerTableRecord
  2
WL
 70
     0
 62
     6
  6
CONTINUOUS
  0
LAYER
  5
45
100
AcDbSymbolTableRecord
100
AcDbLayerTableRecord
  2
SR
 70
     0
 62
     1
  6
CONTINUOUS
  0
LAYER
  5
46
100
AcDbSymbolTableRecord
100
AcDbLayerTableRecord
  2
BLGR
 70
     0
 62
     6
  6
CONTINUOUS
  0
LAYER
  5
48
100
AcDbSymbolTableRecord
100
AcDbLayerTableRecord
  2
MF
 70
     0
 62
     6
  6
CONTINUOUS
  0
LAYER
  5
49
100
AcDbSymbolTableRecord
100
AcDbLayerTableRecord
  2
TF
 70
     0
 62
     6
  6
CONTINUOUS
  0
LAYER
  5
4A
100
AcDbSymbolTableRecord
100
AcDbLayerTableRecord
  2
SF
 70
     0
 62
     6
  6
CONTINUOUS
  0
LAYER
  5
4B
100
AcDbSymbolTableRecord
100
AcDbLayerTableRecord
  2
LH
 70
     0
 62
   220
  6
CONTINUOUS
  0
LAYER
  5
4C
100
AcDbSymbolTableRecord
100
AcDbLayerTableRecord
  2
LV
 70
     0
 62
   221
  6
CONTINUOUS
  0
LAYER
  5
4D
100
AcDbSymbolTableRecord
100
AcDbLayerTableRecord
  2
LL
 70
     0
 62
     6
  6
CONTINUOUS
  0
LAYER
  5
4E
100
AcDbSymbolTableRecord
100
AcDbLayerTableRecord
  2
LN
 70
     0
 62
     6
  6
CONTINUOUS
  0
LAYER
  5
4F
100
AcDbSymbolTableRecord
100
AcDbLayerTableRecord
  2
VS
 70
     0
 62
     3
  6
CONTINUOUS
  0
LAYER
  5
50
100
AcDbSymbolTableRecord
100
AcDbLayerTableRecord
  2
FF
 70
     0
 62
     6
  6
CONTINUOUS
  0
LAYER
  5
51
100
AcDbSymbolTableRecord
100
AcDbLayerTableRecord
  2
RG
 70
     0
 62
    12
  6
CONTINUOUS
  0
LAYER
  5
52
100
AcDbSymbolTableRecord
100
AcDbLayerTableRecord
  2
SP
 70
     0
 62
     7
  6
CONTINUOUS
  0
LAYER
  5
53
100
AcDbSymbolTableRecord
100
AcDbLayerTableRecord
  2
HL
 70
     0
 62
    11
  6
CONTINUOUS
  0
LAYER
  5
54
100
AcDbSymbolTableRecord
100
AcDbLayerTableRecord
  2
RGB
 70
     0
 62
     5
  6
CONTINUOUS
  0
LAYER
  5
6D6
100
AcDbSymbolTableRecord
100
AcDbLayerTableRecord
  2
DLMG
 70
     0
 62
     6
  6
CONTINUOUS
  0
LAYER
  5
6D7
100
AcDbSymbolTableRecord
100
AcDbLayerTableRecord
  2
DLMV
 70
     0
 62
    33
  6
CONTINUOUS
  0
LAYER
  5
18CE
100
AcDbSymbolTableRecord
100
AcDbLayerTableRecord
  2
RAHMEN
 70
     0
 62
     7
  6
CONTINUOUS
  0
LAYER
  5
1990
100
AcDbSymbolTableRecord
100
AcDbLayerTableRecord
  2
PLINE001
 70
     0
 62
     4
  6
CONTINUOUS
  0
LAYER
  5
1991
100
AcDbSymbolTableRecord
100
AcDbLayerTableRecord
  2
PLINE002
 70
     0
 62
     4
  6
CONTINUOUS
  0
LAYER
  5
1992
100
AcDbSymbolTableRecord
100
AcDbLayerTableRecord
  2
PLINE003
 70
     0
 62
     5
  6
CONTINUOUS
  0
LAYER
  5
1993
100
AcDbSymbolTableRecord
100
AcDbLayerTableRecord
  2
TEXT001
 70
     0
 62
     5
  6
CONTINUOUS
  0
LAYER
  5
19A6
100
AcDbSymbolTableRecord
100
AcDbLayerTableRecord
  2
SRW
 70
     0
 62
     3
  6
CONTINUOUS
  0
LAYER
  5
C66D
100
AcDbSymbolTableRecord
100
AcDbLayerTableRecord
  2
GPNR
 70
     0
 62
     2
  6
CONTINUOUS
  0
LAYER
  5
C6E0
100
AcDbSymbolTableRecord
100
AcDbLayerTableRecord
  2
ADLER
 70
     0
 62
     1
  6
CONTINUOUS
  0
LAYER
  5
E025
100
AcDbSymbolTableRecord
100
AcDbLayerTableRecord
  2
AMMR
 70
     0
 62
   193
  6
CONTINUOUS
  0
LAYER
  5
E026
100
AcDbSymbolTableRecord
100
AcDbLayerTableRecord
  2
AMRB
 70
     0
 62
   255
  6
CONTINUOUS
  0
LAYER
  5
E027
100
AcDbSymbolTableRecord
100
AcDbLayerTableRecord
  2
AMTP
 70
     0
 62
     4
  6
CONTINUOUS
  0
LAYER
  5
E028
100
AcDbSymbolTableRecord
100
AcDbLayerTableRecord
  2
AMTV
 70
     0
 62
   151
  6
CONTINUOUS
  0
LAYER
  5
10F87
100
AcDbSymbolTableRecord
100
AcDbLayerTableRecord
  2
LGR
 70
     0
 62
     1
  6
CONTINUOUS
  0
LAYER
  5
10F88
100
AcDbSymbolTableRecord
100
AcDbLayerTableRecord
  2
VGR
 70
     0
 62
     7
  6
CONTINUOUS
  0
LAYER
  5
10F89
100
AcDbSymbolTableRecord
100
AcDbLayerTableRecord
  2
PGR
 70
     0
 62
     2
  6
CONTINUOUS
  0
LAYER
  5
10F8A
100
AcDbSymbolTableRecord
100
AcDbLayerTableRecord
  2
BGR
 70
     0
 62
     9
  6
CONTINUOUS
  0
LAYER
  5
10F8B
100
AcDbSymbolTableRecord
100
AcDbLayerTableRecord
  2
KGR
 70
     0
 62
     3
  6
CONTINUOUS
  0
LAYER
  5
10F8C
100
AcDbSymbolTableRecord
100
AcDbLayerTableRecord
  2
TRG
 70
     0
 62
     5
  6
CONTINUOUS
  0
LAYER
  5
10F8D
100
AcDbSymbolTableRecord
100
AcDbLayerTableRecord
  2
OEK
 70
     0
 62
     7
  6
CONTINUOUS
  0
LAYER
  5
10F8E
100
AcDbSymbolTableRecord
100
AcDbLayerTableRecord
  2
COR
 70
     0
 62
     6
  6
CONTINUOUS
  0
LAYER
  5
10F8F
100
AcDbSymbolTableRecord
100
AcDbLayerTableRecord
  2
BL
 70
     0
 62
     6
  6
CONTINUOUS
  0
LAYER
  5
10F90
100
AcDbSymbolTableRecord
100
AcDbLayerTableRecord
  2
TNR
 70
     0
 62
     7
  6
CONTINUOUS
  0
LAYER
  5
12232
100
AcDbSymbolTableRecord
100
AcDbLayerTableRecord
  2
WP
 70
     1
 62
     7
  6
CONTINUOUS
  0
LAYER
  5
123E6
100
AcDbSymbolTableRecord
100
AcDbLayerTableRecord
  2
KMW1
 70
     0
 62
     1
  6
CONTINUOUS
  0
LAYER
  5
123E7
100
AcDbSymbolTableRecord
100
AcDbLayerTableRecord
  2
KMW2
 70
     0
 62
    11
  6
CONTINUOUS
  0
LAYER
  5
123F1
100
AcDbSymbolTableRecord
100
AcDbLayerTableRecord
  2
KMFE
 70
     0
 62
    32
  6
CONTINUOUS
  0
LAYER
  5
123FB
100
AcDbSymbolTableRecord
100
AcDbLayerTableRecord
  2
KMGE
 70
     0
 62
     2
  6
CONTINUOUS
  0
LAYER
  5
123FC
100
AcDbSymbolTableRecord
100
AcDbLayerTableRecord
  2
KMGL
 70
     0
 62
   141
  6
CONTINUOUS
  0
LAYER
  5
123FD
100
AcDbSymbolTableRecord
100
AcDbLayerTableRecord
  2
DGMS
 70
     0
 62
     4
  6
CONTINUOUS
  0
LAYER
  5
12422
100
AcDbSymbolTableRecord
100
AcDbLayerTableRecord
  2
N-HG
 70
     0
 62
     4
  6
CONTINUOUS
  0
LAYER
  5
12424
100
AcDbSymbolTableRecord
100
AcDbLayerTableRecord
  2
L-HG
 70
     1
 62
    52
  6
CONTINUOUS
  0
LAYER
  5
1242F
100
AcDbSymbolTableRecord
100
AcDbLayerTableRecord
  2
L-GP
 70
     1
 62
    52
  6
CONTINUOUS
  0
LAYER
  5
12430
100
AcDbSymbolTableRecord
100
AcDbLayerTableRecord
  2
N-GP
 70
     0
 62
    30
  6
CONTINUOUS
  0
LAYER
  5
1244C
100
AcDbSymbolTableRecord
100
AcDbLayerTableRecord
  2
N-BG
 70
     0
 62
    30
  6
CONTINUOUS
  0
LAYER
  5
1244E
100
AcDbSymbolTableRecord
100
AcDbLayerTableRecord
  2
L-BG
 70
     1
 62
    52
  6
CONTINUOUS
  0
LAYER
  5
12450
100
AcDbSymbolTableRecord
100
AcDbLayerTableRecord
  2
N-GG
 70
     0
 62
    30
  6
CONTINUOUS
  0
LAYER
  5
12452
100
AcDbSymbolTableRecord
100
AcDbLayerTableRecord
  2
L-GG
 70
     1
 62
    52
  6
CONTINUOUS
  0
LAYER
  5
12457
100
AcDbSymbolTableRecord
100
AcDbLayerTableRecord
  2
N-KG
 70
     0
 62
    30
  6
CONTINUOUS
  0
LAYER
  5
12459
100
AcDbSymbolTableRecord
100
AcDbLayerTableRecord
  2
L-KG
 70
     1
 62
    52
  6
CONTINUOUS
  0
LAYER
  5
1245B
100
AcDbSymbolTableRecord
100
AcDbLayerTableRecord
  2
N-LG
 70
     0
 62
    30
  6
CONTINUOUS
  0
LAYER
  5
1245D
100
AcDbSymbolTableRecord
100
AcDbLayerTableRecord
  2
L-LG
 70
     1
 62
    52
  6
CONTINUOUS
  0
LAYER
  5
1245F
100
AcDbSymbolTableRecord
100
AcDbLayerTableRecord
  2
N-NG
 70
     0
 62
     4
  6
CONTINUOUS
  0
LAYER
  5
12461
100
AcDbSymbolTableRecord
100
AcDbLayerTableRecord
  2
L-NG
 70
     1
 62
    52
  6
CONTINUOUS
  0
LAYER
  5
12463
100
AcDbSymbolTableRecord
100
AcDbLayerTableRecord
  2
N-NS
 70
     0
 62
     4
  6
CONTINUOUS
  0
LAYER
  5
12465
100
AcDbSymbolTableRecord
100
AcDbLayerTableRecord
  2
L-NS
 70
     1
 62
    52
  6
CONTINUOUS
  0
LAYER
  5
12467
100
AcDbSymbolTableRecord
100
AcDbLayerTableRecord
  2
N-PG
 70
     0
 62
    30
  6
CONTINUOUS
  0
LAYER
  5
12469
100
AcDbSymbolTableRecord
100
AcDbLayerTableRecord
  2
L-PG
 70
     1
 62
    52
  6
CONTINUOUS
  0
LAYER
  5
1246B
100
AcDbSymbolTableRecord
100
AcDbLayerTableRecord
  2
N-PN
 70
     0
 62
    30
  6
CONTINUOUS
  0
LAYER
  5
1246D
100
AcDbSymbolTableRecord
100
AcDbLayerTableRecord
  2
L-PN
 70
     1
 62
    52
  6
CONTINUOUS
  0
LAYER
  5
1246F
100
AcDbSymbolTableRecord
100
AcDbLayerTableRecord
  2
N-SB
 70
     0
 62
     4
  6
CONTINUOUS
  0
LAYER
  5
12471
100
AcDbSymbolTableRecord
100
AcDbLayerTableRecord
  2
L-SB
 70
     1
 62
    52
  6
CONTINUOUS
  0
LAYER
  5
12473
100
AcDbSymbolTableRecord
100
AcDbLayerTableRecord
  2
N-SG
 70
     0
 62
     4
  6
CONTINUOUS
  0
LAYER
  5
12475
100
AcDbSymbolTableRecord
100
AcDbLayerTableRecord
  2
L-SG
 70
     1
 62
    52
  6
CONTINUOUS
  0
LAYER
  5
12477
100
AcDbSymbolTableRecord
100
AcDbLayerTableRecord
  2
N-SS
 70
     0
 62
     4
  6
CONTINUOUS
  0
LAYER
  5
12479
100
AcDbSymbolTableRecord
100
AcDbLayerTableRecord
  2
L-SS
 70
     1
 62
    52
  6
CONTINUOUS
  0
LAYER
  5
1247B
100
AcDbSymbolTableRecord
100
AcDbLayerTableRecord
  2
N-VG
 70
     0
 62
    30
  6
CONTINUOUS
  0
LAYER
  5
1247D
100
AcDbSymbolTableRecord
100
AcDbLayerTableRecord
  2
L-VG
 70
     1
 62
    52
  6
CONTINUOUS
  0
LAYER
  5
1247F
100
AcDbSymbolTableRecord
100
AcDbLayerTableRecord
  2
N-VS
 70
     0
 62
     4
  6
CONTINUOUS
  0
LAYER
  5
12481
100
AcDbSymbolTableRecord
100
AcDbLayerTableRecord
  2
L-VS
 70
     1
 62
    52
  6
CONTINUOUS
  0
LAYER
  5
1248D
100
AcDbSymbolTableRecord
100
AcDbLayerTableRecord
  2
N-GN
 70
     0
 62
    30
  6
CONTINUOUS
  0
LAYER
  5
1248F
100
AcDbSymbolTableRecord
100
AcDbLayerTableRecord
  2
L-GN
 70
     1
 62
    52
  6
CONTINUOUS
  0
LAYER
  5
12606
100
AcDbSymbolTableRecord
100
AcDbLayerTableRecord
  2
L-RG
 70
     1
 62
    52
  6
CONTINUOUS
  0
LAYER
  5
12608
100
AcDbSymbolTableRecord
100
AcDbLayerTableRecord
  2
N-RG
 70
     0
 62
    30
  6
CONTINUOUS
  0
LAYER
  5
127BC
100
AcDbSymbolTableRecord
100
AcDbLayerTableRecord
  2
N-RGB
 70
     0
 62
    30
  6
CONTINUOUS
  0
LAYER
  5
127BD
100
AcDbSymbolTableRecord
100
AcDbLayerTableRecord
  2
L-RGB
 70
     1
 62
    52
  6
CONTINUOUS
  0
LAYER
  5
12873
100
AcDbSymbolTableRecord
100
AcDbLayerTableRecord
  2
L-SP
 70
     1
 62
    52
  6
CONTINUOUS
  0
LAYER
  5
12874
100
AcDbSymbolTableRecord
100
AcDbLayerTableRecord
  2
N-SP
 70
     0
 62
    30
  6
CONTINUOUS
  0
LAYER
  5
128BA
100
AcDbSymbolTableRecord
100
AcDbLayerTableRecord
  2
L-HL
 70
     1
 62
    52
  6
CONTINUOUS
  0
LAYER
  5
128C4
100
AcDbSymbolTableRecord
100
AcDbLayerTableRecord
  2
N-TS
 70
     0
 62
     1
  6
CONTINUOUS
  0
LAYER
  5
128E2
100
AcDbSymbolTableRecord
100
AcDbLayerTableRecord
  2
HF
 70
     0
 62
     6
  6
CONTINUOUS
  0
ENDTAB
  0
TABLE
  2
STYLE
  5
3
100
AcDbSymbolTable
 70
     8
  0
STYLE
  5
10
100
AcDbSymbolTableRecord
100
AcDbTextStyleTableRecord
  2
STANDARD
 70
     0
 40
0.0
 41
1.0
 50
0.0
 71
     0
 42
1.0
  3
txt
  4

  0
STYLE
  5
1E
100
AcDbSymbolTableRecord
100
AcDbTextStyleTableRecord
  2
NORM
 70
     0
 40
0.0
 41
1.0
 50
15.0
 71
     0
 42
2.5
  3
romans.shx
  4

  0
STYLE
  5
E6B
100
AcDbSymbolTableRecord
100
AcDbTextStyleTableRecord
  2
ROMAND
 70
     0
 40
0.0
 41
1.0
 50
15.0
 71
     0
 42
5.0
  3
romand.shx
  4

  0
STYLE
  5
E6C
100
AcDbSymbolTableRecord
100
AcDbTextStyleTableRecord
  2
BEV
 70
     0
 40
0.0
 41
1.0
 50
0.0
 71
     0
 42
1.87
  3
romans
  4

  0
STYLE
  5
18D5
100
AcDbSymbolTableRecord
100
AcDbTextStyleTableRecord
  2
ROMANS
 70
     0
 40
0.0
 41
1.0
 50
15.0
 71
     0
 42
2.0
  3
romans.shx
  4

  0
STYLE
  5
EABA
100
AcDbSymbolTableRecord
100
AcDbTextStyleTableRecord
  2
VAGRBT
 70
     0
 40
0.0
 41
1.0
 50
0.0
 71
     0
 42
11.6
  3
VAGRON.TTF
  4

1001
ACAD
1000
VAGRounded BT
1071
       34
  0
STYLE
  5
EAC4
100
AcDbSymbolTableRecord
100
AcDbTextStyleTableRecord
  2
AVGBT
 70
     0
 40
0.0
 41
1.0
 50
0.0
 71
     0
 42
1.4
  3
AVGARDN.TTF
  4

1001
ACAD
1000
AvantGarde Bk BT
1071
       34
  0
STYLE
  5
122D2
100
AcDbSymbolTableRecord
100
AcDbTextStyleTableRecord
  2
ARIAL
 70
     0
 40
0.0
 41
1.25
 50
0.0
 71
     0
 42
1.87
  3
ARIALI.TTF
  4

1001
ACAD
1000
Arial
1071
 16777250
  0
ENDTAB
  0
TABLE
  2
VIEW
  5
6
100
AcDbSymbolTable
 70
     0
  0
ENDTAB
  0
TABLE
  2
UCS
  5
7
100
AcDbSymbolTable
 70
     0
  0
ENDTAB
  0
TABLE
  2
APPID
  5
9
100
AcDbSymbolTable
 70
     1
  0
APPID
  5
11
100
AcDbSymbolTableRecord
100
AcDbRegAppTableRecord
  2
ACAD
 70
     0
  0
ENDTAB
  0
TABLE
  2
DIMSTYLE
  5
A
100
AcDbSymbolTable
 70
     1
  0
DIMSTYLE
105
437
100
AcDbSymbolTableRecord
100
AcDbDimStyleTableRecord
  2
STANDARD
 70
     0
  3

  4

  5

  6

  7

 40
1.0
 41
0.18
 42
0.06
 43
0.38
 44
0.18
 45
0.0
 46
0.0
 47
0.0
 48
0.0
140
0.18
141
0.09
142
0.0
143
25.4
144
1.0
145
0.0
146
1.0
147
0.09
 71
     0
 72
     0
 73
     1
 74
     1
 75
     0
 76
     0
 77
     0
 78
     0
170
     0
171
     2
172
     0
173
     0
174
     0
175
     0
176
     0
177
     0
178
     0
270
     2
271
     4
272
     4
273
     2
274
     2
340
10
275
     0
280
     0
281
     0
282
     0
283
     1
284
     0
285
     0
286
     0
287
     3
288
     0
  0
ENDTAB
  0
TABLE
  2
BLOCK_RECORD
  5
1
100
AcDbSymbolTable
 70
   131
  0
BLOCK_RECORD
  5
19
100
AcDbSymbolTableRecord
100
AcDbBlockTableRecord
  2
*MODEL_SPACE
  0
BLOCK_RECORD
  5
16
100
AcDbSymbolTableRecord
100
AcDbBlockTableRecord
  2
*PAPER_SPACE
  0
BLOCK_RECORD
  5
61
100
AcDbSymbolTableRecord
100
AcDbBlockTableRecord
  2
FIG025
  0
BLOCK_RECORD
  5
6A
100
AcDbSymbolTableRecord
100
AcDbBlockTableRecord
  2
FIG024
  0
BLOCK_RECORD
  5
7E
100
AcDbSymbolTableRecord
100
AcDbBlockTableRecord
  2
FIG032
  0
BLOCK_RECORD
  5
84
100
AcDbSymbolTableRecord
100
AcDbBlockTableRecord
  2
FIG052
  0
BLOCK_RECORD
  5
8D
100
AcDbSymbolTableRecord
100
AcDbBlockTableRecord
  2
FIG053
  0
BLOCK_RECORD
  5
94
100
AcDbSymbolTableRecord
100
AcDbBlockTableRecord
  2
FIG054
  0
BLOCK_RECORD
  5
A3
100
AcDbSymbolTableRecord
100
AcDbBlockTableRecord
  2
FIG056
  0
BLOCK_RECORD
  5
B6
100
AcDbSymbolTableRecord
100
AcDbBlockTableRecord
  2
FIG150
  0
BLOCK_RECORD
  5
BA
100
AcDbSymbolTableRecord
100
AcDbBlockTableRecord
  2
FIG151
  0
BLOCK_RECORD
  5
C3
100
AcDbSymbolTableRecord
100
AcDbBlockTableRecord
  2
FIG152
  0
BLOCK_RECORD
  5
CC
100
AcDbSymbolTableRecord
100
AcDbBlockTableRecord
  2
FIG154
  0
BLOCK_RECORD
  5
D7
100
AcDbSymbolTableRecord
100
AcDbBlockTableRecord
  2
FIG031
  0
BLOCK_RECORD
  5
E0
100
AcDbSymbolTableRecord
100
AcDbBlockTableRecord
  2
FIG041
  0
BLOCK_RECORD
  5
E4
100
AcDbSymbolTableRecord
100
AcDbBlockTableRecord
  2
FIG158
  0
BLOCK_RECORD
  5
ED
100
AcDbSymbolTableRecord
100
AcDbBlockTableRecord
  2
FIG060
  0
BLOCK_RECORD
  5
F8
100
AcDbSymbolTableRecord
100
AcDbBlockTableRecord
  2
FIG020
  0
BLOCK_RECORD
  5
FE
100
AcDbSymbolTableRecord
100
AcDbBlockTableRecord
  2
FIG157
  0
BLOCK_RECORD
  5
111
100
AcDbSymbolTableRecord
100
AcDbBlockTableRecord
  2
FIG059
  0
BLOCK_RECORD
  5
120
100
AcDbSymbolTableRecord
100
AcDbBlockTableRecord
  2
FIGLK1
  0
BLOCK_RECORD
  5
125
100
AcDbSymbolTableRecord
100
AcDbBlockTableRecord
  2
FIGLK2
  0
BLOCK_RECORD
  5
12A
100
AcDbSymbolTableRecord
100
AcDbBlockTableRecord
  2
FIGLK5
  0
BLOCK_RECORD
  5
12F
100
AcDbSymbolTableRecord
100
AcDbBlockTableRecord
  2
FIGLP1
  0
BLOCK_RECORD
  5
133
100
AcDbSymbolTableRecord
100
AcDbBlockTableRecord
  2
FIGLP2
  0
BLOCK_RECORD
  5
137
100
AcDbSymbolTableRecord
100
AcDbBlockTableRecord
  2
FIGLP5
  0
BLOCK_RECORD
  5
13B
100
AcDbSymbolTableRecord
100
AcDbBlockTableRecord
  2
FIGLH1
  0
BLOCK_RECORD
  5
140
100
AcDbSymbolTableRecord
100
AcDbBlockTableRecord
  2
FIGLH2
  0
BLOCK_RECORD
  5
145
100
AcDbSymbolTableRecord
100
AcDbBlockTableRecord
  2
FIGLH5
  0
BLOCK_RECORD
  5
14A
100
AcDbSymbolTableRecord
100
AcDbBlockTableRecord
  2
FIG062
  0
BLOCK_RECORD
  5
161
100
AcDbSymbolTableRecord
100
AcDbBlockTableRecord
  2
FIG079
  0
BLOCK_RECORD
  5
16A
100
AcDbSymbolTableRecord
100
AcDbBlockTableRecord
  2
FIG013
  0
BLOCK_RECORD
  5
184
100
AcDbSymbolTableRecord
100
AcDbBlockTableRecord
  2
FIG068
  0
BLOCK_RECORD
  5
195
100
AcDbSymbolTableRecord
100
AcDbBlockTableRecord
  2
FIG067
  0
BLOCK_RECORD
  5
1AA
100
AcDbSymbolTableRecord
100
AcDbBlockTableRecord
  2
MBNR
  0
BLOCK_RECORD
  5
1AF
100
AcDbSymbolTableRecord
100
AcDbBlockTableRecord
  2
GN1
  0
BLOCK_RECORD
  5
1B3
100
AcDbSymbolTableRecord
100
AcDbBlockTableRecord
  2
GN1G
  0
BLOCK_RECORD
  5
1C5
100
AcDbSymbolTableRecord
100
AcDbBlockTableRecord
  2
RN1
  0
BLOCK_RECORD
  5
1D6
100
AcDbSymbolTableRecord
100
AcDbBlockTableRecord
  2
RN1G
  0
BLOCK_RECORD
  5
1DB
100
AcDbSymbolTableRecord
100
AcDbBlockTableRecord
  2
HNU
  0
BLOCK_RECORD
  5
1E0
100
AcDbSymbolTableRecord
100
AcDbBlockTableRecord
  2
GNP
  0
BLOCK_RECORD
  5
1E7
100
AcDbSymbolTableRecord
100
AcDbBlockTableRecord
  2
FIG124
  0
BLOCK_RECORD
  5
1ED
100
AcDbSymbolTableRecord
100
AcDbBlockTableRecord
  2
FIG061
  0
BLOCK_RECORD
  5
205
100
AcDbSymbolTableRecord
100
AcDbBlockTableRecord
  2
FIG069
  0
BLOCK_RECORD
  5
20B
100
AcDbSymbolTableRecord
100
AcDbBlockTableRecord
  2
FIG070
  0
BLOCK_RECORD
  5
218
100
AcDbSymbolTableRecord
100
AcDbBlockTableRecord
  2
FIG077
  0
BLOCK_RECORD
  5
220
100
AcDbSymbolTableRecord
100
AcDbBlockTableRecord
  2
FIG083
  0
BLOCK_RECORD
  5
229
100
AcDbSymbolTableRecord
100
AcDbBlockTableRecord
  2
FIG081
  0
BLOCK_RECORD
  5
247
100
AcDbSymbolTableRecord
100
AcDbBlockTableRecord
  2
BLADA
  0
BLOCK_RECORD
  5
24B
100
AcDbSymbolTableRecord
100
AcDbBlockTableRecord
  2
FIG017
  0
BLOCK_RECORD
  5
266
100
AcDbSymbolTableRecord
100
AcDbBlockTableRecord
  2
FIG048
  0
BLOCK_RECORD
  5
26B
100
AcDbSymbolTableRecord
100
AcDbBlockTableRecord
  2
FIG076
  0
BLOCK_RECORD
  5
273
100
AcDbSymbolTableRecord
100
AcDbBlockTableRecord
  2
KGN
  0
BLOCK_RECORD
  5
278
100
AcDbSymbolTableRecord
100
AcDbBlockTableRecord
  2
FIG155
  0
BLOCK_RECORD
  5
2ED
100
AcDbSymbolTableRecord
100
AcDbBlockTableRecord
  2
FIG084
  0
BLOCK_RECORD
  5
30C
100
AcDbSymbolTableRecord
100
AcDbBlockTableRecord
  2
FIG040
  0
BLOCK_RECORD
  5
312
100
AcDbSymbolTableRecord
100
AcDbBlockTableRecord
  2
FIG159
  0
BLOCK_RECORD
  5
31A
100
AcDbSymbolTableRecord
100
AcDbBlockTableRecord
  2
FIG153
  0
BLOCK_RECORD
  5
323
100
AcDbSymbolTableRecord
100
AcDbBlockTableRecord
  2
FIG156
  0
BLOCK_RECORD
  5
32E
100
AcDbSymbolTableRecord
100
AcDbBlockTableRecord
  2
FIG160
  0
BLOCK_RECORD
  5
333
100
AcDbSymbolTableRecord
100
AcDbBlockTableRecord
  2
FIGHM
  0
BLOCK_RECORD
  5
338
100
AcDbSymbolTableRecord
100
AcDbBlockTableRecord
  2
FIG095
  0
BLOCK_RECORD
  5
33C
100
AcDbSymbolTableRecord
100
AcDbBlockTableRecord
  2
FIG096
  0
BLOCK_RECORD
  5
347
100
AcDbSymbolTableRecord
100
AcDbBlockTableRecord
  2
FIG087
  0
BLOCK_RECORD
  5
373
100
AcDbSymbolTableRecord
100
AcDbBlockTableRecord
  2
FIG092
  0
BLOCK_RECORD
  5
3B6
100
AcDbSymbolTableRecord
100
AcDbBlockTableRecord
  2
FIG088
  0
BLOCK_RECORD
  5
3BC
100
AcDbSymbolTableRecord
100
AcDbBlockTableRecord
  2
FIG093
  0
BLOCK_RECORD
  5
3C1
100
AcDbSymbolTableRecord
100
AcDbBlockTableRecord
  2
FIG011
  0
BLOCK_RECORD
  5
3CB
100
AcDbSymbolTableRecord
100
AcDbBlockTableRecord
  2
FIG012
  0
BLOCK_RECORD
  5
3D7
100
AcDbSymbolTableRecord
100
AcDbBlockTableRecord
  2
FIG014
  0
BLOCK_RECORD
  5
3DC
100
AcDbSymbolTableRecord
100
AcDbBlockTableRecord
  2
FIG015
  0
BLOCK_RECORD
  5
3E3
100
AcDbSymbolTableRecord
100
AcDbBlockTableRecord
  2
FIG016
  0
BLOCK_RECORD
  5
3E9
100
AcDbSymbolTableRecord
100
AcDbBlockTableRecord
  2
FIG018
  0
BLOCK_RECORD
  5
3F9
100
AcDbSymbolTableRecord
100
AcDbBlockTableRecord
  2
FIG071
  0
BLOCK_RECORD
  5
3FE
100
AcDbSymbolTableRecord
100
AcDbBlockTableRecord
  2
FIG072
  0
BLOCK_RECORD
  5
407
100
AcDbSymbolTableRecord
100
AcDbBlockTableRecord
  2
FIG074
  0
BLOCK_RECORD
  5
410
100
AcDbSymbolTableRecord
100
AcDbBlockTableRecord
  2
FIG073
  0
BLOCK_RECORD
  5
41B
100
AcDbSymbolTableRecord
100
AcDbBlockTableRecord
  2
GNPG
  0
BLOCK_RECORD
  5
423
100
AcDbSymbolTableRecord
100
AcDbBlockTableRecord
  2
FIG220
  0
BLOCK_RECORD
  5
42A
100
AcDbSymbolTableRecord
100
AcDbBlockTableRecord
  2
FIG224
  0
BLOCK_RECORD
  5
431
100
AcDbSymbolTableRecord
100
AcDbBlockTableRecord
  2
FIG225
  0
BLOCK_RECORD
  5
6B1
100
AcDbSymbolTableRecord
100
AcDbBlockTableRecord
  2
FIG161
  0
BLOCK_RECORD
  5
6FE
100
AcDbSymbolTableRecord
100
AcDbBlockTableRecord
  2
FIG162
  0
BLOCK_RECORD
  5
709
100
AcDbSymbolTableRecord
100
AcDbBlockTableRecord
  2
FIG163
  0
BLOCK_RECORD
  5
743
100
AcDbSymbolTableRecord
100
AcDbBlockTableRecord
  2
FIG164
  0
BLOCK_RECORD
  5
77A
100
AcDbSymbolTableRecord
100
AcDbBlockTableRecord
  2
PSYM
  0
BLOCK_RECORD
  5
785
100
AcDbSymbolTableRecord
100
AcDbBlockTableRecord
  2
B1SYM
  0
BLOCK_RECORD
  5
798
100
AcDbSymbolTableRecord
100
AcDbBlockTableRecord
  2
B2SYM
  0
BLOCK_RECORD
  5
18DD
100
AcDbSymbolTableRecord
100
AcDbBlockTableRecord
  2
H1SYM
  0
BLOCK_RECORD
  5
18E2
100
AcDbSymbolTableRecord
100
AcDbBlockTableRecord
  2
H2SYM
  0
BLOCK_RECORD
  5
18F6
100
AcDbSymbolTableRecord
100
AcDbBlockTableRecord
  2
*X88
  0
BLOCK_RECORD
  5
1949
100
AcDbSymbolTableRecord
100
AcDbBlockTableRecord
  2
*X89
  0
BLOCK_RECORD
  5
19E7
100
AcDbSymbolTableRecord
100
AcDbBlockTableRecord
  2
FIG009
  0
BLOCK_RECORD
  5
1A08
100
AcDbSymbolTableRecord
100
AcDbBlockTableRecord
  2
FIG010
  0
BLOCK_RECORD
  5
26E7
100
AcDbSymbolTableRecord
100
AcDbBlockTableRecord
  2
ADLER
  0
BLOCK_RECORD
  5
5CF3
100
AcDbSymbolTableRecord
100
AcDbBlockTableRecord
  2
NORD
  0
BLOCK_RECORD
  5
BD78
100
AcDbSymbolTableRecord
100
AcDbBlockTableRecord
  2
FIG055
  0
BLOCK_RECORD
  5
C69C
100
AcDbSymbolTableRecord
100
AcDbBlockTableRecord
  2
FIG132
  0
BLOCK_RECORD
  5
C6BC
100
AcDbSymbolTableRecord
100
AcDbBlockTableRecord
  2
FIG131
  0
BLOCK_RECORD
  5
C6CA
100
AcDbSymbolTableRecord
100
AcDbBlockTableRecord
  2
FIG130
  0
BLOCK_RECORD
  5
C6D3
100
AcDbSymbolTableRecord
100
AcDbBlockTableRecord
  2
LPFEIL
  0
BLOCK_RECORD
  5
D526
100
AcDbSymbolTableRecord
100
AcDbBlockTableRecord
  2
FIG039
  0
BLOCK_RECORD
  5
DDA0
100
AcDbSymbolTableRecord
100
AcDbBlockTableRecord
  2
FIG133
  0
BLOCK_RECORD
  5
DE16
100
AcDbSymbolTableRecord
100
AcDbBlockTableRecord
  2
FIG134
  0
BLOCK_RECORD
  5
DE33
100
AcDbSymbolTableRecord
100
AcDbBlockTableRecord
  2
FIG135
  0
BLOCK_RECORD
  5
DE4C
100
AcDbSymbolTableRecord
100
AcDbBlockTableRecord
  2
FIG136
  0
BLOCK_RECORD
  5
DE65
100
AcDbSymbolTableRecord
100
AcDbBlockTableRecord
  2
FIG137
  0
BLOCK_RECORD
  5
DEA5
100
AcDbSymbolTableRecord
100
AcDbBlockTableRecord
  2
FIG019
  0
BLOCK_RECORD
  5
DF39
100
AcDbSymbolTableRecord
100
AcDbBlockTableRecord
  2
TRENN
  0
BLOCK_RECORD
  5
E051
100
AcDbSymbolTableRecord
100
AcDbBlockTableRecord
  2
MBLSYMBOL
  0
BLOCK_RECORD
  5
EAAF
100
AcDbSymbolTableRecord
100
AcDbBlockTableRecord
  2
INDEX
  0
BLOCK_RECORD
  5
F90D
100
AcDbSymbolTableRecord
100
AcDbBlockTableRecord
  2
LOGO
  0
BLOCK_RECORD
  5
F9CA
100
AcDbSymbolTableRecord
100
AcDbBlockTableRecord
  2
CR
  0
BLOCK_RECORD
  5
10D28
100
AcDbSymbolTableRecord
100
AcDbBlockTableRecord
  2
SYM
  0
BLOCK_RECORD
  5
10D2B
100
AcDbSymbolTableRecord
100
AcDbBlockTableRecord
  2
VGD1
  0
BLOCK_RECORD
  5
10D2E
100
AcDbSymbolTableRecord
100
AcDbBlockTableRecord
  2
BLA
  0
BLOCK_RECORD
  5
10D32
100
AcDbSymbolTableRecord
100
AcDbBlockTableRecord
  2
BLALT
  0
BLOCK_RECORD
  5
10D36
100
AcDbSymbolTableRecord
100
AcDbBlockTableRecord
  2
TBLEIN
  0
BLOCK_RECORD
  5
10F75
100
AcDbSymbolTableRecord
100
AcDbBlockTableRecord
  2
NUM
  0
BLOCK_RECORD
  5
10F79
100
AcDbSymbolTableRecord
100
AcDbBlockTableRecord
  2
BLZ
  0
BLOCK_RECORD
  5
10F7D
100
AcDbSymbolTableRecord
100
AcDbBlockTableRecord
  2
BLX
  0
BLOCK_RECORD
  5
12372
100
AcDbSymbolTableRecord
100
AcDbBlockTableRecord
  2
FIG138
  0
BLOCK_RECORD
  5
1238B
100
AcDbSymbolTableRecord
100
AcDbBlockTableRecord
  2
FIG139
  0
BLOCK_RECORD
  5
123A4
100
AcDbSymbolTableRecord
100
AcDbBlockTableRecord
  2
FIG140
  0
BLOCK_RECORD
  5
123BD
100
AcDbSymbolTableRecord
100
AcDbBlockTableRecord
  2
FIG141
  0
BLOCK_RECORD
  5
124C0
100
AcDbSymbolTableRecord
100
AcDbBlockTableRecord
  2
FIG058
  0
BLOCK_RECORD
  5
124C6
100
AcDbSymbolTableRecord
100
AcDbBlockTableRecord
  2
FIG042
  0
BLOCK_RECORD
  5
124D3
100
AcDbSymbolTableRecord
100
AcDbBlockTableRecord
  2
FIG057
  0
BLOCK_RECORD
  5
124E3
100
AcDbSymbolTableRecord
100
AcDbBlockTableRecord
  2
FIG063
  0
BLOCK_RECORD
  5
124EC
100
AcDbSymbolTableRecord
100
AcDbBlockTableRecord
  2
FIG064
  0
BLOCK_RECORD
  5
124F3
100
AcDbSymbolTableRecord
100
AcDbBlockTableRecord
  2
FIG065
  0
BLOCK_RECORD
  5
12506
100
AcDbSymbolTableRecord
100
AcDbBlockTableRecord
  2
FIG078
  0
BLOCK_RECORD
  5
12584
100
AcDbSymbolTableRecord
100
AcDbBlockTableRecord
  2
FIG038
  0
ENDTAB
  0
ENDSEC
  0
SECTION
  2
BLOCKS
  0
BLOCK
  5
1A
100
AcDbEntity
  8
0
100
AcDbBlockBegin
  2
*MODEL_SPACE
 70
     0
 10
0.0
 20
0.0
 30
0.0
  3
*MODEL_SPACE
  1

  0
ENDBLK
  5
1B
100
AcDbEntity
  8
0
100
AcDbBlockEnd
  0
BLOCK
  5
17
100
AcDbEntity
 67
     1
  8
0
100
AcDbBlockBegin
  2
*PAPER_SPACE
 70
     0
 10
0.0
 20
0.0
 30
0.0
  3
*PAPER_SPACE
  1

  0
ENDBLK
  5
18
100
AcDbEntity
 67
     1
  8
0
100
AcDbBlockEnd
  0
BLOCK
  5
62
100
AcDbEntity
  8
0
100
AcDbBlockBegin
  2
FIG025
 70
     2
 10
0.0
 20
0.0
 30
0.0
  3
FIG025
  1

  0
ATTDEF
  5
63
100
AcDbEntity
  8
0
100
AcDbText
 10
1.14
 20
-0.51
 30
0.0
 40
1.0
  1

 51
15.0
  7
NORM
100
AcDbAttributeDefinition
  3
Punktnummer
  2
PNUM
 70
     1
  0
CIRCLE
  5
64
100
AcDbEntity
  8
0
100
AcDbCircle
 10
0.0
 20
0.0
 30
0.0
 40
0.5
  0
ENDBLK
  5
65
100
AcDbEntity
  8
0
100
AcDbBlockEnd
  0
BLOCK
  5
6B
100
AcDbEntity
  8
0
100
AcDbBlockBegin
  2
FIG024
 70
     2
 10
0.0
 20
0.0
 30
0.0
  3
FIG024
  1

  0
ATTDEF
  5
6C
100
AcDbEntity
  8
0
100
AcDbText
 10
1.14
 20
-0.51
 30
0.0
 40
1.0
  1

 51
15.0
  7
NORM
100
AcDbAttributeDefinition
  3
Punktnummer
  2
PNUM
 70
     1
  0
CIRCLE
  5
6D
100
AcDbEntity
  8
0
100
AcDbCircle
 39
1.0
 10
0.0
 20
0.0
 30
0.0
 40
0.5
  0
LINE
  5
6E
100
AcDbEntity
  8
0
100
AcDbLine
 10
0.0
 20
0.0
 30
0.0
 11
0.0
 21
0.5
 31
0.0
  0
ENDBLK
  5
6F
100
AcDbEntity
  8
0
100
AcDbBlockEnd
  0
BLOCK
  5
12890
100
AcDbEntity
  8
0
100
AcDbBlockBegin
  2
FIG032
 70
     0
 10
0.0
 20
0.0
 30
0.0
  3
FIG032
  1

  0
LINE
  5
12891
100
AcDbEntity
  8
0
100
AcDbLine
 10
-0.32
 20
0.8
 30
0.0
 11
0.32
 21
0.8
 31
0.0
  0
LINE
  5
12892
100
AcDbEntity
  8
0
100
AcDbLine
 10
0.32
 20
0.8
 30
0.0
 11
-0.32
 21
-0.8
 31
0.0
  0
LINE
  5
12893
100
AcDbEntity
  8
0
100
AcDbLine
 10
-0.32
 20
-0.8
 30
0.0
 11
0.32
 21
-0.8
 31
0.0
  0
ENDBLK
  5
12894
100
AcDbEntity
  8
0
100
AcDbBlockEnd
  0
BLOCK
  5
11BC3
100
AcDbEntity
  8
0
100
AcDbBlockBegin
  2
FIG052
 70
     0
 10
0.0
 20
0.0
 30
0.0
  3
FIG052
  1

  0
LINE
  5
11BC4
100
AcDbEntity
  8
0
100
AcDbLine
 10
2.0
 20
0.0
 30
0.0
 11
0.0
 21
0.0
 31
0.0
  0
LINE
  5
11BC5
100
AcDbEntity
  8
0
100
AcDbLine
 10
0.0
 20
0.0
 30
0.0
 11
0.0
 21
0.8
 31
0.0
  0
ARC
  5
11BC6
100
AcDbEntity
  8
0
100
AcDbCircle
 10
0.0
 20
1.8
 30
0.0
 40
1.0
100
AcDbArc
 50
180.0
 51
0.0
  0
LINE
  5
11BC7
100
AcDbEntity
  8
0
100
AcDbLine
 10
-1.0
 20
2.6
 30
0.0
 11
-1.0
 21
1.8
 31
0.0
  0
ARC
  5
11BC8
100
AcDbEntity
  8
0
100
AcDbCircle
 10
0.0
 20
2.6
 30
0.0
 40
1.0
100
AcDbArc
 50
0.0
 51
180.0
  0
LINE
  5
11BC9
100
AcDbEntity
  8
0
100
AcDbLine
 10
1.0
 20
1.8
 30
0.0
 11
1.0
 21
2.6
 31
0.0
  0
ENDBLK
  5
11BCA
100
AcDbEntity
  8
0
100
AcDbBlockEnd
  0
BLOCK
  5
8E
100
AcDbEntity
  8
0
100
AcDbBlockBegin
  2
FIG053
 70
     0
 10
0.0
 20
0.0
 30
0.0
  3
FIG053
  1

  0
ARC
  5
8F
100
AcDbEntity
  8
0
100
AcDbCircle
 10
-0.25
 20
2.52
 30
0.0
 40
0.88
100
AcDbArc
 50
286.26
 51
0.0
  0
LINE
  5
90
100
AcDbEntity
  8
0
100
AcDbLine
 10
0.0
 20
0.0
 30
0.0
 11
0.0
 21
3.22
 31
0.0
  0
ARC
  5
91
100
AcDbEntity
  8
0
100
AcDbCircle
 10
0.25
 20
0.84
 30
0.0
 40
0.88
100
AcDbArc
 50
106.26
 51
253.74
  0
LINE
  5
92
100
AcDbEntity
  8
0
100
AcDbLine
 10
1.33
 20
0.0
 30
0.0
 11
0.0
 21
0.0
 31
0.0
  0
ENDBLK
  5
93
100
AcDbEntity
  8
0
100
AcDbBlockEnd
  0
BLOCK
  5
11BCE
100
AcDbEntity
  8
0
100
AcDbBlockBegin
  2
FIG054
 70
     0
 10
0.0
 20
0.0
 30
0.0
  3
FIG054
  1

  0
LINE
  5
11BCF
100
AcDbEntity
  8
0
100
AcDbLine
 10
0.0
 20
1.9
 30
0.0
 11
2.4
 21
0.0
 31
0.0
  0
LINE
  5
11BD0
100
AcDbEntity
  8
0
100
AcDbLine
 10
-2.4
 20
0.0
 30
0.0
 11
0.0
 21
1.9
 31
0.0
  0
CIRCLE
  5
11BD1
100
AcDbEntity
  8
0
100
AcDbCircle
 10
0.0
 20
0.0
 30
0.0
 40
0.9
  0
ENDBLK
  5
11BD2
100
AcDbEntity
  8
0
100
AcDbBlockEnd
  0
BLOCK
  5
11BE5
100
AcDbEntity
  8
0
100
AcDbBlockBegin
  2
FIG056
 70
     0
 10
0.0
 20
0.0
 30
0.0
  3
FIG056
  1

  0
ARC
  5
11BE6
100
AcDbEntity
  8
0
100
AcDbCircle
 10
-12.94
 20
6.28
 30
0.0
 40
13.0
100
AcDbArc
 50
335.05
 51
354.33
  0
ARC
  5
11BE7
100
AcDbEntity
  8
0
100
AcDbCircle
 10
12.94
 20
6.28
 30
0.0
 40
13.0
100
AcDbArc
 50
185.67
 51
204.95
  0
LINE
  5
11BE8
100
AcDbEntity
  8
0
100
AcDbLine
 10
2.8
 20
0.0
 30
0.0
 11
0.0
 21
0.0
 31
0.0
  0
LINE
  5
11BE9
100
AcDbEntity
  8
0
100
AcDbLine
 10
0.0
 20
0.0
 30
0.0
 11
0.0
 21
1.15
 31
0.0
  0
ENDBLK
  5
11BEA
100
AcDbEntity
  8
0
100
AcDbBlockEnd
  0
BLOCK
  5
11C00
100
AcDbEntity
  8
0
100
AcDbBlockBegin
  2
FIG150
 70
     0
 10
0.0
 20
0.0
 30
0.0
  3
FIG150
  1

  0
CIRCLE
  5
11C01
100
AcDbEntity
  8
0
100
AcDbCircle
 10
0.0
 20
0.0
 30
0.0
 40
2.0
  0
ENDBLK
  5
11C02
100
AcDbEntity
  8
0
100
AcDbBlockEnd
  0
BLOCK
  5
11C09
100
AcDbEntity
  8
0
100
AcDbBlockBegin
  2
FIG151
 70
     0
 10
0.0
 20
0.0
 30
0.0
  3
FIG151
  1

  0
POLYLINE
  5
11C0A
100
AcDbEntity
  8
0
100
AcDb2dPolyline
 66
     1
 10
0.0
 20
0.0
 30
0.0
 70
     1
  0
VERTEX
  5
11C0B
100
AcDbEntity
  8
0
100
AcDbVertex
100
AcDb2dVertex
 10
-2.0
 20
-2.0
 30
0.0
  0
VERTEX
  5
11C0C
100
AcDbEntity
  8
0
100
AcDbVertex
100
AcDb2dVertex
 10
-2.0
 20
2.0
 30
0.0
  0
VERTEX
  5
11C0D
100
AcDbEntity
  8
0
100
AcDbVertex
100
AcDb2dVertex
 10
2.0
 20
2.0
 30
0.0
  0
VERTEX
  5
11C0E
100
AcDbEntity
  8
0
100
AcDbVertex
100
AcDb2dVertex
 10
2.0
 20
-2.0
 30
0.0
  0
SEQEND
  5
11C0F
100
AcDbEntity
  8
0
  0
ENDBLK
  5
11C10
100
AcDbEntity
  8
0
100
AcDbBlockEnd
  0
BLOCK
  5
C4
100
AcDbEntity
  8
0
100
AcDbBlockBegin
  2
FIG152
 70
     0
 10
0.0
 20
0.0
 30
0.0
  3
FIG152
  1

  0
POLYLINE
  5
C5
100
AcDbEntity
  8
0
100
AcDb2dPolyline
 66
     1
 10
0.0
 20
0.0
 30
0.0
 70
     1
  0
VERTEX
  5
C6
100
AcDbEntity
  8
0
100
AcDbVertex
100
AcDb2dVertex
 10
-3.5
 20
1.5
 30
0.0
  0
VERTEX
  5
C7
100
AcDbEntity
  8
0
100
AcDbVertex
100
AcDb2dVertex
 10
3.5
 20
-1.5
 30
0.0
  0
VERTEX
  5
C8
100
AcDbEntity
  8
0
100
AcDbVertex
100
AcDb2dVertex
 10
3.5
 20
1.5
 30
0.0
  0
VERTEX
  5
C9
100
AcDbEntity
  8
0
100
AcDbVertex
100
AcDb2dVertex
 10
-3.5
 20
-1.5
 30
0.0
  0
SEQEND
  5
CA
100
AcDbEntity
  8
0
  0
ENDBLK
  5
CB
100
AcDbEntity
  8
0
100
AcDbBlockEnd
  0
BLOCK
  5
CD
100
AcDbEntity
  8
0
100
AcDbBlockBegin
  2
FIG154
 70
     2
 10
0.0
 20
0.0
 30
0.0
  3
FIG154
  1

  0
ATTDEF
  5
CE
100
AcDbEntity
  8
0
100
AcDbText
 10
2.09
 20
-0.38
 30
0.0
 40
1.0
  1
9999
 51
15.0
  7
NORM
100
AcDbAttributeDefinition
  3
Punktnummer
  2
PNUM
 70
     1
  0
POLYLINE
  5
CF
100
AcDbEntity
  8
0
100
AcDb2dPolyline
 66
     1
 10
0.0
 20
0.0
 30
0.0
 70
     1
  0
VERTEX
  5
D0
100
AcDbEntity
  8
0
100
AcDbVertex
100
AcDb2dVertex
 10
0.0
 20
-1.5
 30
0.0
  0
VERTEX
  5
D1
100
AcDbEntity
  8
0
100
AcDbVertex
100
AcDb2dVertex
 10
1.5
 20
1.0
 30
0.0
  0
VERTEX
  5
D2
100
AcDbEntity
  8
0
100
AcDbVertex
100
AcDb2dVertex
 10
-1.5
 20
1.0
 30
0.0
  0
SEQEND
  5
D3
100
AcDbEntity
  8
0
  0
LINE
  5
D4
100
AcDbEntity
  8
0
100
AcDbLine
 10
0.0
 20
0.3
 30
0.0
 11
0.0
 21
-0.3
 31
0.0
  0
LINE
  5
D5
100
AcDbEntity
  8
0
100
AcDbLine
 10
-0.3
 20
0.0
 30
0.0
 11
0.3
 21
0.0
 31
0.0
  0
ENDBLK
  5
D6
100
AcDbEntity
  8
0
100
AcDbBlockEnd
  0
BLOCK
  5
12885
100
AcDbEntity
  8
0
100
AcDbBlockBegin
  2
FIG031
 70
     0
 10
0.0
 20
0.0
 30
0.0
  3
FIG031
  1

  0
POLYLINE
  5
12886
100
AcDbEntity
  8
0
100
AcDb2dPolyline
 66
     1
 10
0.0
 20
0.0
 30
0.0
  0
VERTEX
  5
12887
100
AcDbEntity
  8
0
100
AcDbVertex
100
AcDb2dVertex
 10
0.224
 20
0.656
 30
0.0
 42
0.72
  0
VERTEX
  5
12888
100
AcDbEntity
  8
0
100
AcDbVertex
100
AcDb2dVertex
 10
-0.224
 20
0.4
 30
0.0
  0
VERTEX
  5
12889
100
AcDbEntity
  8
0
100
AcDbVertex
100
AcDb2dVertex
 10
0.224
 20
-0.4
 30
0.0
 42
-0.72
  0
VERTEX
  5
1288A
100
AcDbEntity
  8
0
100
AcDbVertex
100
AcDb2dVertex
 10
-0.224
 20
-0.656
 30
0.0
  0
SEQEND
  5
1288B
100
AcDbEntity
  8
0
  0
ENDBLK
  5
1288C
100
AcDbEntity
  8
0
100
AcDbBlockEnd
  0
BLOCK
  5
12111
100
AcDbEntity
  8
0
100
AcDbBlockBegin
  2
FIG041
 70
     2
 10
0.0
 20
0.0
 30
0.0
  3
FIG041
  1

  0
CIRCLE
  5
12112
100
AcDbEntity
  8
0
 62
     0
100
AcDbCircle
 10
0.0
 20
0.0
 30
0.0
 40
0.2
  0
ENDBLK
  5
12114
100
AcDbEntity
  8
0
100
AcDbBlockEnd
  0
BLOCK
  5
E5
100
AcDbEntity
  8
0
100
AcDbBlockBegin
  2
FIG158
 70
     0
 10
0.0
 20
0.0
 30
0.0
  3
FIG158
  1

  0
POLYLINE
  5
E6
100
AcDbEntity
  8
0
100
AcDb2dPolyline
 66
     1
 10
0.0
 20
0.0
 30
0.0
 70
     1
  0
VERTEX
  5
E7
100
AcDbEntity
  8
0
100
AcDbVertex
100
AcDb2dVertex
 10
0.0
 20
-2.8
 30
0.0
  0
VERTEX
  5
E8
100
AcDbEntity
  8
0
100
AcDbVertex
100
AcDb2dVertex
 10
-2.8
 20
0.0
 30
0.0
  0
VERTEX
  5
E9
100
AcDbEntity
  8
0
100
AcDbVertex
100
AcDb2dVertex
 10
0.0
 20
2.8
 30
0.0
  0
VERTEX
  5
EA
100
AcDbEntity
  8
0
100
AcDbVertex
100
AcDb2dVertex
 10
2.8
 20
0.0
 30
0.0
  0
SEQEND
  5
EB
100
AcDbEntity
  8
0
  0
ENDBLK
  5
EC
100
AcDbEntity
  8
0
100
AcDbBlockEnd
  0
BLOCK
  5
1211D
100
AcDbEntity
  8
0
100
AcDbBlockBegin
  2
FIG060
 70
     0
 10
0.0
 20
0.0
 30
0.0
  3
FIG060
  1

  0
LINE
  5
1211E
100
AcDbEntity
  8
0
100
AcDbLine
 10
1.2
 20
0.6
 30
0.0
 11
3.6
 21
0.6
 31
0.0
  0
LINE
  5
1211F
100
AcDbEntity
  8
0
100
AcDbLine
 10
2.4
 20
0.0
 30
0.0
 11
4.8
 21
0.0
 31
0.0
  0
LINE
  5
12120
100
AcDbEntity
  8
0
100
AcDbLine
 10
-4.2
 20
-0.6
 30
0.0
 11
-1.8
 21
-0.6
 31
0.0
  0
LINE
  5
12121
100
AcDbEntity
  8
0
100
AcDbLine
 10
-3.0
 20
0.0
 30
0.0
 11
-0.6
 21
0.0
 31
0.0
  0
LINE
  5
12122
100
AcDbEntity
  8
0
100
AcDbLine
 10
-1.8
 20
0.6
 30
0.0
 11
0.6
 21
0.6
 31
0.0
  0
LINE
  5
12123
100
AcDbEntity
  8
0
100
AcDbLine
 10
0.0
 20
-0.6
 30
0.0
 11
2.4
 21
-0.6
 31
0.0
  0
LINE
  5
12124
100
AcDbEntity
  8
0
100
AcDbLine
 10
-2.4
 20
-1.2
 30
0.0
 11
0.0
 21
-1.2
 31
0.0
  0
LINE
  5
12125
100
AcDbEntity
  8
0
100
AcDbLine
 10
-0.6
 20
1.2
 30
0.0
 11
1.8
 21
1.2
 31
0.0
  0
ENDBLK
  5
12126
100
AcDbEntity
  8
0
100
AcDbBlockEnd
  0
BLOCK
  5
F9
100
AcDbEntity
  8
0
100
AcDbBlockBegin
  2
FIG020
 70
     2
 10
0.0
 20
0.0
 30
0.0
  3
FIG020
  1

  0
ATTDEF
  5
FA
100
AcDbEntity
  8
0
100
AcDbText
 10
1.14
 20
-0.51
 30
0.0
 40
1.0
  1

 51
15.0
  7
NORM
100
AcDbAttributeDefinition
  3
Punktnummer
  2
PNUM
 70
     1
  0
LINE
  5
FB
100
AcDbEntity
  8
0
100
AcDbLine
 10
-0.25
 20
0.25
 30
0.0
 11
0.25
 21
-0.25
 31
0.0
  0
LINE
  5
FC
100
AcDbEntity
  8
0
100
AcDbLine
 10
-0.25
 20
-0.25
 30
0.0
 11
0.25
 21
0.25
 31
0.0
  0
ENDBLK
  5
FD
100
AcDbEntity
  8
0
100
AcDbBlockEnd
  0
BLOCK
  5
FF
100
AcDbEntity
  8
0
100
AcDbBlockBegin
  2
FIG157
 70
     0
 10
0.0
 20
0.0
 30
0.0
  3
FIG157
  1

  0
LINE
  5
100
100
AcDbEntity
  8
0
100
AcDbLine
 10
-2.0
 20
0.0
 30
0.0
 11
-1.0
 21
1.5
 31
0.0
  0
LINE
  5
101
100
AcDbEntity
  8
0
100
AcDbLine
 10
-1.0
 20
1.5
 30
0.0
 11
1.0
 21
1.5
 31
0.0
  0
LINE
  5
102
100
AcDbEntity
  8
0
100
AcDbLine
 10
1.0
 20
1.5
 30
0.0
 11
2.0
 21
0.0
 31
0.0
  0
LINE
  5
103
100
AcDbEntity
  8
0
100
AcDbLine
 10
2.0
 20
0.0
 30
0.0
 11
1.0
 21
-1.5
 31
0.0
  0
LINE
  5
104
100
AcDbEntity
  8
0
100
AcDbLine
 10
1.0
 20
-1.5
 30
0.0
 11
-1.0
 21
-1.5
 31
0.0
  0
LINE
  5
105
100
AcDbEntity
  8
0
100
AcDbLine
 10
-1.0
 20
-1.5
 30
0.0
 11
-2.0
 21
0.0
 31
0.0
  0
ENDBLK
  5
106
100
AcDbEntity
  8
0
100
AcDbBlockEnd
  0
BLOCK
  5
112
100
AcDbEntity
  8
0
100
AcDbBlockBegin
  2
FIG059
 70
     0
 10
0.0
 20
0.0
 30
0.0
  3
FIG059
  1

  0
LINE
  5
113
100
AcDbEntity
  8
0
100
AcDbLine
 10
-4.9
 20
0.0
 30
0.0
 11
7.0
 21
0.0
 31
0.0
  0
LINE
  5
114
100
AcDbEntity
  8
0
100
AcDbLine
 10
-6.3
 20
0.53
 30
0.0
 11
0.0
 21
0.53
 31
0.0
  0
LINE
  5
115
100
AcDbEntity
  8
0
100
AcDbLine
 10
-6.3
 20
-0.53
 30
0.0
 11
0.0
 21
-0.53
 31
0.0
  0
LINE
  5
116
100
AcDbEntity
  8
0
100
AcDbLine
 10
5.6
 20
0.0
 30
0.0
 11
3.5
 21
-0.53
 31
0.0
  0
LINE
  5
117
100
AcDbEntity
  8
0
100
AcDbLine
 10
5.6
 20
0.0
 30
0.0
 11
3.5
 21
0.53
 31
0.0
  0
ENDBLK
  5
118
100
AcDbEntity
  8
0
100
AcDbBlockEnd
  0
BLOCK
  5
121
100
AcDbEntity
  8
0
100
AcDbBlockBegin
  2
FIGLK1
 70
     0
 10
0.0
 20
0.0
 30
0.0
  3
FIGLK1
  1

  0
LINE
  5
122
100
AcDbEntity
  8
0
100
AcDbLine
 10
-0.75
 20
0.0
 30
0.0
 11
0.75
 21
0.0
 31
0.0
  0
LINE
  5
123
100
AcDbEntity
  8
0
100
AcDbLine
 10
0.0
 20
-0.75
 30
0.0
 11
0.0
 21
0.75
 31
0.0
  0
ENDBLK
  5
124
100
AcDbEntity
  8
0
100
AcDbBlockEnd
  0
BLOCK
  5
126
100
AcDbEntity
  8
0
100
AcDbBlockBegin
  2
FIGLK2
 70
     0
 10
0.0
 20
0.0
 30
0.0
  3
FIGLK2
  1

  0
LINE
  5
127
100
AcDbEntity
  8
0
100
AcDbLine
 10
-1.4
 20
0.0
 30
0.0
 11
1.4
 21
0.0
 31
0.0
  0
LINE
  5
128
100
AcDbEntity
  8
0
100
AcDbLine
 10
0.0
 20
-1.4
 30
0.0
 11
0.0
 21
1.4
 31
0.0
  0
ENDBLK
  5
129
100
AcDbEntity
  8
0
100
AcDbBlockEnd
  0
BLOCK
  5
12B
100
AcDbEntity
  8
0
100
AcDbBlockBegin
  2
FIGLK5
 70
     0
 10
0.0
 20
0.0
 30
0.0
  3
FIGLK5
  1

  0
LINE
  5
12C
100
AcDbEntity
  8
0
100
AcDbLine
 10
-2.8
 20
0.0
 30
0.0
 11
2.8
 21
0.0
 31
0.0
  0
LINE
  5
12D
100
AcDbEntity
  8
0
100
AcDbLine
 10
0.0
 20
-2.8
 30
0.0
 11
0.0
 21
2.8
 31
0.0
  0
ENDBLK
  5
12E
100
AcDbEntity
  8
0
100
AcDbBlockEnd
  0
BLOCK
  5
130
100
AcDbEntity
  8
0
100
AcDbBlockBegin
  2
FIGLP1
 70
     0
 10
0.0
 20
0.0
 30
0.0
  3
FIGLP1
  1

  0
CIRCLE
  5
131
100
AcDbEntity
  8
0
100
AcDbCircle
 10
0.0
 20
0.0
 30
0.0
 40
1.0
  0
ENDBLK
  5
132
100
AcDbEntity
  8
0
100
AcDbBlockEnd
  0
BLOCK
  5
134
100
AcDbEntity
  8
0
100
AcDbBlockBegin
  2
FIGLP2
 70
     0
 10
0.0
 20
0.0
 30
0.0
  3
FIGLP2
  1

  0
CIRCLE
  5
135
100
AcDbEntity
  8
0
100
AcDbCircle
 10
0.0
 20
0.0
 30
0.0
 40
2.0
  0
ENDBLK
  5
136
100
AcDbEntity
  8
0
100
AcDbBlockEnd
  0
BLOCK
  5
138
100
AcDbEntity
  8
0
100
AcDbBlockBegin
  2
FIGLP5
 70
     0
 10
0.0
 20
0.0
 30
0.0
  3
FIGLP5
  1

  0
CIRCLE
  5
139
100
AcDbEntity
  8
0
100
AcDbCircle
 10
0.0
 20
0.0
 30
0.0
 40
4.0
  0
ENDBLK
  5
13A
100
AcDbEntity
  8
0
100
AcDbBlockEnd
  0
BLOCK
  5
13C
100
AcDbEntity
  8
0
100
AcDbBlockBegin
  2
FIGLH1
 70
     0
 10
0.0
 20
0.0
 30
0.0
  3
FIGLH1
  1

  0
LINE
  5
13D
100
AcDbEntity
  8
0
100
AcDbLine
 10
-1.0
 20
0.0
 30
0.0
 11
1.0
 21
0.0
 31
0.0
  0
LINE
  5
13E
100
AcDbEntity
  8
0
100
AcDbLine
 10
0.0
 20
-1.0
 30
0.0
 11
0.0
 21
1.0
 31
0.0
  0
ENDBLK
  5
13F
100
AcDbEntity
  8
0
100
AcDbBlockEnd
  0
BLOCK
  5
141
100
AcDbEntity
  8
0
100
AcDbBlockBegin
  2
FIGLH2
 70
     0
 10
0.0
 20
0.0
 30
0.0
  3
FIGLH2
  1

  0
LINE
  5
142
100
AcDbEntity
  8
0
100
AcDbLine
 10
-2.0
 20
0.0
 30
0.0
 11
2.0
 21
0.0
 31
0.0
  0
LINE
  5
143
100
AcDbEntity
  8
0
100
AcDbLine
 10
0.0
 20
-2.0
 30
0.0
 11
0.0
 21
2.0
 31
0.0
  0
ENDBLK
  5
144
100
AcDbEntity
  8
0
100
AcDbBlockEnd
  0
BLOCK
  5
146
100
AcDbEntity
  8
0
100
AcDbBlockBegin
  2
FIGLH5
 70
     0
 10
0.0
 20
0.0
 30
0.0
  3
FIGLH5
  1

  0
LINE
  5
147
100
AcDbEntity
  8
0
100
AcDbLine
 10
-4.0
 20
0.0
 30
0.0
 11
4.0
 21
0.0
 31
0.0
  0
LINE
  5
148
100
AcDbEntity
  8
0
100
AcDbLine
 10
0.0
 20
-4.0
 30
0.0
 11
0.0
 21
4.0
 31
0.0
  0
ENDBLK
  5
149
100
AcDbEntity
  8
0
100
AcDbBlockEnd
  0
BLOCK
  5
14B
100
AcDbEntity
  8
0
100
AcDbBlockBegin
  2
FIG062
 70
     0
 10
0.0
 20
0.0
 30
0.0
  3
FIG062
  1

  0
LINE
  5
14C
100
AcDbEntity
  8
0
100
AcDbLine
 10
-1.68
 20
0.0
 30
0.0
 11
-1.03
 21
0.0
 31
0.0
  0
POLYLINE
  5
14D
100
AcDbEntity
  8
0
100
AcDb2dPolyline
 66
     1
 10
0.0
 20
0.0
 30
0.0
 70
     1
  0
VERTEX
  5
14E
100
AcDbEntity
  8
0
100
AcDbVertex
100
AcDb2dVertex
 10
0.78
 20
1.23
 30
0.0
 42
0.15
  0
VERTEX
  5
14F
100
AcDbEntity
  8
0
100
AcDbVertex
100
AcDb2dVertex
 10
0.47
 20
1.32
 30
0.0
 42
0.11
  0
VERTEX
  5
150
100
AcDbEntity
  8
0
100
AcDbVertex
100
AcDb2dVertex
 10
0.02
 20
1.22
 30
0.0
 42
0.07
  0
VERTEX
  5
151
100
AcDbEntity
  8
0
100
AcDbVertex
100
AcDb2dVertex
 10
-0.44
 20
0.92
 30
0.0
 42
0.08
  0
VERTEX
  5
152
100
AcDbEntity
  8
0
100
AcDbVertex
100
AcDb2dVertex
 10
-0.78
 20
0.5
 30
0.0
 42
0.06
  0
VERTEX
  5
153
100
AcDbEntity
  8
0
100
AcDbVertex
100
AcDb2dVertex
 10
-1.05
 20
-0.04
 30
0.0
 42
0.07
  0
VERTEX
  5
154
100
AcDbEntity
  8
0
100
AcDbVertex
100
AcDb2dVertex
 10
-1.14
 20
-0.52
 30
0.0
 42
0.11
  0
VERTEX
  5
155
100
AcDbEntity
  8
0
100
AcDbVertex
100
AcDb2dVertex
 10
-1.07
 20
-0.97
 30
0.0
 42
0.15
  0
VERTEX
  5
156
100
AcDbEntity
  8
0
100
AcDbVertex
100
AcDb2dVertex
 10
-0.86
 20
-1.23
 30
0.0
 42
0.15
  0
VERTEX
  5
157
100
AcDbEntity
  8
0
100
AcDbVertex
100
AcDb2dVertex
 10
-0.54
 20
-1.32
 30
0.0
 42
0.11
  0
VERTEX
  5
158
100
AcDbEntity
  8
0
100
AcDbVertex
100
AcDb2dVertex
 10
-0.09
 20
-1.22
 30
0.0
 42
0.07
  0
VERTEX
  5
159
100
AcDbEntity
  8
0
100
AcDbVertex
100
AcDb2dVertex
 10
0.32
 20
-0.95
 30
0.0
 42
0.06
  0
VERTEX
  5
15A
100
AcDbEntity
  8
0
100
AcDbVertex
100
AcDb2dVertex
 10
0.7
 20
-0.5
 30
0.0
 42
0.06
  0
VERTEX
  5
15B
100
AcDbEntity
  8
0
100
AcDbVertex
100
AcDb2dVertex
 10
0.97
 20
0.04
 30
0.0
 42
0.07
  0
VERTEX
  5
15C
100
AcDbEntity
  8
0
100
AcDbVertex
100
AcDb2dVertex
 10
1.07
 20
0.52
 30
0.0
 42
0.11
  0
VERTEX
  5
15D
100
AcDbEntity
  8
0
100
AcDbVertex
100
AcDb2dVertex
 10
0.99
 20
0.97
 30
0.0
 42
0.15
  0
SEQEND
  5
15E
100
AcDbEntity
  8
0
  0
LINE
  5
15F
100
AcDbEntity
  8
0
100
AcDbLine
 10
0.96
 20
0.0
 30
0.0
 11
1.6
 21
0.0
 31
0.0
  0
ENDBLK
  5
160
100
AcDbEntity
  8
0
100
AcDbBlockEnd
  0
BLOCK
  5
162
100
AcDbEntity
  8
0
100
AcDbBlockBegin
  2
FIG079
 70
     0
 10
0.0
 20
0.0
 30
0.0
  3
FIG079
  1

  0
CIRCLE
  5
163
100
AcDbEntity
  8
0
100
AcDbCircle
 10
0.0
 20
0.0
 30
0.0
 40
0.5
  0
LINE
  5
164
100
AcDbEntity
  8
0
100
AcDbLine
 10
0.0
 20
5.5
 30
0.0
 11
-0.5
 21
3.0
 31
0.0
  0
LINE
  5
165
100
AcDbEntity
  8
0
100
AcDbLine
 10
-0.5
 20
3.0
 30
0.0
 11
0.5
 21
3.0
 31
0.0
  0
LINE
  5
166
100
AcDbEntity
  8
0
100
AcDbLine
 10
0.5
 20
3.0
 30
0.0
 11
0.0
 21
0.5
 31
0.0
  0
LINE
  5
167
100
AcDbEntity
  8
0
100
AcDbLine
 10
0.0
 20
0.5
 30
0.0
 11
0.42
 21
0.99
 31
0.0
  0
LINE
  5
168
100
AcDbEntity
  8
0
100
AcDbLine
 10
0.0
 20
0.5
 30
0.0
 11
-0.14
 21
1.08
 31
0.0
  0
ENDBLK
  5
169
100
AcDbEntity
  8
0
100
AcDbBlockEnd
  0
BLOCK
  5
16B
100
AcDbEntity
  8
0
100
AcDbBlockBegin
  2
FIG013
 70
     2
 10
0.0
 20
0.0
 30
0.0
  3
FIG013
  1

  0
ATTDEF
  5
16C
100
AcDbEntity
  8
0
100
AcDbText
 10
2.0
 20
1.0
 30
0.0
 40
2.5
  1

 51
15.0
  7
NORM
100
AcDbAttributeDefinition
  3
Punktnummer
  2
PNUM
 70
     0
  0
LINE
  5
16D
100
AcDbEntity
  8
0
100
AcDbLine
 10
0.0
 20
2.0
 30
0.0
 11
0.0
 21
5.0
 31
0.0
  0
CIRCLE
  5
16E
100
AcDbEntity
  8
0
100
AcDbCircle
 10
0.0
 20
0.0
 30
0.0
 40
1.0
  0
POLYLINE
  5
16F
100
AcDbEntity
  8
0
100
AcDb2dPolyline
 66
     1
 10
0.0
 20
0.0
 30
0.0
 70
     1
  0
VERTEX
  5
170
100
AcDbEntity
  8
0
100
AcDbVertex
100
AcDb2dVertex
 10
0.0
 20
2.0
 30
0.0
  0
VERTEX
  5
171
100
AcDbEntity
  8
0
100
AcDbVertex
100
AcDb2dVertex
 10
-1.73
 20
-1.0
 30
0.0
  0
VERTEX
  5
172
100
AcDbEntity
  8
0
100
AcDbVertex
100
AcDb2dVertex
 10
1.73
 20
-1.0
 30
0.0
  0
SEQEND
  5
173
100
AcDbEntity
  8
0
  0
ENDBLK
  5
174
100
AcDbEntity
  8
0
100
AcDbBlockEnd
  0
BLOCK
  5
185
100
AcDbEntity
  8
0
100
AcDbBlockBegin
  2
FIG068
 70
     0
 10
0.0
 20
0.0
 30
0.0
  3
FIG068
  1

  0
LINE
  5
186
100
AcDbEntity
  8
0
100
AcDbLine
 10
-0.5
 20
2.0
 30
0.0
 11
0.5
 21
2.0
 31
0.0
  0
LINE
  5
187
100
AcDbEntity
  8
0
100
AcDbLine
 10
0.0
 20
1.5
 30
0.0
 11
0.0
 21
2.5
 31
0.0
  0
LINE
  5
188
100
AcDbEntity
  8
0
100
AcDbLine
 10
0.5
 20
1.0
 30
0.0
 11
0.5
 21
0.0
 31
0.0
  0
LINE
  5
189
100
AcDbEntity
  8
0
100
AcDbLine
 10
-0.5
 20
1.0
 30
0.0
 11
-0.5
 21
0.0
 31
0.0
  0
ARC
  5
18A
100
AcDbEntity
  8
0
100
AcDbCircle
 10
0.0
 20
1.0
 30
0.0
 40
0.5
100
AcDbArc
 50
0.0
 51
180.0
  0
CIRCLE
  5
18B
100
AcDbEntity
  8
0
100
AcDbCircle
 10
0.0
 20
0.0
 30
0.0
 40
0.5
  0
ENDBLK
  5
18C
100
AcDbEntity
  8
0
100
AcDbBlockEnd
  0
BLOCK
  5
196
100
AcDbEntity
  8
0
100
AcDbBlockBegin
  2
FIG067
 70
     0
 10
0.0
 20
0.0
 30
0.0
  3
FIG067
  1

  0
LINE
  5
197
100
AcDbEntity
  8
0
100
AcDbLine
 10
-1.0
 20
1.75
 30
0.0
 11
1.0
 21
1.75
 31
0.0
  0
LINE
  5
198
100
AcDbEntity
  8
0
100
AcDbLine
 10
0.0
 20
0.75
 30
0.0
 11
0.0
 21
2.75
 31
0.0
  0
CIRCLE
  5
199
100
AcDbEntity
  8
0
100
AcDbCircle
 10
0.0
 20
0.0
 30
0.0
 40
0.75
  0
ENDBLK
  5
19A
100
AcDbEntity
  8
0
100
AcDbBlockEnd
  0
BLOCK
  5
1AB
100
AcDbEntity
  8
0
100
AcDbBlockBegin
  2
MBNR
 70
     2
 10
0.0
 20
0.0
 30
0.0
  3
MBNR
  1

  0
POINT
  5
1AC
100
AcDbEntity
  8
RL
100
AcDbPoint
 10
0.0
 20
0.0
 30
0.0
  0
ATTDEF
  5
1AD
100
AcDbEntity
  8
RL
100
AcDbText
 10
1.0
 20
1.0
 30
0.0
 40
1.0
  1
mblnr
 51
15.0
  7
NORM
100
AcDbAttributeDefinition
  3

  2
DATUM
 70
     1
  0
ENDBLK
  5
1AE
100
AcDbEntity
  8
0
100
AcDbBlockEnd
  0
BLOCK
  5
1B0
100
AcDbEntity
  8
0
100
AcDbBlockBegin
  2
GN1
 70
     2
 10
0.0
 20
0.0
 30
0.0
  3
GN1
  1

  0
ATTDEF
  5
1B1
100
AcDbEntity
  8
GN
100
AcDbText
 10
0.0
 20
-1.0
 30
0.0
 40
2.0
  1

 51
15.0
  7
NORM
 72
     1
 11
0.0
 21
0.0
 31
0.0
100
AcDbAttributeDefinition
  3
Grundstücksnummer
  2
3
 70
     4
 74
     2
  0
ENDBLK
  5
1B2
100
AcDbEntity
  8
0
100
AcDbBlockEnd
  0
BLOCK
  5
1268A
100
AcDbEntity
  8
0
100
AcDbBlockBegin
  2
GN1G
 70
     2
 10
0.0
 20
0.0
 30
0.0
  3
GN1G
  1

  0
TEXT
  5
1268B
100
AcDbEntity
  8
0
100
AcDbText
 10
-3.714286
 20
-3.0
 30
0.0
 40
2.0
  1
---
 51
15.0
  7
NORM
 72
     1
 11
0.0
 21
-2.0
 31
0.0
100
AcDbText
 73
     2
  0
ATTDEF
  5
1268C
100
AcDbEntity
  8
GN
100
AcDbText
 10
0.0
 20
-1.0
 30
0.0
 40
2.0
  1

 51
15.0
  7
NORM
 72
     1
 11
0.0
 21
0.0
 31
0.0
100
AcDbAttributeDefinition
  3
Grundstücksnummer
  2
3
 70
     4
 74
     2
  0
ENDBLK
  5
1268D
100
AcDbEntity
  8
0
100
AcDbBlockEnd
  0
BLOCK
  5
1C6
100
AcDbEntity
  8
0
100
AcDbBlockBegin
  2
RN1
 70
     2
 10
0.0
 20
0.0
 30
0.0
  3
RN1
  1

  0
ATTDEF
  5
1C7
100
AcDbEntity
  8
RN
100
AcDbText
 10
0.0
 20
-1.0
 30
0.0
 40
2.0
  1

 51
15.0
  7
NORM
 72
     1
 11
0.0
 21
0.0
 31
0.0
100
AcDbAttributeDefinition
  3
Grundstücksnummer
  2
3
 70
     4
 74
     2
  0
ENDBLK
  5
1C8
100
AcDbEntity
  8
0
100
AcDbBlockEnd
  0
BLOCK
  5
1D7
100
AcDbEntity
  8
0
100
AcDbBlockBegin
  2
RN1G
 70
     2
 10
0.0
 20
0.0
 30
0.0
  3
RN1G
  1

  0
ATTDEF
  5
1D8
100
AcDbEntity
  8
RN
100
AcDbText
 10
0.0
 20
-1.0
 30
0.0
 40
2.0
  1

 51
15.0
  7
NORM
 72
     1
 11
0.0
 21
0.0
 31
0.0
100
AcDbAttributeDefinition
  3
Grundstücksnummer
  2
3
 70
     4
 74
     2
  0
TEXT
  5
1D9
100
AcDbEntity
  8
0
100
AcDbText
 10
-3.714286
 20
-3.0
 30
0.0
 40
2.0
  1
---
 51
15.0
  7
NORM
 72
     1
 11
0.0
 21
-2.0
 31
0.0
100
AcDbText
 73
     2
  0
ENDBLK
  5
1DA
100
AcDbEntity
  8
0
100
AcDbBlockEnd
  0
BLOCK
  5
1DC
100
AcDbEntity
  8
0
100
AcDbBlockBegin
  2
HNU
 70
     2
 10
0.0
 20
0.0
 30
0.0
  3
HNU
  1

  0
ATTDEF
  5
1DD
100
AcDbEntity
  8
HN
100
AcDbText
 10
0.0
 20
0.0
 30
0.0
 40
2.0
  1

100
AcDbAttributeDefinition
  3
Hausnummer
  2
H
 70
     4
  0
ATTDEF
  5
1DE
100
AcDbEntity
  8
HNA
100
AcDbText
 10
0.0
 20
-2.5
 30
0.0
 40
2.0
  1

100
AcDbAttributeDefinition
  3
Grundstücksnummer
  2
K
 70
     1
  0
ENDBLK
  5
1DF
100
AcDbEntity
  8
0
100
AcDbBlockEnd
  0
BLOCK
  5
126DF
100
AcDbEntity
  8
0
100
AcDbBlockBegin
  2
GNP
 70
     2
 10
0.0
 20
0.0
 30
0.0
  3
GNP
  1

  0
LINE
  5
126E0
100
AcDbEntity
  8
0
100
AcDbLine
 10
0.0
 20
0.0
 30
0.0
 11
1.0
 21
0.35
 31
0.0
  0
LINE
  5
126E1
100
AcDbEntity
  8
0
100
AcDbLine
 10
0.0
 20
0.0
 30
0.0
 11
1.0
 21
-0.35
 31
0.0
  0
LINE
  5
126E2
100
AcDbEntity
  8
0
100
AcDbLine
 10
0.0
 20
0.0
 30
0.0
 11
5.0
 21
0.0
 31
0.0
  0
ATTDEF
  5
126E3
100
AcDbEntity
  8
0
100
AcDbText
 10
6.0
 20
-1.0
 30
0.0
 40
2.0
  1

 51
15.0
  7
NORM
 72
     1
 11
6.0
 21
0.0
 31
0.0
100
AcDbAttributeDefinition
  3
Grundstücksnummer
  2
3
 70
     4
 74
     2
  0
ENDBLK
  5
126E4
100
AcDbEntity
  8
0
100
AcDbBlockEnd
  0
BLOCK
  5
126D3
100
AcDbEntity
  8
0
100
AcDbBlockBegin
  2
FIG124
 70
     0
 10
0.0
 20
0.0
 30
0.0
  3
FIG124
  1

  0
CIRCLE
  5
126D4
100
AcDbEntity
  8
0
100
AcDbCircle
 39
1.0
 10
0.0
 20
0.0
 30
0.0
 40
0.5
  0
LINE
  5
126D5
100
AcDbEntity
  8
0
100
AcDbLine
 10
0.0
 20
0.0
 30
0.0
 11
0.0
 21
0.5
 31
0.0
  0
ENDBLK
  5
126D6
100
AcDbEntity
  8
0
100
AcDbBlockEnd
  0
BLOCK
  5
1EE
100
AcDbEntity
  8
0
100
AcDbBlockBegin
  2
FIG061
 70
     0
 10
0.0
 20
0.0
 30
0.0
  3
FIG061
  1

  0
LINE
  5
1EF
100
AcDbEntity
  8
0
100
AcDbLine
 10
-2.33
 20
0.0
 30
0.0
 11
-4.33
 21
0.0
 31
0.0
  0
LINE
  5
1F0
100
AcDbEntity
  8
0
100
AcDbLine
 10
-4.33
 20
0.5
 30
0.0
 11
-4.6
 21
0.98
 31
0.0
  0
LINE
  5
1F1
100
AcDbEntity
  8
0
100
AcDbLine
 10
-3.83
 20
0.5
 30
0.0
 11
-3.83
 21
1.66
 31
0.0
  0
LINE
  5
1F2
100
AcDbEntity
  8
0
100
AcDbLine
 10
-3.33
 20
0.5
 30
0.0
 11
-3.01
 21
0.98
 31
0.0
  0
LINE
  5
1F3
100
AcDbEntity
  8
0
100
AcDbLine
 10
-2.83
 20
0.5
 30
0.0
 11
-2.08
 21
0.5
 31
0.0
  0
LINE
  5
1F4
100
AcDbEntity
  8
0
100
AcDbLine
 10
-1.33
 20
0.5
 30
0.0
 11
0.67
 21
0.5
 31
0.0
  0
LINE
  5
1F5
100
AcDbEntity
  8
0
100
AcDbLine
 10
-0.33
 20
1.0
 30
0.0
 11
1.67
 21
1.0
 31
0.0
  0
LINE
  5
1F6
100
AcDbEntity
  8
0
100
AcDbLine
 10
2.17
 20
1.0
 30
0.0
 11
1.9
 21
1.48
 31
0.0
  0
LINE
  5
1F7
100
AcDbEntity
  8
0
100
AcDbLine
 10
2.67
 20
1.0
 30
0.0
 11
2.67
 21
2.16
 31
0.0
  0
LINE
  5
1F8
100
AcDbEntity
  8
0
100
AcDbLine
 10
3.17
 20
1.0
 30
0.0
 11
3.49
 21
1.48
 31
0.0
  0
LINE
  5
1F9
100
AcDbEntity
  8
0
100
AcDbLine
 10
3.67
 20
1.0
 30
0.0
 11
4.42
 21
1.0
 31
0.0
  0
LINE
  5
1FA
100
AcDbEntity
  8
0
100
AcDbLine
 10
1.67
 20
0.5
 30
0.0
 11
3.67
 21
0.5
 31
0.0
  0
LINE
  5
1FB
100
AcDbEntity
  8
0
100
AcDbLine
 10
0.67
 20
0.0
 30
0.0
 11
2.67
 21
0.0
 31
0.0
  0
LINE
  5
1FC
100
AcDbEntity
  8
0
100
AcDbLine
 10
-0.33
 20
-0.5
 30
0.0
 11
1.67
 21
-0.5
 31
0.0
  0
LINE
  5
1FD
100
AcDbEntity
  8
0
100
AcDbLine
 10
-1.83
 20
-1.0
 30
0.0
 11
0.17
 21
-1.0
 31
0.0
  0
LINE
  5
1FE
100
AcDbEntity
  8
0
100
AcDbLine
 10
-1.33
 20
-0.5
 30
0.0
 11
-3.33
 21
-0.5
 31
0.0
  0
ENDBLK
  5
1FF
100
AcDbEntity
  8
0
100
AcDbBlockEnd
  0
BLOCK
  5
1B2A
100
AcDbEntity
  8
0
100
AcDbBlockBegin
  2
FIG069
 70
     0
 10
0.0
 20
0.0
 30
0.0
  3
FIG069
  1

  0
LINE
  5
1B2B
100
AcDbEntity
  8
0
100
AcDbLine
 10
-1.0
 20
2.0
 30
0.0
 11
1.0
 21
2.0
 31
0.0
  0
LINE
  5
1B2C
100
AcDbEntity
  8
0
100
AcDbLine
 10
0.0
 20
0.0
 30
0.0
 11
0.0
 21
3.5
 31
0.0
  0
LINE
  5
1B2D
100
AcDbEntity
  8
0
100
AcDbLine
 10
2.0
 20
0.0
 30
0.0
 11
0.0
 21
0.0
 31
0.0
  0
ENDBLK
  5
1B2E
100
AcDbEntity
  8
0
100
AcDbBlockEnd
  0
BLOCK
  5
20C
100
AcDbEntity
  8
0
100
AcDbBlockBegin
  2
FIG070
 70
     0
 10
0.0
 20
0.0
 30
0.0
  3
FIG070
  1

  0
LINE
  5
20D
100
AcDbEntity
  8
0
100
AcDbLine
 10
-2.0
 20
0.0
 30
0.0
 11
2.0
 21
0.0
 31
0.0
  0
LINE
  5
20E
100
AcDbEntity
  8
0
100
AcDbLine
 10
1.3
 20
0.0
 30
0.0
 11
0.53
 21
2.65
 31
0.0
  0
LINE
  5
20F
100
AcDbEntity
  8
0
100
AcDbLine
 10
-1.3
 20
0.0
 30
0.0
 11
-0.53
 21
2.65
 31
0.0
  0
CIRCLE
  5
210
100
AcDbEntity
  8
0
100
AcDbCircle
 10
0.0
 20
3.5
 30
0.0
 40
1.0
  0
ENDBLK
  5
211
100
AcDbEntity
  8
0
100
AcDbBlockEnd
  0
BLOCK
  5
12159
100
AcDbEntity
  8
0
100
AcDbBlockBegin
  2
FIG077
 70
     0
 10
0.0
 20
0.0
 30
0.0
  3
FIG077
  1

  0
ARC
  5
1215A
100
AcDbEntity
  8
0
 62
     0
100
AcDbCircle
 10
-4.0
 20
2.5
 30
0.0
 40
6.5
100
AcDbArc
 50
337.38
 51
22.62
  0
ARC
  5
1215B
100
AcDbEntity
  8
0
 62
     0
100
AcDbCircle
 10
4.0
 20
2.5
 30
0.0
 40
6.5
100
AcDbArc
 50
157.38
 51
202.62
  0
ARC
  5
1215C
100
AcDbEntity
  8
0
 62
     0
100
AcDbCircle
 10
0.25
 20
0.84
 30
0.0
 40
0.88
100
AcDbArc
 50
106.26
 51
253.74
  0
LINE
  5
1215D
100
AcDbEntity
  8
0
 62
     0
100
AcDbLine
 10
0.0
 20
0.0
 30
0.0
 11
0.0
 21
3.22
 31
0.0
  0
LINE
  5
1215E
100
AcDbEntity
  8
0
 62
     0
100
AcDbLine
 10
1.33
 20
0.0
 30
0.0
 11
0.0
 21
0.0
 31
0.0
  0
ARC
  5
1215F
100
AcDbEntity
  8
0
 62
     0
100
AcDbCircle
 10
-0.25
 20
2.52
 30
0.0
 40
0.88
100
AcDbArc
 50
286.26
 51
0.0
  0
ENDBLK
  5
12160
100
AcDbEntity
  8
0
100
AcDbBlockEnd
  0
BLOCK
  5
221
100
AcDbEntity
  8
0
100
AcDbBlockBegin
  2
FIG083
 70
     0
 10
0.0
 20
0.0
 30
0.0
  3
FIG083
  1

  0
POLYLINE
  5
222
100
AcDbEntity
  8
0
100
AcDb2dPolyline
 66
     1
 10
0.0
 20
0.0
 30
0.0
 70
     1
  0
VERTEX
  5
223
100
AcDbEntity
  8
0
100
AcDbVertex
100
AcDb2dVertex
 10
0.4
 20
0.4
 30
0.0
  0
VERTEX
  5
224
100
AcDbEntity
  8
0
100
AcDbVertex
100
AcDb2dVertex
 10
-0.4
 20
0.4
 30
0.0
  0
VERTEX
  5
225
100
AcDbEntity
  8
0
100
AcDbVertex
100
AcDb2dVertex
 10
-0.4
 20
-0.4
 30
0.0
  0
VERTEX
  5
226
100
AcDbEntity
  8
0
100
AcDbVertex
100
AcDb2dVertex
 10
0.4
 20
-0.4
 30
0.0
  0
SEQEND
  5
227
100
AcDbEntity
  8
0
  0
ENDBLK
  5
228
100
AcDbEntity
  8
0
100
AcDbBlockEnd
  0
BLOCK
  5
22A
100
AcDbEntity
  8
0
100
AcDbBlockBegin
  2
FIG081
 70
     0
 10
0.0
 20
0.0
 30
0.0
  3
FIG081
  1

  0
CIRCLE
  5
22B
100
AcDbEntity
  8
0
100
AcDbCircle
 10
0.0
 20
0.0
 30
0.0
 40
0.75
  0
LINE
  5
22C
100
AcDbEntity
  8
0
100
AcDbLine
 10
0.0
 20
0.75
 30
0.0
 11
0.0
 21
4.75
 31
0.0
  0
LINE
  5
22D
100
AcDbEntity
  8
0
100
AcDbLine
 10
-1.5
 20
4.75
 30
0.0
 11
1.5
 21
4.75
 31
0.0
  0
LINE
  5
22E
100
AcDbEntity
  8
0
100
AcDbLine
 10
-1.5
 20
5.25
 30
0.0
 11
-1.5
 21
4.25
 31
0.0
  0
LINE
  5
22F
100
AcDbEntity
  8
0
100
AcDbLine
 10
1.5
 20
5.25
 30
0.0
 11
1.5
 21
4.25
 31
0.0
  0
ENDBLK
  5
230
100
AcDbEntity
  8
0
100
AcDbBlockEnd
  0
BLOCK
  5
248
100
AcDbEntity
  8
0
100
AcDbBlockBegin
  2
BLADA
 70
     2
 10
0.0
 20
0.0
 30
0.0
  3
BLADA
  1

  0
ATTDEF
  5
249
100
AcDbEntity
  8
0
100
AcDbText
 10
0.0
 20
0.0
 30
0.0
 40
2.0
  1

 51
15.0
  7
NORM
100
AcDbAttributeDefinition
  3

  2
1
 70
     0
  0
ENDBLK
  5
24A
100
AcDbEntity
  8
0
100
AcDbBlockEnd
  0
BLOCK
  5
1223A
100
AcDbEntity
  8
0
100
AcDbBlockBegin
  2
FIG017
 70
     2
 10
0.0
 20
0.0
 30
0.0
  3
FIG017
  1

  0
CIRCLE
  5
1223B
100
AcDbEntity
  8
0
100
AcDbCircle
 10
0.0
 20
0.0
 30
0.0
 40
0.75
  0
ATTDEF
  5
1223C
100
AcDbEntity
  8
0
100
AcDbText
 10
1.43
 20
-0.51
 30
0.0
 40
1.75
  1

 51
15.0
  7
NORM
100
AcDbAttributeDefinition
  3
Punktnummer
  2
PNUM
 70
     0
  0
ENDBLK
  5
1223D
100
AcDbEntity
  8
0
100
AcDbBlockEnd
  0
BLOCK
  5
126C3
100
AcDbEntity
  8
0
100
AcDbBlockBegin
  2
FIG048
 70
     0
 10
0.0
 20
0.0
 30
0.0
  3
FIG048
  1

  0
TEXT
  5
126C4
100
AcDbEntity
  8
0
100
AcDbText
 10
-2.47
 20
-1.25
 30
0.0
 40
2.5
  1
L
 51
15.0
  7
NORM
100
AcDbText
  0
TEXT
  5
126C5
100
AcDbEntity
  8
0
100
AcDbText
 10
-0.27
 20
-1.25
 30
0.0
 40
2.5
  1
N
 51
15.0
  7
NORM
100
AcDbText
  0
ENDBLK
  5
126C6
100
AcDbEntity
  8
0
100
AcDbBlockEnd
  0
BLOCK
  5
26C
100
AcDbEntity
  8
0
100
AcDbBlockBegin
  2
FIG076
 70
     0
 10
0.0
 20
0.0
 30
0.0
  3
FIG076
  1

  0
LINE
  5
26D
100
AcDbEntity
  8
0
100
AcDbLine
 10
-2.1
 20
0.0
 30
0.0
 11
3.0
 21
0.0
 31
0.0
  0
LINE
  5
26E
100
AcDbEntity
  8
0
100
AcDbLine
 10
2.4
 20
0.0
 30
0.0
 11
1.5
 21
-0.23
 31
0.0
  0
LINE
  5
26F
100
AcDbEntity
  8
0
100
AcDbLine
 10
2.4
 20
0.0
 30
0.0
 11
1.5
 21
0.23
 31
0.0
  0
LINE
  5
270
100
AcDbEntity
  8
0
100
AcDbLine
 10
-2.7
 20
0.23
 30
0.0
 11
0.0
 21
0.23
 31
0.0
  0
LINE
  5
271
100
AcDbEntity
  8
0
100
AcDbLine
 10
-2.7
 20
-0.23
 30
0.0
 11
0.0
 21
-0.23
 31
0.0
  0
ENDBLK
  5
272
100
AcDbEntity
  8
0
100
AcDbBlockEnd
  0
BLOCK
  5
D555
100
AcDbEntity
  8
0
100
AcDbBlockBegin
  2
KGN
 70
     2
 10
0.0
 20
0.0
 30
0.0
  3
KGN
  1

  0
POINT
  5
D556
100
AcDbEntity
  8
RL
100
AcDbPoint
 10
0.0
 20
0.0
 30
0.0
  0
ATTDEF
  5
D557
100
AcDbEntity
  8
RL
100
AcDbText
 10
0.0
 20
0.0
 30
0.0
 40
40.0
  1

 51
15.0
  7
NORM
100
AcDbAttributeDefinition
  3
KG-Nr
  2
KGN
 70
     1
  0
ENDBLK
  5
D558
100
AcDbEntity
  8
0
100
AcDbBlockEnd
  0
BLOCK
  5
279
100
AcDbEntity
  8
0
100
AcDbBlockBegin
  2
FIG155
 70
     2
 10
0.0
 20
0.0
 30
0.0
  3
FIG155
  1

  0
ATTDEF
  5
27A
100
AcDbEntity
  8
0
100
AcDbText
 10
2.09
 20
-0.38
 30
0.0
 40
1.0
  1
9999
 51
15.0
  7
NORM
100
AcDbAttributeDefinition
  3
Punktnummer
  2
PNUM
 70
     1
  0
POLYLINE
  5
27B
100
AcDbEntity
  8
0
100
AcDb2dPolyline
 66
     1
 10
0.0
 20
0.0
 30
0.0
  0
VERTEX
  5
27C
100
AcDbEntity
  8
0
100
AcDbVertex
100
AcDb2dVertex
 10
0.0
 20
1.5
 30
0.0
  0
VERTEX
  5
27D
100
AcDbEntity
  8
0
100
AcDbVertex
100
AcDb2dVertex
 10
-1.5
 20
-1.0
 30
0.0
  0
VERTEX
  5
27E
100
AcDbEntity
  8
0
100
AcDbVertex
100
AcDb2dVertex
 10
1.5
 20
-1.0
 30
0.0
  0
VERTEX
  5
27F
100
AcDbEntity
  8
0
100
AcDbVertex
100
AcDb2dVertex
 10
0.0
 20
1.5
 30
0.0
  0
SEQEND
  5
280
100
AcDbEntity
  8
0
  0
LINE
  5
281
100
AcDbEntity
  8
0
100
AcDbLine
 10
0.0
 20
0.3
 30
0.0
 11
0.0
 21
-0.3
 31
0.0
  0
LINE
  5
282
100
AcDbEntity
  8
0
100
AcDbLine
 10
-0.3
 20
0.0
 30
0.0
 11
0.3
 21
0.0
 31
0.0
  0
ENDBLK
  5
283
100
AcDbEntity
  8
0
100
AcDbBlockEnd
  0
BLOCK
  5
12677
100
AcDbEntity
  8
0
100
AcDbBlockBegin
  2
FIG084
 70
     0
 10
0.0
 20
0.0
 30
0.0
  3
FIG084
  1

  0
ARC
  5
12678
100
AcDbEntity
  8
0
100
AcDbCircle
 10
0.0
 20
-1.8
 30
0.0
 40
4.0
100
AcDbArc
 50
0.0
 51
180.0
  0
LINE
  5
12679
100
AcDbEntity
  8
0
100
AcDbLine
 10
-1.5
 20
-1.8
 30
0.0
 11
0.0
 21
1.7
 31
0.0
  0
LINE
  5
1267A
100
AcDbEntity
  8
0
100
AcDbLine
 10
-1.06
 20
-0.81
 30
0.0
 11
0.71
 21
-0.81
 31
0.0
  0
LINE
  5
1267B
100
AcDbEntity
  8
0
100
AcDbLine
 10
0.0
 20
1.7
 30
0.0
 11
1.0
 21
-1.8
 31
0.0
  0
ENDBLK
  5
1267C
100
AcDbEntity
  8
0
100
AcDbBlockEnd
  0
BLOCK
  5
30D
100
AcDbEntity
  8
0
100
AcDbBlockBegin
  2
FIG040
 70
     0
 10
0.0
 20
0.0
 30
0.0
  3
FIG040
  1

  0
LINE
  5
30E
100
AcDbEntity
  8
0
100
AcDbLine
 10
-1.5
 20
2.0
 30
0.0
 11
0.0
 21
0.0
 31
0.0
  0
LINE
  5
30F
100
AcDbEntity
  8
0
100
AcDbLine
 10
0.0
 20
0.0
 30
0.0
 11
1.5
 21
2.0
 31
0.0
  0
CIRCLE
  5
310
100
AcDbEntity
  8
0
100
AcDbCircle
 10
0.0
 20
1.2
 30
0.0
 40
0.7
  0
ENDBLK
  5
311
100
AcDbEntity
  8
0
100
AcDbBlockEnd
  0
BLOCK
  5
313
100
AcDbEntity
  8
0
100
AcDbBlockBegin
  2
FIG159
 70
     0
 10
0.0
 20
0.0
 30
0.0
  3
FIG159
  1

  0
POLYLINE
  5
314
100
AcDbEntity
  8
0
100
AcDb2dPolyline
 66
     1
 10
0.0
 20
0.0
 30
0.0
 70
     1
  0
VERTEX
  5
315
100
AcDbEntity
  8
0
100
AcDbVertex
100
AcDb2dVertex
 10
0.0
 20
2.0
 30
0.0
  0
VERTEX
  5
316
100
AcDbEntity
  8
0
100
AcDbVertex
100
AcDb2dVertex
 10
2.0
 20
-2.0
 30
0.0
  0
VERTEX
  5
317
100
AcDbEntity
  8
0
100
AcDbVertex
100
AcDb2dVertex
 10
-2.0
 20
-2.0
 30
0.0
  0
SEQEND
  5
318
100
AcDbEntity
  8
0
  0
ENDBLK
  5
319
100
AcDbEntity
  8
0
100
AcDbBlockEnd
  0
BLOCK
  5
31B
100
AcDbEntity
  8
0
100
AcDbBlockBegin
  2
FIG153
 70
     0
 10
0.0
 20
0.0
 30
0.0
  3
FIG153
  1

  0
POLYLINE
  5
31C
100
AcDbEntity
  8
0
100
AcDb2dPolyline
 66
     1
 10
0.0
 20
0.0
 30
0.0
 70
     1
  0
VERTEX
  5
31D
100
AcDbEntity
  8
0
100
AcDbVertex
100
AcDb2dVertex
 10
-1.5
 20
3.5
 30
0.0
  0
VERTEX
  5
31E
100
AcDbEntity
  8
0
100
AcDbVertex
100
AcDb2dVertex
 10
1.5
 20
-3.5
 30
0.0
  0
VERTEX
  5
31F
100
AcDbEntity
  8
0
100
AcDbVertex
100
AcDb2dVertex
 10
-1.5
 20
-3.5
 30
0.0
  0
VERTEX
  5
320
100
AcDbEntity
  8
0
100
AcDbVertex
100
AcDb2dVertex
 10
1.5
 20
3.5
 30
0.0
  0
SEQEND
  5
321
100
AcDbEntity
  8
0
  0
ENDBLK
  5
322
100
AcDbEntity
  8
0
100
AcDbBlockEnd
  0
BLOCK
  5
324
100
AcDbEntity
  8
0
100
AcDbBlockBegin
  2
FIG156
 70
     0
 10
0.0
 20
0.0
 30
0.0
  3
FIG156
  1

  0
POLYLINE
  5
325
100
AcDbEntity
  8
0
100
AcDb2dPolyline
 66
     1
 10
0.0
 20
0.0
 30
0.0
  0
VERTEX
  5
326
100
AcDbEntity
  8
0
100
AcDbVertex
100
AcDb2dVertex
 10
-1.5
 20
-1.5
 30
0.0
  0
VERTEX
  5
327
100
AcDbEntity
  8
0
100
AcDbVertex
100
AcDb2dVertex
 10
1.5
 20
1.5
 30
0.0
  0
SEQEND
  5
328
100
AcDbEntity
  8
0
  0
POLYLINE
  5
329
100
AcDbEntity
  8
0
100
AcDb2dPolyline
 66
     1
 10
0.0
 20
0.0
 30
0.0
  0
VERTEX
  5
32A
100
AcDbEntity
  8
0
100
AcDbVertex
100
AcDb2dVertex
 10
-1.5
 20
1.5
 30
0.0
  0
VERTEX
  5
32B
100
AcDbEntity
  8
0
100
AcDbVertex
100
AcDb2dVertex
 10
1.5
 20
-1.5
 30
0.0
  0
SEQEND
  5
32C
100
AcDbEntity
  8
0
  0
ENDBLK
  5
32D
100
AcDbEntity
  8
0
100
AcDbBlockEnd
  0
BLOCK
  5
32F
100
AcDbEntity
  8
0
100
AcDbBlockBegin
  2
FIG160
 70
     0
 10
0.0
 20
0.0
 30
0.0
  3
FIG160
  1

  0
LINE
  5
330
100
AcDbEntity
  8
0
100
AcDbLine
 10
-2.0
 20
0.0
 30
0.0
 11
2.0
 21
0.0
 31
0.0
  0
LINE
  5
331
100
AcDbEntity
  8
0
100
AcDbLine
 10
0.0
 20
-2.0
 30
0.0
 11
0.0
 21
2.0
 31
0.0
  0
ENDBLK
  5
332
100
AcDbEntity
  8
0
100
AcDbBlockEnd
  0
BLOCK
  5
334
100
AcDbEntity
  8
0
100
AcDbBlockBegin
  2
FIGHM
 70
     0
 10
0.0
 20
0.0
 30
0.0
  3
FIGHM
  1

  0
LINE
  5
335
100
AcDbEntity
  8
0
100
AcDbLine
 10
-1.0
 20
0.0
 30
0.0
 11
1.0
 21
0.0
 31
0.0
  0
LINE
  5
336
100
AcDbEntity
  8
0
100
AcDbLine
 10
0.0
 20
1.0
 30
0.0
 11
0.0
 21
-1.0
 31
0.0
  0
ENDBLK
  5
337
100
AcDbEntity
  8
0
100
AcDbBlockEnd
  0
BLOCK
  5
12849
100
AcDbEntity
  8
0
100
AcDbBlockBegin
  2
FIG095
 70
     2
 10
0.0
 20
0.0
 30
0.0
  3
FIG095
  1

  0
TEXT
  5
1284A
100
AcDbEntity
  8
0
100
AcDbText
 10
-1.07
 20
0.0
 30
0.0
 40
2.5
  1
V
 51
15.0
  7
NORM
100
AcDbText
  0
ENDBLK
  5
1284C
100
AcDbEntity
  8
0
100
AcDbBlockEnd
  0
BLOCK
  5
12684
100
AcDbEntity
  8
0
100
AcDbBlockBegin
  2
FIG096
 70
     0
 10
0.0
 20
0.0
 30
0.0
  3
FIG096
  1

  0
TEXT
  5
12685
100
AcDbEntity
  8
0
100
AcDbText
 10
-1.5
 20
-1.25
 30
0.0
 40
2.5
  1
E
 51
15.0
  7
NORM
100
AcDbText
  0
ENDBLK
  5
12686
100
AcDbEntity
  8
0
100
AcDbBlockEnd
  0
BLOCK
  5
1262D
100
AcDbEntity
  8
0
100
AcDbBlockBegin
  2
FIG087
 70
     0
 10
0.0
 20
0.0
 30
0.0
  3
FIG087
  1

  0
POLYLINE
  5
1262E
100
AcDbEntity
  8
0
100
AcDb2dPolyline
 66
     1
 10
0.0
 20
0.0
 30
0.0
  0
VERTEX
  5
1262F
100
AcDbEntity
  8
0
100
AcDbVertex
100
AcDb2dVertex
 10
1.29
 20
-0.18
 30
0.0
  0
VERTEX
  5
12630
100
AcDbEntity
  8
0
100
AcDbVertex
100
AcDb2dVertex
 10
1.27
 20
-0.46
 30
0.0
  0
VERTEX
  5
12631
100
AcDbEntity
  8
0
100
AcDbVertex
100
AcDb2dVertex
 10
1.35
 20
-0.83
 30
0.0
  0
VERTEX
  5
12632
100
AcDbEntity
  8
0
100
AcDbVertex
100
AcDb2dVertex
 10
1.59
 20
-0.99
 30
0.0
  0
VERTEX
  5
12633
100
AcDbEntity
  8
0
100
AcDbVertex
100
AcDb2dVertex
 10
1.99
 20
-1.08
 30
0.0
  0
VERTEX
  5
12634
100
AcDbEntity
  8
0
100
AcDbVertex
100
AcDb2dVertex
 10
2.31
 20
-1.04
 30
0.0
  0
VERTEX
  5
12635
100
AcDbEntity
  8
0
100
AcDbVertex
100
AcDb2dVertex
 10
2.65
 20
-0.85
 30
0.0
  0
VERTEX
  5
12636
100
AcDbEntity
  8
0
100
AcDbVertex
100
AcDb2dVertex
 10
2.78
 20
-0.64
 30
0.0
  0
VERTEX
  5
12637
100
AcDbEntity
  8
0
100
AcDbVertex
100
AcDb2dVertex
 10
2.83
 20
-0.48
 30
0.0
  0
VERTEX
  5
12638
100
AcDbEntity
  8
0
100
AcDbVertex
100
AcDb2dVertex
 10
2.78
 20
-0.23
 30
0.0
  0
VERTEX
  5
12639
100
AcDbEntity
  8
0
100
AcDbVertex
100
AcDb2dVertex
 10
2.62
 20
0.01
 30
0.0
  0
VERTEX
  5
1263A
100
AcDbEntity
  8
0
100
AcDbVertex
100
AcDb2dVertex
 10
2.31
 20
0.17
 30
0.0
  0
VERTEX
  5
1263B
100
AcDbEntity
  8
0
100
AcDbVertex
100
AcDb2dVertex
 10
1.89
 20
0.23
 30
0.0
  0
VERTEX
  5
1263C
100
AcDbEntity
  8
0
100
AcDbVertex
100
AcDb2dVertex
 10
1.51
 20
0.13
 30
0.0
  0
VERTEX
  5
1263D
100
AcDbEntity
  8
0
100
AcDbVertex
100
AcDb2dVertex
 10
1.35
 20
-0.01
 30
0.0
  0
VERTEX
  5
1263E
100
AcDbEntity
  8
0
100
AcDbVertex
100
AcDb2dVertex
 10
1.29
 20
-0.18
 30
0.0
  0
SEQEND
  5
1263F
100
AcDbEntity
  8
0
  0
POLYLINE
  5
12640
100
AcDbEntity
  8
0
100
AcDb2dPolyline
 66
     1
 10
0.0
 20
0.0
 30
0.0
  0
VERTEX
  5
12641
100
AcDbEntity
  8
0
100
AcDbVertex
100
AcDb2dVertex
 10
-2.44
 20
-1.06
 30
0.0
 50
270.0
  0
VERTEX
  5
12642
100
AcDbEntity
  8
0
100
AcDbVertex
100
AcDb2dVertex
 10
-0.21
 20
3.72
 30
0.0
 50
270.0
  0
VERTEX
  5
12643
100
AcDbEntity
  8
0
100
AcDbVertex
100
AcDb2dVertex
 10
0.07
 20
2.16
 30
0.0
 50
270.0
  0
VERTEX
  5
12644
100
AcDbEntity
  8
0
100
AcDbVertex
100
AcDb2dVertex
 10
0.62
 20
2.53
 30
0.0
 50
270.0
  0
VERTEX
  5
12645
100
AcDbEntity
  8
0
100
AcDbVertex
100
AcDb2dVertex
 10
1.37
 20
-1.1
 30
0.0
 50
270.0
  0
VERTEX
  5
12646
100
AcDbEntity
  8
0
100
AcDbVertex
100
AcDb2dVertex
 10
2.99
 20
-1.12
 30
0.0
 50
270.0
  0
SEQEND
  5
12647
100
AcDbEntity
  8
0
  0
ENDBLK
  5
12648
100
AcDbEntity
  8
0
100
AcDbBlockEnd
  0
BLOCK
  5
374
100
AcDbEntity
  8
0
100
AcDbBlockBegin
  2
FIG092
 70
     0
 10
0.0
 20
0.0
 30
0.0
  3
FIG092
  1

  0
POLYLINE
  5
375
100
AcDbEntity
  8
0
100
AcDb2dPolyline
 66
     1
 10
0.0
 20
0.0
 30
0.0
  0
VERTEX
  5
376
100
AcDbEntity
  8
0
100
AcDbVertex
100
AcDb2dVertex
 10
0.0
 20
-2.5
 30
0.0
  0
VERTEX
  5
377
100
AcDbEntity
  8
0
100
AcDbVertex
100
AcDb2dVertex
 10
1.6
 20
0.0
 30
0.0
  0
VERTEX
  5
378
100
AcDbEntity
  8
0
100
AcDbVertex
100
AcDb2dVertex
 10
0.0
 20
2.5
 30
0.0
  0
VERTEX
  5
379
100
AcDbEntity
  8
0
100
AcDbVertex
100
AcDb2dVertex
 10
-1.6
 20
0.0
 30
0.0
  0
VERTEX
  5
37A
100
AcDbEntity
  8
0
100
AcDbVertex
100
AcDb2dVertex
 10
0.0
 20
-2.5
 30
0.0
  0
SEQEND
  5
37B
100
AcDbEntity
  8
0
  0
ENDBLK
  5
37C
100
AcDbEntity
  8
0
100
AcDbBlockEnd
  0
BLOCK
  5
3B7
100
AcDbEntity
  8
0
100
AcDbBlockBegin
  2
FIG088
 70
     0
 10
0.0
 20
0.0
 30
0.0
  3
FIG088
  1

  0
LINE
  5
3B8
100
AcDbEntity
  8
0
100
AcDbLine
 10
-2.34
 20
-1.35
 30
0.0
 11
2.34
 21
1.35
 31
0.0
  0
LINE
  5
3B9
100
AcDbEntity
  8
0
100
AcDbLine
 10
-2.34
 20
1.35
 30
0.0
 11
2.34
 21
-1.35
 31
0.0
  0
LINE
  5
3BA
100
AcDbEntity
  8
0
100
AcDbLine
 10
0.0
 20
-2.71
 30
0.0
 11
0.0
 21
2.71
 31
0.0
  0
ENDBLK
  5
3BB
100
AcDbEntity
  8
0
100
AcDbBlockEnd
  0
BLOCK
  5
3BD
100
AcDbEntity
  8
0
100
AcDbBlockBegin
  2
FIG093
 70
     0
 10
0.0
 20
0.0
 30
0.0
  3
FIG093
  1

  0
LINE
  5
3BE
100
AcDbEntity
  8
0
100
AcDbLine
 10
-3.0
 20
0.0
 30
0.0
 11
2.0
 21
0.0
 31
0.0
  0
LINE
  5
3BF
100
AcDbEntity
  8
0
100
AcDbLine
 10
0.0
 20
-1.5
 30
0.0
 11
0.0
 21
1.5
 31
0.0
  0
ENDBLK
  5
3C0
100
AcDbEntity
  8
0
100
AcDbBlockEnd
  0
BLOCK
  5
3C2
100
AcDbEntity
  8
0
100
AcDbBlockBegin
  2
FIG011
 70
     2
 10
0.0
 20
0.0
 30
0.0
  3
FIG011
  1

  0
ATTDEF
  5
3C3
100
AcDbEntity
  8
0
100
AcDbText
 10
2.0
 20
1.0
 30
0.0
 40
2.5
  1

 51
15.0
  7
NORM
100
AcDbAttributeDefinition
  3
Punktnummer
  2
PNUM
 70
     0
  0
CIRCLE
  5
3C4
100
AcDbEntity
  8
0
100
AcDbCircle
 10
0.0
 20
0.0
 30
0.0
 40
1.0
  0
POLYLINE
  5
3C5
100
AcDbEntity
  8
0
100
AcDb2dPolyline
 66
     1
 10
0.0
 20
0.0
 30
0.0
 70
     1
  0
VERTEX
  5
3C6
100
AcDbEntity
  8
0
100
AcDbVertex
100
AcDb2dVertex
 10
0.0
 20
2.0
 30
0.0
  0
VERTEX
  5
3C7
100
AcDbEntity
  8
0
100
AcDbVertex
100
AcDb2dVertex
 10
-1.73
 20
-1.0
 30
0.0
  0
VERTEX
  5
3C8
100
AcDbEntity
  8
0
100
AcDbVertex
100
AcDb2dVertex
 10
1.73
 20
-1.0
 30
0.0
  0
SEQEND
  5
3C9
100
AcDbEntity
  8
0
  0
ENDBLK
  5
3CA
100
AcDbEntity
  8
0
100
AcDbBlockEnd
  0
BLOCK
  5
3CC
100
AcDbEntity
  8
0
100
AcDbBlockBegin
  2
FIG012
 70
     2
 10
0.0
 20
0.0
 30
0.0
  3
FIG012
  1

  0
ATTDEF
  5
3CD
100
AcDbEntity
  8
0
100
AcDbText
 10
2.0
 20
1.0
 30
0.0
 40
2.5
  1

 51
15.0
  7
NORM
100
AcDbAttributeDefinition
  3
Punktnummer
  2
PNUM
 70
     0
  0
LINE
  5
3CE
100
AcDbEntity
  8
0
100
AcDbLine
 10
0.0
 20
2.0
 30
0.0
 11
0.0
 21
5.0
 31
0.0
  0
LINE
  5
3CF
100
AcDbEntity
  8
0
100
AcDbLine
 10
-1.0
 20
3.8
 30
0.0
 11
1.0
 21
3.8
 31
0.0
  0
CIRCLE
  5
3D0
100
AcDbEntity
  8
0
100
AcDbCircle
 10
0.0
 20
0.0
 30
0.0
 40
1.0
  0
POLYLINE
  5
3D1
100
AcDbEntity
  8
0
100
AcDb2dPolyline
 66
     1
 10
0.0
 20
0.0
 30
0.0
 70
     1
  0
VERTEX
  5
3D2
100
AcDbEntity
  8
0
100
AcDbVertex
100
AcDb2dVertex
 10
0.0
 20
2.0
 30
0.0
  0
VERTEX
  5
3D3
100
AcDbEntity
  8
0
100
AcDbVertex
100
AcDb2dVertex
 10
-1.73
 20
-1.0
 30
0.0
  0
VERTEX
  5
3D4
100
AcDbEntity
  8
0
100
AcDbVertex
100
AcDb2dVertex
 10
1.73
 20
-1.0
 30
0.0
  0
SEQEND
  5
3D5
100
AcDbEntity
  8
0
  0
ENDBLK
  5
3D6
100
AcDbEntity
  8
0
100
AcDbBlockEnd
  0
BLOCK
  5
3D8
100
AcDbEntity
  8
0
100
AcDbBlockBegin
  2
FIG014
 70
     2
 10
0.0
 20
0.0
 30
0.0
  3
FIG014
  1

  0
ATTDEF
  5
3D9
100
AcDbEntity
  8
0
100
AcDbText
 10
2.0
 20
1.0
 30
0.0
 40
2.5
  1

 51
15.0
  7
NORM
100
AcDbAttributeDefinition
  3
Punktnummer
  2
PNUM
 70
     0
  0
CIRCLE
  5
3DA
100
AcDbEntity
  8
0
100
AcDbCircle
 10
0.0
 20
0.0
 30
0.0
 40
1.0
  0
ENDBLK
  5
3DB
100
AcDbEntity
  8
0
100
AcDbBlockEnd
  0
BLOCK
  5
3DD
100
AcDbEntity
  8
0
100
AcDbBlockBegin
  2
FIG015
 70
     2
 10
0.0
 20
0.0
 30
0.0
  3
FIG015
  1

  0
ATTDEF
  5
3DE
100
AcDbEntity
  8
0
100
AcDbText
 10
2.0
 20
1.0
 30
0.0
 40
2.5
  1

 51
15.0
  7
NORM
100
AcDbAttributeDefinition
  3
Punktnummer
  2
PNUM
 70
     0
  0
LINE
  5
3DF
100
AcDbEntity
  8
0
100
AcDbLine
 10
-0.8
 20
2.2
 30
0.0
 11
0.8
 21
2.2
 31
0.0
  0
LINE
  5
3E0
100
AcDbEntity
  8
0
100
AcDbLine
 10
0.0
 20
1.0
 30
0.0
 11
0.0
 21
3.0
 31
0.0
  0
CIRCLE
  5
3E1
100
AcDbEntity
  8
0
100
AcDbCircle
 10
0.0
 20
0.0
 30
0.0
 40
1.0
  0
ENDBLK
  5
3E2
100
AcDbEntity
  8
0
100
AcDbBlockEnd
  0
BLOCK
  5
3E4
100
AcDbEntity
  8
0
100
AcDbBlockBegin
  2
FIG016
 70
     2
 10
0.0
 20
0.0
 30
0.0
  3
FIG016
  1

  0
ATTDEF
  5
3E5
100
AcDbEntity
  8
0
100
AcDbText
 10
2.0
 20
1.0
 30
0.0
 40
2.5
  1

 51
15.0
  7
NORM
100
AcDbAttributeDefinition
  3
Punktnummer
  2
PNUM
 70
     0
  0
LINE
  5
3E6
100
AcDbEntity
  8
0
100
AcDbLine
 10
0.0
 20
1.0
 30
0.0
 11
0.0
 21
3.0
 31
0.0
  0
CIRCLE
  5
3E7
100
AcDbEntity
  8
0
100
AcDbCircle
 10
0.0
 20
0.0
 30
0.0
 40
1.0
  0
ENDBLK
  5
3E8
100
AcDbEntity
  8
0
100
AcDbBlockEnd
  0
BLOCK
  5
3EA
100
AcDbEntity
  8
0
100
AcDbBlockBegin
  2
FIG018
 70
     2
 10
0.0
 20
0.0
 30
0.0
  3
FIG018
  1

  0
ATTDEF
  5
3EB
100
AcDbEntity
  8
0
100
AcDbText
 10
2.0
 20
1.0
 30
0.0
 40
2.5
  1

 51
15.0
  7
NORM
100
AcDbAttributeDefinition
  3
Punktnummer
  2
PNUM
 70
     1
  0
CIRCLE
  5
3EC
100
AcDbEntity
  8
0
100
AcDbCircle
 10
0.0
 20
0.0
 30
0.0
 40
1.4
  0
CIRCLE
  5
3ED
100
AcDbEntity
  8
0
100
AcDbCircle
 10
0.0
 20
0.0
 30
0.0
 40
1.0
  0
ENDBLK
  5
3EE
100
AcDbEntity
  8
0
100
AcDbBlockEnd
  0
BLOCK
  5
3FA
100
AcDbEntity
  8
0
100
AcDbBlockBegin
  2
FIG071
 70
     0
 10
0.0
 20
0.0
 30
0.0
  3
FIG071
  1

  0
LINE
  5
3FB
100
AcDbEntity
  8
0
100
AcDbLine
 10
0.0
 20
0.0
 30
0.0
 11
0.0
 21
3.0
 31
0.0
  0
LINE
  5
3FC
100
AcDbEntity
  8
0
100
AcDbLine
 10
-1.5
 20
3.0
 30
0.0
 11
1.5
 21
3.0
 31
0.0
  0
ENDBLK
  5
3FD
100
AcDbEntity
  8
0
100
AcDbBlockEnd
  0
BLOCK
  5
3FF
100
AcDbEntity
  8
0
100
AcDbBlockBegin
  2
FIG072
 70
     0
 10
0.0
 20
0.0
 30
0.0
  3
FIG072
  1

  0
LINE
  5
400
100
AcDbEntity
  8
0
100
AcDbLine
 10
-1.28
 20
0.0
 30
0.0
 11
1.28
 21
0.0
 31
0.0
  0
ARC
  5
401
100
AcDbEntity
  8
0
100
AcDbCircle
 10
0.0
 20
1.08
 30
0.0
 40
1.28
100
AcDbArc
 50
0.0
 51
180.0
  0
LINE
  5
402
100
AcDbEntity
  8
0
100
AcDbLine
 10
0.0
 20
2.36
 30
0.0
 11
0.0
 21
4.91
 31
0.0
  0
LINE
  5
403
100
AcDbEntity
  8
0
100
AcDbLine
 10
-0.88
 20
4.06
 30
0.0
 11
0.86
 21
4.06
 31
0.0
  0
LINE
  5
404
100
AcDbEntity
  8
0
100
AcDbLine
 10
-1.28
 20
1.08
 30
0.0
 11
-1.28
 21
0.0
 31
0.0
  0
LINE
  5
405
100
AcDbEntity
  8
0
100
AcDbLine
 10
1.28
 20
1.08
 30
0.0
 11
1.28
 21
0.0
 31
0.0
  0
ENDBLK
  5
406
100
AcDbEntity
  8
0
100
AcDbBlockEnd
  0
BLOCK
  5
408
100
AcDbEntity
  8
0
100
AcDbBlockBegin
  2
FIG074
 70
     0
 10
0.0
 20
0.0
 30
0.0
  3
FIG074
  1

  0
ARC
  5
409
100
AcDbEntity
  8
0
 62
     0
100
AcDbCircle
 10
4.0
 20
2.5
 30
0.0
 40
6.5
100
AcDbArc
 50
157.38
 51
202.62
  0
ARC
  5
40A
100
AcDbEntity
  8
0
 62
     0
100
AcDbCircle
 10
-4.0
 20
2.5
 30
0.0
 40
6.5
100
AcDbArc
 50
337.38
 51
22.62
  0
LINE
  5
40B
100
AcDbEntity
  8
0
 62
     0
100
AcDbLine
 10
2.8
 20
0.0
 30
0.0
 11
0.0
 21
0.0
 31
0.0
  0
ARC
  5
40C
100
AcDbEntity
  8
0
 62
     0
100
AcDbCircle
 10
12.94
 20
6.28
 30
0.0
 40
13.0
100
AcDbArc
 50
185.67
 51
204.95
  0
ARC
  5
40D
100
AcDbEntity
  8
0
 62
     0
100
AcDbCircle
 10
-12.94
 20
6.28
 30
0.0
 40
13.0
100
AcDbArc
 50
335.05
 51
354.33
  0
LINE
  5
40E
100
AcDbEntity
  8
0
 62
     0
100
AcDbLine
 10
0.0
 20
0.0
 30
0.0
 11
0.0
 21
1.15
 31
0.0
  0
ENDBLK
  5
40F
100
AcDbEntity
  8
0
100
AcDbBlockEnd
  0
BLOCK
  5
411
100
AcDbEntity
  8
0
100
AcDbBlockBegin
  2
FIG073
 70
     0
 10
0.0
 20
0.0
 30
0.0
  3
FIG073
  1

  0
LINE
  5
412
100
AcDbEntity
  8
0
 62
     0
100
AcDbLine
 10
2.0
 20
4.1
 30
0.0
 11
-2.0
 21
0.9
 31
0.0
  0
LINE
  5
413
100
AcDbEntity
  8
0
 62
     0
100
AcDbLine
 10
-2.0
 20
4.1
 30
0.0
 11
2.0
 21
0.9
 31
0.0
  0
ARC
  5
414
100
AcDbEntity
  8
0
 62
     0
100
AcDbCircle
 10
4.0
 20
2.5
 30
0.0
 40
6.5
100
AcDbArc
 50
157.38
 51
202.62
  0
ARC
  5
415
100
AcDbEntity
  8
0
 62
     0
100
AcDbCircle
 10
-4.0
 20
2.5
 30
0.0
 40
6.5
100
AcDbArc
 50
337.38
 51
22.62
  0
LINE
  5
416
100
AcDbEntity
  8
0
 62
     0
100
AcDbLine
 10
2.8
 20
0.0
 30
0.0
 11
0.0
 21
0.0
 31
0.0
  0
ARC
  5
417
100
AcDbEntity
  8
0
 62
     0
100
AcDbCircle
 10
12.94
 20
6.28
 30
0.0
 40
13.0
100
AcDbArc
 50
185.67
 51
204.95
  0
ARC
  5
418
100
AcDbEntity
  8
0
 62
     0
100
AcDbCircle
 10
-12.94
 20
6.28
 30
0.0
 40
13.0
100
AcDbArc
 50
335.05
 51
354.33
  0
LINE
  5
419
100
AcDbEntity
  8
0
 62
     0
100
AcDbLine
 10
0.0
 20
0.0
 30
0.0
 11
0.0
 21
1.15
 31
0.0
  0
ENDBLK
  5
41A
100
AcDbEntity
  8
0
100
AcDbBlockEnd
  0
BLOCK
  5
126EA
100
AcDbEntity
  8
0
100
AcDbBlockBegin
  2
GNPG
 70
     2
 10
0.0
 20
0.0
 30
0.0
  3
GNPG
  1

  0
LINE
  5
126EB
100
AcDbEntity
  8
0
100
AcDbLine
 10
0.0
 20
0.0
 30
0.0
 11
1.0
 21
0.35
 31
0.0
  0
LINE
  5
126EC
100
AcDbEntity
  8
0
100
AcDbLine
 10
0.0
 20
0.0
 30
0.0
 11
1.0
 21
-0.35
 31
0.0
  0
LINE
  5
126ED
100
AcDbEntity
  8
0
100
AcDbLine
 10
0.0
 20
0.0
 30
0.0
 11
5.0
 21
0.0
 31
0.0
  0
ATTDEF
  5
126EE
100
AcDbEntity
  8
PN
100
AcDbText
 10
6.0
 20
-1.0
 30
0.0
 40
2.0
  1

 51
15.0
  7
NORM
 72
     1
 11
6.0
 21
0.0
 31
0.0
100
AcDbAttributeDefinition
  3
Grundstücksnummer
  2
3
 70
     4
 74
     2
  0
ATTDEF
  5
126EF
100
AcDbEntity
  8
PN
100
AcDbText
 10
2.285714
 20
-3.0
 30
0.0
 40
2.0
  1
---
 51
15.0
  7
NORM
 72
     1
 11
6.0
 21
-2.0
 31
0.0
100
AcDbAttributeDefinition
  3

  2
GKU
 70
     8
 74
     2
  0
ENDBLK
  5
126F0
100
AcDbEntity
  8
0
100
AcDbBlockEnd
  0
BLOCK
  5
5EE
100
AcDbEntity
  8
0
100
AcDbBlockBegin
  2
FIG220
 70
     2
 10
0.0
 20
0.0
 30
0.0
  3
FIG220
  1

  0
ATTDEF
  5
5EF
100
AcDbEntity
  8
0
100
AcDbText
 10
1.88
 20
-1.34
 30
0.0
 40
1.0
  1

 51
15.0
  7
NORM
100
AcDbAttributeDefinition
  3
Punktnummer
  2
PNUM
 70
     1
  0
ATTDEF
  5
5F0
100
AcDbEntity
  8
0
100
AcDbText
 10
1.88
 20
0.35
 30
0.0
 40
1.5
  1

 51
15.0
  7
NORM
100
AcDbAttributeDefinition
  3
Staatsgrenzpunktnr.
  2
KGNR
 70
     1
  0
LINE
  5
5F1
100
AcDbEntity
  8
0
100
AcDbLine
 10
-0.35
 20
0.35
 30
0.0
 11
0.35
 21
-0.35
 31
0.0
  0
LINE
  5
5F2
100
AcDbEntity
  8
0
100
AcDbLine
 10
-0.35
 20
-0.35
 30
0.0
 11
0.35
 21
0.35
 31
0.0
  0
ENDBLK
  5
5F3
100
AcDbEntity
  8
0
100
AcDbBlockEnd
  0
BLOCK
  5
5F8
100
AcDbEntity
  8
0
100
AcDbBlockBegin
  2
FIG224
 70
     2
 10
0.0
 20
0.0
 30
0.0
  3
FIG224
  1

  0
ATTDEF
  5
5F9
100
AcDbEntity
  8
0
100
AcDbText
 10
1.88
 20
-1.34
 30
0.0
 40
1.0
  1

 51
15.0
  7
NORM
100
AcDbAttributeDefinition
  3
Punktnummer
  2
PNUM
 70
     1
  0
ATTDEF
  5
5FA
100
AcDbEntity
  8
0
100
AcDbText
 10
1.88
 20
0.35
 30
0.0
 40
1.5
  1

 51
15.0
  7
NORM
100
AcDbAttributeDefinition
  3
Staatsgrenzpunktnr.
  2
KGNR
 70
     1
  0
CIRCLE
  5
5FB
100
AcDbEntity
  8
0
100
AcDbCircle
 39
1.0
 10
0.0
 20
0.0
 30
0.0
 40
0.5
  0
LINE
  5
5FC
100
AcDbEntity
  8
0
100
AcDbLine
 10
0.0
 20
0.0
 30
0.0
 11
0.0
 21
0.5
 31
0.0
  0
ENDBLK
  5
5FD
100
AcDbEntity
  8
0
100
AcDbBlockEnd
  0
BLOCK
  5
601
100
AcDbEntity
  8
0
100
AcDbBlockBegin
  2
FIG225
 70
     2
 10
0.0
 20
0.0
 30
0.0
  3
FIG225
  1

  0
ATTDEF
  5
602
100
AcDbEntity
  8
0
100
AcDbText
 10
1.88
 20
-1.34
 30
0.0
 40
1.0
  1

 51
15.0
  7
NORM
100
AcDbAttributeDefinition
  3
Punktnummer
  2
PNUM
 70
     1
  0
ATTDEF
  5
603
100
AcDbEntity
  8
0
100
AcDbText
 10
1.88
 20
0.35
 30
0.0
 40
1.5
  1

 51
15.0
  7
NORM
100
AcDbAttributeDefinition
  3
Staatsgrenzpunktnr.
  2
KGNR
 70
     1
  0
CIRCLE
  5
604
100
AcDbEntity
  8
0
100
AcDbCircle
 10
0.0
 20
0.0
 30
0.0
 40
0.5
  0
ENDBLK
  5
605
100
AcDbEntity
  8
0
100
AcDbBlockEnd
  0
BLOCK
  5
6B2
100
AcDbEntity
  8
0
100
AcDbBlockBegin
  2
FIG161
 70
     0
 10
0.0
 20
0.0
 30
0.0
  3
FIG161
  1

  0
POLYLINE
  5
6B3
100
AcDbEntity
  8
0
100
AcDb2dPolyline
 66
     1
 10
0.0
 20
0.0
 30
0.0
  0
VERTEX
  5
6B4
100
AcDbEntity
  8
0
100
AcDbVertex
100
AcDb2dVertex
 10
0.7
 20
0.7
 30
0.0
  0
VERTEX
  5
6B5
100
AcDbEntity
  8
0
100
AcDbVertex
100
AcDb2dVertex
 10
2.8
 20
0.0
 30
0.0
  0
VERTEX
  5
6B6
100
AcDbEntity
  8
0
100
AcDbVertex
100
AcDb2dVertex
 10
0.7
 20
-0.7
 30
0.0
  0
VERTEX
  5
6B7
100
AcDbEntity
  8
0
100
AcDbVertex
100
AcDb2dVertex
 10
0.0
 20
-2.8
 30
0.0
  0
VERTEX
  5
6B8
100
AcDbEntity
  8
0
100
AcDbVertex
100
AcDb2dVertex
 10
-0.7
 20
-0.7
 30
0.0
  0
VERTEX
  5
6B9
100
AcDbEntity
  8
0
100
AcDbVertex
100
AcDb2dVertex
 10
-2.8
 20
0.0
 30
0.0
  0
VERTEX
  5
6BA
100
AcDbEntity
  8
0
100
AcDbVertex
100
AcDb2dVertex
 10
-0.7
 20
0.7
 30
0.0
  0
VERTEX
  5
6BB
100
AcDbEntity
  8
0
100
AcDbVertex
100
AcDb2dVertex
 10
0.0
 20
2.8
 30
0.0
  0
VERTEX
  5
6BC
100
AcDbEntity
  8
0
100
AcDbVertex
100
AcDb2dVertex
 10
0.7
 20
0.7
 30
0.0
  0
SEQEND
  5
6BD
100
AcDbEntity
  8
0
  0
ENDBLK
  5
6BE
100
AcDbEntity
  8
0
100
AcDbBlockEnd
  0
BLOCK
  5
6FF
100
AcDbEntity
  8
0
100
AcDbBlockBegin
  2
FIG162
 70
     0
 10
0.0
 20
0.0
 30
0.0
  3
FIG162
  1

  0
POLYLINE
  5
700
100
AcDbEntity
  8
0
100
AcDb2dPolyline
 66
     1
 10
0.0
 20
0.0
 30
0.0
 70
     1
  0
VERTEX
  5
701
100
AcDbEntity
  8
0
100
AcDbVertex
100
AcDb2dVertex
 10
0.0
 20
-2.8
 30
0.0
  0
VERTEX
  5
702
100
AcDbEntity
  8
0
100
AcDbVertex
100
AcDb2dVertex
 10
-2.8
 20
0.0
 30
0.0
  0
VERTEX
  5
703
100
AcDbEntity
  8
0
100
AcDbVertex
100
AcDb2dVertex
 10
0.0
 20
2.8
 30
0.0
  0
VERTEX
  5
704
100
AcDbEntity
  8
0
100
AcDbVertex
100
AcDb2dVertex
 10
2.8
 20
0.0
 30
0.0
  0
SEQEND
  5
705
100
AcDbEntity
  8
0
  0
LINE
  5
706
100
AcDbEntity
  8
0
100
AcDbLine
 10
-0.5
 20
0.0
 30
0.0
 11
0.5
 21
0.0
 31
0.0
  0
LINE
  5
707
100
AcDbEntity
  8
0
100
AcDbLine
 10
0.0
 20
0.5
 30
0.0
 11
0.0
 21
-0.5
 31
0.0
  0
ENDBLK
  5
708
100
AcDbEntity
  8
0
100
AcDbBlockEnd
  0
BLOCK
  5
724
100
AcDbEntity
  8
0
100
AcDbBlockBegin
  2
FIG163
 70
     0
 10
0.0
 20
0.0
 30
0.0
  3
FIG163
  1

  0
POLYLINE
  5
725
100
AcDbEntity
  8
0
100
AcDb2dPolyline
 66
     1
 10
0.0
 20
0.0
 30
0.0
 70
     1
  0
VERTEX
  5
726
100
AcDbEntity
  8
0
100
AcDbVertex
100
AcDb2dVertex
 10
-2.0
 20
-2.0
 30
0.0
  0
VERTEX
  5
727
100
AcDbEntity
  8
0
100
AcDbVertex
100
AcDb2dVertex
 10
2.0
 20
-2.0
 30
0.0
  0
VERTEX
  5
728
100
AcDbEntity
  8
0
100
AcDbVertex
100
AcDb2dVertex
 10
2.0
 20
2.0
 30
0.0
  0
VERTEX
  5
729
100
AcDbEntity
  8
0
100
AcDbVertex
100
AcDb2dVertex
 10
-2.0
 20
2.0
 30
0.0
  0
SEQEND
  5
72A
100
AcDbEntity
  8
0
  0
LINE
  5
72B
100
AcDbEntity
  8
0
100
AcDbLine
 10
-0.35
 20
0.0
 30
0.0
 11
0.35
 21
0.0
 31
0.0
  0
LINE
  5
72C
100
AcDbEntity
  8
0
100
AcDbLine
 10
0.0
 20
0.35
 30
0.0
 11
0.0
 21
-0.35
 31
0.0
  0
ENDBLK
  5
72D
100
AcDbEntity
  8
0
100
AcDbBlockEnd
  0
BLOCK
  5
744
100
AcDbEntity
  8
0
100
AcDbBlockBegin
  2
FIG164
 70
     2
 10
0.0
 20
0.0
 30
0.0
  3
FIG164
  1

  0
POLYLINE
  5
745
100
AcDbEntity
  8
0
100
AcDb2dPolyline
 66
     1
 10
0.0
 20
0.0
 30
0.0
 70
     1
  0
VERTEX
  5
746
100
AcDbEntity
  8
0
100
AcDbVertex
100
AcDb2dVertex
 10
-4.0
 20
0.0
 30
0.0
  0
VERTEX
  5
747
100
AcDbEntity
  8
0
100
AcDbVertex
100
AcDb2dVertex
 10
-2.0
 20
3.46
 30
0.0
  0
VERTEX
  5
748
100
AcDbEntity
  8
0
100
AcDbVertex
100
AcDb2dVertex
 10
2.0
 20
3.46
 30
0.0
  0
VERTEX
  5
749
100
AcDbEntity
  8
0
100
AcDbVertex
100
AcDb2dVertex
 10
4.0
 20
0.0
 30
0.0
  0
VERTEX
  5
74A
100
AcDbEntity
  8
0
100
AcDbVertex
100
AcDb2dVertex
 10
2.0
 20
-3.46
 30
0.0
  0
VERTEX
  5
74B
100
AcDbEntity
  8
0
100
AcDbVertex
100
AcDb2dVertex
 10
-2.0
 20
-3.46
 30
0.0
  0
SEQEND
  5
74C
100
AcDbEntity
  8
0
  0
ATTDEF
  5
74D
100
AcDbEntity
  8
0
100
AcDbText
 10
3.5
 20
-3.5
 30
0.0
 40
2.0
  1
+/- 0
 51
15.0
  7
NORM
100
AcDbAttributeDefinition
  3
Flächendifferenz
  2
FL_DIFF
 70
     0
  0
ENDBLK
  5
74E
100
AcDbEntity
  8
0
100
AcDbBlockEnd
  0
BLOCK
  5
11FC4
100
AcDbEntity
  8
0
100
AcDbBlockBegin
  2
PSYM
 70
     0
 10
0.0
 20
0.0
 30
0.0
  3
PSYM
  1

  0
POLYLINE
  5
11FC5
100
AcDbEntity
  8
0
 62
     0
100
AcDb2dPolyline
 66
     1
 10
0.0
 20
0.0
 30
0.0
 70
     1
 40
0.5
 41
0.5
  0
VERTEX
  5
11FC6
100
AcDbEntity
  8
0
 62
     0
100
AcDbVertex
100
AcDb2dVertex
 10
-0.25
 20
0.0
 30
0.0
 42
1.0
  0
VERTEX
  5
11FC7
100
AcDbEntity
  8
0
 62
     0
100
AcDbVertex
100
AcDb2dVertex
 10
0.25
 20
0.0
 30
0.0
 42
1.0
  0
SEQEND
  5
11FC8
100
AcDbEntity
  8
0
 62
     0
  0
ENDBLK
  5
11FC9
100
AcDbEntity
  8
0
100
AcDbBlockEnd
  0
BLOCK
  5
11FDD
100
AcDbEntity
  8
0
100
AcDbBlockBegin
  2
B1SYM
 70
     0
 10
0.0
 20
0.0
 30
0.0
  3
B1SYM
  1

  0
INSERT
  5
11FDE
100
AcDbEntity
  8
0
 62
     0
100
AcDbBlockReference
  2
*X88
 10
0.0
 20
0.0
 30
0.0
1001
ACAD
1000
HATCH
1002
{
1070
    19
1000
ANSI37
1040
1.5
1040
0.0
1002
}
  0
POLYLINE
  5
11FDF
100
AcDbEntity
  8
0
100
AcDb2dPolyline
 66
     1
 10
0.0
 20
0.0
 30
0.0
 40
1.0
 41
1.0
  0
VERTEX
  5
11FE0
100
AcDbEntity
  8
0
100
AcDbVertex
100
AcDb2dVertex
 10
-2.5
 20
0.0
 30
0.0
  0
VERTEX
  5
11FE1
100
AcDbEntity
  8
0
100
AcDbVertex
100
AcDb2dVertex
 10
2.5
 20
0.0
 30
0.0
  0
SEQEND
  5
11FE2
100
AcDbEntity
  8
0
  0
POLYLINE
  5
11FE3
100
AcDbEntity
  8
0
100
AcDb2dPolyline
 66
     1
 10
0.0
 20
0.0
 30
0.0
 70
     1
  0
VERTEX
  5
11FE4
100
AcDbEntity
  8
0
100
AcDbVertex
100
AcDb2dVertex
 10
-2.5
 20
0.5
 30
0.0
  0
VERTEX
  5
11FE5
100
AcDbEntity
  8
0
100
AcDbVertex
100
AcDb2dVertex
 10
2.5
 20
0.5
 30
0.0
  0
VERTEX
  5
11FE6
100
AcDbEntity
  8
0
100
AcDbVertex
100
AcDb2dVertex
 10
2.5
 20
-0.5
 30
0.0
  0
VERTEX
  5
11FE7
100
AcDbEntity
  8
0
100
AcDbVertex
100
AcDb2dVertex
 10
-2.5
 20
-0.5
 30
0.0
  0
SEQEND
  5
11FE8
100
AcDbEntity
  8
0
  0
ENDBLK
  5
11FE9
100
AcDbEntity
  8
0
100
AcDbBlockEnd
  0
BLOCK
  5
11FFD
100
AcDbEntity
  8
0
100
AcDbBlockBegin
  2
B2SYM
 70
     0
 10
0.0
 20
0.0
 30
0.0
  3
B2SYM
  1

  0
INSERT
  5
11FFE
100
AcDbEntity
  8
0
 62
     0
100
AcDbBlockReference
  2
*X89
 10
0.0
 20
0.0
 30
0.0
1001
ACAD
1000
HATCH
1002
{
1070
    19
1000
ANSI37
1040
1.5
1040
0.0
1002
}
  0
POLYLINE
  5
11FFF
100
AcDbEntity
  8
0
100
AcDb2dPolyline
 66
     1
 10
0.0
 20
0.0
 30
0.0
 40
1.0
 41
1.0
  0
VERTEX
  5
12000
100
AcDbEntity
  8
0
100
AcDbVertex
100
AcDb2dVertex
 10
-2.5
 20
0.0
 30
0.0
  0
VERTEX
  5
12001
100
AcDbEntity
  8
0
100
AcDbVertex
100
AcDb2dVertex
 10
2.5
 20
0.0
 30
0.0
  0
SEQEND
  5
12002
100
AcDbEntity
  8
0
  0
POLYLINE
  5
12003
100
AcDbEntity
  8
0
100
AcDb2dPolyline
 66
     1
 10
0.0
 20
0.0
 30
0.0
 70
     1
  0
VERTEX
  5
12004
100
AcDbEntity
  8
0
100
AcDbVertex
100
AcDb2dVertex
 10
-2.5
 20
0.5
 30
0.0
  0
VERTEX
  5
12005
100
AcDbEntity
  8
0
100
AcDbVertex
100
AcDb2dVertex
 10
2.5
 20
0.5
 30
0.0
  0
VERTEX
  5
12006
100
AcDbEntity
  8
0
100
AcDbVertex
100
AcDb2dVertex
 10
2.5
 20
-0.5
 30
0.0
  0
VERTEX
  5
12007
100
AcDbEntity
  8
0
100
AcDbVertex
100
AcDb2dVertex
 10
-2.5
 20
-0.5
 30
0.0
  0
SEQEND
  5
12008
100
AcDbEntity
  8
0
  0
POLYLINE
  5
12009
100
AcDbEntity
  8
0
100
AcDb2dPolyline
 66
     1
 10
0.0
 20
0.0
 30
0.0
  0
VERTEX
  5
1200A
100
AcDbEntity
  8
0
100
AcDbVertex
100
AcDb2dVertex
 10
-2.5
 20
1.0
 30
0.0
  0
VERTEX
  5
1200B
100
AcDbEntity
  8
0
100
AcDbVertex
100
AcDb2dVertex
 10
-2.5
 20
-1.0
 30
0.0
  0
SEQEND
  5
1200C
100
AcDbEntity
  8
0
  0
POLYLINE
  5
1200D
100
AcDbEntity
  8
0
100
AcDb2dPolyline
 66
     1
 10
0.0
 20
0.0
 30
0.0
  0
VERTEX
  5
1200E
100
AcDbEntity
  8
0
100
AcDbVertex
100
AcDb2dVertex
 10
2.5
 20
1.0
 30
0.0
  0
VERTEX
  5
1200F
100
AcDbEntity
  8
0
100
AcDbVertex
100
AcDb2dVertex
 10
2.5
 20
-1.0
 30
0.0
  0
SEQEND
  5
12010
100
AcDbEntity
  8
0
  0
ENDBLK
  5
12011
100
AcDbEntity
  8
0
100
AcDbBlockEnd
  0
BLOCK
  5
18DE
100
AcDbEntity
  8
0
100
AcDbBlockBegin
  2
H1SYM
 70
     0
 10
0.0
 20
0.0
 30
0.0
  3
H1SYM
  1

  0
CIRCLE
  5
18DF
100
AcDbEntity
  8
0
100
AcDbCircle
 39
0.1
 10
0.0
 20
0.0
 30
0.0
 40
0.5
  0
ENDBLK
  5
18E0
100
AcDbEntity
  8
0
100
AcDbBlockEnd
  0
BLOCK
  5
18E3
100
AcDbEntity
  8
0
100
AcDbBlockBegin
  2
H2SYM
 70
     0
 10
0.0
 20
0.0
 30
0.0
  3
H2SYM
  1

  0
CIRCLE
  5
18E4
100
AcDbEntity
  8
0
100
AcDbCircle
 39
0.1
 10
0.0
 20
0.0
 30
0.0
 40
1.0
  0
ENDBLK
  5
18E5
100
AcDbEntity
  8
0
100
AcDbBlockEnd
  0
BLOCK
  5
18F7
100
AcDbEntity
  8
0
100
AcDbBlockBegin
  2
*X88
 70
     1
 10
0.0
 20
0.0
 30
0.0
  3
*X88
  1

  0
LINE
  5
18F9
100
AcDbEntity
  8
0
 62
     0
100
AcDbLine
 10
-0.5
 20
-0.5
 30
0.0
 11
0.5
 21
0.5
 31
0.0
  0
LINE
  5
18FA
100
AcDbEntity
  8
0
 62
     0
100
AcDbLine
 10
-0.765165
 20
-0.5
 30
0.0
 11
0.234835
 21
0.5
 31
0.0
  0
LINE
  5
18FB
100
AcDbEntity
  8
0
 62
     0
100
AcDbLine
 10
-1.03033
 20
-0.5
 30
0.0
 11
-0.03033
 21
0.5
 31
0.0
  0
LINE
  5
18FC
100
AcDbEntity
  8
0
 62
     0
100
AcDbLine
 10
-1.295495
 20
-0.5
 30
0.0
 11
-0.295495
 21
0.5
 31
0.0
  0
LINE
  5
18FD
100
AcDbEntity
  8
0
 62
     0
100
AcDbLine
 10
-1.56066
 20
-0.5
 30
0.0
 11
-0.56066
 21
0.5
 31
0.0
  0
LINE
  5
18FE
100
AcDbEntity
  8
0
 62
     0
100
AcDbLine
 10
-1.825825
 20
-0.5
 30
0.0
 11
-0.825825
 21
0.5
 31
0.0
  0
LINE
  5
18FF
100
AcDbEntity
  8
0
 62
     0
100
AcDbLine
 10
-2.09099
 20
-0.5
 30
0.0
 11
-1.09099
 21
0.5
 31
0.0
  0
LINE
  5
1900
100
AcDbEntity
  8
0
 62
     0
100
AcDbLine
 10
-2.356155
 20
-0.5
 30
0.0
 11
-1.356155
 21
0.5
 31
0.0
  0
LINE
  5
1901
100
AcDbEntity
  8
0
 62
     0
100
AcDbLine
 10
-2.5
 20
-0.37868
 30
0.0
 11
-1.62132
 21
0.5
 31
0.0
  0
LINE
  5
1902
100
AcDbEntity
  8
0
 62
     0
100
AcDbLine
 10
-2.5
 20
-0.113515
 30
0.0
 11
-1.886485
 21
0.5
 31
0.0
  0
LINE
  5
1903
100
AcDbEntity
  8
0
 62
     0
100
AcDbLine
 10
-2.5
 20
0.15165
 30
0.0
 11
-2.15165
 21
0.5
 31
0.0
  0
LINE
  5
1904
100
AcDbEntity
  8
0
 62
     0
100
AcDbLine
 10
-2.5
 20
0.416815
 30
0.0
 11
-2.416815
 21
0.5
 31
0.0
  0
LINE
  5
1905
100
AcDbEntity
  8
0
 62
     0
100
AcDbLine
 10
-0.234835
 20
-0.5
 30
0.0
 11
0.765165
 21
0.5
 31
0.0
  0
LINE
  5
1906
100
AcDbEntity
  8
0
 62
     0
100
AcDbLine
 10
0.03033
 20
-0.5
 30
0.0
 11
1.03033
 21
0.5
 31
0.0
  0
LINE
  5
1907
100
AcDbEntity
  8
0
 62
     0
100
AcDbLine
 10
0.295495
 20
-0.5
 30
0.0
 11
1.295495
 21
0.5
 31
0.0
  0
LINE
  5
1908
100
AcDbEntity
  8
0
 62
     0
100
AcDbLine
 10
0.56066
 20
-0.5
 30
0.0
 11
1.56066
 21
0.5
 31
0.0
  0
LINE
  5
1909
100
AcDbEntity
  8
0
 62
     0
100
AcDbLine
 10
0.825825
 20
-0.5
 30
0.0
 11
1.825825
 21
0.5
 31
0.0
  0
LINE
  5
190A
100
AcDbEntity
  8
0
 62
     0
100
AcDbLine
 10
1.09099
 20
-0.5
 30
0.0
 11
2.09099
 21
0.5
 31
0.0
  0
LINE
  5
190B
100
AcDbEntity
  8
0
 62
     0
100
AcDbLine
 10
1.356155
 20
-0.5
 30
0.0
 11
2.356155
 21
0.5
 31
0.0
  0
LINE
  5
190C
100
AcDbEntity
  8
0
 62
     0
100
AcDbLine
 10
1.62132
 20
-0.5
 30
0.0
 11
2.5
 21
0.37868
 31
0.0
  0
LINE
  5
190D
100
AcDbEntity
  8
0
 62
     0
100
AcDbLine
 10
1.886485
 20
-0.5
 30
0.0
 11
2.5
 21
0.113515
 31
0.0
  0
LINE
  5
190E
100
AcDbEntity
  8
0
 62
     0
100
AcDbLine
 10
2.15165
 20
-0.5
 30
0.0
 11
2.5
 21
-0.15165
 31
0.0
  0
LINE
  5
190F
100
AcDbEntity
  8
0
 62
     0
100
AcDbLine
 10
2.416815
 20
-0.5
 30
0.0
 11
2.5
 21
-0.416815
 31
0.0
  0
LINE
  5
1910
100
AcDbEntity
  8
0
 62
     0
100
AcDbLine
 10
0.5
 20
-0.5
 30
0.0
 11
-0.5
 21
0.5
 31
0.0
  0
LINE
  5
1911
100
AcDbEntity
  8
0
 62
     0
100
AcDbLine
 10
0.234835
 20
-0.5
 30
0.0
 11
-0.765165
 21
0.5
 31
0.0
  0
LINE
  5
1912
100
AcDbEntity
  8
0
 62
     0
100
AcDbLine
 10
-0.03033
 20
-0.5
 30
0.0
 11
-1.03033
 21
0.5
 31
0.0
  0
LINE
  5
1913
100
AcDbEntity
  8
0
 62
     0
100
AcDbLine
 10
-0.295495
 20
-0.5
 30
0.0
 11
-1.295495
 21
0.5
 31
0.0
  0
LINE
  5
1914
100
AcDbEntity
  8
0
 62
     0
100
AcDbLine
 10
-0.56066
 20
-0.5
 30
0.0
 11
-1.56066
 21
0.5
 31
0.0
  0
LINE
  5
1915
100
AcDbEntity
  8
0
 62
     0
100
AcDbLine
 10
-0.825825
 20
-0.5
 30
0.0
 11
-1.825825
 21
0.5
 31
0.0
  0
LINE
  5
1916
100
AcDbEntity
  8
0
 62
     0
100
AcDbLine
 10
-1.09099
 20
-0.5
 30
0.0
 11
-2.09099
 21
0.5
 31
0.0
  0
LINE
  5
1917
100
AcDbEntity
  8
0
 62
     0
100
AcDbLine
 10
-1.356155
 20
-0.5
 30
0.0
 11
-2.356155
 21
0.5
 31
0.0
  0
LINE
  5
1918
100
AcDbEntity
  8
0
 62
     0
100
AcDbLine
 10
-1.62132
 20
-0.5
 30
0.0
 11
-2.5
 21
0.37868
 31
0.0
  0
LINE
  5
1919
100
AcDbEntity
  8
0
 62
     0
100
AcDbLine
 10
-1.886485
 20
-0.5
 30
0.0
 11
-2.5
 21
0.113515
 31
0.0
  0
LINE
  5
191A
100
AcDbEntity
  8
0
 62
     0
100
AcDbLine
 10
-2.15165
 20
-0.5
 30
0.0
 11
-2.5
 21
-0.15165
 31
0.0
  0
LINE
  5
191B
100
AcDbEntity
  8
0
 62
     0
100
AcDbLine
 10
-2.416815
 20
-0.5
 30
0.0
 11
-2.5
 21
-0.416815
 31
0.0
  0
LINE
  5
191C
100
AcDbEntity
  8
0
 62
     0
100
AcDbLine
 10
0.765165
 20
-0.5
 30
0.0
 11
-0.234835
 21
0.5
 31
0.0
  0
LINE
  5
191D
100
AcDbEntity
  8
0
 62
     0
100
AcDbLine
 10
1.03033
 20
-0.5
 30
0.0
 11
0.03033
 21
0.5
 31
0.0
  0
LINE
  5
191E
100
AcDbEntity
  8
0
 62
     0
100
AcDbLine
 10
1.295495
 20
-0.5
 30
0.0
 11
0.295495
 21
0.5
 31
0.0
  0
LINE
  5
191F
100
AcDbEntity
  8
0
 62
     0
100
AcDbLine
 10
1.56066
 20
-0.5
 30
0.0
 11
0.56066
 21
0.5
 31
0.0
  0
LINE
  5
1920
100
AcDbEntity
  8
0
 62
     0
100
AcDbLine
 10
1.825825
 20
-0.5
 30
0.0
 11
0.825825
 21
0.5
 31
0.0
  0
LINE
  5
1921
100
AcDbEntity
  8
0
 62
     0
100
AcDbLine
 10
2.09099
 20
-0.5
 30
0.0
 11
1.09099
 21
0.5
 31
0.0
  0
LINE
  5
1922
100
AcDbEntity
  8
0
 62
     0
100
AcDbLine
 10
2.356155
 20
-0.5
 30
0.0
 11
1.356155
 21
0.5
 31
0.0
  0
LINE
  5
1923
100
AcDbEntity
  8
0
 62
     0
100
AcDbLine
 10
2.5
 20
-0.37868
 30
0.0
 11
1.62132
 21
0.5
 31
0.0
  0
LINE
  5
1924
100
AcDbEntity
  8
0
 62
     0
100
AcDbLine
 10
2.5
 20
-0.113515
 30
0.0
 11
1.886485
 21
0.5
 31
0.0
  0
LINE
  5
1925
100
AcDbEntity
  8
0
 62
     0
100
AcDbLine
 10
2.5
 20
0.15165
 30
0.0
 11
2.15165
 21
0.5
 31
0.0
  0
LINE
  5
1926
100
AcDbEntity
  8
0
 62
     0
100
AcDbLine
 10
2.5
 20
0.416815
 30
0.0
 11
2.416815
 21
0.5
 31
0.0
  0
ENDBLK
  5
1927
100
AcDbEntity
  8
0
100
AcDbBlockEnd
  0
BLOCK
  5
194A
100
AcDbEntity
  8
0
100
AcDbBlockBegin
  2
*X89
 70
     1
 10
0.0
 20
0.0
 30
0.0
  3
*X89
  1

  0
LINE
  5
194C
100
AcDbEntity
  8
0
 62
     0
100
AcDbLine
 10
-0.5
 20
-0.5
 30
0.0
 11
0.5
 21
0.5
 31
0.0
  0
LINE
  5
194D
100
AcDbEntity
  8
0
 62
     0
100
AcDbLine
 10
-0.765165
 20
-0.5
 30
0.0
 11
0.234835
 21
0.5
 31
0.0
  0
LINE
  5
194E
100
AcDbEntity
  8
0
 62
     0
100
AcDbLine
 10
-1.03033
 20
-0.5
 30
0.0
 11
-0.03033
 21
0.5
 31
0.0
  0
LINE
  5
194F
100
AcDbEntity
  8
0
 62
     0
100
AcDbLine
 10
-1.295495
 20
-0.5
 30
0.0
 11
-0.295495
 21
0.5
 31
0.0
  0
LINE
  5
1950
100
AcDbEntity
  8
0
 62
     0
100
AcDbLine
 10
-1.56066
 20
-0.5
 30
0.0
 11
-0.56066
 21
0.5
 31
0.0
  0
LINE
  5
1951
100
AcDbEntity
  8
0
 62
     0
100
AcDbLine
 10
-1.825825
 20
-0.5
 30
0.0
 11
-0.825825
 21
0.5
 31
0.0
  0
LINE
  5
1952
100
AcDbEntity
  8
0
 62
     0
100
AcDbLine
 10
-2.09099
 20
-0.5
 30
0.0
 11
-1.09099
 21
0.5
 31
0.0
  0
LINE
  5
1953
100
AcDbEntity
  8
0
 62
     0
100
AcDbLine
 10
-2.356155
 20
-0.5
 30
0.0
 11
-1.356155
 21
0.5
 31
0.0
  0
LINE
  5
1954
100
AcDbEntity
  8
0
 62
     0
100
AcDbLine
 10
-2.5
 20
-0.37868
 30
0.0
 11
-1.62132
 21
0.5
 31
0.0
  0
LINE
  5
1955
100
AcDbEntity
  8
0
 62
     0
100
AcDbLine
 10
-2.5
 20
-0.113515
 30
0.0
 11
-1.886485
 21
0.5
 31
0.0
  0
LINE
  5
1956
100
AcDbEntity
  8
0
 62
     0
100
AcDbLine
 10
-2.5
 20
0.15165
 30
0.0
 11
-2.15165
 21
0.5
 31
0.0
  0
LINE
  5
1957
100
AcDbEntity
  8
0
 62
     0
100
AcDbLine
 10
-2.5
 20
0.416815
 30
0.0
 11
-2.416815
 21
0.5
 31
0.0
  0
LINE
  5
1958
100
AcDbEntity
  8
0
 62
     0
100
AcDbLine
 10
-0.234835
 20
-0.5
 30
0.0
 11
0.765165
 21
0.5
 31
0.0
  0
LINE
  5
1959
100
AcDbEntity
  8
0
 62
     0
100
AcDbLine
 10
0.03033
 20
-0.5
 30
0.0
 11
1.03033
 21
0.5
 31
0.0
  0
LINE
  5
195A
100
AcDbEntity
  8
0
 62
     0
100
AcDbLine
 10
0.295495
 20
-0.5
 30
0.0
 11
1.295495
 21
0.5
 31
0.0
  0
LINE
  5
195B
100
AcDbEntity
  8
0
 62
     0
100
AcDbLine
 10
0.56066
 20
-0.5
 30
0.0
 11
1.56066
 21
0.5
 31
0.0
  0
LINE
  5
195C
100
AcDbEntity
  8
0
 62
     0
100
AcDbLine
 10
0.825825
 20
-0.5
 30
0.0
 11
1.825825
 21
0.5
 31
0.0
  0
LINE
  5
195D
100
AcDbEntity
  8
0
 62
     0
100
AcDbLine
 10
1.09099
 20
-0.5
 30
0.0
 11
2.09099
 21
0.5
 31
0.0
  0
LINE
  5
195E
100
AcDbEntity
  8
0
 62
     0
100
AcDbLine
 10
1.356155
 20
-0.5
 30
0.0
 11
2.356155
 21
0.5
 31
0.0
  0
LINE
  5
195F
100
AcDbEntity
  8
0
 62
     0
100
AcDbLine
 10
1.62132
 20
-0.5
 30
0.0
 11
2.5
 21
0.37868
 31
0.0
  0
LINE
  5
1960
100
AcDbEntity
  8
0
 62
     0
100
AcDbLine
 10
1.886485
 20
-0.5
 30
0.0
 11
2.5
 21
0.113515
 31
0.0
  0
LINE
  5
1961
100
AcDbEntity
  8
0
 62
     0
100
AcDbLine
 10
2.15165
 20
-0.5
 30
0.0
 11
2.5
 21
-0.15165
 31
0.0
  0
LINE
  5
1962
100
AcDbEntity
  8
0
 62
     0
100
AcDbLine
 10
2.416815
 20
-0.5
 30
0.0
 11
2.5
 21
-0.416815
 31
0.0
  0
LINE
  5
1963
100
AcDbEntity
  8
0
 62
     0
100
AcDbLine
 10
0.5
 20
-0.5
 30
0.0
 11
-0.5
 21
0.5
 31
0.0
  0
LINE
  5
1964
100
AcDbEntity
  8
0
 62
     0
100
AcDbLine
 10
0.234835
 20
-0.5
 30
0.0
 11
-0.765165
 21
0.5
 31
0.0
  0
LINE
  5
1965
100
AcDbEntity
  8
0
 62
     0
100
AcDbLine
 10
-0.03033
 20
-0.5
 30
0.0
 11
-1.03033
 21
0.5
 31
0.0
  0
LINE
  5
1966
100
AcDbEntity
  8
0
 62
     0
100
AcDbLine
 10
-0.295495
 20
-0.5
 30
0.0
 11
-1.295495
 21
0.5
 31
0.0
  0
LINE
  5
1967
100
AcDbEntity
  8
0
 62
     0
100
AcDbLine
 10
-0.56066
 20
-0.5
 30
0.0
 11
-1.56066
 21
0.5
 31
0.0
  0
LINE
  5
1968
100
AcDbEntity
  8
0
 62
     0
100
AcDbLine
 10
-0.825825
 20
-0.5
 30
0.0
 11
-1.825825
 21
0.5
 31
0.0
  0
LINE
  5
1969
100
AcDbEntity
  8
0
 62
     0
100
AcDbLine
 10
-1.09099
 20
-0.5
 30
0.0
 11
-2.09099
 21
0.5
 31
0.0
  0
LINE
  5
196A
100
AcDbEntity
  8
0
 62
     0
100
AcDbLine
 10
-1.356155
 20
-0.5
 30
0.0
 11
-2.356155
 21
0.5
 31
0.0
  0
LINE
  5
196B
100
AcDbEntity
  8
0
 62
     0
100
AcDbLine
 10
-1.62132
 20
-0.5
 30
0.0
 11
-2.5
 21
0.37868
 31
0.0
  0
LINE
  5
196C
100
AcDbEntity
  8
0
 62
     0
100
AcDbLine
 10
-1.886485
 20
-0.5
 30
0.0
 11
-2.5
 21
0.113515
 31
0.0
  0
LINE
  5
196D
100
AcDbEntity
  8
0
 62
     0
100
AcDbLine
 10
-2.15165
 20
-0.5
 30
0.0
 11
-2.5
 21
-0.15165
 31
0.0
  0
LINE
  5
196E
100
AcDbEntity
  8
0
 62
     0
100
AcDbLine
 10
-2.416815
 20
-0.5
 30
0.0
 11
-2.5
 21
-0.416815
 31
0.0
  0
LINE
  5
196F
100
AcDbEntity
  8
0
 62
     0
100
AcDbLine
 10
0.765165
 20
-0.5
 30
0.0
 11
-0.234835
 21
0.5
 31
0.0
  0
LINE
  5
1970
100
AcDbEntity
  8
0
 62
     0
100
AcDbLine
 10
1.03033
 20
-0.5
 30
0.0
 11
0.03033
 21
0.5
 31
0.0
  0
LINE
  5
1971
100
AcDbEntity
  8
0
 62
     0
100
AcDbLine
 10
1.295495
 20
-0.5
 30
0.0
 11
0.295495
 21
0.5
 31
0.0
  0
LINE
  5
1972
100
AcDbEntity
  8
0
 62
     0
100
AcDbLine
 10
1.56066
 20
-0.5
 30
0.0
 11
0.56066
 21
0.5
 31
0.0
  0
LINE
  5
1973
100
AcDbEntity
  8
0
 62
     0
100
AcDbLine
 10
1.825825
 20
-0.5
 30
0.0
 11
0.825825
 21
0.5
 31
0.0
  0
LINE
  5
1974
100
AcDbEntity
  8
0
 62
     0
100
AcDbLine
 10
2.09099
 20
-0.5
 30
0.0
 11
1.09099
 21
0.5
 31
0.0
  0
LINE
  5
1975
100
AcDbEntity
  8
0
 62
     0
100
AcDbLine
 10
2.356155
 20
-0.5
 30
0.0
 11
1.356155
 21
0.5
 31
0.0
  0
LINE
  5
1976
100
AcDbEntity
  8
0
 62
     0
100
AcDbLine
 10
2.5
 20
-0.37868
 30
0.0
 11
1.62132
 21
0.5
 31
0.0
  0
LINE
  5
1977
100
AcDbEntity
  8
0
 62
     0
100
AcDbLine
 10
2.5
 20
-0.113515
 30
0.0
 11
1.886485
 21
0.5
 31
0.0
  0
LINE
  5
1978
100
AcDbEntity
  8
0
 62
     0
100
AcDbLine
 10
2.5
 20
0.15165
 30
0.0
 11
2.15165
 21
0.5
 31
0.0
  0
LINE
  5
1979
100
AcDbEntity
  8
0
 62
     0
100
AcDbLine
 10
2.5
 20
0.416815
 30
0.0
 11
2.416815
 21
0.5
 31
0.0
  0
ENDBLK
  5
197A
100
AcDbEntity
  8
0
100
AcDbBlockEnd
  0
BLOCK
  5
19E8
100
AcDbEntity
  8
0
100
AcDbBlockBegin
  2
FIG009
 70
     2
 10
0.0
 20
0.0
 30
0.0
  3
FIG009
  1

  0
CIRCLE
  5
19E9
100
AcDbEntity
  8
0
100
AcDbCircle
 39
1.0
 10
0.0
 20
0.0
 30
0.0
 40
0.5
  0
ARC
  5
19EA
100
AcDbEntity
  8
0
100
AcDbCircle
 10
0.0
 20
1.0
 30
0.0
 40
0.5
100
AcDbArc
 50
0.0
 51
180.0
  0
POLYLINE
  5
19EB
100
AcDbEntity
  8
0
100
AcDb2dPolyline
 66
     1
 10
0.0
 20
0.0
 30
0.0
  0
VERTEX
  5
19EC
100
AcDbEntity
  8
0
100
AcDbVertex
100
AcDb2dVertex
 10
-0.5
 20
0.0
 30
0.0
  0
VERTEX
  5
19ED
100
AcDbEntity
  8
0
100
AcDbVertex
100
AcDb2dVertex
 10
-0.5
 20
1.0
 30
0.0
  0
SEQEND
  5
19EE
100
AcDbEntity
  8
0
  0
POLYLINE
  5
19EF
100
AcDbEntity
  8
0
100
AcDb2dPolyline
 66
     1
 10
0.0
 20
0.0
 30
0.0
  0
VERTEX
  5
19F0
100
AcDbEntity
  8
0
100
AcDbVertex
100
AcDb2dVertex
 10
0.5
 20
0.0
 30
0.0
  0
VERTEX
  5
19F1
100
AcDbEntity
  8
0
100
AcDbVertex
100
AcDb2dVertex
 10
0.5
 20
1.0
 30
0.0
  0
SEQEND
  5
19F2
100
AcDbEntity
  8
0
  0
ATTDEF
  5
19F3
100
AcDbEntity
  8
0
100
AcDbText
 10
1.14
 20
-0.51
 30
0.0
 40
1.0
  1

 51
15.0
  7
NORM
100
AcDbAttributeDefinition
  3
Punktnummer
  2
PNUM
 70
     1
  0
ENDBLK
  5
19F4
100
AcDbEntity
  8
0
100
AcDbBlockEnd
  0
BLOCK
  5
1A09
100
AcDbEntity
  8
0
100
AcDbBlockBegin
  2
FIG010
 70
     2
 10
0.0
 20
0.0
 30
0.0
  3
FIG010
  1

  0
CIRCLE
  5
1A0A
100
AcDbEntity
  8
0
100
AcDbCircle
 39
1.0
 10
0.0
 20
0.0
 30
0.0
 40
0.5
  0
POLYLINE
  5
1A0B
100
AcDbEntity
  8
0
100
AcDb2dPolyline
 66
     1
 10
0.0
 20
0.0
 30
0.0
  0
VERTEX
  5
1A0C
100
AcDbEntity
  8
0
100
AcDbVertex
100
AcDb2dVertex
 10
0.0
 20
1.5
 30
0.0
  0
VERTEX
  5
1A0D
100
AcDbEntity
  8
0
100
AcDbVertex
100
AcDb2dVertex
 10
0.471405
 20
0.166667
 30
0.0
  0
SEQEND
  5
1A0E
100
AcDbEntity
  8
0
  0
POLYLINE
  5
1A0F
100
AcDbEntity
  8
0
100
AcDb2dPolyline
 66
     1
 10
0.0
 20
0.0
 30
0.0
  0
VERTEX
  5
1A10
100
AcDbEntity
  8
0
100
AcDbVertex
100
AcDb2dVertex
 10
0.0
 20
1.5
 30
0.0
  0
VERTEX
  5
1A11
100
AcDbEntity
  8
0
100
AcDbVertex
100
AcDb2dVertex
 10
-0.471405
 20
0.166667
 30
0.0
  0
SEQEND
  5
1A12
100
AcDbEntity
  8
0
  0
ATTDEF
  5
1A13
100
AcDbEntity
  8
0
100
AcDbText
 10
1.14
 20
-0.51
 30
0.0
 40
1.0
  1

 51
15.0
  7
NORM
100
AcDbAttributeDefinition
  3
Punktnummer
  2
PNUM
 70
     1
  0
ENDBLK
  5
1A14
100
AcDbEntity
  8
0
100
AcDbBlockEnd
  0
BLOCK
  5
1087A
100
AcDbEntity
  8
0
100
AcDbBlockBegin
  2
ADLER
 70
     0
 10
0.0
 20
0.0
 30
0.0
  3
ADLER
  1

  0
LWPOLYLINE
  5
1087B
100
AcDbEntity
  8
0
 62
     2
100
AcDbPolyline
 90
        6
 70
     1
 43
0.0
 10
5.468059
 20
0.719933
 10
3.623438
 20
2.638697
 10
3.899155
 20
3.071637
 10
5.279209
 20
1.677283
 10
6.799395
 20
0.367154
 10
6.335216
 20
0.228025
  0
POLYLINE
  5
1087C
100
AcDbEntity
  8
ADLER
100
AcDb2dPolyline
 66
     1
 10
0.0
 20
0.0
 30
0.0
 70
     1
  0
VERTEX
  5
1087D
100
AcDbEntity
  8
ADLER
100
AcDbVertex
100
AcDb2dVertex
 10
-1.243876
 20
0.385439
 30
0.0
  0
VERTEX
  5
1087E
100
AcDbEntity
  8
ADLER
100
AcDbVertex
100
AcDb2dVertex
 10
1.343746
 20
0.385439
 30
0.0
  0
VERTEX
  5
1087F
100
AcDbEntity
  8
ADLER
100
AcDbVertex
100
AcDb2dVertex
 10
1.343746
 20
1.499043
 30
0.0
  0
VERTEX
  5
10880
100
AcDbEntity
  8
ADLER
100
AcDbVertex
100
AcDb2dVertex
 10
-1.243876
 20
1.499043
 30
0.0
  0
SEQEND
  5
10881
100
AcDbEntity
  8
ADLER
  0
LWPOLYLINE
  5
10882
100
AcDbEntity
  8
0
 62
     2
100
AcDbPolyline
 90
        7
 70
     1
 43
0.0
 10
-3.0153
 20
1.463487
 10
-3.611748
 20
-0.538684
 10
-3.288756
 20
-1.51296
 10
-3.747265
 20
-3.579081
 10
-3.037228
 20
-2.482266
 10
-2.549325
 20
1.267926
 10
-2.791632
 20
1.36105
  0
LWPOLYLINE
  5
10883
100
AcDbEntity
  8
0
 62
     2
100
AcDbPolyline
 90
        7
 70
     1
 43
0.0
 10
3.107701
 20
1.385825
 10
3.538407
 20
-0.985343
 10
3.43061
 20
-2.159164
 10
3.897732
 20
-2.410465
 10
3.754002
 20
-3.631072
 10
3.126578
 20
-2.389687
 10
2.685686
 20
1.267223
  0
LWPOLYLINE
  5
10884
100
AcDbEntity
  8
0
 62
     2
100
AcDbPolyline
 90
        4
 70
     1
 43
0.0
 10
4.392341
 20
-0.641422
 10
3.406804
 20
1.753139
 10
3.416651
 20
2.176239
 10
5.360488
 20
-0.748897
  0
LWPOLYLINE
  5
10885
100
AcDbEntity
  8
0
 62
     2
100
AcDbPolyline
 90
        8
 70
     1
 43
0.0
 10
-3.723582
 20
2.413354
 10
-3.757476
 20
2.85033
 10
-5.006186
 20
2.230954
 10
-6.22244
 20
1.247193
 10
-7.140762
 20
0.243999
 10
-6.529983
 20
0.306638
 10
-5.984657
 20
0.632594
 10
-4.757432
 20
1.781076
  0
LWPOLYLINE
  5
10886
100
AcDbEntity
  8
0
 62
     2
100
AcDbPolyline
 90
        6
 70
     1
 43
0.0
 10
-3.57447
 20
2.003608
 10
-5.983688
 20
-0.902657
 10
-5.12131
 20
-0.364154
 10
-4.402661
 20
-0.364154
 10
-3.369441
 20
1.70561
 10
-3.509234
 20
1.882546
  0
POLYLINE
  5
10887
100
AcDbEntity
  8
0
 62
     2
100
AcDb2dPolyline
 66
     1
 10
0.0
 20
0.0
 30
0.0
  0
VERTEX
  5
10888
100
AcDbEntity
  8
0
 62
     2
100
AcDbVertex
100
AcDb2dVertex
 10
3.314268
 20
1.406677
 30
0.0
  0
VERTEX
  5
10889
100
AcDbEntity
  8
0
 62
     2
100
AcDbVertex
100
AcDb2dVertex
 10
4.007649
 20
-0.85356
 30
0.0
  0
SEQEND
  5
1088A
100
AcDbEntity
  8
0
 62
     2
  0
HATCH
  5
1088B
100
AcDbEntity
  8
ADLER
100
AcDbHatch
 10
0.0
 20
0.0
 30
0.0
210
0.0
220
0.0
230
1.0
  2
SOLID
 70
     1
 71
     0
 91
        1
 92
        1
 93
        4
 72
     1
 10
-1.243876
 20
0.385439
 11
1.343746
 21
0.385439
 72
     1
 10
1.343746
 20
0.385439
 11
1.343746
 21
1.499043
 72
     1
 10
1.343746
 20
1.499043
 11
-1.243876
 21
1.499043
 72
     1
 10
-1.243876
 20
1.499043
 11
-1.243876
 21
0.385439
 97
        0
 75
     0
 76
     1
 98
        1
 10
0.0
 20
0.0
  0
LWPOLYLINE
  5
1088C
100
AcDbEntity
  8
0
 62
     2
100
AcDbPolyline
 90
        2
 70
     0
 43
0.0
 10
-3.183051
 20
1.621798
 10
-4.130431
 20
-0.78006
  0
LWPOLYLINE
  5
1088D
100
AcDbEntity
  8
0
 62
     2
100
AcDbPolyline
 90
        2
 70
     0
 43
0.0
 10
-3.637596
 20
2.286846
 10
-6.946836
 20
-1.080934
  0
LWPOLYLINE
  5
1088E
100
AcDbEntity
  8
0
 62
     2
100
AcDbPolyline
 90
        3
 70
     0
 43
0.0
 10
3.542904
 20
2.400528
 10
5.680447
 20
-0.194372
 10
6.530691
 20
-1.025094
  0
POLYLINE
  5
1088F
100
AcDbEntity
  8
0
 62
     2
100
AcDb2dPolyline
 66
     1
 10
0.0
 20
0.0
 30
0.0
  0
VERTEX
  5
10890
100
AcDbEntity
  8
0
 62
     2
100
AcDbVertex
100
AcDb2dVertex
 10
-8.203135
 20
7.733293
 30
0.0
  0
VERTEX
  5
10891
100
AcDbEntity
  8
0
 62
     2
100
AcDbVertex
100
AcDb2dVertex
 10
7.90505
 20
7.733293
 30
0.0
  0
VERTEX
  5
10892
100
AcDbEntity
  8
0
 62
     2
100
AcDbVertex
100
AcDb2dVertex
 10
7.90505
 20
-9.668226
 30
0.0
  0
VERTEX
  5
10893
100
AcDbEntity
  8
0
 62
     2
100
AcDbVertex
100
AcDb2dVertex
 10
-8.203135
 20
-9.668226
 30
0.0
  0
VERTEX
  5
10894
100
AcDbEntity
  8
0
 62
     2
100
AcDbVertex
100
AcDb2dVertex
 10
-8.203135
 20
7.733293
 30
0.0
  0
SEQEND
  5
10895
100
AcDbEntity
  8
0
 62
     2
  0
HATCH
  5
10896
100
AcDbEntity
  8
0
 62
     2
100
AcDbHatch
 10
0.0
 20
0.0
 30
0.0
210
0.0
220
0.0
230
1.0
  2
SOLID
 70
     1
 71
     0
 91
       27
 92
        1
 93
        4
 72
     1
 10
-4.04488
 20
5.348538
 11
-3.453404
 21
4.987273
 72
     1
 10
-3.453404
 20
4.987273
 11
-3.18815
 21
5.393154
 72
     1
 10
-3.18815
 20
5.393154
 11
-4.188309
 21
5.92174
 72
     1
 10
-4.188309
 20
5.92174
 11
-4.04488
 21
5.348538
 97
        0
 92
        1
 93
        5
 72
     1
 10
-3.425581
 20
4.357051
 11
-3.425446
 21
4.661338
 72
     1
 10
-3.425446
 20
4.661338
 11
-4.630017
 21
4.730388
 72
     1
 10
-4.630017
 20
4.730388
 11
-5.627979
 21
4.607579
 72
     1
 10
-5.627979
 20
4.607579
 11
-5.067547
 21
4.263716
 72
     1
 10
-5.067547
 20
4.263716
 11
-3.425581
 21
4.357051
 97
        0
 92
        1
 93
        7
 72
     1
 10
-3.500002
 20
3.990844
 11
-4.394674
 21
3.795283
 72
     1
 10
-4.394674
 20
3.795283
 11
-6.762971
 21
2.830305
 72
     1
 10
-6.762971
 20
2.830305
 11
-6.371552
 21
2.597494
 72
     1
 10
-6.371552
 20
2.597494
 11
-5.886937
 21
2.569557
 72
     1
 10
-5.886937
 20
2.569557
 11
-3.827742
 21
3.369466
 72
     1
 10
-3.827742
 20
3.369466
 11
-3.575173
 21
3.646636
 72
     1
 10
-3.575173
 20
3.646636
 11
-3.500002
 21
3.990844
 97
        0
 92
        1
 93
        8
 72
     1
 10
-3.723582
 20
2.413354
 11
-3.757476
 21
2.85033
 72
     1
 10
-3.757476
 20
2.85033
 11
-5.006186
 21
2.230954
 72
     1
 10
-5.006186
 20
2.230954
 11
-6.22244
 21
1.247193
 72
     1
 10
-6.22244
 20
1.247193
 11
-7.140762
 21
0.243999
 72
     1
 10
-7.140762
 20
0.243999
 11
-6.529983
 21
0.306638
 72
     1
 10
-6.529983
 20
0.306638
 11
-5.984657
 21
0.632594
 72
     1
 10
-5.984657
 20
0.632594
 11
-4.757432
 21
1.781076
 72
     1
 10
-4.757432
 20
1.781076
 11
-3.723582
 21
2.413354
 97
        0
 92
        1
 93
        6
 72
     1
 10
-3.57447
 20
2.003608
 11
-5.983688
 21
-0.902657
 72
     1
 10
-5.983688
 20
-0.902657
 11
-5.12131
 21
-0.364154
 72
     1
 10
-5.12131
 20
-0.364154
 11
-4.402661
 21
-0.364154
 72
     1
 10
-4.402661
 20
-0.364154
 11
-3.369441
 21
1.70561
 72
     1
 10
-3.369441
 20
1.70561
 11
-3.509234
 21
1.882546
 72
     1
 10
-3.509234
 20
1.882546
 11
-3.57447
 21
2.003608
 97
        0
 92
        1
 93
        4
 72
     1
 10
-6.412273
 20
-2.378559
 11
-6.271148
 21
-2.877168
 72
     1
 10
-6.271148
 20
-2.877168
 11
-5.980095
 21
-3.23258
 72
     1
 10
-5.980095
 20
-3.23258
 11
-6.756236
 21
-3.2972
 72
     1
 10
-6.756236
 20
-3.2972
 11
-6.412273
 21
-2.378559
 97
        0
 92
        1
 93
        7
 72
     1
 10
-3.0153
 20
1.463487
 11
-3.611748
 21
-0.538684
 72
     1
 10
-3.611748
 20
-0.538684
 11
-3.288756
 21
-1.51296
 72
     1
 10
-3.288756
 20
-1.51296
 11
-3.747265
 21
-3.579081
 72
     1
 10
-3.747265
 20
-3.579081
 11
-3.037228
 21
-2.482266
 72
     1
 10
-3.037228
 20
-2.482266
 11
-2.549325
 21
1.267926
 72
     1
 10
-2.549325
 20
1.267926
 11
-2.791632
 21
1.36105
 72
     1
 10
-2.791632
 20
1.36105
 11
-3.0153
 21
1.463487
 97
        0
 92
        1
 93
        4
 72
     1
 10
-2.185864
 20
1.212052
 11
-2.417615
 21
-2.253156
 72
     1
 10
-2.417615
 20
-2.253156
 11
-1.796099
 21
-1.466609
 72
     1
 10
-1.796099
 20
-1.466609
 11
-1.747848
 21
1.174802
 72
     1
 10
-1.747848
 20
1.174802
 11
-2.185864
 21
1.212052
 97
        0
 92
        1
 93
       20
 72
     1
 10
-3.100758
 20
4.894149
 11
-3.091289
 21
4.342314
 72
     1
 10
-3.091289
 20
4.342314
 11
-3.179778
 21
4.032837
 72
     1
 10
-3.179778
 20
4.032837
 11
-3.225604
 21
3.596735
 72
     1
 10
-3.225604
 20
3.596735
 11
-3.450326
 21
3.384658
 72
     1
 10
-3.450326
 20
3.384658
 11
-3.401001
 21
2.98651
 72
     1
 10
-3.401001
 20
2.98651
 11
-3.375419
 21
2.486448
 72
     1
 10
-3.375419
 20
2.486448
 11
-3.20169
 21
2.32023
 72
     1
 10
-3.20169
 20
2.32023
 11
-3.136453
 21
1.994295
 72
     1
 10
-3.136453
 20
1.994295
 11
-2.605242
 21
1.677673
 72
     1
 10
-2.605242
 20
1.677673
 11
-1.71057
 21
1.556611
 72
     1
 10
-1.71057
 20
1.556611
 11
-1.496221
 21
2.329543
 72
     1
 10
-1.496221
 20
2.329543
 11
-2.641972
 21
2.651463
 72
     1
 10
-2.641972
 20
2.651463
 11
-2.31858
 21
2.938664
 72
     1
 10
-2.31858
 20
2.938664
 11
-2.303585
 21
3.620616
 72
     1
 10
-2.303585
 20
3.620616
 11
-2.775085
 21
3.595153
 72
     1
 10
-2.775085
 20
3.595153
 11
-2.677734
 21
4.201041
 72
     1
 10
-2.677734
 20
4.201041
 11
-2.099693
 21
4.295402
 72
     1
 10
-2.099693
 20
4.295402
 11
-2.265355
 21
5.186628
 72
     1
 10
-2.265355
 20
5.186628
 11
-2.975911
 21
5.268403
 72
     1
 10
-2.975911
 20
5.268403
 11
-3.100758
 21
4.894149
 97
        0
 92
        1
 93
       19
 72
     1
 10
1.722267
 20
1.621435
 11
1.598056
 21
2.14886
 72
     1
 10
1.598056
 20
2.14886
 11
2.168206
 21
2.559543
 72
     1
 10
2.168206
 20
2.559543
 11
1.911823
 21
2.954445
 72
     1
 10
1.911823
 20
2.954445
 11
2.34981
 21
3.680212
 72
     1
 10
2.34981
 20
3.680212
 11
2.883942
 21
3.39204
 72
     1
 10
2.883942
 20
3.39204
 11
2.532299
 21
5.092676
 72
     1
 10
2.532299
 20
5.092676
 11
3.176015
 21
5.330461
 72
     1
 10
3.176015
 20
5.330461
 11
3.295673
 21
4.95468
 72
     1
 10
3.295673
 20
4.95468
 11
3.315367
 21
4.541419
 72
     1
 10
3.315367
 20
4.541419
 11
3.492614
 21
4.147837
 72
     1
 10
3.492614
 20
4.147837
 11
3.364602
 21
3.724737
 72
     1
 10
3.364602
 20
3.724737
 11
3.561543
 21
3.163883
 72
     1
 10
3.561543
 20
3.163883
 11
3.285826
 21
2.730943
 72
     1
 10
3.285826
 20
2.730943
 11
3.079039
 21
2.268485
 72
     1
 10
3.079039
 20
2.268485
 11
3.069192
 21
1.845384
 72
     1
 10
3.069192
 20
1.845384
 11
2.74424
 21
1.658433
 72
     1
 10
2.74424
 20
1.658433
 11
2.340512
 21
1.560038
 72
     1
 10
2.340512
 20
1.560038
 11
1.936784
 21
1.550198
 72
     1
 10
1.936784
 20
1.550198
 11
1.722267
 21
1.621435
 97
        0
 92
        1
 93
        4
 72
     1
 10
3.441188
 20
5.428414
 11
4.388755
 21
5.77844
 72
     1
 10
4.388755
 20
5.77844
 11
4.144935
 21
5.327133
 72
     1
 10
4.144935
 20
5.327133
 11
3.556487
 21
5.165219
 72
     1
 10
3.556487
 20
5.165219
 11
3.441188
 21
5.428414
 97
        0
 92
        1
 93
        5
 72
     1
 10
3.633285
 20
4.862434
 11
4.841568
 21
4.664677
 72
     1
 10
4.841568
 20
4.664677
 11
5.526507
 21
4.415306
 72
     1
 10
5.526507
 20
4.415306
 11
4.88689
 21
4.19374
 72
     1
 10
4.88689
 20
4.19374
 11
3.718524
 21
4.466436
 72
     1
 10
3.718524
 20
4.466436
 11
3.633285
 21
4.862434
 97
        0
 92
        1
 93
        6
 72
     1
 10
3.820862
 20
3.980697
 11
5.521891
 21
3.360937
 72
     1
 10
5.521891
 20
3.360937
 11
6.396763
 21
2.85511
 72
     1
 10
6.396763
 20
2.85511
 11
5.54985
 21
2.774255
 72
     1
 10
5.54985
 20
2.774255
 11
4.739053
 21
3.156064
 72
     1
 10
4.739053
 20
3.156064
 11
3.760505
 21
3.630998
 72
     1
 10
3.760505
 20
3.630998
 11
3.820862
 21
3.980697
 97
        0
 92
        1
 93
        6
 72
     1
 10
5.468059
 20
0.719933
 11
3.623438
 21
2.638697
 72
     1
 10
3.623438
 20
2.638697
 11
3.899155
 21
3.071637
 72
     1
 10
3.899155
 20
3.071637
 11
5.279209
 21
1.677283
 72
     1
 10
5.279209
 20
1.677283
 11
6.799395
 21
0.367154
 72
     1
 10
6.799395
 20
0.367154
 11
6.335216
 21
0.228025
 72
     1
 10
6.335216
 20
0.228025
 11
5.468059
 21
0.719933
 97
        0
 92
        1
 93
        4
 72
     1
 10
4.392341
 20
-0.641422
 11
3.406804
 21
1.753139
 72
     1
 10
3.406804
 20
1.753139
 11
3.416651
 21
2.176239
 72
     1
 10
3.416651
 20
2.176239
 11
5.360488
 21
-0.748897
 72
     1
 10
5.360488
 20
-0.748897
 11
4.392341
 21
-0.641422
 97
        0
 92
        1
 93
        7
 72
     1
 10
3.107701
 20
1.385825
 11
3.538407
 21
-0.985343
 72
     1
 10
3.538407
 20
-0.985343
 11
3.43061
 21
-2.159164
 72
     1
 10
3.43061
 20
-2.159164
 11
3.897732
 21
-2.410465
 72
     1
 10
3.897732
 20
-2.410465
 11
3.754002
 21
-3.631072
 72
     1
 10
3.754002
 20
-3.631072
 11
3.126578
 21
-2.389687
 72
     1
 10
3.126578
 20
-2.389687
 11
2.685686
 21
1.267223
 72
     1
 10
2.685686
 20
1.267223
 11
3.107701
 21
1.385825
 97
        0
 92
        1
 93
        6
 72
     1
 10
2.290046
 20
1.214511
 11
2.571084
 21
-2.435304
 72
     1
 10
2.571084
 20
-2.435304
 11
2.007577
 21
-1.814346
 72
     1
 10
2.007577
 20
-1.814346
 11
1.730136
 21
-1.664264
 72
     1
 10
1.730136
 20
-1.664264
 11
1.821075
 21
-0.293708
 72
     1
 10
1.821075
 20
-0.293708
 11
1.745959
 21
1.162235
 72
     1
 10
1.745959
 20
1.162235
 11
2.290046
 21
1.214511
 97
        0
 92
        1
 93
        7
 72
     1
 10
1.431945
 20
-1.964767
 11
2.415841
 21
-2.95416
 72
     1
 10
2.415841
 20
-2.95416
 11
2.893831
 21
-3.185238
 72
     1
 10
2.893831
 20
-3.185238
 11
2.160614
 21
-3.499007
 72
     1
 10
2.160614
 20
-3.499007
 11
2.146786
 21
-3.84439
 72
     1
 10
2.146786
 20
-3.84439
 11
1.330948
 21
-3.664791
 72
     1
 10
1.330948
 20
-3.664791
 11
0.700594
 21
-2.318815
 72
     1
 10
0.700594
 20
-2.318815
 11
1.431945
 21
-1.964767
 97
        0
 92
        1
 93
        8
 72
     1
 10
-1.535708
 20
-1.842679
 11
-0.679171
 21
-2.296216
 72
     1
 10
-0.679171
 20
-2.296216
 11
-1.202839
 21
-3.73437
 72
     1
 10
-1.202839
 20
-3.73437
 11
-2.196432
 21
-3.951949
 72
     1
 10
-2.196432
 20
-3.951949
 11
-2.101156
 21
-3.421602
 72
     1
 10
-2.101156
 20
-3.421602
 11
-2.672812
 21
-3.448799
 72
     1
 10
-2.672812
 20
-3.448799
 11
-2.849753
 21
-3.095234
 72
     1
 10
-2.849753
 20
-3.095234
 11
-2.346151
 21
-3.000043
 72
     1
 10
-2.346151
 20
-3.000043
 11
-1.535708
 21
-1.842679
 97
        0
 92
        1
 93
       47
 72
     1
 10
-0.275491
 20
-2.359465
 11
0.237819
 21
-2.359465
 72
     1
 10
0.237819
 20
-2.359465
 11
0.377813
 21
-3.46287
 72
     1
 10
0.377813
 20
-3.46287
 11
1.21191
 21
-4.323512
 72
     1
 10
1.21191
 20
-4.323512
 11
0.269281
 21
-4.073728
 72
     1
 10
0.269281
 20
-4.073728
 11
0.3714
 21
-4.992076
 72
     1
 10
0.3714
 20
-4.992076
 11
1.855576
 21
-4.69799
 72
     1
 10
1.855576
 20
-4.69799
 11
1.831376
 21
-5.012349
 72
     1
 10
1.831376
 20
-5.012349
 11
1.114619
 21
-5.271353
 72
     1
 10
1.114619
 20
-5.271353
 11
2.154691
 21
-5.971121
 72
     1
 10
2.154691
 20
-5.971121
 11
2.477518
 21
-5.619258
 72
     1
 10
2.477518
 20
-5.619258
 11
2.556267
 21
-6.146345
 72
     1
 10
2.556267
 20
-6.146345
 11
2.323453
 21
-6.479359
 72
     1
 10
2.323453
 20
-6.479359
 11
1.736682
 21
-6.249574
 72
     1
 10
1.736682
 20
-6.249574
 11
1.01271
 21
-5.665473
 72
     1
 10
1.01271
 20
-5.665473
 11
1.12128
 21
-6.249574
 72
     1
 10
1.12128
 20
-6.249574
 11
1.629471
 21
-6.959509
 72
     1
 10
1.629471
 20
-6.959509
 11
1.109669
 21
-6.667254
 72
     1
 10
1.109669
 20
-6.667254
 11
0.177888
 21
-5.457875
 72
     1
 10
0.177888
 20
-5.457875
 11
0.32413
 21
-6.644508
 72
     1
 10
0.32413
 20
-6.644508
 11
0.847069
 21
-7.13058
 72
     1
 10
0.847069
 20
-7.13058
 11
0.844459
 21
-7.503509
 72
     1
 10
0.844459
 20
-7.503509
 11
0.202516
 21
-7.142732
 72
     1
 10
0.202516
 20
-7.142732
 11
0.287646
 21
-7.823233
 72
     1
 10
0.287646
 20
-7.823233
 11
0.020051
 21
-8.20285
 72
     1
 10
0.020051
 20
-8.20285
 11
-0.235293
 21
-7.774626
 72
     1
 10
-0.235293
 20
-7.774626
 11
-0.174486
 21
-7.13058
 72
     1
 10
-0.174486
 20
-7.13058
 11
-0.791315
 21
-7.514096
 72
     1
 10
-0.791315
 20
-7.514096
 11
-0.867684
 21
-7.191339
 72
     1
 10
-0.867684
 20
-7.191339
 11
-0.2961
 21
-6.644508
 72
     1
 10
-0.2961
 20
-6.644508
 11
-0.206509
 21
-5.478636
 72
     1
 10
-0.206509
 20
-5.478636
 11
-0.991987
 21
-6.667254
 72
     1
 10
-0.991987
 20
-6.667254
 11
-1.546848
 21
-6.944104
 72
     1
 10
-1.546848
 20
-6.944104
 11
-1.096489
 21
-6.203165
 72
     1
 10
-1.096489
 20
-6.203165
 11
-1.007182
 21
-5.650068
 72
     1
 10
-1.007182
 20
-5.650068
 11
-1.862839
 21
-6.22637
 72
     1
 10
-1.862839
 20
-6.22637
 11
-2.403714
 21
-6.374573
 72
     1
 10
-2.403714
 20
-6.374573
 11
-2.634695
 21
-6.137032
 72
     1
 10
-2.634695
 20
-6.137032
 11
-2.61076
 21
-5.619258
 72
     1
 10
-2.61076
 20
-5.619258
 11
-2.153123
 21
-5.889905
 72
     1
 10
-2.153123
 20
-5.889905
 11
-1.110912
 21
-5.344264
 72
     1
 10
-1.110912
 20
-5.344264
 11
-1.758367
 21
-5.020409
 72
     1
 10
-1.758367
 20
-5.020409
 11
-1.822902
 21
-4.601264
 72
     1
 10
-1.822902
 20
-4.601264
 11
-0.411511
 21
-4.958063
 72
     1
 10
-0.411511
 20
-4.958063
 11
-0.241313
 21
-4.039716
 72
     1
 10
-0.241313
 20
-4.039716
 11
-1.050105
 21
-4.23845
 72
     1
 10
-1.050105
 20
-4.23845
 11
-0.353266
 21
-3.509493
 72
     1
 10
-0.353266
 20
-3.509493
 11
-0.275491
 21
-2.359465
 97
        0
 92
        1
 93
        5
 72
     1
 10
-4.481055
 20
-3.396418
 11
-4.40873
 21
-4.015347
 72
     1
 10
-4.40873
 20
-4.015347
 11
-4.460337
 21
-3.979557
 72
     1
 10
-4.460337
 20
-3.979557
 11
-4.84494
 21
-4.036677
 72
     1
 10
-4.84494
 20
-4.036677
 11
-4.930868
 21
-3.387174
 72
     2
 10
-4.680334
 20
-2.144831
 40
1.267353
 50
258.598505
 51
279.046723
 73
     1
 97
        0
 92
        1
 93
        6
 72
     1
 10
-4.258977
 20
-5.033834
 11
-4.236851
 21
-5.215415
 72
     1
 10
-4.236851
 20
-5.215415
 11
-4.197935
 21
-5.834082
 72
     1
 10
-4.197935
 20
-5.834082
 11
-4.637139
 21
-5.875479
 72
     1
 10
-4.637139
 20
-5.875479
 11
-4.699702
 21
-5.335189
 72
     1
 10
-4.699702
 20
-5.335189
 11
-4.548692
 21
-5.36081
 72
     1
 10
-4.548692
 20
-5.36081
 11
-4.258977
 21
-5.033834
 97
        0
 92
        1
 93
        4
 72
     1
 10
4.573202
 20
-1.293323
 11
4.597066
 21
-1.103532
 72
     1
 10
4.597066
 20
-1.103532
 11
5.101968
 21
-1.166923
 72
     1
 10
5.101968
 20
-1.166923
 11
5.082663
 21
-1.34772
 72
     1
 10
5.082663
 20
-1.34772
 11
4.573202
 21
-1.293323
 97
        0
 92
        1
 93
        5
 72
     1
 10
5.586556
 20
-2.589966
 11
6.18429
 21
-3.087692
 72
     1
 10
6.18429
 20
-3.087692
 11
6.344343
 21
-2.643448
 72
     1
 10
6.344343
 20
-2.643448
 11
6.125543
 21
-1.871962
 72
     1
 10
6.125543
 20
-1.871962
 11
5.981813
 21
-2.446366
 72
     1
 10
5.981813
 20
-2.446366
 11
5.586556
 21
-2.589966
 97
        0
 92
        1
 93
        4
 72
     1
 10
4.232083
 20
-4.006191
 11
4.487834
 21
-1.972241
 72
     1
 10
4.487834
 20
-1.972241
 11
5.004135
 21
-2.034296
 72
     1
 10
5.004135
 20
-2.034296
 11
4.783608
 21
-3.989459
 72
     1
 10
4.783608
 20
-3.989459
 11
4.232083
 21
-4.006191
 97
        0
 92
        1
 93
        5
 72
     1
 10
4.087929
 20
-5.182432
 11
4.40296
 21
-5.130551
 72
     1
 10
4.40296
 20
-5.130551
 11
4.632515
 21
-5.329026
 72
     1
 10
4.632515
 20
-5.329026
 11
4.568631
 21
-5.893547
 72
     1
 10
4.568631
 20
-5.893547
 11
4.004084
 21
-5.816282
 72
     1
 10
4.004084
 20
-5.816282
 11
4.087929
 21
-5.182432
 97
        0
 92
        1
 93
       31
 72
     1
 10
-0.237972
 20
4.059228
 11
0.167789
 21
3.524774
 72
     1
 10
0.167789
 20
3.524774
 11
-1.096877
 21
3.637937
 72
     1
 10
-1.096877
 20
3.637937
 11
-1.814745
 21
3.566918
 72
     1
 10
-1.814745
 20
3.566918
 11
-1.6882
 21
2.934762
 72
     1
 10
-1.6882
 20
2.934762
 11
-1.246856
 21
3.113482
 72
     1
 10
-1.246856
 20
3.113482
 11
-0.821916
 21
2.876229
 72
     1
 10
-0.821916
 20
2.876229
 11
-0.07124
 21
3.075241
 72
     1
 10
-0.07124
 20
3.075241
 11
-0.985174
 21
1.993552
 72
     1
 10
-0.985174
 20
1.993552
 11
1.166085
 21
1.993552
 72
     1
 10
1.166085
 20
1.993552
 11
0.665375
 21
2.951151
 72
     1
 10
0.665375
 20
2.951151
 11
1.55978
 21
2.695947
 72
     1
 10
1.55978
 20
2.695947
 11
1.252792
 21
3.50058
 72
     1
 10
1.252792
 20
3.50058
 11
1.587901
 21
3.651205
 72
     1
 10
1.587901
 20
3.651205
 11
1.440266
 21
4.287263
 72
     1
 10
1.440266
 20
4.287263
 11
2.037838
 21
3.960259
 72
     1
 10
2.037838
 20
3.960259
 11
2.150322
 21
4.409792
 72
     1
 10
2.150322
 20
4.409792
 11
1.565248
 21
4.88664
 72
     1
 10
1.565248
 20
4.88664
 11
2.051898
 21
4.971708
 72
     1
 10
2.051898
 20
4.971708
 11
2.009717
 21
5.89887
 72
     1
 10
2.009717
 20
5.89887
 11
1.658204
 21
5.519576
 72
     1
 10
1.658204
 20
5.519576
 11
0.997359
 21
5.547672
 72
     1
 10
0.997359
 20
5.547672
 11
1.039541
 21
5.75839
 72
     1
 10
1.039541
 20
5.75839
 11
0.569316
 21
5.758657
 72
     1
 10
0.569316
 20
5.758657
 11
-0.428826
 21
5.753261
 72
     1
 10
-0.428826
 20
5.753261
 11
-0.703964
 21
5.75839
 72
     1
 10
-0.703964
 20
5.75839
 11
-0.851398
 21
5.52098
 72
     1
 10
-0.851398
 20
5.52098
 11
0.490399
 21
5.523478
 72
     1
 10
0.490399
 20
5.523478
 11
0.340421
 21
5.036484
 72
     1
 10
0.340421
 20
5.036484
 11
0.715368
 21
4.437107
 72
     1
 10
0.715368
 20
4.437107
 11
0.490399
 21
3.950113
 72
     1
 10
0.490399
 20
3.950113
 11
-0.237972
 21
4.059228
 97
        0
 75
     0
 76
     1
 98
        1
 10
0.0
 20
0.0
  0
POLYLINE
  5
10897
100
AcDbEntity
  8
0
 62
     2
100
AcDb2dPolyline
 66
     1
 10
0.0
 20
0.0
 30
0.0
  0
VERTEX
  5
10898
100
AcDbEntity
  8
0
 62
     2
100
AcDbVertex
100
AcDb2dVertex
 10
-1.409026
 20
-3.779522
 30
0.0
  0
VERTEX
  5
10899
100
AcDbEntity
  8
0
 62
     2
100
AcDbVertex
100
AcDb2dVertex
 10
-2.31893
 20
-4.305514
 30
0.0
  0
VERTEX
  5
1089A
100
AcDbEntity
  8
0
 62
     2
100
AcDbVertex
100
AcDb2dVertex
 10
-3.339744
 20
-4.686276
 30
0.0
  0
VERTEX
  5
1089B
100
AcDbEntity
  8
0
 62
     2
100
AcDbVertex
100
AcDb2dVertex
 10
-3.543907
 20
-4.074337
 30
0.0
  0
VERTEX
  5
1089C
100
AcDbEntity
  8
0
 62
     2
100
AcDbVertex
100
AcDb2dVertex
 10
-2.454239
 20
-3.4384
 30
0.0
  0
SEQEND
  5
1089D
100
AcDbEntity
  8
0
 62
     2
  0
POLYLINE
  5
1089E
100
AcDbEntity
  8
0
 62
     2
100
AcDb2dPolyline
 66
     1
 10
0.0
 20
0.0
 30
0.0
  0
VERTEX
  5
1089F
100
AcDbEntity
  8
0
 62
     2
100
AcDbVertex
100
AcDb2dVertex
 10
-3.379222
 20
-4.824941
 30
0.0
  0
VERTEX
  5
108A0
100
AcDbEntity
  8
0
 62
     2
100
AcDbVertex
100
AcDb2dVertex
 10
-3.18867
 20
-5.423281
 30
0.0
  0
VERTEX
  5
108A1
100
AcDbEntity
  8
0
 62
     2
100
AcDbVertex
100
AcDb2dVertex
 10
-3.33839
 20
-5.640859
 30
0.0
  0
VERTEX
  5
108A2
100
AcDbEntity
  8
0
 62
     2
100
AcDbVertex
100
AcDb2dVertex
 10
-3.324779
 20
-6.130411
 30
0.0
  0
VERTEX
  5
108A3
100
AcDbEntity
  8
0
 62
     2
100
AcDbVertex
100
AcDb2dVertex
 10
-3.610607
 20
-6.388785
 30
0.0
  0
VERTEX
  5
108A4
100
AcDbEntity
  8
0
 62
     2
100
AcDbVertex
100
AcDb2dVertex
 10
-3.624218
 20
-6.878336
 30
0.0
  0
VERTEX
  5
108A5
100
AcDbEntity
  8
0
 62
     2
100
AcDbVertex
100
AcDb2dVertex
 10
-3.107005
 20
-6.987125
 30
0.0
  0
VERTEX
  5
108A6
100
AcDbEntity
  8
0
 62
     2
100
AcDbVertex
100
AcDb2dVertex
 10
-2.902842
 20
-7.367888
 30
0.0
  0
VERTEX
  5
108A7
100
AcDbEntity
  8
0
 62
     2
100
AcDbVertex
100
AcDb2dVertex
 10
-2.372019
 20
-7.571867
 30
0.0
  0
VERTEX
  5
108A8
100
AcDbEntity
  8
0
 62
     2
100
AcDbVertex
100
AcDb2dVertex
 10
-2.249521
 20
-7.966228
 30
0.0
  0
VERTEX
  5
108A9
100
AcDbEntity
  8
0
 62
     2
100
AcDbVertex
100
AcDb2dVertex
 10
-1.664254
 20
-7.871037
 30
0.0
  0
VERTEX
  5
108AA
100
AcDbEntity
  8
0
 62
     2
100
AcDbVertex
100
AcDb2dVertex
 10
-1.677865
 20
-8.34699
 30
0.0
  0
VERTEX
  5
108AB
100
AcDbEntity
  8
0
 62
     2
100
AcDbVertex
100
AcDb2dVertex
 10
-1.90925
 20
-8.34699
 30
0.0
  0
VERTEX
  5
108AC
100
AcDbEntity
  8
0
 62
     2
100
AcDbVertex
100
AcDb2dVertex
 10
-1.950082
 20
-8.075017
 30
0.0
  0
VERTEX
  5
108AD
100
AcDbEntity
  8
0
 62
     2
100
AcDbVertex
100
AcDb2dVertex
 10
-2.467295
 20
-8.469378
 30
0.0
  0
VERTEX
  5
108AE
100
AcDbEntity
  8
0
 62
     2
100
AcDbVertex
100
AcDb2dVertex
 10
-2.657847
 20
-8.374187
 30
0.0
  0
VERTEX
  5
108AF
100
AcDbEntity
  8
0
 62
     2
100
AcDbVertex
100
AcDb2dVertex
 10
-2.303964
 20
-8.102215
 30
0.0
  0
VERTEX
  5
108B0
100
AcDbEntity
  8
0
 62
     2
100
AcDbVertex
100
AcDb2dVertex
 10
-2.848399
 20
-7.966228
 30
0.0
  0
VERTEX
  5
108B1
100
AcDbEntity
  8
0
 62
     2
100
AcDbVertex
100
AcDb2dVertex
 10
-3.02534
 20
-7.571867
 30
0.0
  0
VERTEX
  5
108B2
100
AcDbEntity
  8
0
 62
     2
100
AcDbVertex
100
AcDb2dVertex
 10
-3.542553
 20
-7.490275
 30
0.0
  0
VERTEX
  5
108B3
100
AcDbEntity
  8
0
 62
     2
100
AcDbVertex
100
AcDb2dVertex
 10
-3.81477
 20
-7.068717
 30
0.0
  0
VERTEX
  5
108B4
100
AcDbEntity
  8
0
 62
     2
100
AcDbVertex
100
AcDb2dVertex
 10
-4.209485
 20
-6.94633
 30
0.0
  0
VERTEX
  5
108B5
100
AcDbEntity
  8
0
 62
     2
100
AcDbVertex
100
AcDb2dVertex
 10
-4.046154
 20
-6.33439
 30
0.0
  0
VERTEX
  5
108B6
100
AcDbEntity
  8
0
 62
     2
100
AcDbVertex
100
AcDb2dVertex
 10
-3.801159
 20
-6.184805
 30
0.0
  0
VERTEX
  5
108B7
100
AcDbEntity
  8
0
 62
     2
100
AcDbVertex
100
AcDb2dVertex
 10
-3.801159
 20
-5.749649
 30
0.0
  0
VERTEX
  5
108B8
100
AcDbEntity
  8
0
 62
     2
100
AcDbVertex
100
AcDb2dVertex
 10
-3.542553
 20
-5.504873
 30
0.0
  0
VERTEX
  5
108B9
100
AcDbEntity
  8
0
 62
     2
100
AcDbVertex
100
AcDb2dVertex
 10
-3.746715
 20
-4.93373
 30
0.0
  0
SEQEND
  5
108BA
100
AcDbEntity
  8
0
 62
     2
  0
POLYLINE
  5
108BB
100
AcDbEntity
  8
0
 62
     2
100
AcDb2dPolyline
 66
     1
 10
0.0
 20
0.0
 30
0.0
 70
     1
  0
VERTEX
  5
108BC
100
AcDbEntity
  8
0
 62
     2
100
AcDbVertex
100
AcDb2dVertex
 10
-4.481055
 20
-3.396418
 30
0.0
  0
VERTEX
  5
108BD
100
AcDbEntity
  8
0
 62
     2
100
AcDbVertex
100
AcDb2dVertex
 10
-4.40873
 20
-4.015347
 30
0.0
  0
VERTEX
  5
108BE
100
AcDbEntity
  8
0
 62
     2
100
AcDbVertex
100
AcDb2dVertex
 10
-4.460337
 20
-3.979557
 30
0.0
  0
VERTEX
  5
108BF
100
AcDbEntity
  8
0
 62
     2
100
AcDbVertex
100
AcDb2dVertex
 10
-4.84494
 20
-4.036677
 30
0.0
  0
VERTEX
  5
108C0
100
AcDbEntity
  8
0
 62
     2
100
AcDbVertex
100
AcDb2dVertex
 10
-4.930868
 20
-3.387174
 30
0.0
 42
0.08946
  0
SEQEND
  5
108C1
100
AcDbEntity
  8
0
 62
     2
  0
POLYLINE
  5
108C2
100
AcDbEntity
  8
0
 62
     2
100
AcDb2dPolyline
 66
     1
 10
0.0
 20
0.0
 30
0.0
  0
VERTEX
  5
108C3
100
AcDbEntity
  8
0
 62
     2
100
AcDbVertex
100
AcDb2dVertex
 10
-5.089215
 20
-4.555945
 30
0.0
  0
VERTEX
  5
108C4
100
AcDbEntity
  8
0
 62
     2
100
AcDbVertex
100
AcDb2dVertex
 10
-4.28555
 20
-4.815751
 30
0.0
  0
SEQEND
  5
108C5
100
AcDbEntity
  8
0
 62
     2
  0
POLYLINE
  5
108C6
100
AcDbEntity
  8
0
 62
     2
100
AcDb2dPolyline
 66
     1
 10
0.0
 20
0.0
 30
0.0
  0
VERTEX
  5
108C7
100
AcDbEntity
  8
0
 62
     2
100
AcDbVertex
100
AcDb2dVertex
 10
-4.258556
 20
-5.03729
 30
0.0
  0
VERTEX
  5
108C8
100
AcDbEntity
  8
0
 62
     2
100
AcDbVertex
100
AcDb2dVertex
 10
-4.66486
 20
-5.084492
 30
0.0
  0
VERTEX
  5
108C9
100
AcDbEntity
  8
0
 62
     2
100
AcDbVertex
100
AcDb2dVertex
 10
-5.02165
 20
-5.023286
 30
0.0
  0
SEQEND
  5
108CA
100
AcDbEntity
  8
0
 62
     2
  0
POLYLINE
  5
108CB
100
AcDbEntity
  8
0
 62
     2
100
AcDb2dPolyline
 66
     1
 10
0.0
 20
0.0
 30
0.0
  0
VERTEX
  5
108CC
100
AcDbEntity
  8
0
 62
     2
100
AcDbVertex
100
AcDb2dVertex
 10
-4.258977
 20
-5.033834
 30
0.0
  0
VERTEX
  5
108CD
100
AcDbEntity
  8
0
 62
     2
100
AcDbVertex
100
AcDb2dVertex
 10
-4.309614
 20
-4.618257
 30
0.0
  0
VERTEX
  5
108CE
100
AcDbEntity
  8
0
 62
     2
100
AcDbVertex
100
AcDb2dVertex
 10
-4.725401
 20
-4.358623
 30
0.0
  0
VERTEX
  5
108CF
100
AcDbEntity
  8
0
 62
     2
100
AcDbVertex
100
AcDb2dVertex
 10
-4.84494
 20
-4.036677
 30
0.0
  0
VERTEX
  5
108D0
100
AcDbEntity
  8
0
 62
     2
100
AcDbVertex
100
AcDb2dVertex
 10
-5.089215
 20
-4.296311
 30
0.0
  0
VERTEX
  5
108D1
100
AcDbEntity
  8
0
 62
     2
100
AcDbVertex
100
AcDb2dVertex
 10
-5.089215
 20
-4.555945
 30
0.0
  0
VERTEX
  5
108D2
100
AcDbEntity
  8
0
 62
     2
100
AcDbVertex
100
AcDb2dVertex
 10
-5.167175
 20
-4.851927
 30
0.0
  0
VERTEX
  5
108D3
100
AcDbEntity
  8
0
 62
     2
100
AcDbVertex
100
AcDb2dVertex
 10
-5.02165
 20
-5.023286
 30
0.0
  0
VERTEX
  5
108D4
100
AcDbEntity
  8
0
 62
     2
100
AcDbVertex
100
AcDb2dVertex
 10
-5.09961
 20
-5.267341
 30
0.0
  0
VERTEX
  5
108D5
100
AcDbEntity
  8
0
 62
     2
100
AcDbVertex
100
AcDb2dVertex
 10
-4.699702
 20
-5.335189
 30
0.0
  0
SEQEND
  5
108D6
100
AcDbEntity
  8
0
 62
     2
  0
POLYLINE
  5
108D7
100
AcDbEntity
  8
0
 62
     2
100
AcDb2dPolyline
 66
     1
 10
0.0
 20
0.0
 30
0.0
  0
VERTEX
  5
108D8
100
AcDbEntity
  8
0
 62
     2
100
AcDbVertex
100
AcDb2dVertex
 10
-3.339744
 20
-4.686276
 30
0.0
  0
VERTEX
  5
108D9
100
AcDbEntity
  8
0
 62
     2
100
AcDbVertex
100
AcDb2dVertex
 10
-3.379222
 20
-4.824941
 30
0.0
  0
VERTEX
  5
108DA
100
AcDbEntity
  8
0
 62
     2
100
AcDbVertex
100
AcDb2dVertex
 10
-3.746715
 20
-4.93373
 30
0.0
  0
VERTEX
  5
108DB
100
AcDbEntity
  8
0
 62
     2
100
AcDbVertex
100
AcDb2dVertex
 10
-4.018563
 20
-4.285925
 30
0.0
  0
VERTEX
  5
108DC
100
AcDbEntity
  8
0
 62
     2
100
AcDbVertex
100
AcDb2dVertex
 10
-3.543907
 20
-4.074337
 30
0.0
  0
SEQEND
  5
108DD
100
AcDbEntity
  8
0
 62
     2
  0
LINE
  5
108DE
100
AcDbEntity
  8
0
 62
     2
100
AcDbLine
 10
-4.236851
 20
-5.215415
 30
0.0
 11
-3.746715
 21
-4.93373
 31
0.0
  0
POLYLINE
  5
108DF
100
AcDbEntity
  8
0
 62
     2
100
AcDb2dPolyline
 66
     1
 10
0.0
 20
0.0
 30
0.0
 70
     1
  0
VERTEX
  5
108E0
100
AcDbEntity
  8
0
 62
     2
100
AcDbVertex
100
AcDb2dVertex
 10
-4.258977
 20
-5.033834
 30
0.0
  0
VERTEX
  5
108E1
100
AcDbEntity
  8
0
 62
     2
100
AcDbVertex
100
AcDb2dVertex
 10
-4.236851
 20
-5.215415
 30
0.0
  0
VERTEX
  5
108E2
100
AcDbEntity
  8
0
 62
     2
100
AcDbVertex
100
AcDb2dVertex
 10
-4.197935
 20
-5.834082
 30
0.0
  0
VERTEX
  5
108E3
100
AcDbEntity
  8
0
 62
     2
100
AcDbVertex
100
AcDb2dVertex
 10
-4.637139
 20
-5.875479
 30
0.0
  0
VERTEX
  5
108E4
100
AcDbEntity
  8
0
 62
     2
100
AcDbVertex
100
AcDb2dVertex
 10
-4.699702
 20
-5.335189
 30
0.0
  0
VERTEX
  5
108E5
100
AcDbEntity
  8
0
 62
     2
100
AcDbVertex
100
AcDb2dVertex
 10
-4.548692
 20
-5.36081
 30
0.0
  0
SEQEND
  5
108E6
100
AcDbEntity
  8
0
 62
     2
  0
LINE
  5
108E7
100
AcDbEntity
  8
0
 62
     2
100
AcDbLine
 10
-4.018563
 20
-4.285925
 30
0.0
 11
-4.40873
 21
-4.015347
 31
0.0
  0
ARC
  5
108E8
100
AcDbEntity
  8
0
 62
     2
100
AcDbCircle
 10
-4.680334
 20
-2.144831
 30
0.0
 40
1.267353
100
AcDbArc
 50
61.615895
 51
258.598505
  0
POLYLINE
  5
108E9
100
AcDbEntity
  8
0
 62
     2
100
AcDb2dPolyline
 66
     1
 10
0.0
 20
0.0
 30
0.0
  0
VERTEX
  5
108EA
100
AcDbEntity
  8
0
 62
     2
100
AcDbVertex
100
AcDb2dVertex
 10
-3.870082
 20
-1.470643
 30
0.0
  0
VERTEX
  5
108EB
100
AcDbEntity
  8
0
 62
     2
100
AcDbVertex
100
AcDb2dVertex
 10
-3.982119
 20
-1.192035
 30
0.0
  0
VERTEX
  5
108EC
100
AcDbEntity
  8
0
 62
     2
100
AcDbVertex
100
AcDb2dVertex
 10
-4.077859
 20
-1.029838
 30
0.0
  0
SEQEND
  5
108ED
100
AcDbEntity
  8
0
 62
     2
  0
ARC
  5
108EE
100
AcDbEntity
  8
0
 62
     2
100
AcDbCircle
 10
-4.496994
 20
-2.040159
 30
0.0
 40
0.846975
100
AcDbArc
 50
42.253457
 51
294.510096
  0
POLYLINE
  5
108EF
100
AcDbEntity
  8
0
 62
     2
100
AcDb2dPolyline
 66
     1
 10
0.0
 20
0.0
 30
0.0
 70
     1
  0
VERTEX
  5
108F0
100
AcDbEntity
  8
0
 62
     2
100
AcDbVertex
100
AcDb2dVertex
 10
-6.412273
 20
-2.378559
 30
0.0
  0
VERTEX
  5
108F1
100
AcDbEntity
  8
0
 62
     2
100
AcDbVertex
100
AcDb2dVertex
 10
-6.271148
 20
-2.877168
 30
0.0
  0
VERTEX
  5
108F2
100
AcDbEntity
  8
0
 62
     2
100
AcDbVertex
100
AcDb2dVertex
 10
-5.980095
 20
-3.23258
 30
0.0
  0
VERTEX
  5
108F3
100
AcDbEntity
  8
0
 62
     2
100
AcDbVertex
100
AcDb2dVertex
 10
-6.756236
 20
-3.2972
 30
0.0
  0
SEQEND
  5
108F4
100
AcDbEntity
  8
0
 62
     2
  0
LWPOLYLINE
  5
108F5
100
AcDbEntity
  8
0
 62
     2
100
AcDbPolyline
 90
        2
 70
     0
 43
0.0
 10
-4.340911
 20
-1.457759
 10
-4.761871
 20
-2.544413
  0
POLYLINE
  5
108F6
100
AcDbEntity
  8
0
 62
     2
100
AcDb2dPolyline
 66
     1
 10
0.0
 20
0.0
 30
0.0
  0
VERTEX
  5
108F7
100
AcDbEntity
  8
0
 62
     2
100
AcDbVertex
100
AcDb2dVertex
 10
-4.079709
 20
-3.260821
 30
0.0
  0
VERTEX
  5
108F8
100
AcDbEntity
  8
0
 62
     2
100
AcDbVertex
100
AcDb2dVertex
 10
-4.145623
 20
-2.810811
 30
0.0
  0
SEQEND
  5
108F9
100
AcDbEntity
  8
0
 62
     2
  0
ARC
  5
108FA
100
AcDbEntity
  8
0
 62
     2
100
AcDbCircle
 10
-4.680334
 20
-2.144831
 30
0.0
 40
1.267353
100
AcDbArc
 50
279.046723
 51
298.289086
  0
POLYLINE
  5
108FB
100
AcDbEntity
  8
0
 62
     2
100
AcDb2dPolyline
 66
     1
 10
0.0
 20
0.0
 30
0.0
  0
VERTEX
  5
108FC
100
AcDbEntity
  8
0
 62
     2
100
AcDbVertex
100
AcDb2dVertex
 10
3.725948
 20
-5.037787
 30
0.0
  0
VERTEX
  5
108FD
100
AcDbEntity
  8
0
 62
     2
100
AcDbVertex
100
AcDb2dVertex
 10
3.566708
 20
-5.725808
 30
0.0
  0
VERTEX
  5
108FE
100
AcDbEntity
  8
0
 62
     2
100
AcDbVertex
100
AcDb2dVertex
 10
3.760622
 20
-6.355463
 30
0.0
  0
VERTEX
  5
108FF
100
AcDbEntity
  8
0
 62
     2
100
AcDbVertex
100
AcDb2dVertex
 10
3.590947
 20
-6.613783
 30
0.0
  0
VERTEX
  5
10900
100
AcDbEntity
  8
0
 62
     2
100
AcDbVertex
100
AcDb2dVertex
 10
3.655585
 20
-6.993191
 30
0.0
  0
VERTEX
  5
10901
100
AcDbEntity
  8
0
 62
     2
100
AcDbVertex
100
AcDb2dVertex
 10
3.065763
 20
-7.299946
 30
0.0
  0
VERTEX
  5
10902
100
AcDbEntity
  8
0
 62
     2
100
AcDbVertex
100
AcDb2dVertex
 10
2.993045
 20
-7.558266
 30
0.0
  0
VERTEX
  5
10903
100
AcDbEntity
  8
0
 62
     2
100
AcDbVertex
100
AcDb2dVertex
 10
2.669855
 20
-7.743934
 30
0.0
  0
VERTEX
  5
10904
100
AcDbEntity
  8
0
 62
     2
100
AcDbVertex
100
AcDb2dVertex
 10
2.621377
 20
-7.881166
 30
0.0
  0
VERTEX
  5
10905
100
AcDbEntity
  8
0
 62
     2
100
AcDbVertex
100
AcDb2dVertex
 10
2.944567
 20
-8.002254
 30
0.0
  0
VERTEX
  5
10906
100
AcDbEntity
  8
0
 62
     2
100
AcDbVertex
100
AcDb2dVertex
 10
2.879929
 20
-8.535039
 30
0.0
  0
VERTEX
  5
10907
100
AcDbEntity
  8
0
 62
     2
100
AcDbVertex
100
AcDb2dVertex
 10
2.686015
 20
-8.349371
 30
0.0
  0
VERTEX
  5
10908
100
AcDbEntity
  8
0
 62
     2
100
AcDbVertex
100
AcDb2dVertex
 10
2.710254
 20
-8.091051
 30
0.0
  0
VERTEX
  5
10909
100
AcDbEntity
  8
0
 62
     2
100
AcDbVertex
100
AcDb2dVertex
 10
2.387064
 20
-8.099124
 30
0.0
  0
VERTEX
  5
1090A
100
AcDbEntity
  8
0
 62
     2
100
AcDbVertex
100
AcDb2dVertex
 10
1.966917
 20
-8.341299
 30
0.0
  0
VERTEX
  5
1090B
100
AcDbEntity
  8
0
 62
     2
100
AcDbVertex
100
AcDb2dVertex
 10
1.781083
 20
-8.195994
 30
0.0
  0
VERTEX
  5
1090C
100
AcDbEntity
  8
0
 62
     2
100
AcDbVertex
100
AcDb2dVertex
 10
2.419383
 20
-7.865021
 30
0.0
  0
VERTEX
  5
1090D
100
AcDbEntity
  8
0
 62
     2
100
AcDbVertex
100
AcDb2dVertex
 10
2.427463
 20
-7.695499
 30
0.0
  0
VERTEX
  5
1090E
100
AcDbEntity
  8
0
 62
     2
100
AcDbVertex
100
AcDb2dVertex
 10
2.241628
 20
-7.412961
 30
0.0
  0
VERTEX
  5
1090F
100
AcDbEntity
  8
0
 62
     2
100
AcDbVertex
100
AcDb2dVertex
 10
2.83145
 20
-7.009336
 30
0.0
  0
VERTEX
  5
10910
100
AcDbEntity
  8
0
 62
     2
100
AcDbVertex
100
AcDb2dVertex
 10
3.243518
 20
-6.565348
 30
0.0
  0
VERTEX
  5
10911
100
AcDbEntity
  8
0
 62
     2
100
AcDbVertex
100
AcDb2dVertex
 10
3.106162
 20
-5.73388
 30
0.0
  0
VERTEX
  5
10912
100
AcDbEntity
  8
0
 62
     2
100
AcDbVertex
100
AcDb2dVertex
 10
2.993045
 20
-5.427125
 30
0.0
  0
VERTEX
  5
10913
100
AcDbEntity
  8
0
 62
     2
100
AcDbVertex
100
AcDb2dVertex
 10
3.170041
 20
-4.687127
 30
0.0
  0
SEQEND
  5
10914
100
AcDbEntity
  8
0
 62
     2
  0
POLYLINE
  5
10915
100
AcDbEntity
  8
0
 62
     2
100
AcDb2dPolyline
 66
     1
 10
0.0
 20
0.0
 30
0.0
 70
     1
  0
VERTEX
  5
10916
100
AcDbEntity
  8
0
 62
     2
100
AcDbVertex
100
AcDb2dVertex
 10
4.232083
 20
-4.006191
 30
0.0
  0
VERTEX
  5
10917
100
AcDbEntity
  8
0
 62
     2
100
AcDbVertex
100
AcDb2dVertex
 10
4.487834
 20
-1.972241
 30
0.0
  0
VERTEX
  5
10918
100
AcDbEntity
  8
0
 62
     2
100
AcDbVertex
100
AcDb2dVertex
 10
5.004135
 20
-2.034296
 30
0.0
  0
VERTEX
  5
10919
100
AcDbEntity
  8
0
 62
     2
100
AcDbVertex
100
AcDb2dVertex
 10
4.783608
 20
-3.989459
 30
0.0
  0
SEQEND
  5
1091A
100
AcDbEntity
  8
0
 62
     2
  0
POLYLINE
  5
1091B
100
AcDbEntity
  8
0
 62
     2
100
AcDb2dPolyline
 66
     1
 10
0.0
 20
0.0
 30
0.0
  0
VERTEX
  5
1091C
100
AcDbEntity
  8
0
 62
     2
100
AcDbVertex
100
AcDb2dVertex
 10
4.087929
 20
-5.182432
 30
0.0
  0
VERTEX
  5
1091D
100
AcDbEntity
  8
0
 62
     2
100
AcDbVertex
100
AcDb2dVertex
 10
4.40296
 20
-5.130551
 30
0.0
  0
VERTEX
  5
1091E
100
AcDbEntity
  8
0
 62
     2
100
AcDbVertex
100
AcDb2dVertex
 10
4.632515
 20
-5.329026
 30
0.0
  0
VERTEX
  5
1091F
100
AcDbEntity
  8
0
 62
     2
100
AcDbVertex
100
AcDb2dVertex
 10
4.568631
 20
-5.893547
 30
0.0
  0
VERTEX
  5
10920
100
AcDbEntity
  8
0
 62
     2
100
AcDbVertex
100
AcDb2dVertex
 10
4.004084
 20
-5.816282
 30
0.0
  0
VERTEX
  5
10921
100
AcDbEntity
  8
0
 62
     2
100
AcDbVertex
100
AcDb2dVertex
 10
4.087929
 20
-5.182432
 30
0.0
  0
SEQEND
  5
10922
100
AcDbEntity
  8
0
 62
     2
  0
POLYLINE
  5
10923
100
AcDbEntity
  8
0
 62
     2
100
AcDb2dPolyline
 66
     1
 10
0.0
 20
0.0
 30
0.0
  0
VERTEX
  5
10924
100
AcDbEntity
  8
0
 62
     2
100
AcDbVertex
100
AcDb2dVertex
 10
4.487834
 20
-1.972241
 30
0.0
  0
VERTEX
  5
10925
100
AcDbEntity
  8
0
 62
     2
100
AcDbVertex
100
AcDb2dVertex
 10
3.876884
 20
-1.898809
 30
0.0
  0
VERTEX
  5
10926
100
AcDbEntity
  8
0
 62
     2
100
AcDbVertex
100
AcDb2dVertex
 10
3.977962
 20
-1.229766
 30
0.0
  0
VERTEX
  5
10927
100
AcDbEntity
  8
0
 62
     2
100
AcDbVertex
100
AcDb2dVertex
 10
4.573202
 20
-1.293323
 30
0.0
  0
SEQEND
  5
10928
100
AcDbEntity
  8
0
 62
     2
  0
POLYLINE
  5
10929
100
AcDbEntity
  8
0
 62
     2
100
AcDb2dPolyline
 66
     1
 10
0.0
 20
0.0
 30
0.0
  0
VERTEX
  5
1092A
100
AcDbEntity
  8
0
 62
     2
100
AcDbVertex
100
AcDb2dVertex
 10
5.051902
 20
-4.539124
 30
0.0
  0
VERTEX
  5
1092B
100
AcDbEntity
  8
0
 62
     2
100
AcDbVertex
100
AcDb2dVertex
 10
4.635078
 20
-4.608753
 30
0.0
  0
VERTEX
  5
1092C
100
AcDbEntity
  8
0
 62
     2
100
AcDbVertex
100
AcDb2dVertex
 10
4.348799
 20
-4.53918
 30
0.0
  0
SEQEND
  5
1092D
100
AcDbEntity
  8
0
 62
     2
  0
POLYLINE
  5
1092E
100
AcDbEntity
  8
0
 62
     2
100
AcDb2dPolyline
 66
     1
 10
0.0
 20
0.0
 30
0.0
  0
VERTEX
  5
1092F
100
AcDbEntity
  8
0
 62
     2
100
AcDbVertex
100
AcDb2dVertex
 10
5.029845
 20
-4.92979
 30
0.0
  0
VERTEX
  5
10930
100
AcDbEntity
  8
0
 62
     2
100
AcDbVertex
100
AcDb2dVertex
 10
4.592523
 20
-4.956618
 30
0.0
  0
VERTEX
  5
10931
100
AcDbEntity
  8
0
 62
     2
100
AcDbVertex
100
AcDb2dVertex
 10
4.259029
 20
-4.861241
 30
0.0
  0
SEQEND
  5
10932
100
AcDbEntity
  8
0
 62
     2
  0
POLYLINE
  5
10933
100
AcDbEntity
  8
0
 62
     2
100
AcDb2dPolyline
 66
     1
 10
0.0
 20
0.0
 30
0.0
  0
VERTEX
  5
10934
100
AcDbEntity
  8
0
 62
     2
100
AcDbVertex
100
AcDb2dVertex
 10
4.600286
 20
-3.995021
 30
0.0
  0
VERTEX
  5
10935
100
AcDbEntity
  8
0
 62
     2
100
AcDbVertex
100
AcDb2dVertex
 10
4.650553
 20
-4.19518
 30
0.0
  0
VERTEX
  5
10936
100
AcDbEntity
  8
0
 62
     2
100
AcDbVertex
100
AcDb2dVertex
 10
4.57318
 20
-4.353652
 30
0.0
  0
VERTEX
  5
10937
100
AcDbEntity
  8
0
 62
     2
100
AcDbVertex
100
AcDb2dVertex
 10
4.368142
 20
-4.400034
 30
0.0
  0
VERTEX
  5
10938
100
AcDbEntity
  8
0
 62
     2
100
AcDbVertex
100
AcDb2dVertex
 10
4.348799
 20
-4.53918
 30
0.0
  0
VERTEX
  5
10939
100
AcDbEntity
  8
0
 62
     2
100
AcDbVertex
100
AcDb2dVertex
 10
4.205659
 20
-4.697652
 30
0.0
  0
VERTEX
  5
1093A
100
AcDbEntity
  8
0
 62
     2
100
AcDbVertex
100
AcDb2dVertex
 10
4.25982
 20
-4.871585
 30
0.0
  0
VERTEX
  5
1093B
100
AcDbEntity
  8
0
 62
     2
100
AcDbVertex
100
AcDb2dVertex
 10
4.182073
 20
-5.166928
 30
0.0
  0
SEQEND
  5
1093C
100
AcDbEntity
  8
0
 62
     2
  0
POLYLINE
  5
1093D
100
AcDbEntity
  8
0
 62
     2
100
AcDb2dPolyline
 66
     1
 10
0.0
 20
0.0
 30
0.0
 70
     1
  0
VERTEX
  5
1093E
100
AcDbEntity
  8
0
 62
     2
100
AcDbVertex
100
AcDb2dVertex
 10
-1.535708
 20
-1.842679
 30
0.0
  0
VERTEX
  5
1093F
100
AcDbEntity
  8
0
 62
     2
100
AcDbVertex
100
AcDb2dVertex
 10
-0.679171
 20
-2.296216
 30
0.0
  0
VERTEX
  5
10940
100
AcDbEntity
  8
0
 62
     2
100
AcDbVertex
100
AcDb2dVertex
 10
-1.202839
 20
-3.73437
 30
0.0
  0
VERTEX
  5
10941
100
AcDbEntity
  8
0
 62
     2
100
AcDbVertex
100
AcDb2dVertex
 10
-2.196432
 20
-3.951949
 30
0.0
  0
VERTEX
  5
10942
100
AcDbEntity
  8
0
 62
     2
100
AcDbVertex
100
AcDb2dVertex
 10
-2.101156
 20
-3.421602
 30
0.0
  0
VERTEX
  5
10943
100
AcDbEntity
  8
0
 62
     2
100
AcDbVertex
100
AcDb2dVertex
 10
-2.672812
 20
-3.448799
 30
0.0
  0
VERTEX
  5
10944
100
AcDbEntity
  8
0
 62
     2
100
AcDbVertex
100
AcDb2dVertex
 10
-2.849753
 20
-3.095234
 30
0.0
  0
VERTEX
  5
10945
100
AcDbEntity
  8
0
 62
     2
100
AcDbVertex
100
AcDb2dVertex
 10
-2.346151
 20
-3.000043
 30
0.0
  0
SEQEND
  5
10946
100
AcDbEntity
  8
0
 62
     2
  0
LWPOLYLINE
  5
10947
100
AcDbEntity
  8
0
 62
     2
100
AcDbPolyline
 90
       47
 70
     1
 43
0.0
 10
-0.275491
 20
-2.359465
 10
0.237819
 20
-2.359465
 10
0.377813
 20
-3.46287
 10
1.21191
 20
-4.323512
 10
0.269281
 20
-4.073728
 10
0.3714
 20
-4.992076
 10
1.855576
 20
-4.69799
 10
1.831376
 20
-5.012349
 10
1.114619
 20
-5.271353
 10
2.154691
 20
-5.971121
 10
2.477518
 20
-5.619258
 10
2.556267
 20
-6.146345
 10
2.323453
 20
-6.479359
 10
1.736682
 20
-6.249574
 10
1.01271
 20
-5.665473
 10
1.12128
 20
-6.249574
 10
1.629471
 20
-6.959509
 10
1.109669
 20
-6.667254
 10
0.177888
 20
-5.457875
 10
0.32413
 20
-6.644508
 10
0.847069
 20
-7.13058
 10
0.844459
 20
-7.503509
 10
0.202516
 20
-7.142732
 10
0.287646
 20
-7.823233
 10
0.020051
 20
-8.20285
 10
-0.235293
 20
-7.774626
 10
-0.174486
 20
-7.13058
 10
-0.791315
 20
-7.514096
 10
-0.867684
 20
-7.191339
 10
-0.2961
 20
-6.644508
 10
-0.206509
 20
-5.478636
 10
-0.991987
 20
-6.667254
 10
-1.546848
 20
-6.944104
 10
-1.096489
 20
-6.203165
 10
-1.007182
 20
-5.650068
 10
-1.862839
 20
-6.22637
 10
-2.403714
 20
-6.374573
 10
-2.634695
 20
-6.137032
 10
-2.61076
 20
-5.619258
 10
-2.153123
 20
-5.889905
 10
-1.110912
 20
-5.344264
 10
-1.758367
 20
-5.020409
 10
-1.822902
 20
-4.601264
 10
-0.411511
 20
-4.958063
 10
-0.241313
 20
-4.039716
 10
-1.050105
 20
-4.23845
 10
-0.353266
 20
-3.509493
  0
POLYLINE
  5
10948
100
AcDbEntity
  8
0
 62
     2
100
AcDb2dPolyline
 66
     1
 10
0.0
 20
0.0
 30
0.0
 70
     1
  0
VERTEX
  5
10949
100
AcDbEntity
  8
0
 62
     2
100
AcDbVertex
100
AcDb2dVertex
 10
1.431945
 20
-1.964767
 30
0.0
  0
VERTEX
  5
1094A
100
AcDbEntity
  8
0
 62
     2
100
AcDbVertex
100
AcDb2dVertex
 10
2.415841
 20
-2.95416
 30
0.0
  0
VERTEX
  5
1094B
100
AcDbEntity
  8
0
 62
     2
100
AcDbVertex
100
AcDb2dVertex
 10
2.893831
 20
-3.185238
 30
0.0
  0
VERTEX
  5
1094C
100
AcDbEntity
  8
0
 62
     2
100
AcDbVertex
100
AcDb2dVertex
 10
2.160614
 20
-3.499007
 30
0.0
  0
VERTEX
  5
1094D
100
AcDbEntity
  8
0
 62
     2
100
AcDbVertex
100
AcDb2dVertex
 10
2.146786
 20
-3.84439
 30
0.0
  0
VERTEX
  5
1094E
100
AcDbEntity
  8
0
 62
     2
100
AcDbVertex
100
AcDb2dVertex
 10
1.330948
 20
-3.664791
 30
0.0
  0
VERTEX
  5
1094F
100
AcDbEntity
  8
0
 62
     2
100
AcDbVertex
100
AcDb2dVertex
 10
0.700594
 20
-2.318815
 30
0.0
  0
SEQEND
  5
10950
100
AcDbEntity
  8
0
 62
     2
  0
POLYLINE
  5
10951
100
AcDbEntity
  8
0
 62
     2
100
AcDb2dPolyline
 66
     1
 10
0.0
 20
0.0
 30
0.0
  0
VERTEX
  5
10952
100
AcDbEntity
  8
0
 62
     2
100
AcDbVertex
100
AcDb2dVertex
 10
2.395509
 20
-3.416177
 30
0.0
  0
VERTEX
  5
10953
100
AcDbEntity
  8
0
 62
     2
100
AcDbVertex
100
AcDb2dVertex
 10
3.432768
 20
-4.189774
 30
0.0
  0
VERTEX
  5
10954
100
AcDbEntity
  8
0
 62
     2
100
AcDbVertex
100
AcDb2dVertex
 10
3.170041
 20
-4.687127
 30
0.0
  0
VERTEX
  5
10955
100
AcDbEntity
  8
0
 62
     2
100
AcDbVertex
100
AcDb2dVertex
 10
2.312719
 20
-4.134513
 30
0.0
  0
VERTEX
  5
10956
100
AcDbEntity
  8
0
 62
     2
100
AcDbVertex
100
AcDb2dVertex
 10
1.338096
 20
-3.666364
 30
0.0
  0
SEQEND
  5
10957
100
AcDbEntity
  8
0
 62
     2
  0
LINE
  5
10958
100
AcDbEntity
  8
0
 62
     2
100
AcDbLine
 10
3.698868
 20
-4.778821
 30
0.0
 11
3.725948
 21
-5.037787
 31
0.0
  0
POLYLINE
  5
10959
100
AcDbEntity
  8
0
 62
     2
100
AcDb2dPolyline
 66
     1
 10
0.0
 20
0.0
 30
0.0
  0
VERTEX
  5
1095A
100
AcDbEntity
  8
0
 62
     2
100
AcDbVertex
100
AcDb2dVertex
 10
3.720863
 20
-5.04062
 30
0.0
  0
VERTEX
  5
1095B
100
AcDbEntity
  8
0
 62
     2
100
AcDbVertex
100
AcDb2dVertex
 10
3.170041
 20
-4.687127
 30
0.0
  0
SEQEND
  5
1095C
100
AcDbEntity
  8
0
 62
     2
  0
LINE
  5
1095D
100
AcDbEntity
  8
0
 62
     2
100
AcDbLine
 10
3.725948
 20
-5.037787
 30
0.0
 11
4.087929
 21
-5.182432
 31
0.0
  0
POLYLINE
  5
1095E
100
AcDbEntity
  8
0
 62
     2
100
AcDb2dPolyline
 66
     1
 10
0.0
 20
0.0
 30
0.0
  0
VERTEX
  5
1095F
100
AcDbEntity
  8
0
 62
     2
100
AcDbVertex
100
AcDb2dVertex
 10
3.865219
 20
-4.369113
 30
0.0
  0
VERTEX
  5
10960
100
AcDbEntity
  8
0
 62
     2
100
AcDbVertex
100
AcDb2dVertex
 10
3.432768
 20
-4.189774
 30
0.0
  0
SEQEND
  5
10961
100
AcDbEntity
  8
0
 62
     2
  0
LINE
  5
10962
100
AcDbEntity
  8
0
 62
     2
100
AcDbLine
 10
4.232083
 20
-4.006191
 30
0.0
 11
3.865219
 21
-4.369113
 31
0.0
  0
LINE
  5
10963
100
AcDbEntity
  8
0
 62
     2
100
AcDbLine
 10
3.865219
 20
-4.369113
 30
0.0
 11
3.698868
 21
-4.778821
 31
0.0
  0
ARC
  5
10964
100
AcDbEntity
  8
ADLER
100
AcDbCircle
 10
0.049935
 20
-0.545175
 30
0.0
 40
1.293811
100
AcDbArc
 50
180.0
 51
0.0
  0
POLYLINE
  5
10965
100
AcDbEntity
  8
ADLER
100
AcDb2dPolyline
 66
     1
 10
0.0
 20
0.0
 30
0.0
  0
VERTEX
  5
10966
100
AcDbEntity
  8
ADLER
100
AcDbVertex
100
AcDb2dVertex
 10
1.343746
 20
-0.545175
 30
0.0
  0
VERTEX
  5
10967
100
AcDbEntity
  8
ADLER
100
AcDbVertex
100
AcDb2dVertex
 10
-1.243876
 20
-0.545175
 30
0.0
  0
SEQEND
  5
10968
100
AcDbEntity
  8
ADLER
  0
HATCH
  5
10969
100
AcDbEntity
  8
ADLER
100
AcDbHatch
 10
0.0
 20
0.0
 30
0.0
210
0.0
220
0.0
230
1.0
  2
SOLID
 70
     1
 71
     0
 91
        1
 92
        1
 93
        2
 72
     2
 10
0.049935
 20
-0.545175
 40
1.293811
 50
180.0
 51
360.0
 73
     1
 72
     1
 10
1.343746
 20
-0.545175
 11
-1.243876
 21
-0.545175
 97
        0
 75
     0
 76
     1
 98
        1
 10
0.0
 20
0.0
  0
LWPOLYLINE
  5
1096A
100
AcDbEntity
  8
0
 62
     2
100
AcDbPolyline
 90
        4
 70
     1
 43
0.0
 10
-2.185864
 20
1.212052
 10
-2.417615
 20
-2.253156
 10
-1.796099
 20
-1.466609
 10
-1.747848
 20
1.174802
  0
POLYLINE
  5
1096B
100
AcDbEntity
  8
ADLER
100
AcDb2dPolyline
 66
     1
 10
0.0
 20
0.0
 30
0.0
  0
VERTEX
  5
1096C
100
AcDbEntity
  8
ADLER
100
AcDbVertex
100
AcDb2dVertex
 10
-1.243876
 20
-0.545175
 30
0.0
  0
VERTEX
  5
1096D
100
AcDbEntity
  8
ADLER
100
AcDbVertex
100
AcDb2dVertex
 10
-1.243876
 20
0.385439
 30
0.0
  0
SEQEND
  5
1096E
100
AcDbEntity
  8
ADLER
  0
LWPOLYLINE
  5
1096F
100
AcDbEntity
  8
0
 62
     2
100
AcDbPolyline
 90
        6
 70
     1
 43
0.0
 10
2.290046
 20
1.214511
 10
2.571084
 20
-2.435304
 10
2.007577
 20
-1.814346
 10
1.730136
 20
-1.664264
 10
1.821075
 20
-0.293708
 10
1.745959
 20
1.162235
  0
POLYLINE
  5
10970
100
AcDbEntity
  8
ADLER
100
AcDb2dPolyline
 66
     1
 10
0.0
 20
0.0
 30
0.0
  0
VERTEX
  5
10971
100
AcDbEntity
  8
ADLER
100
AcDbVertex
100
AcDb2dVertex
 10
1.343746
 20
0.385439
 30
0.0
  0
VERTEX
  5
10972
100
AcDbEntity
  8
ADLER
100
AcDbVertex
100
AcDb2dVertex
 10
1.343746
 20
-0.545175
 30
0.0
  0
SEQEND
  5
10973
100
AcDbEntity
  8
ADLER
  0
POLYLINE
  5
10974
100
AcDbEntity
  8
0
 62
     2
100
AcDb2dPolyline
 66
     1
 10
0.0
 20
0.0
 30
0.0
  0
VERTEX
  5
10975
100
AcDbEntity
  8
0
 62
     2
100
AcDbVertex
100
AcDb2dVertex
 10
4.783608
 20
-3.989459
 30
0.0
  0
VERTEX
  5
10976
100
AcDbEntity
  8
0
 62
     2
100
AcDbVertex
100
AcDb2dVertex
 10
5.060628
 20
-4.384574
 30
0.0
  0
VERTEX
  5
10977
100
AcDbEntity
  8
0
 62
     2
100
AcDbVertex
100
AcDb2dVertex
 10
5.018073
 20
-5.138281
 30
0.0
  0
VERTEX
  5
10978
100
AcDbEntity
  8
0
 62
     2
100
AcDbVertex
100
AcDb2dVertex
 10
4.632515
 20
-5.329026
 30
0.0
  0
SEQEND
  5
10979
100
AcDbEntity
  8
0
 62
     2
  0
POLYLINE
  5
1097A
100
AcDbEntity
  8
0
 62
     2
100
AcDb2dPolyline
 66
     1
 10
0.0
 20
0.0
 30
0.0
 70
     1
  0
VERTEX
  5
1097B
100
AcDbEntity
  8
0
 62
     2
100
AcDbVertex
100
AcDb2dVertex
 10
4.573202
 20
-1.293323
 30
0.0
  0
VERTEX
  5
1097C
100
AcDbEntity
  8
0
 62
     2
100
AcDbVertex
100
AcDb2dVertex
 10
4.597066
 20
-1.103532
 30
0.0
  0
VERTEX
  5
1097D
100
AcDbEntity
  8
0
 62
     2
100
AcDbVertex
100
AcDb2dVertex
 10
5.101968
 20
-1.166923
 30
0.0
  0
VERTEX
  5
1097E
100
AcDbEntity
  8
0
 62
     2
100
AcDbVertex
100
AcDb2dVertex
 10
5.082663
 20
-1.34772
 30
0.0
  0
SEQEND
  5
1097F
100
AcDbEntity
  8
0
 62
     2
  0
POLYLINE
  5
10980
100
AcDbEntity
  8
0
 62
     2
100
AcDb2dPolyline
 66
     1
 10
0.0
 20
0.0
 30
0.0
 70
     1
  0
VERTEX
  5
10981
100
AcDbEntity
  8
0
 62
     2
100
AcDbVertex
100
AcDb2dVertex
 10
5.586556
 20
-2.589966
 30
0.0
  0
VERTEX
  5
10982
100
AcDbEntity
  8
0
 62
     2
100
AcDbVertex
100
AcDb2dVertex
 10
6.18429
 20
-3.087692
 30
0.0
  0
VERTEX
  5
10983
100
AcDbEntity
  8
0
 62
     2
100
AcDbVertex
100
AcDb2dVertex
 10
6.344343
 20
-2.643448
 30
0.0
  0
VERTEX
  5
10984
100
AcDbEntity
  8
0
 62
     2
100
AcDbVertex
100
AcDb2dVertex
 10
6.125543
 20
-1.871962
 30
0.0
  0
VERTEX
  5
10985
100
AcDbEntity
  8
0
 62
     2
100
AcDbVertex
100
AcDb2dVertex
 10
5.981813
 20
-2.446366
 30
0.0
  0
SEQEND
  5
10986
100
AcDbEntity
  8
0
 62
     2
  0
POLYLINE
  5
10987
100
AcDbEntity
  8
0
 62
     2
100
AcDb2dPolyline
 66
     1
 10
0.0
 20
0.0
 30
0.0
  0
VERTEX
  5
10988
100
AcDbEntity
  8
0
 62
     2
100
AcDbVertex
100
AcDb2dVertex
 10
5.082663
 20
-1.34772
 30
0.0
  0
VERTEX
  5
10989
100
AcDbEntity
  8
0
 62
     2
100
AcDbVertex
100
AcDb2dVertex
 10
5.633118
 20
-1.406494
 30
0.0
  0
VERTEX
  5
1098A
100
AcDbEntity
  8
0
 62
     2
100
AcDbVertex
100
AcDb2dVertex
 10
5.55731
 20
-2.100784
 30
0.0
  0
VERTEX
  5
1098B
100
AcDbEntity
  8
0
 62
     2
100
AcDbVertex
100
AcDb2dVertex
 10
5.004135
 20
-2.034296
 30
0.0
  0
SEQEND
  5
1098C
100
AcDbEntity
  8
0
 62
     2
  0
LWPOLYLINE
  5
1098D
100
AcDbEntity
  8
0
 62
     2
100
AcDbPolyline
 90
       20
 70
     1
 43
0.0
 10
-3.100758
 20
4.894149
 10
-3.091289
 20
4.342314
 10
-3.179778
 20
4.032837
 10
-3.225604
 20
3.596735
 10
-3.450326
 20
3.384658
 10
-3.401001
 20
2.98651
 10
-3.375419
 20
2.486448
 10
-3.20169
 20
2.32023
 10
-3.136453
 20
1.994295
 10
-2.605242
 20
1.677673
 10
-1.71057
 20
1.556611
 10
-1.496221
 20
2.329543
 10
-2.641972
 20
2.651463
 10
-2.31858
 20
2.938664
 10
-2.303585
 20
3.620616
 10
-2.775085
 20
3.595153
 10
-2.677734
 20
4.201041
 10
-2.099693
 20
4.295402
 10
-2.265355
 20
5.186628
 10
-2.975911
 20
5.268403
  0
LWPOLYLINE
  5
1098E
100
AcDbEntity
  8
0
 62
     2
100
AcDbPolyline
 90
        3
 70
     0
 43
0.0
 10
-3.773843
 20
3.136115
 10
-5.718704
 20
2.241953
 10
-6.776787
 20
1.883232
  0
LWPOLYLINE
  5
1098F
100
AcDbEntity
  8
0
 62
     2
100
AcDbPolyline
 90
        7
 70
     1
 43
0.0
 10
-3.500002
 20
3.990844
 10
-4.394674
 20
3.795283
 10
-6.762971
 20
2.830305
 10
-6.371552
 20
2.597494
 10
-5.886937
 20
2.569557
 10
-3.827742
 20
3.369466
 10
-3.575173
 20
3.646636
  0
LWPOLYLINE
  5
10990
100
AcDbEntity
  8
0
 62
     2
100
AcDbPolyline
 90
        5
 70
     1
 43
0.0
 10
-3.425581
 20
4.357051
 10
-3.425446
 20
4.661338
 10
-4.630017
 20
4.730388
 10
-5.627979
 20
4.607579
 10
-5.067547
 20
4.263716
  0
LWPOLYLINE
  5
10991
100
AcDbEntity
  8
0
 62
     2
100
AcDbPolyline
 90
        4
 70
     0
 43
0.0
 10
-3.456569
 20
4.189304
 10
-4.898543
 20
3.946039
 10
-5.710043
 20
3.833763
 10
-6.341611
 20
3.854374
  0
LWPOLYLINE
  5
10992
100
AcDbEntity
  8
0
 62
     2
100
AcDbPolyline
 90
        2
 70
     0
 43
0.0
 10
-3.456949
 20
4.825395
 10
-4.698788
 20
5.156127
  0
LWPOLYLINE
  5
10993
100
AcDbEntity
  8
0
 62
     2
100
AcDbPolyline
 90
        4
 70
     1
 43
0.0
 10
-4.04488
 20
5.348538
 10
-3.453404
 20
4.987273
 10
-3.18815
 20
5.393154
 10
-4.188309
 20
5.92174
  0
LWPOLYLINE
  5
10994
100
AcDbEntity
  8
0
 62
     2
100
AcDbPolyline
 90
        6
 70
     1
 43
0.0
 10
3.820862
 20
3.980697
 10
5.521891
 20
3.360937
 10
6.396763
 20
2.85511
 10
5.54985
 20
2.774255
 10
4.739053
 20
3.156064
 10
3.760505
 20
3.630998
  0
LWPOLYLINE
  5
10995
100
AcDbEntity
  8
0
 62
     2
100
AcDbPolyline
 90
        5
 70
     1
 43
0.0
 10
3.633285
 20
4.862434
 10
4.841568
 20
4.664677
 10
5.526507
 20
4.415306
 10
4.88689
 20
4.19374
 10
3.718524
 20
4.466436
  0
LWPOLYLINE
  5
10996
100
AcDbEntity
  8
0
 62
     2
100
AcDbPolyline
 90
        2
 70
     0
 43
0.0
 10
3.692939
 20
4.994785
 10
4.861306
 20
5.156698
  0
LWPOLYLINE
  5
10997
100
AcDbEntity
  8
0
 62
     2
100
AcDbPolyline
 90
        3
 70
     0
 43
0.0
 10
3.854975
 20
4.202262
 10
5.014814
 20
3.861392
 10
5.859108
 20
3.699479
  0
LINE
  5
10998
100
AcDbEntity
  8
0
 62
     2
100
AcDbLine
 10
3.806663
 20
3.296629
 30
0.0
 11
5.503252
 21
2.159635
 31
0.0
  0
POLYLINE
  5
10999
100
AcDbEntity
  8
0
 62
     2
100
AcDb2dPolyline
 66
     1
 10
0.0
 20
0.0
 30
0.0
  0
VERTEX
  5
1099A
100
AcDbEntity
  8
0
 62
     2
100
AcDbVertex
100
AcDb2dVertex
 10
0.569316
 20
5.758657
 30
0.0
  0
VERTEX
  5
1099B
100
AcDbEntity
  8
0
 62
     2
100
AcDbVertex
100
AcDb2dVertex
 10
0.727841
 20
6.349761
 30
0.0
  0
VERTEX
  5
1099C
100
AcDbEntity
  8
0
 62
     2
100
AcDbVertex
100
AcDb2dVertex
 10
0.406549
 20
6.452482
 30
0.0
  0
VERTEX
  5
1099D
100
AcDbEntity
  8
0
 62
     2
100
AcDbVertex
100
AcDb2dVertex
 10
0.239477
 20
6.204239
 30
0.0
  0
VERTEX
  5
1099E
100
AcDbEntity
  8
0
 62
     2
100
AcDbVertex
100
AcDb2dVertex
 10
0.200922
 20
6.478162
 30
0.0
  0
VERTEX
  5
1099F
100
AcDbEntity
  8
0
 62
     2
100
AcDbVertex
100
AcDb2dVertex
 10
-0.111803
 20
6.482442
 30
0.0
  0
VERTEX
  5
109A0
100
AcDbEntity
  8
0
 62
     2
100
AcDbVertex
100
AcDb2dVertex
 10
-0.137506
 20
6.212799
 30
0.0
  0
VERTEX
  5
109A1
100
AcDbEntity
  8
0
 62
     2
100
AcDbVertex
100
AcDb2dVertex
 10
-0.334565
 20
6.461042
 30
0.0
  0
VERTEX
  5
109A2
100
AcDbEntity
  8
0
 62
     2
100
AcDbVertex
100
AcDb2dVertex
 10
-0.621586
 20
6.362601
 30
0.0
  0
VERTEX
  5
109A3
100
AcDbEntity
  8
0
 62
     2
100
AcDbVertex
100
AcDb2dVertex
 10
-0.428826
 20
5.753261
 30
0.0
  0
SEQEND
  5
109A4
100
AcDbEntity
  8
0
 62
     2
  0
POLYLINE
  5
109A5
100
AcDbEntity
  8
0
 62
     2
100
AcDb2dPolyline
 66
     1
 10
0.0
 20
0.0
 30
0.0
  0
VERTEX
  5
109A6
100
AcDbEntity
  8
0
 62
     2
100
AcDbVertex
100
AcDb2dVertex
 10
-0.985174
 20
1.993552
 30
0.0
  0
VERTEX
  5
109A7
100
AcDbEntity
  8
0
 62
     2
100
AcDbVertex
100
AcDb2dVertex
 10
1.166085
 20
1.993552
 30
0.0
  0
VERTEX
  5
109A8
100
AcDbEntity
  8
0
 62
     2
100
AcDbVertex
100
AcDb2dVertex
 10
0.665375
 20
2.951151
 30
0.0
  0
VERTEX
  5
109A9
100
AcDbEntity
  8
0
 62
     2
100
AcDbVertex
100
AcDb2dVertex
 10
1.55978
 20
2.695947
 30
0.0
  0
VERTEX
  5
109AA
100
AcDbEntity
  8
0
 62
     2
100
AcDbVertex
100
AcDb2dVertex
 10
1.252792
 20
3.50058
 30
0.0
  0
VERTEX
  5
109AB
100
AcDbEntity
  8
0
 62
     2
100
AcDbVertex
100
AcDb2dVertex
 10
1.587901
 20
3.651205
 30
0.0
  0
VERTEX
  5
109AC
100
AcDbEntity
  8
0
 62
     2
100
AcDbVertex
100
AcDb2dVertex
 10
1.440266
 20
4.287263
 30
0.0
  0
VERTEX
  5
109AD
100
AcDbEntity
  8
0
 62
     2
100
AcDbVertex
100
AcDb2dVertex
 10
2.037838
 20
3.960259
 30
0.0
  0
VERTEX
  5
109AE
100
AcDbEntity
  8
0
 62
     2
100
AcDbVertex
100
AcDb2dVertex
 10
2.150322
 20
4.409792
 30
0.0
  0
VERTEX
  5
109AF
100
AcDbEntity
  8
0
 62
     2
100
AcDbVertex
100
AcDb2dVertex
 10
1.565248
 20
4.88664
 30
0.0
  0
VERTEX
  5
109B0
100
AcDbEntity
  8
0
 62
     2
100
AcDbVertex
100
AcDb2dVertex
 10
2.051898
 20
4.971708
 30
0.0
  0
VERTEX
  5
109B1
100
AcDbEntity
  8
0
 62
     2
100
AcDbVertex
100
AcDb2dVertex
 10
2.009717
 20
5.89887
 30
0.0
  0
VERTEX
  5
109B2
100
AcDbEntity
  8
0
 62
     2
100
AcDbVertex
100
AcDb2dVertex
 10
1.658204
 20
5.519576
 30
0.0
  0
VERTEX
  5
109B3
100
AcDbEntity
  8
0
 62
     2
100
AcDbVertex
100
AcDb2dVertex
 10
0.997359
 20
5.547672
 30
0.0
  0
VERTEX
  5
109B4
100
AcDbEntity
  8
0
 62
     2
100
AcDbVertex
100
AcDb2dVertex
 10
1.039541
 20
5.75839
 30
0.0
  0
VERTEX
  5
109B5
100
AcDbEntity
  8
0
 62
     2
100
AcDbVertex
100
AcDb2dVertex
 10
0.569316
 20
5.758657
 30
0.0
  0
VERTEX
  5
109B6
100
AcDbEntity
  8
0
 62
     2
100
AcDbVertex
100
AcDb2dVertex
 10
-0.428826
 20
5.753261
 30
0.0
  0
VERTEX
  5
109B7
100
AcDbEntity
  8
0
 62
     2
100
AcDbVertex
100
AcDb2dVertex
 10
-0.703964
 20
5.75839
 30
0.0
  0
VERTEX
  5
109B8
100
AcDbEntity
  8
0
 62
     2
100
AcDbVertex
100
AcDb2dVertex
 10
-0.851398
 20
5.52098
 30
0.0
  0
SEQEND
  5
109B9
100
AcDbEntity
  8
0
 62
     2
  0
POLYLINE
  5
109BA
100
AcDbEntity
  8
0
 62
     2
100
AcDb2dPolyline
 66
     1
 10
0.0
 20
0.0
 30
0.0
  0
VERTEX
  5
109BB
100
AcDbEntity
  8
0
 62
     2
100
AcDbVertex
100
AcDb2dVertex
 10
-0.237972
 20
4.059228
 30
0.0
  0
VERTEX
  5
109BC
100
AcDbEntity
  8
0
 62
     2
100
AcDbVertex
100
AcDb2dVertex
 10
0.167789
 20
3.524774
 30
0.0
  0
VERTEX
  5
109BD
100
AcDbEntity
  8
0
 62
     2
100
AcDbVertex
100
AcDb2dVertex
 10
-1.096877
 20
3.637937
 30
0.0
  0
VERTEX
  5
109BE
100
AcDbEntity
  8
0
 62
     2
100
AcDbVertex
100
AcDb2dVertex
 10
-1.814745
 20
3.566918
 30
0.0
  0
VERTEX
  5
109BF
100
AcDbEntity
  8
0
 62
     2
100
AcDbVertex
100
AcDb2dVertex
 10
-1.6882
 20
2.934762
 30
0.0
  0
VERTEX
  5
109C0
100
AcDbEntity
  8
0
 62
     2
100
AcDbVertex
100
AcDb2dVertex
 10
-1.246856
 20
3.113482
 30
0.0
  0
VERTEX
  5
109C1
100
AcDbEntity
  8
0
 62
     2
100
AcDbVertex
100
AcDb2dVertex
 10
-0.821916
 20
2.876229
 30
0.0
  0
VERTEX
  5
109C2
100
AcDbEntity
  8
0
 62
     2
100
AcDbVertex
100
AcDb2dVertex
 10
-0.07124
 20
3.075241
 30
0.0
  0
VERTEX
  5
109C3
100
AcDbEntity
  8
0
 62
     2
100
AcDbVertex
100
AcDb2dVertex
 10
-0.985174
 20
1.993552
 30
0.0
  0
SEQEND
  5
109C4
100
AcDbEntity
  8
0
 62
     2
  0
POLYLINE
  5
109C5
100
AcDbEntity
  8
ADLER
100
AcDb2dPolyline
 66
     1
 10
0.0
 20
0.0
 30
0.0
  0
VERTEX
  5
109C6
100
AcDbEntity
  8
ADLER
100
AcDbVertex
100
AcDb2dVertex
 10
0.197162
 20
4.488916
 30
0.0
  0
VERTEX
  5
109C7
100
AcDbEntity
  8
ADLER
100
AcDbVertex
100
AcDb2dVertex
 10
-0.634442
 20
4.561977
 30
0.0
  0
VERTEX
  5
109C8
100
AcDbEntity
  8
ADLER
100
AcDbVertex
100
AcDb2dVertex
 10
-1.521817
 20
4.499542
 30
0.0
  0
VERTEX
  5
109C9
100
AcDbEntity
  8
ADLER
100
AcDbVertex
100
AcDb2dVertex
 10
-1.743661
 20
4.697774
 30
0.0
  0
VERTEX
  5
109CA
100
AcDbEntity
  8
ADLER
100
AcDbVertex
100
AcDb2dVertex
 10
-1.78428
 20
4.961562
 30
0.0
  0
SEQEND
  5
109CB
100
AcDbEntity
  8
ADLER
  0
POLYLINE
  5
109CC
100
AcDbEntity
  8
0
 62
     2
100
AcDb2dPolyline
 66
     1
 10
0.0
 20
0.0
 30
0.0
  0
VERTEX
  5
109CD
100
AcDbEntity
  8
0
 62
     2
100
AcDbVertex
100
AcDb2dVertex
 10
-0.851398
 20
5.52098
 30
0.0
  0
VERTEX
  5
109CE
100
AcDbEntity
  8
0
 62
     2
100
AcDbVertex
100
AcDb2dVertex
 10
-1.392929
 20
5.449337
 30
0.0
  0
VERTEX
  5
109CF
100
AcDbEntity
  8
0
 62
     2
100
AcDbVertex
100
AcDb2dVertex
 10
-1.322626
 20
4.831229
 30
0.0
  0
VERTEX
  5
109D0
100
AcDbEntity
  8
0
 62
     2
100
AcDbVertex
100
AcDb2dVertex
 10
-0.9344
 20
5.036484
 30
0.0
  0
VERTEX
  5
109D1
100
AcDbEntity
  8
0
 62
     2
100
AcDbVertex
100
AcDb2dVertex
 10
-0.047025
 20
4.749283
 30
0.0
  0
VERTEX
  5
109D2
100
AcDbEntity
  8
0
 62
     2
100
AcDbVertex
100
AcDb2dVertex
 10
0.197162
 20
4.488916
 30
0.0
  0
VERTEX
  5
109D3
100
AcDbEntity
  8
0
 62
     2
100
AcDbVertex
100
AcDb2dVertex
 10
0.165445
 20
4.312237
 30
0.0
  0
VERTEX
  5
109D4
100
AcDbEntity
  8
0
 62
     2
100
AcDbVertex
100
AcDb2dVertex
 10
-0.88675
 20
4.255265
 30
0.0
  0
VERTEX
  5
109D5
100
AcDbEntity
  8
0
 62
     2
100
AcDbVertex
100
AcDb2dVertex
 10
-0.900811
 20
4.08669
 30
0.0
  0
VERTEX
  5
109D6
100
AcDbEntity
  8
0
 62
     2
100
AcDbVertex
100
AcDb2dVertex
 10
-0.237972
 20
4.059228
 30
0.0
  0
SEQEND
  5
109D7
100
AcDbEntity
  8
0
 62
     2
  0
POLYLINE
  5
109D8
100
AcDbEntity
  8
0
 62
     2
100
AcDb2dPolyline
 66
     1
 10
0.0
 20
0.0
 30
0.0
  0
VERTEX
  5
109D9
100
AcDbEntity
  8
0
 62
     2
100
AcDbVertex
100
AcDb2dVertex
 10
-0.237972
 20
4.059228
 30
0.0
  0
VERTEX
  5
109DA
100
AcDbEntity
  8
0
 62
     2
100
AcDbVertex
100
AcDb2dVertex
 10
0.490399
 20
3.950113
 30
0.0
  0
VERTEX
  5
109DB
100
AcDbEntity
  8
0
 62
     2
100
AcDbVertex
100
AcDb2dVertex
 10
0.715368
 20
4.437107
 30
0.0
  0
VERTEX
  5
109DC
100
AcDbEntity
  8
0
 62
     2
100
AcDbVertex
100
AcDb2dVertex
 10
0.340421
 20
5.036484
 30
0.0
  0
VERTEX
  5
109DD
100
AcDbEntity
  8
0
 62
     2
100
AcDbVertex
100
AcDb2dVertex
 10
0.490399
 20
5.523478
 30
0.0
  0
VERTEX
  5
109DE
100
AcDbEntity
  8
0
 62
     2
100
AcDbVertex
100
AcDb2dVertex
 10
-0.851398
 20
5.52098
 30
0.0
  0
SEQEND
  5
109DF
100
AcDbEntity
  8
0
 62
     2
  0
ARC
  5
109E0
100
AcDbEntity
  8
0
 62
     2
100
AcDbCircle
 10
-0.073187
 20
5.408753
 30
0.0
 40
0.259734
100
AcDbArc
 50
154.151798
 51
26.074895
  0
LWPOLYLINE
  5
109E1
100
AcDbEntity
  8
0
 62
     2
100
AcDbPolyline
 90
       19
 70
     1
 43
0.0
 10
1.722267
 20
1.621435
 10
1.598056
 20
2.14886
 10
2.168206
 20
2.559543
 10
1.911823
 20
2.954445
 10
2.34981
 20
3.680212
 10
2.883942
 20
3.39204
 10
2.532299
 20
5.092676
 10
3.176015
 20
5.330461
 10
3.295673
 20
4.95468
 10
3.315367
 20
4.541419
 10
3.492614
 20
4.147837
 10
3.364602
 20
3.724737
 10
3.561543
 20
3.163883
 10
3.285826
 20
2.730943
 10
3.079039
 20
2.268485
 10
3.069192
 20
1.845384
 10
2.74424
 20
1.658433
 10
2.340512
 20
1.560038
 10
1.936784
 20
1.550198
  0
LWPOLYLINE
  5
109E2
100
AcDbEntity
  8
0
 62
     2
100
AcDbPolyline
 90
        4
 70
     1
 43
0.0
 10
3.441188
 20
5.428414
 10
4.388755
 20
5.77844
 10
4.144935
 20
5.327133
 10
3.556487
 20
5.165219
  0
POLYLINE
  5
109E3
100
AcDbEntity
  8
0
 62
     2
100
AcDb2dPolyline
 66
     1
 10
0.0
 20
0.0
 30
0.0
  0
VERTEX
  5
109E4
100
AcDbEntity
  8
0
 62
     2
100
AcDbVertex
100
AcDb2dVertex
 10
0.727841
 20
6.349761
 30
0.0
  0
VERTEX
  5
109E5
100
AcDbEntity
  8
0
 62
     2
100
AcDbVertex
100
AcDb2dVertex
 10
0.783531
 20
6.332641
 30
0.0
  0
VERTEX
  5
109E6
100
AcDbEntity
  8
0
 62
     2
100
AcDbVertex
100
AcDb2dVertex
 10
0.843506
 20
6.516683
 30
0.0
  0
VERTEX
  5
109E7
100
AcDbEntity
  8
0
 62
     2
100
AcDbVertex
100
AcDb2dVertex
 10
0.44082
 20
6.636524
 30
0.0
  0
VERTEX
  5
109E8
100
AcDbEntity
  8
0
 62
     2
100
AcDbVertex
100
AcDb2dVertex
 10
0.406549
 20
6.452482
 30
0.0
  0
SEQEND
  5
109E9
100
AcDbEntity
  8
0
 62
     2
  0
POLYLINE
  5
109EA
100
AcDbEntity
  8
0
 62
     2
100
AcDb2dPolyline
 66
     1
 10
0.0
 20
0.0
 30
0.0
  0
VERTEX
  5
109EB
100
AcDbEntity
  8
0
 62
     2
100
AcDbVertex
100
AcDb2dVertex
 10
-0.334565
 20
6.461042
 30
0.0
  0
VERTEX
  5
109EC
100
AcDbEntity
  8
0
 62
     2
100
AcDbVertex
100
AcDb2dVertex
 10
-0.308862
 20
6.478162
 30
0.0
  0
VERTEX
  5
109ED
100
AcDbEntity
  8
0
 62
     2
100
AcDbVertex
100
AcDb2dVertex
 10
-0.368837
 20
6.653644
 30
0.0
  0
VERTEX
  5
109EE
100
AcDbEntity
  8
0
 62
     2
100
AcDbVertex
100
AcDb2dVertex
 10
-0.732968
 20
6.538083
 30
0.0
  0
VERTEX
  5
109EF
100
AcDbEntity
  8
0
 62
     2
100
AcDbVertex
100
AcDb2dVertex
 10
-0.668709
 20
6.354041
 30
0.0
  0
VERTEX
  5
109F0
100
AcDbEntity
  8
0
 62
     2
100
AcDbVertex
100
AcDb2dVertex
 10
-0.621586
 20
6.362601
 30
0.0
  0
SEQEND
  5
109F1
100
AcDbEntity
  8
0
 62
     2
  0
POLYLINE
  5
109F2
100
AcDbEntity
  8
0
 62
     2
100
AcDb2dPolyline
 66
     1
 10
0.0
 20
0.0
 30
0.0
  0
VERTEX
  5
109F3
100
AcDbEntity
  8
0
 62
     2
100
AcDbVertex
100
AcDb2dVertex
 10
0.200922
 20
6.478162
 30
0.0
  0
VERTEX
  5
109F4
100
AcDbEntity
  8
0
 62
     2
100
AcDbVertex
100
AcDb2dVertex
 10
0.282316
 20
6.478162
 30
0.0
  0
VERTEX
  5
109F5
100
AcDbEntity
  8
0
 62
     2
100
AcDbVertex
100
AcDb2dVertex
 10
0.273748
 20
6.649364
 30
0.0
  0
VERTEX
  5
109F6
100
AcDbEntity
  8
0
 62
     2
100
AcDbVertex
100
AcDb2dVertex
 10
-0.171777
 20
6.657925
 30
0.0
  0
VERTEX
  5
109F7
100
AcDbEntity
  8
0
 62
     2
100
AcDbVertex
100
AcDb2dVertex
 10
-0.167493
 20
6.473882
 30
0.0
  0
VERTEX
  5
109F8
100
AcDbEntity
  8
0
 62
     2
100
AcDbVertex
100
AcDb2dVertex
 10
-0.111803
 20
6.482442
 30
0.0
  0
SEQEND
  5
109F9
100
AcDbEntity
  8
0
 62
     2
  0
LINE
  5
109FA
100
AcDbEntity
  8
0
 62
     2
100
AcDbLine
 10
5.503252
 20
2.159635
 30
0.0
 11
6.398431
 21
1.504831
 31
0.0
  0
ENDBLK
  5
109FB
100
AcDbEntity
  8
0
100
AcDbBlockEnd
  0
BLOCK
  5
F2A8
100
AcDbEntity
  8
0
100
AcDbBlockBegin
  2
NORD
 70
     0
 10
0.0
 20
0.0
 30
0.0
  3
NORD
  1

  0
TEXT
  5
F2A9
100
AcDbEntity
  8
0
 62
     2
100
AcDbText
 10
-0.792788
 20
3.363942
 30
0.0
 40
1.7
  1
N
  7
AVGBT
 72
     1
 11
0.0
 21
2.8
 31
0.0
100
AcDbText
 73
     1
  0
LINE
  5
F2AA
100
AcDbEntity
  8
0
 62
     2
100
AcDbLine
 10
-1.5
 20
-1.4
 30
0.0
 11
0.0
 21
2.8
 31
0.0
  0
LINE
  5
F2AB
100
AcDbEntity
  8
0
 62
     2
100
AcDbLine
 10
0.0
 20
0.0
 30
0.0
 11
-1.5
 21
-1.4
 31
0.0
  0
HATCH
  5
F2AC
100
AcDbEntity
  8
0
 62
     2
100
AcDbHatch
 10
0.0
 20
0.0
 30
0.0
210
0.0
220
0.0
230
0.9999999999999998
  2
SOLID
 70
     1
 71
     0
 91
        1
 92
        1
 93
        3
 72
     1
 10
0.0
 20
2.8
 11
1.5
 21
-1.4
 72
     1
 10
1.5
 20
-1.4
 11
0.0
 21
0.0
 72
     1
 10
0.0
 20
0.0
 11
0.0
 21
2.8
 97
        0
 75
     0
 76
     1
 98
        1
 10
0.0
 20
0.0
  0
LINE
  5
F2AD
100
AcDbEntity
  8
0
 62
     2
100
AcDbLine
 10
0.0
 20
2.8
 30
0.0
 11
1.5
 21
-1.4
 31
0.0
  0
LINE
  5
F2AE
100
AcDbEntity
  8
0
 62
     2
100
AcDbLine
 10
1.5
 20
-1.4
 30
0.0
 11
0.0
 21
0.0
 31
0.0
  0
POLYLINE
  5
F2AF
100
AcDbEntity
  8
0
 62
     2
100
AcDb2dPolyline
 66
     1
 10
0.0
 20
0.0
 30
0.0
  0
VERTEX
  5
F2B0
100
AcDbEntity
  8
0
 62
     2
100
AcDbVertex
100
AcDb2dVertex
 10
0.0
 20
2.8
 30
0.0
  0
VERTEX
  5
F2B1
100
AcDbEntity
  8
0
 62
     2
100
AcDbVertex
100
AcDb2dVertex
 10
0.0
 20
0.0
 30
0.0
  0
SEQEND
  5
F2B2
100
AcDbEntity
  8
0
 62
     2
  0
LINE
  5
F2B3
100
AcDbEntity
  8
0
 62
     2
100
AcDbLine
 10
0.999409
 20
0.0
 30
0.0
 11
1.003271
 21
0.003861
 31
0.0
  0
ENDBLK
  5
F2B4
100
AcDbEntity
  8
0
100
AcDbBlockEnd
  0
BLOCK
  5
12770
100
AcDbEntity
  8
0
100
AcDbBlockBegin
  2
FIG055
 70
     0
 10
0.0
 20
0.0
 30
0.0
  3
FIG055
  1

  0
POLYLINE
  5
12771
100
AcDbEntity
  8
0
100
AcDb2dPolyline
 66
     1
 10
0.0
 20
0.0
 30
0.0
  0
VERTEX
  5
12772
100
AcDbEntity
  8
0
100
AcDbVertex
100
AcDb2dVertex
 10
-1.5
 20
-1.3
 30
0.0
  0
VERTEX
  5
12773
100
AcDbEntity
  8
0
100
AcDbVertex
100
AcDb2dVertex
 10
0.0
 20
1.3
 30
0.0
  0
SEQEND
  5
12774
100
AcDbEntity
  8
0
  0
POLYLINE
  5
12775
100
AcDbEntity
  8
0
100
AcDb2dPolyline
 66
     1
 10
0.0
 20
0.0
 30
0.0
  0
VERTEX
  5
12776
100
AcDbEntity
  8
0
100
AcDbVertex
100
AcDb2dVertex
 10
-0.028862
 20
1.249972
 30
0.0
  0
VERTEX
  5
12777
100
AcDbEntity
  8
0
100
AcDbVertex
100
AcDb2dVertex
 10
1.442276
 20
-1.3
 30
0.0
  0
SEQEND
  5
12778
100
AcDbEntity
  8
0
  0
POLYLINE
  5
12779
100
AcDbEntity
  8
0
100
AcDb2dPolyline
 66
     1
 10
0.0
 20
0.0
 30
0.0
  0
VERTEX
  5
1277A
100
AcDbEntity
  8
0
100
AcDbVertex
100
AcDb2dVertex
 10
-0.057724
 20
1.199944
 30
0.0
  0
VERTEX
  5
1277B
100
AcDbEntity
  8
0
100
AcDbVertex
100
AcDb2dVertex
 10
1.384551
 20
-1.3
 30
0.0
  0
SEQEND
  5
1277C
100
AcDbEntity
  8
0
  0
POLYLINE
  5
1277D
100
AcDbEntity
  8
0
100
AcDb2dPolyline
 66
     1
 10
0.0
 20
0.0
 30
0.0
  0
VERTEX
  5
1277E
100
AcDbEntity
  8
0
100
AcDbVertex
100
AcDb2dVertex
 10
-0.086587
 20
1.149917
 30
0.0
  0
VERTEX
  5
1277F
100
AcDbEntity
  8
0
100
AcDbVertex
100
AcDb2dVertex
 10
1.326827
 20
-1.3
 30
0.0
  0
SEQEND
  5
12780
100
AcDbEntity
  8
0
  0
POLYLINE
  5
12781
100
AcDbEntity
  8
0
100
AcDb2dPolyline
 66
     1
 10
0.0
 20
0.0
 30
0.0
  0
VERTEX
  5
12782
100
AcDbEntity
  8
0
100
AcDbVertex
100
AcDb2dVertex
 10
0.0
 20
1.3
 30
0.0
  0
VERTEX
  5
12783
100
AcDbEntity
  8
0
100
AcDbVertex
100
AcDb2dVertex
 10
1.5
 20
-1.3
 30
0.0
  0
SEQEND
  5
12784
100
AcDbEntity
  8
0
  0
ENDBLK
  5
12785
100
AcDbEntity
  8
0
100
AcDbBlockEnd
  0
BLOCK
  5
D540
100
AcDbEntity
  8
0
100
AcDbBlockBegin
  2
FIG132
 70
     2
 10
0.0
 20
0.0
 30
0.0
  3
FIG132
  1

  0
CIRCLE
  5
D541
100
AcDbEntity
  8
0
100
AcDbCircle
 10
0.0
 20
0.0
 30
0.0
 40
0.5
  0
POLYLINE
  5
D542
100
AcDbEntity
  8
0
100
AcDb2dPolyline
 66
     1
 10
0.0
 20
0.0
 30
0.0
  0
VERTEX
  5
D543
100
AcDbEntity
  8
0
100
AcDbVertex
100
AcDb2dVertex
 10
0.35
 20
-0.35
 30
0.0
  0
VERTEX
  5
D544
100
AcDbEntity
  8
0
100
AcDbVertex
100
AcDb2dVertex
 10
-0.35
 20
0.35
 30
0.0
  0
SEQEND
  5
D545
100
AcDbEntity
  8
0
  0
POLYLINE
  5
D546
100
AcDbEntity
  8
0
100
AcDb2dPolyline
 66
     1
 10
0.0
 20
0.0
 30
0.0
  0
VERTEX
  5
D547
100
AcDbEntity
  8
0
100
AcDbVertex
100
AcDb2dVertex
 10
-0.35
 20
-0.35
 30
0.0
  0
VERTEX
  5
D548
100
AcDbEntity
  8
0
100
AcDbVertex
100
AcDb2dVertex
 10
0.35
 20
0.35
 30
0.0
  0
SEQEND
  5
D549
100
AcDbEntity
  8
0
  0
ATTDEF
  5
D54A
100
AcDbEntity
  8
0
100
AcDbText
 10
1.14
 20
-0.51
 30
0.0
 40
1.0
  1

 51
15.0
  7
NORM
100
AcDbAttributeDefinition
  3
Punktnummer
  2
PNUM
 70
     1
  0
ENDBLK
  5
D54B
100
AcDbEntity
  8
0
100
AcDbBlockEnd
  0
BLOCK
  5
C6BD
100
AcDbEntity
  8
0
100
AcDbBlockBegin
  2
FIG131
 70
     2
 10
0.0
 20
0.0
 30
0.0
  3
FIG131
  1

  0
ATTDEF
  5
C6BE
100
AcDbEntity
  8
0
100
AcDbText
 10
1.14
 20
-0.51
 30
0.0
 40
1.0
  1

 51
15.0
  7
NORM
100
AcDbAttributeDefinition
  3
Punktnummer
  2
PNUM
 70
     1
  0
POLYLINE
  5
C6BF
100
AcDbEntity
  8
0
100
AcDb2dPolyline
 66
     1
 10
0.0
 20
0.0
 30
0.0
  0
VERTEX
  5
C6C0
100
AcDbEntity
  8
0
100
AcDbVertex
100
AcDb2dVertex
 10
0.0
 20
0.75
 30
0.0
  0
VERTEX
  5
C6C1
100
AcDbEntity
  8
0
100
AcDbVertex
100
AcDb2dVertex
 10
0.0
 20
-0.75
 30
0.0
  0
SEQEND
  5
C6C2
100
AcDbEntity
  8
0
  0
POLYLINE
  5
C6C3
100
AcDbEntity
  8
0
100
AcDb2dPolyline
 66
     1
 10
0.0
 20
0.0
 30
0.0
  0
VERTEX
  5
C6C4
100
AcDbEntity
  8
0
100
AcDbVertex
100
AcDb2dVertex
 10
-0.75
 20
0.0
 30
0.0
  0
VERTEX
  5
C6C5
100
AcDbEntity
  8
0
100
AcDbVertex
100
AcDb2dVertex
 10
0.75
 20
0.0
 30
0.0
  0
SEQEND
  5
C6C6
100
AcDbEntity
  8
0
  0
ENDBLK
  5
C6C7
100
AcDbEntity
  8
0
100
AcDbBlockEnd
  0
BLOCK
  5
12233
100
AcDbEntity
  8
0
100
AcDbBlockBegin
  2
FIG130
 70
     2
 10
0.0
 20
0.0
 30
0.0
  3
FIG130
  1

  0
CIRCLE
  5
12234
100
AcDbEntity
  8
0
100
AcDbCircle
 10
0.0
 20
0.0
 30
0.0
 40
0.5
  0
ATTDEF
  5
12235
100
AcDbEntity
  8
0
100
AcDbText
 10
1.14
 20
-2.0
 30
0.0
 40
1.0
  1

 51
15.0
  7
NORM
100
AcDbAttributeDefinition
  3
Punktnummer
  2
PNUM
 70
     1
  0
ATTDEF
  5
12236
100
AcDbEntity
  8
0
100
AcDbText
 10
1.14
 20
-0.51
 30
0.0
 40
2.0
  1

 51
15.0
  7
NORM
100
AcDbAttributeDefinition
  3
Text
  2
TEXT
 70
     1
  0
ENDBLK
  5
12237
100
AcDbEntity
  8
0
100
AcDbBlockEnd
  0
BLOCK
  5
C6D4
100
AcDbEntity
  8
0
100
AcDbBlockBegin
  2
LPFEIL
 70
     0
 10
0.0
 20
0.0
 30
0.0
  3
LPFEIL
  1

  0
LINE
  5
C6D5
100
AcDbEntity
  8
0
100
AcDbLine
 10
0.0
 20
0.0
 30
0.0
 11
0.0
 21
2.0
 31
0.0
  0
LINE
  5
C6D6
100
AcDbEntity
  8
0
100
AcDbLine
 10
-0.2
 20
0.0
 30
0.0
 11
0.2
 21
0.0
 31
0.0
  0
LINE
  5
C6D7
100
AcDbEntity
  8
0
100
AcDbLine
 10
0.17
 20
1.0
 30
0.0
 11
0.0
 21
2.0
 31
0.0
  0
LINE
  5
C6D8
100
AcDbEntity
  8
0
100
AcDbLine
 10
-0.17
 20
1.0
 30
0.0
 11
0.0
 21
2.0
 31
0.0
  0
ENDBLK
  5
C6D9
100
AcDbEntity
  8
0
100
AcDbBlockEnd
  0
BLOCK
  5
121BB
100
AcDbEntity
  8
0
100
AcDbBlockBegin
  2
FIG039
 70
     2
 10
0.0
 20
0.0
 30
0.0
  3
FIG039
  1

  0
POLYLINE
  5
121BC
100
AcDbEntity
  8
0
100
AcDb2dPolyline
 66
     1
 10
0.0
 20
0.0
 30
0.0
  0
VERTEX
  5
121BD
100
AcDbEntity
  8
0
100
AcDbVertex
100
AcDb2dVertex
 10
-2.0
 20
2.0
 30
0.0
  0
VERTEX
  5
121BE
100
AcDbEntity
  8
0
100
AcDbVertex
100
AcDb2dVertex
 10
0.0
 20
5.0
 30
0.0
  0
SEQEND
  5
121BF
100
AcDbEntity
  8
0
  0
POLYLINE
  5
121C0
100
AcDbEntity
  8
0
100
AcDb2dPolyline
 66
     1
 10
0.0
 20
0.0
 30
0.0
  0
VERTEX
  5
121C1
100
AcDbEntity
  8
0
100
AcDbVertex
100
AcDb2dVertex
 10
2.0
 20
2.0
 30
0.0
  0
VERTEX
  5
121C2
100
AcDbEntity
  8
0
100
AcDbVertex
100
AcDb2dVertex
 10
0.0
 20
5.0
 30
0.0
  0
SEQEND
  5
121C3
100
AcDbEntity
  8
0
  0
POLYLINE
  5
121C4
100
AcDbEntity
  8
0
100
AcDb2dPolyline
 66
     1
 10
0.0
 20
0.0
 30
0.0
  0
VERTEX
  5
121C5
100
AcDbEntity
  8
0
100
AcDbVertex
100
AcDb2dVertex
 10
1.5
 20
0.0
 30
0.0
  0
VERTEX
  5
121C6
100
AcDbEntity
  8
0
100
AcDbVertex
100
AcDb2dVertex
 10
1.5
 20
2.75
 30
0.0
  0
SEQEND
  5
121C7
100
AcDbEntity
  8
0
  0
POLYLINE
  5
121C8
100
AcDbEntity
  8
0
100
AcDb2dPolyline
 66
     1
 10
0.0
 20
0.0
 30
0.0
  0
VERTEX
  5
121C9
100
AcDbEntity
  8
0
100
AcDbVertex
100
AcDb2dVertex
 10
-1.5
 20
0.0
 30
0.0
  0
VERTEX
  5
121CA
100
AcDbEntity
  8
0
100
AcDbVertex
100
AcDb2dVertex
 10
-1.5
 20
2.75
 30
0.0
  0
SEQEND
  5
121CB
100
AcDbEntity
  8
0
  0
ENDBLK
  5
121CD
100
AcDbEntity
  8
0
100
AcDbBlockEnd
  0
BLOCK
  5
DDFA
100
AcDbEntity
  8
0
100
AcDbBlockBegin
  2
FIG133
 70
     2
 10
0.0
 20
0.0
 30
0.0
  3
FIG133
  1

  0
ATTDEF
  5
DDFB
100
AcDbEntity
  8
0
100
AcDbText
 10
1.14
 20
-0.51
 30
0.0
 40
1.0
  1

 51
15.0
  7
NORM
100
AcDbAttributeDefinition
  3
Punktnummer
  2
PNUM
 70
     1
  0
ATTDEF
  5
DDFC
100
AcDbEntity
  8
0
100
AcDbText
 10
1.14
 20
1.0
 30
0.0
 40
1.0
  1
MK
  7
BEV
100
AcDbAttributeDefinition
  3

  2
DIP
 70
     8
  0
POLYLINE
  5
DDFD
100
AcDbEntity
  8
0
100
AcDb2dPolyline
 66
     1
 10
0.0
 20
0.0
 30
0.0
  0
VERTEX
  5
DDFE
100
AcDbEntity
  8
0
100
AcDbVertex
100
AcDb2dVertex
 10
0.35
 20
-0.35
 30
0.0
  0
VERTEX
  5
DDFF
100
AcDbEntity
  8
0
100
AcDbVertex
100
AcDb2dVertex
 10
-0.35
 20
0.35
 30
0.0
  0
SEQEND
  5
DE00
100
AcDbEntity
  8
0
  0
POLYLINE
  5
DE01
100
AcDbEntity
  8
0
100
AcDb2dPolyline
 66
     1
 10
0.0
 20
0.0
 30
0.0
  0
VERTEX
  5
DE02
100
AcDbEntity
  8
0
100
AcDbVertex
100
AcDb2dVertex
 10
-0.35
 20
-0.35
 30
0.0
  0
VERTEX
  5
DE03
100
AcDbEntity
  8
0
100
AcDbVertex
100
AcDb2dVertex
 10
0.35
 20
0.35
 30
0.0
  0
SEQEND
  5
DE04
100
AcDbEntity
  8
0
  0
CIRCLE
  5
DE05
100
AcDbEntity
  8
0
100
AcDbCircle
 10
0.0
 20
0.0
 30
0.0
 40
0.5
  0
ENDBLK
  5
DE06
100
AcDbEntity
  8
0
100
AcDbBlockEnd
  0
BLOCK
  5
DE17
100
AcDbEntity
  8
0
100
AcDbBlockBegin
  2
FIG134
 70
     2
 10
0.0
 20
0.0
 30
0.0
  3
FIG134
  1

  0
ATTDEF
  5
DE18
100
AcDbEntity
  8
0
100
AcDbText
 10
1.14
 20
-0.51
 30
0.0
 40
1.0
  1

 51
15.0
  7
NORM
100
AcDbAttributeDefinition
  3
Punktnummer
  2
PNUM
 70
     1
  0
ATTDEF
  5
DE19
100
AcDbEntity
  8
0
100
AcDbText
 10
1.14
 20
1.0
 30
0.0
 40
1.0
  1
MM
  7
BEV
100
AcDbAttributeDefinition
  3

  2
DIP
 70
     8
  0
CIRCLE
  5
DE1A
100
AcDbEntity
  8
0
100
AcDbCircle
 10
0.0
 20
0.0
 30
0.0
 40
0.5
  0
POLYLINE
  5
DE1B
100
AcDbEntity
  8
0
100
AcDb2dPolyline
 66
     1
 10
0.0
 20
0.0
 30
0.0
  0
VERTEX
  5
DE1C
100
AcDbEntity
  8
0
100
AcDbVertex
100
AcDb2dVertex
 10
-0.35
 20
-0.35
 30
0.0
  0
VERTEX
  5
DE1D
100
AcDbEntity
  8
0
100
AcDbVertex
100
AcDb2dVertex
 10
0.35
 20
0.35
 30
0.0
  0
SEQEND
  5
DE1E
100
AcDbEntity
  8
0
  0
POLYLINE
  5
DE1F
100
AcDbEntity
  8
0
100
AcDb2dPolyline
 66
     1
 10
0.0
 20
0.0
 30
0.0
  0
VERTEX
  5
DE20
100
AcDbEntity
  8
0
100
AcDbVertex
100
AcDb2dVertex
 10
0.35
 20
-0.35
 30
0.0
  0
VERTEX
  5
DE21
100
AcDbEntity
  8
0
100
AcDbVertex
100
AcDb2dVertex
 10
-0.35
 20
0.35
 30
0.0
  0
SEQEND
  5
DE22
100
AcDbEntity
  8
0
  0
ENDBLK
  5
DE23
100
AcDbEntity
  8
0
100
AcDbBlockEnd
  0
BLOCK
  5
DE34
100
AcDbEntity
  8
0
100
AcDbBlockBegin
  2
FIG135
 70
     2
 10
0.0
 20
0.0
 30
0.0
  3
FIG135
  1

  0
ATTDEF
  5
DE35
100
AcDbEntity
  8
0
100
AcDbText
 10
1.14
 20
-0.51
 30
0.0
 40
1.0
  1

 51
15.0
  7
NORM
100
AcDbAttributeDefinition
  3
Punktnummer
  2
PNUM
 70
     1
  0
ATTDEF
  5
DE36
100
AcDbEntity
  8
0
100
AcDbText
 10
1.14
 20
1.0
 30
0.0
 40
1.0
  1
ER
  7
BEV
100
AcDbAttributeDefinition
  3

  2
DIP
 70
     8
  0
CIRCLE
  5
DE37
100
AcDbEntity
  8
0
100
AcDbCircle
 10
0.0
 20
0.0
 30
0.0
 40
0.5
  0
POLYLINE
  5
DE38
100
AcDbEntity
  8
0
100
AcDb2dPolyline
 66
     1
 10
0.0
 20
0.0
 30
0.0
  0
VERTEX
  5
DE39
100
AcDbEntity
  8
0
100
AcDbVertex
100
AcDb2dVertex
 10
-0.35
 20
-0.35
 30
0.0
  0
VERTEX
  5
DE3A
100
AcDbEntity
  8
0
100
AcDbVertex
100
AcDb2dVertex
 10
0.35
 20
0.35
 30
0.0
  0
SEQEND
  5
DE3B
100
AcDbEntity
  8
0
  0
POLYLINE
  5
DE3C
100
AcDbEntity
  8
0
100
AcDb2dPolyline
 66
     1
 10
0.0
 20
0.0
 30
0.0
  0
VERTEX
  5
DE3D
100
AcDbEntity
  8
0
100
AcDbVertex
100
AcDb2dVertex
 10
0.35
 20
-0.35
 30
0.0
  0
VERTEX
  5
DE3E
100
AcDbEntity
  8
0
100
AcDbVertex
100
AcDb2dVertex
 10
-0.35
 20
0.35
 30
0.0
  0
SEQEND
  5
DE3F
100
AcDbEntity
  8
0
  0
ENDBLK
  5
DE40
100
AcDbEntity
  8
0
100
AcDbBlockEnd
  0
BLOCK
  5
DE4D
100
AcDbEntity
  8
0
100
AcDbBlockBegin
  2
FIG136
 70
     2
 10
0.0
 20
0.0
 30
0.0
  3
FIG136
  1

  0
ATTDEF
  5
DE4E
100
AcDbEntity
  8
0
100
AcDbText
 10
1.14
 20
-0.51
 30
0.0
 40
1.0
  1

 51
15.0
  7
NORM
100
AcDbAttributeDefinition
  3
Punktnummer
  2
PNUM
 70
     1
  0
ATTDEF
  5
DE4F
100
AcDbEntity
  8
0
100
AcDbText
 10
1.14
 20
1.0
 30
0.0
 40
1.0
  1
NG
  7
BEV
100
AcDbAttributeDefinition
  3

  2
DIP
 70
     8
  0
CIRCLE
  5
DE50
100
AcDbEntity
  8
0
100
AcDbCircle
 10
0.0
 20
0.0
 30
0.0
 40
0.5
  0
POLYLINE
  5
DE51
100
AcDbEntity
  8
0
100
AcDb2dPolyline
 66
     1
 10
0.0
 20
0.0
 30
0.0
  0
VERTEX
  5
DE52
100
AcDbEntity
  8
0
100
AcDbVertex
100
AcDb2dVertex
 10
-0.35
 20
-0.35
 30
0.0
  0
VERTEX
  5
DE53
100
AcDbEntity
  8
0
100
AcDbVertex
100
AcDb2dVertex
 10
0.35
 20
0.35
 30
0.0
  0
SEQEND
  5
DE54
100
AcDbEntity
  8
0
  0
POLYLINE
  5
DE55
100
AcDbEntity
  8
0
100
AcDb2dPolyline
 66
     1
 10
0.0
 20
0.0
 30
0.0
  0
VERTEX
  5
DE56
100
AcDbEntity
  8
0
100
AcDbVertex
100
AcDb2dVertex
 10
0.35
 20
-0.35
 30
0.0
  0
VERTEX
  5
DE57
100
AcDbEntity
  8
0
100
AcDbVertex
100
AcDb2dVertex
 10
-0.35
 20
0.35
 30
0.0
  0
SEQEND
  5
DE58
100
AcDbEntity
  8
0
  0
ENDBLK
  5
DE59
100
AcDbEntity
  8
0
100
AcDbBlockEnd
  0
BLOCK
  5
DE66
100
AcDbEntity
  8
0
100
AcDbBlockBegin
  2
FIG137
 70
     2
 10
0.0
 20
0.0
 30
0.0
  3
FIG137
  1

  0
ATTDEF
  5
DE67
100
AcDbEntity
  8
0
100
AcDbText
 10
1.14
 20
-0.51
 30
0.0
 40
1.0
  1

 51
15.0
  7
NORM
100
AcDbAttributeDefinition
  3
Punktnummer
  2
PNUM
 70
     1
  0
ATTDEF
  5
DE68
100
AcDbEntity
  8
0
100
AcDbText
 10
1.14
 20
1.0
 30
0.0
 40
1.0
  1
BZ
  7
BEV
100
AcDbAttributeDefinition
  3

  2
DIP
 70
     8
  0
CIRCLE
  5
DE69
100
AcDbEntity
  8
0
100
AcDbCircle
 10
0.0
 20
0.0
 30
0.0
 40
0.5
  0
POLYLINE
  5
DE6A
100
AcDbEntity
  8
0
100
AcDb2dPolyline
 66
     1
 10
0.0
 20
0.0
 30
0.0
  0
VERTEX
  5
DE6B
100
AcDbEntity
  8
0
100
AcDbVertex
100
AcDb2dVertex
 10
-0.35
 20
-0.35
 30
0.0
  0
VERTEX
  5
DE6C
100
AcDbEntity
  8
0
100
AcDbVertex
100
AcDb2dVertex
 10
0.35
 20
0.35
 30
0.0
  0
SEQEND
  5
DE6D
100
AcDbEntity
  8
0
  0
POLYLINE
  5
DE6E
100
AcDbEntity
  8
0
100
AcDb2dPolyline
 66
     1
 10
0.0
 20
0.0
 30
0.0
  0
VERTEX
  5
DE6F
100
AcDbEntity
  8
0
100
AcDbVertex
100
AcDb2dVertex
 10
0.35
 20
-0.35
 30
0.0
  0
VERTEX
  5
DE70
100
AcDbEntity
  8
0
100
AcDbVertex
100
AcDb2dVertex
 10
-0.35
 20
0.35
 30
0.0
  0
SEQEND
  5
DE71
100
AcDbEntity
  8
0
  0
ENDBLK
  5
DE72
100
AcDbEntity
  8
0
100
AcDbBlockEnd
  0
BLOCK
  5
DEA6
100
AcDbEntity
  8
0
100
AcDbBlockBegin
  2
FIG019
 70
     2
 10
0.0
 20
0.0
 30
0.0
  3
FIG019
  1

  0
ATTDEF
  5
DEA7
100
AcDbEntity
  8
0
100
AcDbText
 10
2.0
 20
1.0
 30
0.0
 40
2.5
  1

 51
15.0
  7
NORM
100
AcDbAttributeDefinition
  3
Punktnummer
  2
PNUM
 70
     1
  0
ARC
  5
DEA8
100
AcDbEntity
  8
0
100
AcDbCircle
 10
0.0
 20
0.0
 30
0.0
 40
0.5
100
AcDbArc
 50
90.0
 51
270.0
  0
ARC
  5
DEA9
100
AcDbEntity
  8
0
100
AcDbCircle
 10
0.0
 20
0.0
 30
0.0
 40
0.7
100
AcDbArc
 50
90.0
 51
270.0
  0
ENDBLK
  5
DEAA
100
AcDbEntity
  8
0
100
AcDbBlockEnd
  0
BLOCK
  5
12915
100
AcDbEntity
  8
0
100
AcDbBlockBegin
  2
TRENN
 70
     2
 10
0.0
 20
0.0
 30
0.0
  3
TRENN
  1

  0
POLYLINE
  5
12916
100
AcDbEntity
  8
0
100
AcDb2dPolyline
 66
     1
 10
0.0
 20
0.0
 30
0.0
  0
VERTEX
  5
12917
100
AcDbEntity
  8
0
100
AcDbVertex
100
AcDb2dVertex
 10
0.0
 20
0.4
 30
0.0
  0
VERTEX
  5
12918
100
AcDbEntity
  8
0
100
AcDbVertex
100
AcDb2dVertex
 10
0.0
 20
-0.4
 30
0.0
  0
SEQEND
  5
12919
100
AcDbEntity
  8
0
  0
POLYLINE
  5
1291A
100
AcDbEntity
  8
0
100
AcDb2dPolyline
 66
     1
 10
0.0
 20
0.0
 30
0.0
  0
VERTEX
  5
1291B
100
AcDbEntity
  8
0
100
AcDbVertex
100
AcDb2dVertex
 10
-0.4
 20
0.0
 30
0.0
  0
VERTEX
  5
1291C
100
AcDbEntity
  8
0
100
AcDbVertex
100
AcDb2dVertex
 10
0.4
 20
0.0
 30
0.0
  0
SEQEND
  5
1291D
100
AcDbEntity
  8
0
  0
CIRCLE
  5
1291E
100
AcDbEntity
  8
0
100
AcDbCircle
 10
0.0
 20
0.0
 30
0.0
 40
3.0
  0
ATTDEF
  5
1291F
100
AcDbEntity
  8
0
100
AcDbText
 10
0.0
 20
-1.0
 30
0.0
 40
2.0
  1

  7
BEV
 72
     1
 11
0.0
 21
0.0
 31
0.0
100
AcDbAttributeDefinition
  3
TST_NR
  2
GF_ID
 70
     0
 74
     2
  0
ATTDEF
  5
12920
100
AcDbEntity
  8
0
100
AcDbText
 10
0.0
 20
-5.5
 30
0.0
 40
2.0
  1

  7
BEV
 72
     1
 11
0.0
 21
-3.5
 31
0.0
100
AcDbAttributeDefinition
  3
Fläche
  2
KGNR
 70
     1
 74
     3
  0
ENDBLK
  5
12921
100
AcDbEntity
  8
0
100
AcDbBlockEnd
  0
BLOCK
  5
E052
100
AcDbEntity
  8
0
100
AcDbBlockBegin
  2
MBLSYMBOL
 70
     0
 10
0.0
 20
0.0
 30
0.0
  3
MBLSYMBOL
  1

  0
POLYLINE
  5
E053
100
AcDbEntity
  8
0
100
AcDb2dPolyline
 66
     1
 10
0.0
 20
0.0
 30
0.0
 40
30.0
 41
30.0
  0
VERTEX
  5
E054
100
AcDbEntity
  8
0
100
AcDbVertex
100
AcDb2dVertex
 10
280.0
 20
154.0
 30
0.0
 41
10.0
 42
-0.152938
  0
VERTEX
  5
E055
100
AcDbEntity
  8
0
100
AcDbVertex
100
AcDb2dVertex
 10
460.9
 20
354.3
 30
0.0
 40
10.0
 41
10.0
 42
-1.076108
  0
SEQEND
  5
E056
100
AcDbEntity
  8
0
  0
POLYLINE
  5
E057
100
AcDbEntity
  8
0
100
AcDb2dPolyline
 66
     1
 10
0.0
 20
0.0
 30
0.0
 40
30.0
 41
30.0
  0
VERTEX
  5
E058
100
AcDbEntity
  8
0
100
AcDbVertex
100
AcDb2dVertex
 10
185.7
 20
214.2
 30
0.0
  0
VERTEX
  5
E059
100
AcDbEntity
  8
0
100
AcDbVertex
100
AcDb2dVertex
 10
281.9
 20
169.7
 30
0.0
  0
SEQEND
  5
E05A
100
AcDbEntity
  8
0
  0
POLYLINE
  5
E05B
100
AcDbEntity
  8
0
100
AcDb2dPolyline
 66
     1
 10
0.0
 20
0.0
 30
0.0
 40
10.0
 41
10.0
  0
VERTEX
  5
E05C
100
AcDbEntity
  8
0
100
AcDbVertex
100
AcDb2dVertex
 10
0.0
 20
5.0
 30
0.0
  0
VERTEX
  5
E05D
100
AcDbEntity
  8
0
100
AcDbVertex
100
AcDb2dVertex
 10
620.0
 20
5.0
 30
0.0
  0
VERTEX
  5
E05E
100
AcDbEntity
  8
0
100
AcDbVertex
100
AcDb2dVertex
 10
620.0
 20
495.0
 30
0.0
  0
VERTEX
  5
E05F
100
AcDbEntity
  8
0
100
AcDbVertex
100
AcDb2dVertex
 10
5.0
 20
495.0
 30
0.0
  0
VERTEX
  5
E060
100
AcDbEntity
  8
0
100
AcDbVertex
100
AcDb2dVertex
 10
5.0
 20
0.0
 30
0.0
  0
SEQEND
  5
E061
100
AcDbEntity
  8
0
  0
ENDBLK
  5
E062
100
AcDbEntity
  8
0
100
AcDbBlockEnd
  0
BLOCK
  5
EAB0
100
AcDbEntity
  8
0
100
AcDbBlockBegin
  2
INDEX
 70
     0
 10
0.0
 20
0.0
 30
0.0
  3
INDEX
  1

  0
LINE
  5
EAB1
100
AcDbEntity
  8
0
100
AcDbLine
 10
0.0
 20
0.0
 30
0.0
 11
1.0
 21
0.0
 31
0.0
  0
LINE
  5
EAB2
100
AcDbEntity
  8
0
100
AcDbLine
 10
-1.0
 20
0.0
 30
0.0
 11
0.0
 21
0.0
 31
0.0
  0
ENDBLK
  5
EAB3
100
AcDbEntity
  8
0
100
AcDbBlockEnd
  0
BLOCK
  5
12415
100
AcDbEntity
  8
0
100
AcDbBlockBegin
  2
LOGO
 70
     0
 10
0.0
 20
0.0
 30
0.0
  3
LOGO
  1

  0
IMAGE
  5
12416
100
AcDbEntity
  8
0
 92
      140
310
8C000000010000008400000006000000050000000000000000803CC0000000000000000000000000000000000000000000803CC0745B22179C9920400000000000000000F8444948A42D08C0745B22179C9920400000000000000000F8444948A42D08C0000000000000000000000000000000000000000000803CC0000000
310
00000000000000000000000000
100
AcDbRasterImage
 90
        0
 10
-28.5
 20
0.0
 30
0.0
 11
0.030403
 21
0.0
 31
0.0
 12
0.0
 22
0.030403
 32
0.0
 13
838.0
 23
273.0
340
12407
 70
     7
280
     0
281
    50
282
    50
283
     0
360
12417
 71
     1
 91
        2
 14
-0.5
 24
-0.5
 14
837.5
 24
272.5
  0
ENDBLK
  5
12418
100
AcDbEntity
  8
0
100
AcDbBlockEnd
  0
BLOCK
  5
FA32
100
AcDbEntity
  8
0
100
AcDbBlockBegin
  2
CR
 70
     0
 10
0.0
 20
0.0
 30
0.0
  3
CR
  1

  0
CIRCLE
  5
FA33
100
AcDbEntity
  8
0
 62
     2
100
AcDbCircle
 10
-2.6
 20
0.0
 30
0.0
 40
0.9
  0
TEXT
  5
FA34
100
AcDbEntity
  8
0
 62
     2
100
AcDbText
 10
-3.093069
 20
-0.453696
 30
0.0
 40
1.26
  1
c
  7
AVGBT
 72
     1
 11
-2.571242
 21
0.176304
 31
0.0
100
AcDbText
 73
     2
  0
TEXT
  5
FA35
100
AcDbEntity
  8
0
 62
     2
100
AcDbText
 10
-0.85972
 20
-0.87749
 30
0.0
 40
1.8
  1
BEV
  7
VAGRBT
100
AcDbText
  0
ENDBLK
  5
FA36
100
AcDbEntity
  8
0
100
AcDbBlockEnd
  0
BLOCK
  5
10D29
100
AcDbEntity
  8
0
100
AcDbBlockBegin
  2
SYM
 70
     0
 10
0.0
 20
0.0
 30
0.0
  3
SYM
  1

  0
ENDBLK
  5
10D2A
100
AcDbEntity
  8
0
100
AcDbBlockEnd
  0
BLOCK
  5
10D2C
100
AcDbEntity
  8
0
100
AcDbBlockBegin
  2
VGD1
 70
     0
 10
0.0
 20
0.0
 30
0.0
  3
VGD1
  1

  0
ENDBLK
  5
10D2D
100
AcDbEntity
  8
0
100
AcDbBlockEnd
  0
BLOCK
  5
10D30
100
AcDbEntity
  8
0
100
AcDbBlockBegin
  2
BLA
 70
     0
 10
0.0
 20
0.0
 30
0.0
  3
BLA
  1

  0
LWPOLYLINE
  5
10D2F
100
AcDbEntity
  8
BL
 62
     1
100
AcDbPolyline
 90
        2
 70
     1
 43
99.75
 10
-50.125
 20
20.180723
 42
1.0
 10
50.125
 20
20.180723
 42
1.0
  0
ENDBLK
  5
10D31
100
AcDbEntity
  8
0
100
AcDbBlockEnd
  0
BLOCK
  5
10D34
100
AcDbEntity
  8
0
100
AcDbBlockBegin
  2
BLALT
 70
     0
 10
0.0
 20
0.0
 30
0.0
  3
BLALT
  1

  0
LWPOLYLINE
  5
10D33
100
AcDbEntity
  8
BL
 62
     6
100
AcDbPolyline
 90
        2
 70
     1
 43
99.75
 10
-50.125
 20
20.180723
 42
1.0
 10
50.125
 20
20.180723
 42
1.0
  0
ENDBLK
  5
10D35
100
AcDbEntity
  8
0
100
AcDbBlockEnd
  0
BLOCK
  5
10F73
100
AcDbEntity
  8
0
100
AcDbBlockBegin
  2
TBLEIN
 70
     0
 10
0.0
 20
0.0
 30
0.0
  3
TBLEIN
  1

  0
LWPOLYLINE
  5
10D37
100
AcDbEntity
  8
WL
 62
     6
100
AcDbPolyline
 90
       29
 70
     0
 43
8.0
 10
7500.0
 20
10000.0
 10
7500.0
 20
0.0
 10
6250.0
 20
0.0
 10
6250.0
 20
10000.0
 10
5000.0
 20
10000.0
 10
5000.0
 20
0.0
 10
3750.0
 20
0.0
 10
3750.0
 20
10000.0
 10
2500.0
 20
10000.0
 10
2500.0
 20
0.0
 10
1250.0
 20
0.0
 10
1250.0
 20
10000.0
 10
1250.0
 20
9000.0
 10
0.0
 20
9000.0
 10
10000.0
 20
9000.0
 10
10000.0
 20
8000.0
 10
0.0
 20
8000.0
 10
0.0
 20
7000.0
 10
10000.0
 20
7000.0
 10
10000.0
 20
6000.0
 10
0.0
 20
6000.0
 10
0.0
 20
5000.0
 10
10000.0
 20
5000.0
 10
10000.0
 20
4000.0
 10
0.0
 20
4000.0
 10
0.0
 20
3000.0
 10
10000.0
 20
3000.0
 10
10000.0
 20
2000.0
 10
0.0
 20
2000.0
  0
LWPOLYLINE
  5
10D38
100
AcDbEntity
  8
WL
 62
     6
100
AcDbPolyline
 90
        8
 70
     0
 43
8.0
 10
0.0
 20
1000.0
 10
1250.0
 20
1000.0
 10
3750.0
 20
1000.0
 10
6250.0
 20
1000.0
 10
8750.0
 20
1000.0
 10
10000.0
 20
1000.0
 10
8750.0
 20
1000.0
 10
8750.0
 20
0.0
  0
LWPOLYLINE
  5
10D39
100
AcDbEntity
  8
BL
100
AcDbPolyline
 90
        4
 70
     1
 43
8.0
 10
0.0
 20
0.0
 10
0.0
 20
10000.0
 10
10000.0
 20
10000.0
 10
10000.0
 20
0.0
  0
LINE
  5
10D3A
100
AcDbEntity
  8
WL
 62
     6
100
AcDbLine
 10
7500.0
 20
9500.0
 30
0.0
 11
7700.0
 21
9500.0
 31
0.0
  0
LINE
  5
10D3B
100
AcDbEntity
  8
WL
 62
     6
100
AcDbLine
 10
7500.0
 20
8500.0
 30
0.0
 11
7700.0
 21
8500.0
 31
0.0
  0
LINE
  5
10D3C
100
AcDbEntity
  8
WL
 62
     6
100
AcDbLine
 10
7500.0
 20
7500.0
 30
0.0
 11
7700.0
 21
7500.0
 31
0.0
  0
LINE
  5
10D3D
100
AcDbEntity
  8
WL
 62
     6
100
AcDbLine
 10
7500.0
 20
4500.0
 30
0.0
 11
7700.0
 21
4500.0
 31
0.0
  0
LINE
  5
10D3E
100
AcDbEntity
  8
WL
 62
     6
100
AcDbLine
 10
7500.0
 20
6500.0
 30
0.0
 11
7700.0
 21
6500.0
 31
0.0
  0
LINE
  5
10D3F
100
AcDbEntity
  8
WL
 62
     6
100
AcDbLine
 10
7500.0
 20
5500.0
 30
0.0
 11
7700.0
 21
5500.0
 31
0.0
  0
LINE
  5
10D40
100
AcDbEntity
  8
WL
 62
     6
100
AcDbLine
 10
7500.0
 20
3500.0
 30
0.0
 11
7700.0
 21
3500.0
 31
0.0
  0
LINE
  5
10D41
100
AcDbEntity
  8
WL
 62
     6
100
AcDbLine
 10
7500.0
 20
500.0
 30
0.0
 11
7700.0
 21
500.0
 31
0.0
  0
LINE
  5
10D42
100
AcDbEntity
  8
WL
 62
     6
100
AcDbLine
 10
7500.0
 20
1500.0
 30
0.0
 11
7700.0
 21
1500.0
 31
0.0
  0
LINE
  5
10D43
100
AcDbEntity
  8
WL
 62
     6
100
AcDbLine
 10
7500.0
 20
2500.0
 30
0.0
 11
7700.0
 21
2500.0
 31
0.0
  0
LINE
  5
10D44
100
AcDbEntity
  8
WL
 62
     6
100
AcDbLine
 10
1875.0
 20
8000.0
 30
0.0
 11
1875.0
 21
8250.0
 31
0.0
  0
LINE
  5
10D45
100
AcDbEntity
  8
WL
 62
     6
100
AcDbLine
 10
625.0
 20
8000.0
 30
0.0
 11
625.0
 21
8250.0
 31
0.0
  0
LINE
  5
10D46
100
AcDbEntity
  8
WL
 62
     6
100
AcDbLine
 10
1250.0
 20
8000.0
 30
0.0
 11
1250.0
 21
8250.0
 31
0.0
  0
LINE
  5
10D47
100
AcDbEntity
  8
WL
 62
     6
100
AcDbLine
 10
3125.0
 20
8000.0
 30
0.0
 11
3125.0
 21
8250.0
 31
0.0
  0
LINE
  5
10D48
100
AcDbEntity
  8
WL
 62
     6
100
AcDbLine
 10
4375.0
 20
8000.0
 30
0.0
 11
4375.0
 21
8250.0
 31
0.0
  0
LINE
  5
10D49
100
AcDbEntity
  8
WL
 62
     6
100
AcDbLine
 10
5625.0
 20
8000.0
 30
0.0
 11
5625.0
 21
8250.0
 31
0.0
  0
LINE
  5
10D4A
100
AcDbEntity
  8
WL
 62
     6
100
AcDbLine
 10
6875.0
 20
8000.0
 30
0.0
 11
6875.0
 21
8250.0
 31
0.0
  0
LINE
  5
10D4B
100
AcDbEntity
  8
WL
 62
     6
100
AcDbLine
 10
1250.0
 20
2500.0
 30
0.0
 11
1450.0
 21
2500.0
 31
0.0
  0
LINE
  5
10D4C
100
AcDbEntity
  8
WL
 62
     6
100
AcDbLine
 10
1250.0
 20
3500.0
 30
0.0
 11
1450.0
 21
3500.0
 31
0.0
  0
LINE
  5
10D4D
100
AcDbEntity
  8
WL
 62
     6
100
AcDbLine
 10
1250.0
 20
4500.0
 30
0.0
 11
1450.0
 21
4500.0
 31
0.0
  0
LINE
  5
10D4E
100
AcDbEntity
  8
WL
 62
     6
100
AcDbLine
 10
1250.0
 20
5500.0
 30
0.0
 11
1450.0
 21
5500.0
 31
0.0
  0
LINE
  5
10D4F
100
AcDbEntity
  8
WL
 62
     6
100
AcDbLine
 10
1250.0
 20
6500.0
 30
0.0
 11
1450.0
 21
6500.0
 31
0.0
  0
LINE
  5
10D50
100
AcDbEntity
  8
WL
 62
     6
100
AcDbLine
 10
1250.0
 20
7500.0
 30
0.0
 11
1450.0
 21
7500.0
 31
0.0
  0
LINE
  5
10D51
100
AcDbEntity
  8
WL
 62
     6
100
AcDbLine
 10
1250.0
 20
500.0
 30
0.0
 11
1450.0
 21
500.0
 31
0.0
  0
LINE
  5
10D52
100
AcDbEntity
  8
WL
 62
     6
100
AcDbLine
 10
1250.0
 20
1500.0
 30
0.0
 11
1450.0
 21
1500.0
 31
0.0
  0
LINE
  5
10D53
100
AcDbEntity
  8
WL
 62
     6
100
AcDbLine
 10
625.0
 20
3000.0
 30
0.0
 11
625.0
 21
3250.0
 31
0.0
  0
INSERT
  5
10D54
100
AcDbEntity
  8
WL
 62
     6
100
AcDbBlockReference
 66
     1
  2
NUM
 10
620.085755
 20
2499.695028
 30
0.0
  0
ATTRIB
  5
10D55
100
AcDbEntity
  8
WL
 62
     6
100
AcDbText
 10
429.609565
 20
2399.695028
 30
0.0
 40
200.0
  1
57
 51
15.0
  7
NORM
 72
     4
 11
620.085755
 21
2499.695028
 31
0.0
100
AcDbAttribute
  2
NUM
 70
     0
  0
SEQEND
  5
10D56
100
AcDbEntity
  8
WL
 62
     6
  0
INSERT
  5
10D57
100
AcDbEntity
  8
WL
 62
     6
100
AcDbBlockReference
 66
     1
  2
NUM
 10
620.085755
 20
1499.695028
 30
0.0
  0
ATTRIB
  5
10D58
100
AcDbEntity
  8
WL
 62
     6
100
AcDbText
 10
424.84766
 20
1399.695028
 30
0.0
 40
200.0
  1
65
 51
15.0
  7
NORM
 72
     4
 11
620.085755
 21
1499.695028
 31
0.0
100
AcDbAttribute
  2
NUM
 70
     0
  0
SEQEND
  5
10D59
100
AcDbEntity
  8
WL
 62
     6
  0
INSERT
  5
10D5A
100
AcDbEntity
  8
WL
 62
     6
100
AcDbBlockReference
 66
     1
  2
NUM
 10
620.085755
 20
499.695028
 30
0.0
  0
ATTRIB
  5
10D5B
100
AcDbEntity
  8
WL
 62
     6
100
AcDbText
 10
429.609565
 20
399.695028
 30
0.0
 40
200.0
  1
73
 51
15.0
  7
NORM
 72
     4
 11
620.085755
 21
499.695028
 31
0.0
100
AcDbAttribute
  2
NUM
 70
     0
  0
SEQEND
  5
10D5C
100
AcDbEntity
  8
WL
 62
     6
  0
LINE
  5
10D5D
100
AcDbEntity
  8
WL
 62
     6
100
AcDbLine
 10
0.0
 20
2500.0
 30
0.0
 11
200.0
 21
2500.0
 31
0.0
  0
LINE
  5
10D5E
100
AcDbEntity
  8
WL
 62
     6
100
AcDbLine
 10
0.0
 20
1500.0
 30
0.0
 11
200.0
 21
1500.0
 31
0.0
  0
LINE
  5
10D5F
100
AcDbEntity
  8
WL
 62
     6
100
AcDbLine
 10
0.0
 20
500.0
 30
0.0
 11
200.0
 21
500.0
 31
0.0
  0
LINE
  5
10D60
100
AcDbEntity
  8
WL
 62
     6
100
AcDbLine
 10
625.0
 20
2000.0
 30
0.0
 11
625.0
 21
2250.0
 31
0.0
  0
LINE
  5
10D61
100
AcDbEntity
  8
WL
 62
     6
100
AcDbLine
 10
1050.0
 20
2500.0
 30
0.0
 11
1250.0
 21
2500.0
 31
0.0
  0
LINE
  5
10D62
100
AcDbEntity
  8
WL
 62
     6
100
AcDbLine
 10
625.0
 20
3000.0
 30
0.0
 11
625.0
 21
2750.0
 31
0.0
  0
LINE
  5
10D63
100
AcDbEntity
  8
WL
 62
     6
100
AcDbLine
 10
625.0
 20
1000.0
 30
0.0
 11
625.0
 21
1250.0
 31
0.0
  0
LINE
  5
10D64
100
AcDbEntity
  8
WL
 62
     6
100
AcDbLine
 10
1050.0
 20
1500.0
 30
0.0
 11
1250.0
 21
1500.0
 31
0.0
  0
LINE
  5
10D65
100
AcDbEntity
  8
WL
 62
     6
100
AcDbLine
 10
625.0
 20
2000.0
 30
0.0
 11
625.0
 21
1750.0
 31
0.0
  0
LINE
  5
10D66
100
AcDbEntity
  8
WL
 62
     6
100
AcDbLine
 10
1050.0
 20
500.0
 30
0.0
 11
1250.0
 21
500.0
 31
0.0
  0
LINE
  5
10D67
100
AcDbEntity
  8
WL
 62
     6
100
AcDbLine
 10
625.0
 20
1000.0
 30
0.0
 11
625.0
 21
750.0
 31
0.0
  0
LINE
  5
10D68
100
AcDbEntity
  8
WL
 62
     6
100
AcDbLine
 10
625.0
 20
0.0
 30
0.0
 11
625.0
 21
250.0
 31
0.0
  0
INSERT
  5
10D69
100
AcDbEntity
  8
WL
 62
     6
100
AcDbBlockReference
 66
     1
  2
NUM
 10
620.085755
 20
7499.695028
 30
0.0
  0
ATTRIB
  5
10D6A
100
AcDbEntity
  8
WL
 62
     6
100
AcDbText
 10
415.32385
 20
7399.695028
 30
0.0
 40
200.0
  1
17
 51
15.0
  7
NORM
 72
     4
 11
620.085755
 21
7499.695028
 31
0.0
100
AcDbAttribute
  2
NUM
 70
     0
  0
SEQEND
  5
10D6B
100
AcDbEntity
  8
WL
 62
     6
  0
INSERT
  5
10D6C
100
AcDbEntity
  8
WL
 62
     6
100
AcDbBlockReference
 66
     1
  2
NUM
 10
620.085755
 20
6499.695028
 30
0.0
  0
ATTRIB
  5
10D6D
100
AcDbEntity
  8
WL
 62
     6
100
AcDbText
 10
429.609565
 20
6399.695028
 30
0.0
 40
200.0
  1
25
 51
15.0
  7
NORM
 72
     4
 11
620.085755
 21
6499.695028
 31
0.0
100
AcDbAttribute
  2
NUM
 70
     0
  0
SEQEND
  5
10D6E
100
AcDbEntity
  8
WL
 62
     6
  0
INSERT
  5
10D6F
100
AcDbEntity
  8
WL
 62
     6
100
AcDbBlockReference
 66
     1
  2
NUM
 10
620.085755
 20
5499.695028
 30
0.0
  0
ATTRIB
  5
10D70
100
AcDbEntity
  8
WL
 62
     6
100
AcDbText
 10
429.609565
 20
5399.695028
 30
0.0
 40
200.0
  1
33
 51
15.0
  7
NORM
 72
     4
 11
620.085755
 21
5499.695028
 31
0.0
100
AcDbAttribute
  2
NUM
 70
     0
  0
SEQEND
  5
10D71
100
AcDbEntity
  8
WL
 62
     6
  0
INSERT
  5
10D72
100
AcDbEntity
  8
WL
 62
     6
100
AcDbBlockReference
 66
     1
  2
NUM
 10
620.085755
 20
3499.695028
 30
0.0
  0
ATTRIB
  5
10D73
100
AcDbEntity
  8
WL
 62
     6
100
AcDbText
 10
434.371469
 20
3399.695028
 30
0.0
 40
200.0
  1
49
 51
15.0
  7
NORM
 72
     4
 11
620.085755
 21
3499.695028
 31
0.0
100
AcDbAttribute
  2
NUM
 70
     0
  0
SEQEND
  5
10D74
100
AcDbEntity
  8
WL
 62
     6
  0
LINE
  5
10D75
100
AcDbEntity
  8
WL
 62
     6
100
AcDbLine
 10
0.0
 20
7500.0
 30
0.0
 11
200.0
 21
7500.0
 31
0.0
  0
LINE
  5
10D76
100
AcDbEntity
  8
WL
 62
     6
100
AcDbLine
 10
0.0
 20
6500.0
 30
0.0
 11
200.0
 21
6500.0
 31
0.0
  0
LINE
  5
10D77
100
AcDbEntity
  8
WL
 62
     6
100
AcDbLine
 10
0.0
 20
5500.0
 30
0.0
 11
200.0
 21
5500.0
 31
0.0
  0
LINE
  5
10D78
100
AcDbEntity
  8
WL
 62
     6
100
AcDbLine
 10
0.0
 20
4500.0
 30
0.0
 11
200.0
 21
4500.0
 31
0.0
  0
LINE
  5
10D79
100
AcDbEntity
  8
WL
 62
     6
100
AcDbLine
 10
0.0
 20
3500.0
 30
0.0
 11
200.0
 21
3500.0
 31
0.0
  0
LINE
  5
10D7A
100
AcDbEntity
  8
WL
 62
     6
100
AcDbLine
 10
625.0
 20
7000.0
 30
0.0
 11
625.0
 21
7250.0
 31
0.0
  0
LINE
  5
10D7B
100
AcDbEntity
  8
WL
 62
     6
100
AcDbLine
 10
1050.0
 20
7500.0
 30
0.0
 11
1250.0
 21
7500.0
 31
0.0
  0
LINE
  5
10D7C
100
AcDbEntity
  8
WL
 62
     6
100
AcDbLine
 10
625.0
 20
8000.0
 30
0.0
 11
625.0
 21
7750.0
 31
0.0
  0
LINE
  5
10D7D
100
AcDbEntity
  8
WL
 62
     6
100
AcDbLine
 10
625.0
 20
6000.0
 30
0.0
 11
625.0
 21
6250.0
 31
0.0
  0
LINE
  5
10D7E
100
AcDbEntity
  8
WL
 62
     6
100
AcDbLine
 10
1050.0
 20
6500.0
 30
0.0
 11
1250.0
 21
6500.0
 31
0.0
  0
LINE
  5
10D7F
100
AcDbEntity
  8
WL
 62
     6
100
AcDbLine
 10
625.0
 20
7000.0
 30
0.0
 11
625.0
 21
6750.0
 31
0.0
  0
LINE
  5
10D80
100
AcDbEntity
  8
WL
 62
     6
100
AcDbLine
 10
625.0
 20
5000.0
 30
0.0
 11
625.0
 21
5250.0
 31
0.0
  0
LINE
  5
10D81
100
AcDbEntity
  8
WL
 62
     6
100
AcDbLine
 10
1050.0
 20
5500.0
 30
0.0
 11
1250.0
 21
5500.0
 31
0.0
  0
LINE
  5
10D82
100
AcDbEntity
  8
WL
 62
     6
100
AcDbLine
 10
625.0
 20
6000.0
 30
0.0
 11
625.0
 21
5750.0
 31
0.0
  0
LINE
  5
10D83
100
AcDbEntity
  8
WL
 62
     6
100
AcDbLine
 10
625.0
 20
4000.0
 30
0.0
 11
625.0
 21
4250.0
 31
0.0
  0
LINE
  5
10D84
100
AcDbEntity
  8
WL
 62
     6
100
AcDbLine
 10
1050.0
 20
4500.0
 30
0.0
 11
1250.0
 21
4500.0
 31
0.0
  0
LINE
  5
10D85
100
AcDbEntity
  8
WL
 62
     6
100
AcDbLine
 10
625.0
 20
5000.0
 30
0.0
 11
625.0
 21
4750.0
 31
0.0
  0
INSERT
  5
10D86
100
AcDbEntity
  8
WL
 62
     6
100
AcDbBlockReference
 66
     1
  2
NUM
 10
620.085755
 20
4499.695028
 30
0.0
  0
ATTRIB
  5
10D87
100
AcDbEntity
  8
WL
 62
     6
100
AcDbText
 10
458.180993
 20
4399.695028
 30
0.0
 40
200.0
  1
41
 51
15.0
  7
NORM
 72
     4
 11
620.085755
 21
4499.695028
 31
0.0
100
AcDbAttribute
  2
NUM
 70
     0
  0
SEQEND
  5
10D88
100
AcDbEntity
  8
WL
 62
     6
  0
LINE
  5
10D89
100
AcDbEntity
  8
WL
 62
     6
100
AcDbLine
 10
1050.0
 20
3500.0
 30
0.0
 11
1250.0
 21
3500.0
 31
0.0
  0
LINE
  5
10D8A
100
AcDbEntity
  8
WL
 62
     6
100
AcDbLine
 10
625.0
 20
4000.0
 30
0.0
 11
625.0
 21
3750.0
 31
0.0
  0
INSERT
  5
10D8B
100
AcDbEntity
  8
WL
 62
     6
100
AcDbBlockReference
 66
     1
  2
NUM
 10
4370.085755
 20
7499.695028
 30
0.0
  0
ATTRIB
  5
10D8C
100
AcDbEntity
  8
WL
 62
     6
100
AcDbText
 10
4179.609565
 20
7399.695028
 30
0.0
 40
200.0
  1
20
 51
15.0
  7
NORM
 72
     4
 11
4370.085755
 21
7499.695028
 31
0.0
100
AcDbAttribute
  2
NUM
 70
     0
  0
SEQEND
  5
10D8D
100
AcDbEntity
  8
WL
 62
     6
  0
INSERT
  5
10D8E
100
AcDbEntity
  8
WL
 62
     6
100
AcDbBlockReference
 66
     1
  2
NUM
 10
4370.085755
 20
6499.695028
 30
0.0
  0
ATTRIB
  5
10D8F
100
AcDbEntity
  8
WL
 62
     6
100
AcDbText
 10
4179.609565
 20
6399.695028
 30
0.0
 40
200.0
  1
28
 51
15.0
  7
NORM
 72
     4
 11
4370.085755
 21
6499.695028
 31
0.0
100
AcDbAttribute
  2
NUM
 70
     0
  0
SEQEND
  5
10D90
100
AcDbEntity
  8
WL
 62
     6
  0
INSERT
  5
10D91
100
AcDbEntity
  8
WL
 62
     6
100
AcDbBlockReference
 66
     1
  2
NUM
 10
4370.085755
 20
5499.695028
 30
0.0
  0
ATTRIB
  5
10D92
100
AcDbEntity
  8
WL
 62
     6
100
AcDbText
 10
4179.609565
 20
5399.695028
 30
0.0
 40
200.0
  1
36
 51
15.0
  7
NORM
 72
     4
 11
4370.085755
 21
5499.695028
 31
0.0
100
AcDbAttribute
  2
NUM
 70
     0
  0
SEQEND
  5
10D93
100
AcDbEntity
  8
WL
 62
     6
  0
INSERT
  5
10D94
100
AcDbEntity
  8
WL
 62
     6
100
AcDbBlockReference
 66
     1
  2
NUM
 10
4370.085755
 20
4499.695028
 30
0.0
  0
ATTRIB
  5
10D95
100
AcDbEntity
  8
WL
 62
     6
100
AcDbText
 10
4174.84766
 20
4399.695028
 30
0.0
 40
200.0
  1
44
 51
15.0
  7
NORM
 72
     4
 11
4370.085755
 21
4499.695028
 31
0.0
100
AcDbAttribute
  2
NUM
 70
     0
  0
SEQEND
  5
10D96
100
AcDbEntity
  8
WL
 62
     6
  0
INSERT
  5
10D97
100
AcDbEntity
  8
WL
 62
     6
100
AcDbBlockReference
 66
     1
  2
NUM
 10
4370.085755
 20
3499.695028
 30
0.0
  0
ATTRIB
  5
10D98
100
AcDbEntity
  8
WL
 62
     6
100
AcDbText
 10
4179.609565
 20
3399.695028
 30
0.0
 40
200.0
  1
52
 51
15.0
  7
NORM
 72
     4
 11
4370.085755
 21
3499.695028
 31
0.0
100
AcDbAttribute
  2
NUM
 70
     0
  0
SEQEND
  5
10D99
100
AcDbEntity
  8
WL
 62
     6
  0
INSERT
  5
10D9A
100
AcDbEntity
  8
WL
 62
     6
100
AcDbBlockReference
 66
     1
  2
NUM
 10
4370.085755
 20
2499.695028
 30
0.0
  0
ATTRIB
  5
10D9B
100
AcDbEntity
  8
WL
 62
     6
100
AcDbText
 10
4174.84766
 20
2399.695028
 30
0.0
 40
200.0
  1
60
 51
15.0
  7
NORM
 72
     4
 11
4370.085755
 21
2499.695028
 31
0.0
100
AcDbAttribute
  2
NUM
 70
     0
  0
SEQEND
  5
10D9C
100
AcDbEntity
  8
WL
 62
     6
  0
INSERT
  5
10D9D
100
AcDbEntity
  8
WL
 62
     6
100
AcDbBlockReference
 66
     1
  2
NUM
 10
4370.085755
 20
1499.695028
 30
0.0
  0
ATTRIB
  5
10D9E
100
AcDbEntity
  8
WL
 62
     6
100
AcDbText
 10
4174.84766
 20
1399.695028
 30
0.0
 40
200.0
  1
68
 51
15.0
  7
NORM
 72
     4
 11
4370.085755
 21
1499.695028
 31
0.0
100
AcDbAttribute
  2
NUM
 70
     0
  0
SEQEND
  5
10D9F
100
AcDbEntity
  8
WL
 62
     6
  0
INSERT
  5
10DA0
100
AcDbEntity
  8
WL
 62
     6
100
AcDbBlockReference
 66
     1
  2
NUM
 10
4370.085755
 20
499.695028
 30
0.0
  0
ATTRIB
  5
10DA1
100
AcDbEntity
  8
WL
 62
     6
100
AcDbText
 10
4179.609565
 20
399.695028
 30
0.0
 40
200.0
  1
76
 51
15.0
  7
NORM
 72
     4
 11
4370.085755
 21
499.695028
 31
0.0
100
AcDbAttribute
  2
NUM
 70
     0
  0
SEQEND
  5
10DA2
100
AcDbEntity
  8
WL
 62
     6
  0
LINE
  5
10DA3
100
AcDbEntity
  8
WL
 62
     6
100
AcDbLine
 10
1875.0
 20
3000.0
 30
0.0
 11
1875.0
 21
3250.0
 31
0.0
  0
INSERT
  5
10DA4
100
AcDbEntity
  8
WL
 62
     6
100
AcDbBlockReference
 66
     1
  2
NUM
 10
1870.085755
 20
2499.695028
 30
0.0
  0
ATTRIB
  5
10DA5
100
AcDbEntity
  8
WL
 62
     6
100
AcDbText
 10
1679.609565
 20
2399.695028
 30
0.0
 40
200.0
  1
58
 51
15.0
  7
NORM
 72
     4
 11
1870.085755
 21
2499.695028
 31
0.0
100
AcDbAttribute
  2
NUM
 70
     0
  0
SEQEND
  5
10DA6
100
AcDbEntity
  8
WL
 62
     6
  0
INSERT
  5
10DA7
100
AcDbEntity
  8
WL
 62
     6
100
AcDbBlockReference
 66
     1
  2
NUM
 10
1870.085755
 20
499.695028
 30
0.0
  0
ATTRIB
  5
10DA8
100
AcDbEntity
  8
WL
 62
     6
100
AcDbText
 10
1674.84766
 20
399.695028
 30
0.0
 40
200.0
  1
74
 51
15.0
  7
NORM
 72
     4
 11
1870.085755
 21
499.695028
 31
0.0
100
AcDbAttribute
  2
NUM
 70
     0
  0
SEQEND
  5
10DA9
100
AcDbEntity
  8
WL
 62
     6
  0
INSERT
  5
10DAA
100
AcDbEntity
  8
WL
 62
     6
100
AcDbBlockReference
 66
     1
  2
NUM
 10
1870.085755
 20
1499.695028
 30
0.0
  0
ATTRIB
  5
10DAB
100
AcDbEntity
  8
WL
 62
     6
100
AcDbText
 10
1674.84766
 20
1399.695028
 30
0.0
 40
200.0
  1
66
 51
15.0
  7
NORM
 72
     4
 11
1870.085755
 21
1499.695028
 31
0.0
100
AcDbAttribute
  2
NUM
 70
     0
  0
SEQEND
  5
10DAC
100
AcDbEntity
  8
WL
 62
     6
  0
LINE
  5
10DAD
100
AcDbEntity
  8
WL
 62
     6
100
AcDbLine
 10
1875.0
 20
2000.0
 30
0.0
 11
1875.0
 21
2250.0
 31
0.0
  0
LINE
  5
10DAE
100
AcDbEntity
  8
WL
 62
     6
100
AcDbLine
 10
1875.0
 20
3000.0
 30
0.0
 11
1875.0
 21
2750.0
 31
0.0
  0
LINE
  5
10DAF
100
AcDbEntity
  8
WL
 62
     6
100
AcDbLine
 10
1875.0
 20
0.0
 30
0.0
 11
1875.0
 21
250.0
 31
0.0
  0
LINE
  5
10DB0
100
AcDbEntity
  8
WL
 62
     6
100
AcDbLine
 10
1875.0
 20
1000.0
 30
0.0
 11
1875.0
 21
750.0
 31
0.0
  0
LINE
  5
10DB1
100
AcDbEntity
  8
WL
 62
     6
100
AcDbLine
 10
1875.0
 20
1000.0
 30
0.0
 11
1875.0
 21
1250.0
 31
0.0
  0
LINE
  5
10DB2
100
AcDbEntity
  8
WL
 62
     6
100
AcDbLine
 10
1875.0
 20
2000.0
 30
0.0
 11
1875.0
 21
1750.0
 31
0.0
  0
LINE
  5
10DB3
100
AcDbEntity
  8
WL
 62
     6
100
AcDbLine
 10
2500.0
 20
500.0
 30
0.0
 11
2700.0
 21
500.0
 31
0.0
  0
LINE
  5
10DB4
100
AcDbEntity
  8
WL
 62
     6
100
AcDbLine
 10
2500.0
 20
1500.0
 30
0.0
 11
2700.0
 21
1500.0
 31
0.0
  0
LINE
  5
10DB5
100
AcDbEntity
  8
WL
 62
     6
100
AcDbLine
 10
2500.0
 20
2500.0
 30
0.0
 11
2700.0
 21
2500.0
 31
0.0
  0
LINE
  5
10DB6
100
AcDbEntity
  8
WL
 62
     6
100
AcDbLine
 10
2300.0
 20
2500.0
 30
0.0
 11
2500.0
 21
2500.0
 31
0.0
  0
LINE
  5
10DB7
100
AcDbEntity
  8
WL
 62
     6
100
AcDbLine
 10
2300.0
 20
500.0
 30
0.0
 11
2500.0
 21
500.0
 31
0.0
  0
LINE
  5
10DB8
100
AcDbEntity
  8
WL
 62
     6
100
AcDbLine
 10
2300.0
 20
1500.0
 30
0.0
 11
2500.0
 21
1500.0
 31
0.0
  0
INSERT
  5
10DB9
100
AcDbEntity
  8
WL
 62
     6
100
AcDbBlockReference
 66
     1
  2
NUM
 10
1870.085755
 20
3499.695028
 30
0.0
  0
ATTRIB
  5
10DBA
100
AcDbEntity
  8
WL
 62
     6
100
AcDbText
 10
1679.609565
 20
3399.695028
 30
0.0
 40
200.0
  1
50
 51
15.0
  7
NORM
 72
     4
 11
1870.085755
 21
3499.695028
 31
0.0
100
AcDbAttribute
  2
NUM
 70
     0
  0
SEQEND
  5
10DBB
100
AcDbEntity
  8
WL
 62
     6
  0
INSERT
  5
10DBC
100
AcDbEntity
  8
WL
 62
     6
100
AcDbBlockReference
 66
     1
  2
NUM
 10
1870.085755
 20
4499.695028
 30
0.0
  0
ATTRIB
  5
10DBD
100
AcDbEntity
  8
WL
 62
     6
100
AcDbText
 10
1679.609565
 20
4399.695028
 30
0.0
 40
200.0
  1
42
 51
15.0
  7
NORM
 72
     4
 11
1870.085755
 21
4499.695028
 31
0.0
100
AcDbAttribute
  2
NUM
 70
     0
  0
SEQEND
  5
10DBE
100
AcDbEntity
  8
WL
 62
     6
  0
INSERT
  5
10DBF
100
AcDbEntity
  8
WL
 62
     6
100
AcDbBlockReference
 66
     1
  2
NUM
 10
1870.085755
 20
5499.695028
 30
0.0
  0
ATTRIB
  5
10DC0
100
AcDbEntity
  8
WL
 62
     6
100
AcDbText
 10
1674.84766
 20
5399.695028
 30
0.0
 40
200.0
  1
34
 51
15.0
  7
NORM
 72
     4
 11
1870.085755
 21
5499.695028
 31
0.0
100
AcDbAttribute
  2
NUM
 70
     0
  0
SEQEND
  5
10DC1
100
AcDbEntity
  8
WL
 62
     6
  0
INSERT
  5
10DC2
100
AcDbEntity
  8
WL
 62
     6
100
AcDbBlockReference
 66
     1
  2
NUM
 10
1870.085755
 20
6499.695028
 30
0.0
  0
ATTRIB
  5
10DC3
100
AcDbEntity
  8
WL
 62
     6
100
AcDbText
 10
1679.609565
 20
6399.695028
 30
0.0
 40
200.0
  1
26
 51
15.0
  7
NORM
 72
     4
 11
1870.085755
 21
6499.695028
 31
0.0
100
AcDbAttribute
  2
NUM
 70
     0
  0
SEQEND
  5
10DC4
100
AcDbEntity
  8
WL
 62
     6
  0
LINE
  5
10DC5
100
AcDbEntity
  8
WL
 62
     6
100
AcDbLine
 10
1875.0
 20
4000.0
 30
0.0
 11
1875.0
 21
3750.0
 31
0.0
  0
LINE
  5
10DC6
100
AcDbEntity
  8
WL
 62
     6
100
AcDbLine
 10
1875.0
 20
4000.0
 30
0.0
 11
1875.0
 21
4250.0
 31
0.0
  0
LINE
  5
10DC7
100
AcDbEntity
  8
WL
 62
     6
100
AcDbLine
 10
1875.0
 20
5000.0
 30
0.0
 11
1875.0
 21
4750.0
 31
0.0
  0
LINE
  5
10DC8
100
AcDbEntity
  8
WL
 62
     6
100
AcDbLine
 10
1875.0
 20
5000.0
 30
0.0
 11
1875.0
 21
5250.0
 31
0.0
  0
LINE
  5
10DC9
100
AcDbEntity
  8
WL
 62
     6
100
AcDbLine
 10
1875.0
 20
6000.0
 30
0.0
 11
1875.0
 21
5750.0
 31
0.0
  0
LINE
  5
10DCA
100
AcDbEntity
  8
WL
 62
     6
100
AcDbLine
 10
1875.0
 20
6000.0
 30
0.0
 11
1875.0
 21
6250.0
 31
0.0
  0
LINE
  5
10DCB
100
AcDbEntity
  8
WL
 62
     6
100
AcDbLine
 10
1875.0
 20
7000.0
 30
0.0
 11
1875.0
 21
6750.0
 31
0.0
  0
LINE
  5
10DCC
100
AcDbEntity
  8
WL
 62
     6
100
AcDbLine
 10
1875.0
 20
7000.0
 30
0.0
 11
1875.0
 21
7250.0
 31
0.0
  0
LINE
  5
10DCD
100
AcDbEntity
  8
WL
 62
     6
100
AcDbLine
 10
1875.0
 20
8000.0
 30
0.0
 11
1875.0
 21
7750.0
 31
0.0
  0
INSERT
  5
10DCE
100
AcDbEntity
  8
WL
 62
     6
100
AcDbBlockReference
 66
     1
  2
NUM
 10
1870.085755
 20
7499.695028
 30
0.0
  0
ATTRIB
  5
10DCF
100
AcDbEntity
  8
WL
 62
     6
100
AcDbText
 10
1665.32385
 20
7399.695028
 30
0.0
 40
200.0
  1
18
 51
15.0
  7
NORM
 72
     4
 11
1870.085755
 21
7499.695028
 31
0.0
100
AcDbAttribute
  2
NUM
 70
     0
  0
SEQEND
  5
10DD0
100
AcDbEntity
  8
WL
 62
     6
  0
LINE
  5
10DD1
100
AcDbEntity
  8
WL
 62
     6
100
AcDbLine
 10
2500.0
 20
3500.0
 30
0.0
 11
2700.0
 21
3500.0
 31
0.0
  0
LINE
  5
10DD2
100
AcDbEntity
  8
WL
 62
     6
100
AcDbLine
 10
2500.0
 20
4500.0
 30
0.0
 11
2700.0
 21
4500.0
 31
0.0
  0
LINE
  5
10DD3
100
AcDbEntity
  8
WL
 62
     6
100
AcDbLine
 10
2500.0
 20
5500.0
 30
0.0
 11
2700.0
 21
5500.0
 31
0.0
  0
LINE
  5
10DD4
100
AcDbEntity
  8
WL
 62
     6
100
AcDbLine
 10
2500.0
 20
6500.0
 30
0.0
 11
2700.0
 21
6500.0
 31
0.0
  0
LINE
  5
10DD5
100
AcDbEntity
  8
WL
 62
     6
100
AcDbLine
 10
2500.0
 20
7500.0
 30
0.0
 11
2700.0
 21
7500.0
 31
0.0
  0
LINE
  5
10DD6
100
AcDbEntity
  8
WL
 62
     6
100
AcDbLine
 10
2300.0
 20
3500.0
 30
0.0
 11
2500.0
 21
3500.0
 31
0.0
  0
LINE
  5
10DD7
100
AcDbEntity
  8
WL
 62
     6
100
AcDbLine
 10
2300.0
 20
4500.0
 30
0.0
 11
2500.0
 21
4500.0
 31
0.0
  0
LINE
  5
10DD8
100
AcDbEntity
  8
WL
 62
     6
100
AcDbLine
 10
2300.0
 20
5500.0
 30
0.0
 11
2500.0
 21
5500.0
 31
0.0
  0
LINE
  5
10DD9
100
AcDbEntity
  8
WL
 62
     6
100
AcDbLine
 10
2300.0
 20
6500.0
 30
0.0
 11
2500.0
 21
6500.0
 31
0.0
  0
LINE
  5
10DDA
100
AcDbEntity
  8
WL
 62
     6
100
AcDbLine
 10
2300.0
 20
7500.0
 30
0.0
 11
2500.0
 21
7500.0
 31
0.0
  0
LINE
  5
10DDB
100
AcDbEntity
  8
WL
 62
     6
100
AcDbLine
 10
4375.0
 20
3000.0
 30
0.0
 11
4375.0
 21
3250.0
 31
0.0
  0
LINE
  5
10DDC
100
AcDbEntity
  8
WL
 62
     6
100
AcDbLine
 10
3125.0
 20
3000.0
 30
0.0
 11
3125.0
 21
3250.0
 31
0.0
  0
LINE
  5
10DDD
100
AcDbEntity
  8
WL
 62
     6
100
AcDbLine
 10
3550.0
 20
500.0
 30
0.0
 11
3750.0
 21
500.0
 31
0.0
  0
LINE
  5
10DDE
100
AcDbEntity
  8
WL
 62
     6
100
AcDbLine
 10
3550.0
 20
1500.0
 30
0.0
 11
3750.0
 21
1500.0
 31
0.0
  0
LINE
  5
10DDF
100
AcDbEntity
  8
WL
 62
     6
100
AcDbLine
 10
3550.0
 20
2500.0
 30
0.0
 11
3750.0
 21
2500.0
 31
0.0
  0
LINE
  5
10DE0
100
AcDbEntity
  8
WL
 62
     6
100
AcDbLine
 10
3125.0
 20
2000.0
 30
0.0
 11
3325.0
 21
2000.0
 31
0.0
  0
LINE
  5
10DE1
100
AcDbEntity
  8
WL
 62
     6
100
AcDbLine
 10
3125.0
 20
0.0
 30
0.0
 11
3125.0
 21
250.0
 31
0.0
  0
LINE
  5
10DE2
100
AcDbEntity
  8
WL
 62
     6
100
AcDbLine
 10
3125.0
 20
1000.0
 30
0.0
 11
3125.0
 21
750.0
 31
0.0
  0
INSERT
  5
10DE3
100
AcDbEntity
  8
WL
 62
     6
100
AcDbBlockReference
 66
     1
  2
NUM
 10
3120.085755
 20
499.695028
 30
0.0
  0
ATTRIB
  5
10DE4
100
AcDbEntity
  8
WL
 62
     6
100
AcDbText
 10
2929.609565
 20
399.695028
 30
0.0
 40
200.0
  1
75
 51
15.0
  7
NORM
 72
     4
 11
3120.085755
 21
499.695028
 31
0.0
100
AcDbAttribute
  2
NUM
 70
     0
  0
SEQEND
  5
10DE5
100
AcDbEntity
  8
WL
 62
     6
  0
LINE
  5
10DE6
100
AcDbEntity
  8
WL
 62
     6
100
AcDbLine
 10
3125.0
 20
1000.0
 30
0.0
 11
3125.0
 21
1250.0
 31
0.0
  0
LINE
  5
10DE7
100
AcDbEntity
  8
WL
 62
     6
100
AcDbLine
 10
3125.0
 20
2000.0
 30
0.0
 11
3125.0
 21
1750.0
 31
0.0
  0
INSERT
  5
10DE8
100
AcDbEntity
  8
WL
 62
     6
100
AcDbBlockReference
 66
     1
  2
NUM
 10
3120.085755
 20
1499.695028
 30
0.0
  0
ATTRIB
  5
10DE9
100
AcDbEntity
  8
WL
 62
     6
100
AcDbText
 10
2924.84766
 20
1399.695028
 30
0.0
 40
200.0
  1
67
 51
15.0
  7
NORM
 72
     4
 11
3120.085755
 21
1499.695028
 31
0.0
100
AcDbAttribute
  2
NUM
 70
     0
  0
SEQEND
  5
10DEA
100
AcDbEntity
  8
WL
 62
     6
  0
LINE
  5
10DEB
100
AcDbEntity
  8
WL
 62
     6
100
AcDbLine
 10
3125.0
 20
2000.0
 30
0.0
 11
3125.0
 21
2250.0
 31
0.0
  0
LINE
  5
10DEC
100
AcDbEntity
  8
WL
 62
     6
100
AcDbLine
 10
3125.0
 20
3000.0
 30
0.0
 11
3125.0
 21
2750.0
 31
0.0
  0
INSERT
  5
10DED
100
AcDbEntity
  8
WL
 62
     6
100
AcDbBlockReference
 66
     1
  2
NUM
 10
3120.085755
 20
2499.695028
 30
0.0
  0
ATTRIB
  5
10DEE
100
AcDbEntity
  8
WL
 62
     6
100
AcDbText
 10
2934.371469
 20
2399.695028
 30
0.0
 40
200.0
  1
59
 51
15.0
  7
NORM
 72
     4
 11
3120.085755
 21
2499.695028
 31
0.0
100
AcDbAttribute
  2
NUM
 70
     0
  0
SEQEND
  5
10DEF
100
AcDbEntity
  8
WL
 62
     6
  0
LINE
  5
10DF0
100
AcDbEntity
  8
WL
 62
     6
100
AcDbLine
 10
4375.0
 20
2000.0
 30
0.0
 11
4375.0
 21
2250.0
 31
0.0
  0
LINE
  5
10DF1
100
AcDbEntity
  8
WL
 62
     6
100
AcDbLine
 10
3750.0
 20
2500.0
 30
0.0
 11
3950.0
 21
2500.0
 31
0.0
  0
LINE
  5
10DF2
100
AcDbEntity
  8
WL
 62
     6
100
AcDbLine
 10
4375.0
 20
3000.0
 30
0.0
 11
4375.0
 21
2750.0
 31
0.0
  0
LINE
  5
10DF3
100
AcDbEntity
  8
WL
 62
     6
100
AcDbLine
 10
4375.0
 20
1000.0
 30
0.0
 11
4375.0
 21
1250.0
 31
0.0
  0
LINE
  5
10DF4
100
AcDbEntity
  8
WL
 62
     6
100
AcDbLine
 10
3750.0
 20
1500.0
 30
0.0
 11
3950.0
 21
1500.0
 31
0.0
  0
LINE
  5
10DF5
100
AcDbEntity
  8
WL
 62
     6
100
AcDbLine
 10
4375.0
 20
2000.0
 30
0.0
 11
4375.0
 21
1750.0
 31
0.0
  0
LINE
  5
10DF6
100
AcDbEntity
  8
WL
 62
     6
100
AcDbLine
 10
3750.0
 20
1500.0
 30
0.0
 11
3750.0
 21
1750.0
 31
0.0
  0
LINE
  5
10DF7
100
AcDbEntity
  8
WL
 62
     6
100
AcDbLine
 10
4175.0
 20
2000.0
 30
0.0
 11
4375.0
 21
2000.0
 31
0.0
  0
LINE
  5
10DF8
100
AcDbEntity
  8
WL
 62
     6
100
AcDbLine
 10
3750.0
 20
2500.0
 30
0.0
 11
3750.0
 21
2250.0
 31
0.0
  0
LINE
  5
10DF9
100
AcDbEntity
  8
WL
 62
     6
100
AcDbLine
 10
4375.0
 20
0.0
 30
0.0
 11
4375.0
 21
250.0
 31
0.0
  0
LINE
  5
10DFA
100
AcDbEntity
  8
WL
 62
     6
100
AcDbLine
 10
3750.0
 20
500.0
 30
0.0
 11
3950.0
 21
500.0
 31
0.0
  0
LINE
  5
10DFB
100
AcDbEntity
  8
WL
 62
     6
100
AcDbLine
 10
4375.0
 20
1000.0
 30
0.0
 11
4375.0
 21
750.0
 31
0.0
  0
LINE
  5
10DFC
100
AcDbEntity
  8
WL
 62
     6
100
AcDbLine
 10
3550.0
 20
3500.0
 30
0.0
 11
3750.0
 21
3500.0
 31
0.0
  0
LINE
  5
10DFD
100
AcDbEntity
  8
WL
 62
     6
100
AcDbLine
 10
3550.0
 20
4500.0
 30
0.0
 11
3750.0
 21
4500.0
 31
0.0
  0
LINE
  5
10DFE
100
AcDbEntity
  8
WL
 62
     6
100
AcDbLine
 10
3550.0
 20
5500.0
 30
0.0
 11
3750.0
 21
5500.0
 31
0.0
  0
LINE
  5
10DFF
100
AcDbEntity
  8
WL
 62
     6
100
AcDbLine
 10
3550.0
 20
6500.0
 30
0.0
 11
3750.0
 21
6500.0
 31
0.0
  0
LINE
  5
10E00
100
AcDbEntity
  8
WL
 62
     6
100
AcDbLine
 10
3550.0
 20
7500.0
 30
0.0
 11
3750.0
 21
7500.0
 31
0.0
  0
LINE
  5
10E01
100
AcDbEntity
  8
WL
 62
     6
100
AcDbLine
 10
3125.0
 20
4000.0
 30
0.0
 11
3125.0
 21
3750.0
 31
0.0
  0
INSERT
  5
10E02
100
AcDbEntity
  8
WL
 62
     6
100
AcDbBlockReference
 66
     1
  2
NUM
 10
3120.085755
 20
3499.695028
 30
0.0
  0
ATTRIB
  5
10E03
100
AcDbEntity
  8
WL
 62
     6
100
AcDbText
 10
2958.180993
 20
3399.695028
 30
0.0
 40
200.0
  1
51
 51
15.0
  7
NORM
 72
     4
 11
3120.085755
 21
3499.695028
 31
0.0
100
AcDbAttribute
  2
NUM
 70
     0
  0
SEQEND
  5
10E04
100
AcDbEntity
  8
WL
 62
     6
  0
LINE
  5
10E05
100
AcDbEntity
  8
WL
 62
     6
100
AcDbLine
 10
3125.0
 20
4000.0
 30
0.0
 11
3125.0
 21
4250.0
 31
0.0
  0
LINE
  5
10E06
100
AcDbEntity
  8
WL
 62
     6
100
AcDbLine
 10
3125.0
 20
5000.0
 30
0.0
 11
3125.0
 21
4750.0
 31
0.0
  0
INSERT
  5
10E07
100
AcDbEntity
  8
WL
 62
     6
100
AcDbBlockReference
 66
     1
  2
NUM
 10
3120.085755
 20
4499.695028
 30
0.0
  0
ATTRIB
  5
10E08
100
AcDbEntity
  8
WL
 62
     6
100
AcDbText
 10
2929.609565
 20
4399.695028
 30
0.0
 40
200.0
  1
43
 51
15.0
  7
NORM
 72
     4
 11
3120.085755
 21
4499.695028
 31
0.0
100
AcDbAttribute
  2
NUM
 70
     0
  0
SEQEND
  5
10E09
100
AcDbEntity
  8
WL
 62
     6
  0
LINE
  5
10E0A
100
AcDbEntity
  8
WL
 62
     6
100
AcDbLine
 10
3125.0
 20
5000.0
 30
0.0
 11
3125.0
 21
5250.0
 31
0.0
  0
LINE
  5
10E0B
100
AcDbEntity
  8
WL
 62
     6
100
AcDbLine
 10
3125.0
 20
6000.0
 30
0.0
 11
3125.0
 21
5750.0
 31
0.0
  0
INSERT
  5
10E0C
100
AcDbEntity
  8
WL
 62
     6
100
AcDbBlockReference
 66
     1
  2
NUM
 10
3120.085755
 20
5499.695028
 30
0.0
  0
ATTRIB
  5
10E0D
100
AcDbEntity
  8
WL
 62
     6
100
AcDbText
 10
2929.609565
 20
5399.695028
 30
0.0
 40
200.0
  1
35
 51
15.0
  7
NORM
 72
     4
 11
3120.085755
 21
5499.695028
 31
0.0
100
AcDbAttribute
  2
NUM
 70
     0
  0
SEQEND
  5
10E0E
100
AcDbEntity
  8
WL
 62
     6
  0
LINE
  5
10E0F
100
AcDbEntity
  8
WL
 62
     6
100
AcDbLine
 10
3125.0
 20
6000.0
 30
0.0
 11
3125.0
 21
6250.0
 31
0.0
  0
LINE
  5
10E10
100
AcDbEntity
  8
WL
 62
     6
100
AcDbLine
 10
3125.0
 20
7000.0
 30
0.0
 11
3125.0
 21
6750.0
 31
0.0
  0
INSERT
  5
10E11
100
AcDbEntity
  8
WL
 62
     6
100
AcDbBlockReference
 66
     1
  2
NUM
 10
3120.085755
 20
6499.695028
 30
0.0
  0
ATTRIB
  5
10E12
100
AcDbEntity
  8
WL
 62
     6
100
AcDbText
 10
2929.609565
 20
6399.695028
 30
0.0
 40
200.0
  1
27
 51
15.0
  7
NORM
 72
     4
 11
3120.085755
 21
6499.695028
 31
0.0
100
AcDbAttribute
  2
NUM
 70
     0
  0
SEQEND
  5
10E13
100
AcDbEntity
  8
WL
 62
     6
  0
LINE
  5
10E14
100
AcDbEntity
  8
WL
 62
     6
100
AcDbLine
 10
3125.0
 20
7000.0
 30
0.0
 11
3125.0
 21
7250.0
 31
0.0
  0
LINE
  5
10E15
100
AcDbEntity
  8
WL
 62
     6
100
AcDbLine
 10
3125.0
 20
8000.0
 30
0.0
 11
3125.0
 21
7750.0
 31
0.0
  0
INSERT
  5
10E16
100
AcDbEntity
  8
WL
 62
     6
100
AcDbBlockReference
 66
     1
  2
NUM
 10
3120.085755
 20
7499.695028
 30
0.0
  0
ATTRIB
  5
10E17
100
AcDbEntity
  8
WL
 62
     6
100
AcDbText
 10
2920.085755
 20
7399.695028
 30
0.0
 40
200.0
  1
19
 51
15.0
  7
NORM
 72
     4
 11
3120.085755
 21
7499.695028
 31
0.0
100
AcDbAttribute
  2
NUM
 70
     0
  0
SEQEND
  5
10E18
100
AcDbEntity
  8
WL
 62
     6
  0
LINE
  5
10E19
100
AcDbEntity
  8
WL
 62
     6
100
AcDbLine
 10
4375.0
 20
7000.0
 30
0.0
 11
4375.0
 21
7250.0
 31
0.0
  0
LINE
  5
10E1A
100
AcDbEntity
  8
WL
 62
     6
100
AcDbLine
 10
3750.0
 20
7500.0
 30
0.0
 11
3950.0
 21
7500.0
 31
0.0
  0
LINE
  5
10E1B
100
AcDbEntity
  8
WL
 62
     6
100
AcDbLine
 10
4375.0
 20
8000.0
 30
0.0
 11
4375.0
 21
7750.0
 31
0.0
  0
LINE
  5
10E1C
100
AcDbEntity
  8
WL
 62
     6
100
AcDbLine
 10
4375.0
 20
6000.0
 30
0.0
 11
4375.0
 21
6250.0
 31
0.0
  0
LINE
  5
10E1D
100
AcDbEntity
  8
WL
 62
     6
100
AcDbLine
 10
3750.0
 20
6500.0
 30
0.0
 11
3950.0
 21
6500.0
 31
0.0
  0
LINE
  5
10E1E
100
AcDbEntity
  8
WL
 62
     6
100
AcDbLine
 10
4375.0
 20
7000.0
 30
0.0
 11
4375.0
 21
6750.0
 31
0.0
  0
LINE
  5
10E1F
100
AcDbEntity
  8
WL
 62
     6
100
AcDbLine
 10
4375.0
 20
5000.0
 30
0.0
 11
4375.0
 21
5250.0
 31
0.0
  0
LINE
  5
10E20
100
AcDbEntity
  8
WL
 62
     6
100
AcDbLine
 10
3750.0
 20
5500.0
 30
0.0
 11
3950.0
 21
5500.0
 31
0.0
  0
LINE
  5
10E21
100
AcDbEntity
  8
WL
 62
     6
100
AcDbLine
 10
4375.0
 20
6000.0
 30
0.0
 11
4375.0
 21
5750.0
 31
0.0
  0
LINE
  5
10E22
100
AcDbEntity
  8
WL
 62
     6
100
AcDbLine
 10
4375.0
 20
4000.0
 30
0.0
 11
4375.0
 21
4250.0
 31
0.0
  0
LINE
  5
10E23
100
AcDbEntity
  8
WL
 62
     6
100
AcDbLine
 10
3750.0
 20
4500.0
 30
0.0
 11
3950.0
 21
4500.0
 31
0.0
  0
LINE
  5
10E24
100
AcDbEntity
  8
WL
 62
     6
100
AcDbLine
 10
4375.0
 20
5000.0
 30
0.0
 11
4375.0
 21
4750.0
 31
0.0
  0
LINE
  5
10E25
100
AcDbEntity
  8
WL
 62
     6
100
AcDbLine
 10
3750.0
 20
3500.0
 30
0.0
 11
3950.0
 21
3500.0
 31
0.0
  0
LINE
  5
10E26
100
AcDbEntity
  8
WL
 62
     6
100
AcDbLine
 10
4375.0
 20
4000.0
 30
0.0
 11
4375.0
 21
3750.0
 31
0.0
  0
LINE
  5
10E27
100
AcDbEntity
  8
WL
 62
     6
100
AcDbLine
 10
5625.0
 20
3000.0
 30
0.0
 11
5625.0
 21
3250.0
 31
0.0
  0
LINE
  5
10E28
100
AcDbEntity
  8
WL
 62
     6
100
AcDbLine
 10
5000.0
 20
500.0
 30
0.0
 11
5200.0
 21
500.0
 31
0.0
  0
LINE
  5
10E29
100
AcDbEntity
  8
WL
 62
     6
100
AcDbLine
 10
5000.0
 20
1500.0
 30
0.0
 11
5200.0
 21
1500.0
 31
0.0
  0
LINE
  5
10E2A
100
AcDbEntity
  8
WL
 62
     6
100
AcDbLine
 10
5000.0
 20
2500.0
 30
0.0
 11
5200.0
 21
2500.0
 31
0.0
  0
LINE
  5
10E2B
100
AcDbEntity
  8
WL
 62
     6
100
AcDbLine
 10
4800.0
 20
2500.0
 30
0.0
 11
5000.0
 21
2500.0
 31
0.0
  0
LINE
  5
10E2C
100
AcDbEntity
  8
WL
 62
     6
100
AcDbLine
 10
4800.0
 20
1500.0
 30
0.0
 11
5000.0
 21
1500.0
 31
0.0
  0
LINE
  5
10E2D
100
AcDbEntity
  8
WL
 62
     6
100
AcDbLine
 10
4800.0
 20
500.0
 30
0.0
 11
5000.0
 21
500.0
 31
0.0
  0
LINE
  5
10E2E
100
AcDbEntity
  8
WL
 62
     6
100
AcDbLine
 10
5625.0
 20
0.0
 30
0.0
 11
5625.0
 21
250.0
 31
0.0
  0
LINE
  5
10E2F
100
AcDbEntity
  8
WL
 62
     6
100
AcDbLine
 10
5625.0
 20
1000.0
 30
0.0
 11
5625.0
 21
750.0
 31
0.0
  0
INSERT
  5
10E30
100
AcDbEntity
  8
WL
 62
     6
100
AcDbBlockReference
 66
     1
  2
NUM
 10
5620.085755
 20
499.695028
 30
0.0
  0
ATTRIB
  5
10E31
100
AcDbEntity
  8
WL
 62
     6
100
AcDbText
 10
5429.609565
 20
399.695028
 30
0.0
 40
200.0
  1
77
 51
15.0
  7
NORM
 72
     4
 11
5620.085755
 21
499.695028
 31
0.0
100
AcDbAttribute
  2
NUM
 70
     0
  0
SEQEND
  5
10E32
100
AcDbEntity
  8
WL
 62
     6
  0
LINE
  5
10E33
100
AcDbEntity
  8
WL
 62
     6
100
AcDbLine
 10
5625.0
 20
1000.0
 30
0.0
 11
5625.0
 21
1250.0
 31
0.0
  0
LINE
  5
10E34
100
AcDbEntity
  8
WL
 62
     6
100
AcDbLine
 10
5625.0
 20
2000.0
 30
0.0
 11
5625.0
 21
1750.0
 31
0.0
  0
INSERT
  5
10E35
100
AcDbEntity
  8
WL
 62
     6
100
AcDbBlockReference
 66
     1
  2
NUM
 10
5620.085755
 20
1499.695028
 30
0.0
  0
ATTRIB
  5
10E36
100
AcDbEntity
  8
WL
 62
     6
100
AcDbText
 10
5429.609565
 20
1399.695028
 30
0.0
 40
200.0
  1
69
 51
15.0
  7
NORM
 72
     4
 11
5620.085755
 21
1499.695028
 31
0.0
100
AcDbAttribute
  2
NUM
 70
     0
  0
SEQEND
  5
10E37
100
AcDbEntity
  8
WL
 62
     6
  0
LINE
  5
10E38
100
AcDbEntity
  8
WL
 62
     6
100
AcDbLine
 10
5625.0
 20
2000.0
 30
0.0
 11
5625.0
 21
2250.0
 31
0.0
  0
LINE
  5
10E39
100
AcDbEntity
  8
WL
 62
     6
100
AcDbLine
 10
5625.0
 20
3000.0
 30
0.0
 11
5625.0
 21
2750.0
 31
0.0
  0
INSERT
  5
10E3A
100
AcDbEntity
  8
WL
 62
     6
100
AcDbBlockReference
 66
     1
  2
NUM
 10
5620.085755
 20
2499.695028
 30
0.0
  0
ATTRIB
  5
10E3B
100
AcDbEntity
  8
WL
 62
     6
100
AcDbText
 10
5453.419088
 20
2399.695028
 30
0.0
 40
200.0
  1
61
 51
15.0
  7
NORM
 72
     4
 11
5620.085755
 21
2499.695028
 31
0.0
100
AcDbAttribute
  2
NUM
 70
     0
  0
SEQEND
  5
10E3C
100
AcDbEntity
  8
WL
 62
     6
  0
LINE
  5
10E3D
100
AcDbEntity
  8
WL
 62
     6
100
AcDbLine
 10
5000.0
 20
3500.0
 30
0.0
 11
5200.0
 21
3500.0
 31
0.0
  0
LINE
  5
10E3E
100
AcDbEntity
  8
WL
 62
     6
100
AcDbLine
 10
5000.0
 20
4500.0
 30
0.0
 11
5200.0
 21
4500.0
 31
0.0
  0
LINE
  5
10E3F
100
AcDbEntity
  8
WL
 62
     6
100
AcDbLine
 10
5000.0
 20
5500.0
 30
0.0
 11
5200.0
 21
5500.0
 31
0.0
  0
LINE
  5
10E40
100
AcDbEntity
  8
WL
 62
     6
100
AcDbLine
 10
5000.0
 20
6500.0
 30
0.0
 11
5200.0
 21
6500.0
 31
0.0
  0
LINE
  5
10E41
100
AcDbEntity
  8
WL
 62
     6
100
AcDbLine
 10
5000.0
 20
7500.0
 30
0.0
 11
5200.0
 21
7500.0
 31
0.0
  0
LINE
  5
10E42
100
AcDbEntity
  8
WL
 62
     6
100
AcDbLine
 10
4800.0
 20
7500.0
 30
0.0
 11
5000.0
 21
7500.0
 31
0.0
  0
LINE
  5
10E43
100
AcDbEntity
  8
WL
 62
     6
100
AcDbLine
 10
4800.0
 20
6500.0
 30
0.0
 11
5000.0
 21
6500.0
 31
0.0
  0
LINE
  5
10E44
100
AcDbEntity
  8
WL
 62
     6
100
AcDbLine
 10
4800.0
 20
5500.0
 30
0.0
 11
5000.0
 21
5500.0
 31
0.0
  0
LINE
  5
10E45
100
AcDbEntity
  8
WL
 62
     6
100
AcDbLine
 10
4800.0
 20
4500.0
 30
0.0
 11
5000.0
 21
4500.0
 31
0.0
  0
LINE
  5
10E46
100
AcDbEntity
  8
WL
 62
     6
100
AcDbLine
 10
4800.0
 20
3500.0
 30
0.0
 11
5000.0
 21
3500.0
 31
0.0
  0
LINE
  5
10E47
100
AcDbEntity
  8
WL
 62
     6
100
AcDbLine
 10
5625.0
 20
4000.0
 30
0.0
 11
5625.0
 21
3750.0
 31
0.0
  0
INSERT
  5
10E48
100
AcDbEntity
  8
WL
 62
     6
100
AcDbBlockReference
 66
     1
  2
NUM
 10
5620.085755
 20
3499.695028
 30
0.0
  0
ATTRIB
  5
10E49
100
AcDbEntity
  8
WL
 62
     6
100
AcDbText
 10
5429.609565
 20
3399.695028
 30
0.0
 40
200.0
  1
53
 51
15.0
  7
NORM
 72
     4
 11
5620.085755
 21
3499.695028
 31
0.0
100
AcDbAttribute
  2
NUM
 70
     0
  0
SEQEND
  5
10E4A
100
AcDbEntity
  8
WL
 62
     6
  0
LINE
  5
10E4B
100
AcDbEntity
  8
WL
 62
     6
100
AcDbLine
 10
5625.0
 20
4000.0
 30
0.0
 11
5625.0
 21
4250.0
 31
0.0
  0
LINE
  5
10E4C
100
AcDbEntity
  8
WL
 62
     6
100
AcDbLine
 10
5625.0
 20
5000.0
 30
0.0
 11
5625.0
 21
4750.0
 31
0.0
  0
INSERT
  5
10E4D
100
AcDbEntity
  8
WL
 62
     6
100
AcDbBlockReference
 66
     1
  2
NUM
 10
5620.085755
 20
4499.695028
 30
0.0
  0
ATTRIB
  5
10E4E
100
AcDbEntity
  8
WL
 62
     6
100
AcDbText
 10
5429.609565
 20
4399.695028
 30
0.0
 40
200.0
  1
45
 51
15.0
  7
NORM
 72
     4
 11
5620.085755
 21
4499.695028
 31
0.0
100
AcDbAttribute
  2
NUM
 70
     0
  0
SEQEND
  5
10E4F
100
AcDbEntity
  8
WL
 62
     6
  0
LINE
  5
10E50
100
AcDbEntity
  8
WL
 62
     6
100
AcDbLine
 10
5625.0
 20
5000.0
 30
0.0
 11
5625.0
 21
5250.0
 31
0.0
  0
LINE
  5
10E51
100
AcDbEntity
  8
WL
 62
     6
100
AcDbLine
 10
5625.0
 20
6000.0
 30
0.0
 11
5625.0
 21
5750.0
 31
0.0
  0
INSERT
  5
10E52
100
AcDbEntity
  8
WL
 62
     6
100
AcDbBlockReference
 66
     1
  2
NUM
 10
5620.085755
 20
5499.695028
 30
0.0
  0
ATTRIB
  5
10E53
100
AcDbEntity
  8
WL
 62
     6
100
AcDbText
 10
5429.609565
 20
5399.695028
 30
0.0
 40
200.0
  1
37
 51
15.0
  7
NORM
 72
     4
 11
5620.085755
 21
5499.695028
 31
0.0
100
AcDbAttribute
  2
NUM
 70
     0
  0
SEQEND
  5
10E54
100
AcDbEntity
  8
WL
 62
     6
  0
LINE
  5
10E55
100
AcDbEntity
  8
WL
 62
     6
100
AcDbLine
 10
5625.0
 20
6000.0
 30
0.0
 11
5625.0
 21
6250.0
 31
0.0
  0
LINE
  5
10E56
100
AcDbEntity
  8
WL
 62
     6
100
AcDbLine
 10
5625.0
 20
7000.0
 30
0.0
 11
5625.0
 21
6750.0
 31
0.0
  0
INSERT
  5
10E57
100
AcDbEntity
  8
WL
 62
     6
100
AcDbBlockReference
 66
     1
  2
NUM
 10
5620.085755
 20
6499.695028
 30
0.0
  0
ATTRIB
  5
10E58
100
AcDbEntity
  8
WL
 62
     6
100
AcDbText
 10
5434.371469
 20
6399.695028
 30
0.0
 40
200.0
  1
29
 51
15.0
  7
NORM
 72
     4
 11
5620.085755
 21
6499.695028
 31
0.0
100
AcDbAttribute
  2
NUM
 70
     0
  0
SEQEND
  5
10E59
100
AcDbEntity
  8
WL
 62
     6
  0
LINE
  5
10E5A
100
AcDbEntity
  8
WL
 62
     6
100
AcDbLine
 10
5625.0
 20
7000.0
 30
0.0
 11
5625.0
 21
7250.0
 31
0.0
  0
LINE
  5
10E5B
100
AcDbEntity
  8
WL
 62
     6
100
AcDbLine
 10
5625.0
 20
8000.0
 30
0.0
 11
5625.0
 21
7750.0
 31
0.0
  0
INSERT
  5
10E5C
100
AcDbEntity
  8
WL
 62
     6
100
AcDbBlockReference
 66
     1
  2
NUM
 10
5620.085755
 20
7499.695028
 30
0.0
  0
ATTRIB
  5
10E5D
100
AcDbEntity
  8
WL
 62
     6
100
AcDbText
 10
5458.180993
 20
7399.695028
 30
0.0
 40
200.0
  1
21
 51
15.0
  7
NORM
 72
     4
 11
5620.085755
 21
7499.695028
 31
0.0
100
AcDbAttribute
  2
NUM
 70
     0
  0
SEQEND
  5
10E5E
100
AcDbEntity
  8
WL
 62
     6
  0
LINE
  5
10E5F
100
AcDbEntity
  8
WL
 62
     6
100
AcDbLine
 10
6875.0
 20
3000.0
 30
0.0
 11
6875.0
 21
3250.0
 31
0.0
  0
INSERT
  5
10E60
100
AcDbEntity
  8
WL
 62
     6
100
AcDbBlockReference
 66
     1
  2
NUM
 10
6870.085755
 20
2499.695028
 30
0.0
  0
ATTRIB
  5
10E61
100
AcDbEntity
  8
WL
 62
     6
100
AcDbText
 10
6674.84766
 20
2399.695028
 30
0.0
 40
200.0
  1
62
 51
15.0
  7
NORM
 72
     4
 11
6870.085755
 21
2499.695028
 31
0.0
100
AcDbAttribute
  2
NUM
 70
     0
  0
SEQEND
  5
10E62
100
AcDbEntity
  8
WL
 62
     6
  0
INSERT
  5
10E63
100
AcDbEntity
  8
WL
 62
     6
100
AcDbBlockReference
 66
     1
  2
NUM
 10
6870.085755
 20
499.695028
 30
0.0
  0
ATTRIB
  5
10E64
100
AcDbEntity
  8
WL
 62
     6
100
AcDbText
 10
6679.609565
 20
399.695028
 30
0.0
 40
200.0
  1
78
 51
15.0
  7
NORM
 72
     4
 11
6870.085755
 21
499.695028
 31
0.0
100
AcDbAttribute
  2
NUM
 70
     0
  0
SEQEND
  5
10E65
100
AcDbEntity
  8
WL
 62
     6
  0
LINE
  5
10E66
100
AcDbEntity
  8
WL
 62
     6
100
AcDbLine
 10
6250.0
 20
1484.169228
 30
0.0
 11
6450.0
 21
1484.169228
 31
0.0
  0
LINE
  5
10E67
100
AcDbEntity
  8
WL
 62
     6
100
AcDbLine
 10
6250.0
 20
2500.0
 30
0.0
 11
6450.0
 21
2500.0
 31
0.0
  0
LINE
  5
10E68
100
AcDbEntity
  8
WL
 62
     6
100
AcDbLine
 10
6250.0
 20
500.0
 30
0.0
 11
6450.0
 21
500.0
 31
0.0
  0
LINE
  5
10E69
100
AcDbEntity
  8
WL
 62
     6
100
AcDbLine
 10
6250.0
 20
1000.0
 30
0.0
 11
6450.0
 21
1000.0
 31
0.0
  0
LINE
  5
10E6A
100
AcDbEntity
  8
WL
 62
     6
100
AcDbLine
 10
6050.0
 20
500.0
 30
0.0
 11
6250.0
 21
500.0
 31
0.0
  0
LINE
  5
10E6B
100
AcDbEntity
  8
WL
 62
     6
100
AcDbLine
 10
6050.0
 20
1500.0
 30
0.0
 11
6250.0
 21
1500.0
 31
0.0
  0
LINE
  5
10E6C
100
AcDbEntity
  8
WL
 62
     6
100
AcDbLine
 10
6050.0
 20
2500.0
 30
0.0
 11
6250.0
 21
2500.0
 31
0.0
  0
LINE
  5
10E6D
100
AcDbEntity
  8
WL
 62
     6
100
AcDbLine
 10
7300.0
 20
1484.169228
 30
0.0
 11
7500.0
 21
1484.169228
 31
0.0
  0
LINE
  5
10E6E
100
AcDbEntity
  8
WL
 62
     6
100
AcDbLine
 10
6875.0
 20
984.169228
 30
0.0
 11
6875.0
 21
1234.169228
 31
0.0
  0
LINE
  5
10E6F
100
AcDbEntity
  8
WL
 62
     6
100
AcDbLine
 10
6875.0
 20
1984.169228
 30
0.0
 11
6875.0
 21
1734.169228
 31
0.0
  0
INSERT
  5
10E70
100
AcDbEntity
  8
WL
 62
     6
100
AcDbBlockReference
 66
     1
  2
NUM
 10
6870.085755
 20
1483.864257
 30
0.0
  0
ATTRIB
  5
10E71
100
AcDbEntity
  8
WL
 62
     6
100
AcDbText
 10
6679.609565
 20
1383.864257
 30
0.0
 40
200.0
  1
70
 51
15.0
  7
NORM
 72
     4
 11
6870.085755
 21
1483.864257
 31
0.0
100
AcDbAttribute
  2
NUM
 70
     0
  0
SEQEND
  5
10E72
100
AcDbEntity
  8
WL
 62
     6
  0
LINE
  5
10E73
100
AcDbEntity
  8
WL
 62
     6
100
AcDbLine
 10
6875.0
 20
2000.0
 30
0.0
 11
6875.0
 21
2250.0
 31
0.0
  0
LINE
  5
10E74
100
AcDbEntity
  8
WL
 62
     6
100
AcDbLine
 10
7300.0
 20
2500.0
 30
0.0
 11
7500.0
 21
2500.0
 31
0.0
  0
LINE
  5
10E75
100
AcDbEntity
  8
WL
 62
     6
100
AcDbLine
 10
6875.0
 20
3000.0
 30
0.0
 11
6875.0
 21
2750.0
 31
0.0
  0
LINE
  5
10E76
100
AcDbEntity
  8
WL
 62
     6
100
AcDbLine
 10
6875.0
 20
0.0
 30
0.0
 11
6875.0
 21
250.0
 31
0.0
  0
LINE
  5
10E77
100
AcDbEntity
  8
WL
 62
     6
100
AcDbLine
 10
7300.0
 20
500.0
 30
0.0
 11
7500.0
 21
500.0
 31
0.0
  0
LINE
  5
10E78
100
AcDbEntity
  8
WL
 62
     6
100
AcDbLine
 10
6875.0
 20
1000.0
 30
0.0
 11
6875.0
 21
750.0
 31
0.0
  0
LINE
  5
10E79
100
AcDbEntity
  8
WL
 62
     6
100
AcDbLine
 10
7300.0
 20
1000.0
 30
0.0
 11
7500.0
 21
1000.0
 31
0.0
  0
INSERT
  5
10E7A
100
AcDbEntity
  8
WL
 62
     6
100
AcDbBlockReference
 66
     1
  2
NUM
 10
6870.085755
 20
7499.695028
 30
0.0
  0
ATTRIB
  5
10E7B
100
AcDbEntity
  8
WL
 62
     6
100
AcDbText
 10
6679.609565
 20
7399.695028
 30
0.0
 40
200.0
  1
22
 51
15.0
  7
NORM
 72
     4
 11
6870.085755
 21
7499.695028
 31
0.0
100
AcDbAttribute
  2
NUM
 70
     0
  0
SEQEND
  5
10E7C
100
AcDbEntity
  8
WL
 62
     6
  0
INSERT
  5
10E7D
100
AcDbEntity
  8
WL
 62
     6
100
AcDbBlockReference
 66
     1
  2
NUM
 10
6870.085755
 20
6499.695028
 30
0.0
  0
ATTRIB
  5
10E7E
100
AcDbEntity
  8
WL
 62
     6
100
AcDbText
 10
6679.609565
 20
6399.695028
 30
0.0
 40
200.0
  1
30
 51
15.0
  7
NORM
 72
     4
 11
6870.085755
 21
6499.695028
 31
0.0
100
AcDbAttribute
  2
NUM
 70
     0
  0
SEQEND
  5
10E7F
100
AcDbEntity
  8
WL
 62
     6
  0
INSERT
  5
10E80
100
AcDbEntity
  8
WL
 62
     6
100
AcDbBlockReference
 66
     1
  2
NUM
 10
6870.085755
 20
5499.695028
 30
0.0
  0
ATTRIB
  5
10E81
100
AcDbEntity
  8
WL
 62
     6
100
AcDbText
 10
6679.609565
 20
5399.695028
 30
0.0
 40
200.0
  1
38
 51
15.0
  7
NORM
 72
     4
 11
6870.085755
 21
5499.695028
 31
0.0
100
AcDbAttribute
  2
NUM
 70
     0
  0
SEQEND
  5
10E82
100
AcDbEntity
  8
WL
 62
     6
  0
INSERT
  5
10E83
100
AcDbEntity
  8
WL
 62
     6
100
AcDbBlockReference
 66
     1
  2
NUM
 10
6870.085755
 20
4499.695028
 30
0.0
  0
ATTRIB
  5
10E84
100
AcDbEntity
  8
WL
 62
     6
100
AcDbText
 10
6679.609565
 20
4399.695028
 30
0.0
 40
200.0
  1
46
 51
15.0
  7
NORM
 72
     4
 11
6870.085755
 21
4499.695028
 31
0.0
100
AcDbAttribute
  2
NUM
 70
     0
  0
SEQEND
  5
10E85
100
AcDbEntity
  8
WL
 62
     6
  0
INSERT
  5
10E86
100
AcDbEntity
  8
WL
 62
     6
100
AcDbBlockReference
 66
     1
  2
NUM
 10
6870.085755
 20
3499.695028
 30
0.0
  0
ATTRIB
  5
10E87
100
AcDbEntity
  8
WL
 62
     6
100
AcDbText
 10
6674.84766
 20
3399.695028
 30
0.0
 40
200.0
  1
54
 51
15.0
  7
NORM
 72
     4
 11
6870.085755
 21
3499.695028
 31
0.0
100
AcDbAttribute
  2
NUM
 70
     0
  0
SEQEND
  5
10E88
100
AcDbEntity
  8
WL
 62
     6
  0
LINE
  5
10E89
100
AcDbEntity
  8
WL
 62
     6
100
AcDbLine
 10
6250.0
 20
7500.0
 30
0.0
 11
6450.0
 21
7500.0
 31
0.0
  0
LINE
  5
10E8A
100
AcDbEntity
  8
WL
 62
     6
100
AcDbLine
 10
6250.0
 20
6500.0
 30
0.0
 11
6450.0
 21
6500.0
 31
0.0
  0
LINE
  5
10E8B
100
AcDbEntity
  8
WL
 62
     6
100
AcDbLine
 10
6250.0
 20
5500.0
 30
0.0
 11
6450.0
 21
5500.0
 31
0.0
  0
LINE
  5
10E8C
100
AcDbEntity
  8
WL
 62
     6
100
AcDbLine
 10
6250.0
 20
4500.0
 30
0.0
 11
6450.0
 21
4500.0
 31
0.0
  0
LINE
  5
10E8D
100
AcDbEntity
  8
WL
 62
     6
100
AcDbLine
 10
6250.0
 20
3500.0
 30
0.0
 11
6450.0
 21
3500.0
 31
0.0
  0
LINE
  5
10E8E
100
AcDbEntity
  8
WL
 62
     6
100
AcDbLine
 10
6050.0
 20
3500.0
 30
0.0
 11
6250.0
 21
3500.0
 31
0.0
  0
LINE
  5
10E8F
100
AcDbEntity
  8
WL
 62
     6
100
AcDbLine
 10
6050.0
 20
4500.0
 30
0.0
 11
6250.0
 21
4500.0
 31
0.0
  0
LINE
  5
10E90
100
AcDbEntity
  8
WL
 62
     6
100
AcDbLine
 10
6050.0
 20
5500.0
 30
0.0
 11
6250.0
 21
5500.0
 31
0.0
  0
LINE
  5
10E91
100
AcDbEntity
  8
WL
 62
     6
100
AcDbLine
 10
6050.0
 20
6500.0
 30
0.0
 11
6250.0
 21
6500.0
 31
0.0
  0
LINE
  5
10E92
100
AcDbEntity
  8
WL
 62
     6
100
AcDbLine
 10
6050.0
 20
7500.0
 30
0.0
 11
6250.0
 21
7500.0
 31
0.0
  0
LINE
  5
10E93
100
AcDbEntity
  8
WL
 62
     6
100
AcDbLine
 10
6875.0
 20
7000.0
 30
0.0
 11
6875.0
 21
7250.0
 31
0.0
  0
LINE
  5
10E94
100
AcDbEntity
  8
WL
 62
     6
100
AcDbLine
 10
7300.0
 20
7500.0
 30
0.0
 11
7500.0
 21
7500.0
 31
0.0
  0
LINE
  5
10E95
100
AcDbEntity
  8
WL
 62
     6
100
AcDbLine
 10
6875.0
 20
8000.0
 30
0.0
 11
6875.0
 21
7750.0
 31
0.0
  0
LINE
  5
10E96
100
AcDbEntity
  8
WL
 62
     6
100
AcDbLine
 10
6875.0
 20
6000.0
 30
0.0
 11
6875.0
 21
6250.0
 31
0.0
  0
LINE
  5
10E97
100
AcDbEntity
  8
WL
 62
     6
100
AcDbLine
 10
7300.0
 20
6500.0
 30
0.0
 11
7500.0
 21
6500.0
 31
0.0
  0
LINE
  5
10E98
100
AcDbEntity
  8
WL
 62
     6
100
AcDbLine
 10
6875.0
 20
7000.0
 30
0.0
 11
6875.0
 21
6750.0
 31
0.0
  0
LINE
  5
10E99
100
AcDbEntity
  8
WL
 62
     6
100
AcDbLine
 10
6875.0
 20
5000.0
 30
0.0
 11
6875.0
 21
5250.0
 31
0.0
  0
LINE
  5
10E9A
100
AcDbEntity
  8
WL
 62
     6
100
AcDbLine
 10
7300.0
 20
5500.0
 30
0.0
 11
7500.0
 21
5500.0
 31
0.0
  0
LINE
  5
10E9B
100
AcDbEntity
  8
WL
 62
     6
100
AcDbLine
 10
6875.0
 20
6000.0
 30
0.0
 11
6875.0
 21
5750.0
 31
0.0
  0
LINE
  5
10E9C
100
AcDbEntity
  8
WL
 62
     6
100
AcDbLine
 10
6875.0
 20
4000.0
 30
0.0
 11
6875.0
 21
4250.0
 31
0.0
  0
LINE
  5
10E9D
100
AcDbEntity
  8
WL
 62
     6
100
AcDbLine
 10
7300.0
 20
4500.0
 30
0.0
 11
7500.0
 21
4500.0
 31
0.0
  0
LINE
  5
10E9E
100
AcDbEntity
  8
WL
 62
     6
100
AcDbLine
 10
6875.0
 20
5000.0
 30
0.0
 11
6875.0
 21
4750.0
 31
0.0
  0
LINE
  5
10E9F
100
AcDbEntity
  8
WL
 62
     6
100
AcDbLine
 10
7300.0
 20
3500.0
 30
0.0
 11
7500.0
 21
3500.0
 31
0.0
  0
LINE
  5
10EA0
100
AcDbEntity
  8
WL
 62
     6
100
AcDbLine
 10
6875.0
 20
4000.0
 30
0.0
 11
6875.0
 21
3750.0
 31
0.0
  0
LINE
  5
10EA1
100
AcDbEntity
  8
WL
 62
     6
100
AcDbLine
 10
1250.0
 20
9500.0
 30
0.0
 11
1450.0
 21
9500.0
 31
0.0
  0
LINE
  5
10EA2
100
AcDbEntity
  8
WL
 62
     6
100
AcDbLine
 10
1250.0
 20
8500.0
 30
0.0
 11
1450.0
 21
8500.0
 31
0.0
  0
LINE
  5
10EA3
100
AcDbEntity
  8
WL
 62
     6
100
AcDbLine
 10
0.0
 20
9500.0
 30
0.0
 11
200.0
 21
9500.0
 31
0.0
  0
LINE
  5
10EA4
100
AcDbEntity
  8
WL
 62
     6
100
AcDbLine
 10
0.0
 20
8500.0
 30
0.0
 11
200.0
 21
8500.0
 31
0.0
  0
LINE
  5
10EA5
100
AcDbEntity
  8
WL
 62
     6
100
AcDbLine
 10
625.0
 20
9000.0
 30
0.0
 11
625.0
 21
9250.0
 31
0.0
  0
LINE
  5
10EA6
100
AcDbEntity
  8
WL
 62
     6
100
AcDbLine
 10
1050.0
 20
9500.0
 30
0.0
 11
1250.0
 21
9500.0
 31
0.0
  0
LINE
  5
10EA7
100
AcDbEntity
  8
WL
 62
     6
100
AcDbLine
 10
625.0
 20
10000.0
 30
0.0
 11
625.0
 21
9750.0
 31
0.0
  0
INSERT
  5
10EA8
100
AcDbEntity
  8
WL
 62
     6
100
AcDbBlockReference
 66
     1
  2
NUM
 10
620.085755
 20
9499.695028
 30
0.0
  0
ATTRIB
  5
10EA9
100
AcDbEntity
  8
WL
 62
     6
100
AcDbText
 10
539.133374
 20
9399.695028
 30
0.0
 40
200.0
  1
1
 51
15.0
  7
NORM
 72
     4
 11
620.085755
 21
9499.695028
 31
0.0
100
AcDbAttribute
  2
NUM
 70
     0
  0
SEQEND
  5
10EAA
100
AcDbEntity
  8
WL
 62
     6
  0
LINE
  5
10EAB
100
AcDbEntity
  8
WL
 62
     6
100
AcDbLine
 10
1050.0
 20
8500.0
 30
0.0
 11
1250.0
 21
8500.0
 31
0.0
  0
LINE
  5
10EAC
100
AcDbEntity
  8
WL
 62
     6
100
AcDbLine
 10
625.0
 20
9000.0
 30
0.0
 11
625.0
 21
8750.0
 31
0.0
  0
INSERT
  5
10EAD
100
AcDbEntity
  8
WL
 62
     6
100
AcDbBlockReference
 66
     1
  2
NUM
 10
620.085755
 20
8499.695028
 30
0.0
  0
ATTRIB
  5
10EAE
100
AcDbEntity
  8
WL
 62
     6
100
AcDbText
 10
529.609565
 20
8399.695028
 30
0.0
 40
200.0
  1
9
 51
15.0
  7
NORM
 72
     4
 11
620.085755
 21
8499.695028
 31
0.0
100
AcDbAttribute
  2
NUM
 70
     0
  0
SEQEND
  5
10EAF
100
AcDbEntity
  8
WL
 62
     6
  0
LINE
  5
10EB0
100
AcDbEntity
  8
WL
 62
     6
100
AcDbLine
 10
1250.0
 20
9000.0
 30
0.0
 11
1250.0
 21
8750.0
 31
0.0
  0
INSERT
  5
10EB1
100
AcDbEntity
  8
WL
 62
     6
100
AcDbBlockReference
 66
     1
  2
NUM
 10
4370.085755
 20
9499.695028
 30
0.0
  0
ATTRIB
  5
10EB2
100
AcDbEntity
  8
WL
 62
     6
100
AcDbText
 10
4270.085755
 20
9399.695028
 30
0.0
 40
200.0
  1
4
 51
15.0
  7
NORM
 72
     4
 11
4370.085755
 21
9499.695028
 31
0.0
100
AcDbAttribute
  2
NUM
 70
     0
  0
SEQEND
  5
10EB3
100
AcDbEntity
  8
WL
 62
     6
  0
INSERT
  5
10EB4
100
AcDbEntity
  8
WL
 62
     6
100
AcDbBlockReference
 66
     1
  2
NUM
 10
4370.085755
 20
8499.695028
 30
0.0
  0
ATTRIB
  5
10EB5
100
AcDbEntity
  8
WL
 62
     6
100
AcDbText
 10
4165.32385
 20
8399.695028
 30
0.0
 40
200.0
  1
12
 51
15.0
  7
NORM
 72
     4
 11
4370.085755
 21
8499.695028
 31
0.0
100
AcDbAttribute
  2
NUM
 70
     0
  0
SEQEND
  5
10EB6
100
AcDbEntity
  8
WL
 62
     6
  0
LINE
  5
10EB7
100
AcDbEntity
  8
WL
 62
     6
100
AcDbLine
 10
1875.0
 20
9000.0
 30
0.0
 11
1875.0
 21
9250.0
 31
0.0
  0
LINE
  5
10EB8
100
AcDbEntity
  8
WL
 62
     6
100
AcDbLine
 10
1875.0
 20
10000.0
 30
0.0
 11
1875.0
 21
9750.0
 31
0.0
  0
INSERT
  5
10EB9
100
AcDbEntity
  8
WL
 62
     6
100
AcDbBlockReference
 66
     1
  2
NUM
 10
1870.085755
 20
9499.695028
 30
0.0
  0
ATTRIB
  5
10EBA
100
AcDbEntity
  8
WL
 62
     6
100
AcDbText
 10
1774.84766
 20
9399.695028
 30
0.0
 40
200.0
  1
2
 51
15.0
  7
NORM
 72
     4
 11
1870.085755
 21
9499.695028
 31
0.0
100
AcDbAttribute
  2
NUM
 70
     0
  0
SEQEND
  5
10EBB
100
AcDbEntity
  8
WL
 62
     6
  0
LINE
  5
10EBC
100
AcDbEntity
  8
WL
 62
     6
100
AcDbLine
 10
1875.0
 20
9000.0
 30
0.0
 11
1875.0
 21
8750.0
 31
0.0
  0
INSERT
  5
10EBD
100
AcDbEntity
  8
WL
 62
     6
100
AcDbBlockReference
 66
     1
  2
NUM
 10
1870.085755
 20
8499.695028
 30
0.0
  0
ATTRIB
  5
10EBE
100
AcDbEntity
  8
WL
 62
     6
100
AcDbText
 10
1665.32385
 20
8399.695028
 30
0.0
 40
200.0
  1
10
 51
15.0
  7
NORM
 72
     4
 11
1870.085755
 21
8499.695028
 31
0.0
100
AcDbAttribute
  2
NUM
 70
     0
  0
SEQEND
  5
10EBF
100
AcDbEntity
  8
WL
 62
     6
  0
LINE
  5
10EC0
100
AcDbEntity
  8
WL
 62
     6
100
AcDbLine
 10
2500.0
 20
9500.0
 30
0.0
 11
2700.0
 21
9500.0
 31
0.0
  0
LINE
  5
10EC1
100
AcDbEntity
  8
WL
 62
     6
100
AcDbLine
 10
2300.0
 20
9500.0
 30
0.0
 11
2500.0
 21
9500.0
 31
0.0
  0
LINE
  5
10EC2
100
AcDbEntity
  8
WL
 62
     6
100
AcDbLine
 10
2300.0
 20
8500.0
 30
0.0
 11
2500.0
 21
8500.0
 31
0.0
  0
LINE
  5
10EC3
100
AcDbEntity
  8
WL
 62
     6
100
AcDbLine
 10
2500.0
 20
8500.0
 30
0.0
 11
2700.0
 21
8500.0
 31
0.0
  0
LINE
  5
10EC4
100
AcDbEntity
  8
WL
 62
     6
100
AcDbLine
 10
3550.0
 20
9500.0
 30
0.0
 11
3750.0
 21
9500.0
 31
0.0
  0
LINE
  5
10EC5
100
AcDbEntity
  8
WL
 62
     6
100
AcDbLine
 10
3550.0
 20
8500.0
 30
0.0
 11
3750.0
 21
8500.0
 31
0.0
  0
LINE
  5
10EC6
100
AcDbEntity
  8
WL
 62
     6
100
AcDbLine
 10
3125.0
 20
9000.0
 30
0.0
 11
3125.0
 21
9250.0
 31
0.0
  0
LINE
  5
10EC7
100
AcDbEntity
  8
WL
 62
     6
100
AcDbLine
 10
3125.0
 20
10000.0
 30
0.0
 11
3125.0
 21
9750.0
 31
0.0
  0
INSERT
  5
10EC8
100
AcDbEntity
  8
WL
 62
     6
100
AcDbBlockReference
 66
     1
  2
NUM
 10
3120.085755
 20
9499.695028
 30
0.0
  0
ATTRIB
  5
10EC9
100
AcDbEntity
  8
WL
 62
     6
100
AcDbText
 10
3024.84766
 20
9399.695028
 30
0.0
 40
200.0
  1
3
 51
15.0
  7
NORM
 72
     4
 11
3120.085755
 21
9499.695028
 31
0.0
100
AcDbAttribute
  2
NUM
 70
     0
  0
SEQEND
  5
10ECA
100
AcDbEntity
  8
WL
 62
     6
  0
LINE
  5
10ECB
100
AcDbEntity
  8
WL
 62
     6
100
AcDbLine
 10
3125.0
 20
9000.0
 30
0.0
 11
3125.0
 21
8750.0
 31
0.0
  0
INSERT
  5
10ECC
100
AcDbEntity
  8
WL
 62
     6
100
AcDbBlockReference
 66
     1
  2
NUM
 10
3120.085755
 20
8499.695028
 30
0.0
  0
ATTRIB
  5
10ECD
100
AcDbEntity
  8
WL
 62
     6
100
AcDbText
 10
2943.895279
 20
8399.695028
 30
0.0
 40
200.0
  1
11
 51
15.0
  7
NORM
 72
     4
 11
3120.085755
 21
8499.695028
 31
0.0
100
AcDbAttribute
  2
NUM
 70
     0
  0
SEQEND
  5
10ECE
100
AcDbEntity
  8
WL
 62
     6
  0
LINE
  5
10ECF
100
AcDbEntity
  8
WL
 62
     6
100
AcDbLine
 10
4375.0
 20
9000.0
 30
0.0
 11
4375.0
 21
9250.0
 31
0.0
  0
LINE
  5
10ED0
100
AcDbEntity
  8
WL
 62
     6
100
AcDbLine
 10
4375.0
 20
10000.0
 30
0.0
 11
4375.0
 21
9750.0
 31
0.0
  0
LINE
  5
10ED1
100
AcDbEntity
  8
WL
 62
     6
100
AcDbLine
 10
3750.0
 20
9500.0
 30
0.0
 11
3950.0
 21
9500.0
 31
0.0
  0
LINE
  5
10ED2
100
AcDbEntity
  8
WL
 62
     6
100
AcDbLine
 10
3750.0
 20
8500.0
 30
0.0
 11
3950.0
 21
8500.0
 31
0.0
  0
LINE
  5
10ED3
100
AcDbEntity
  8
WL
 62
     6
100
AcDbLine
 10
4375.0
 20
9000.0
 30
0.0
 11
4375.0
 21
8750.0
 31
0.0
  0
LINE
  5
10ED4
100
AcDbEntity
  8
WL
 62
     6
100
AcDbLine
 10
5000.0
 20
9500.0
 30
0.0
 11
5200.0
 21
9500.0
 31
0.0
  0
LINE
  5
10ED5
100
AcDbEntity
  8
WL
 62
     6
100
AcDbLine
 10
5000.0
 20
8500.0
 30
0.0
 11
5200.0
 21
8500.0
 31
0.0
  0
LINE
  5
10ED6
100
AcDbEntity
  8
WL
 62
     6
100
AcDbLine
 10
4800.0
 20
9500.0
 30
0.0
 11
5000.0
 21
9500.0
 31
0.0
  0
LINE
  5
10ED7
100
AcDbEntity
  8
WL
 62
     6
100
AcDbLine
 10
4800.0
 20
8500.0
 30
0.0
 11
5000.0
 21
8500.0
 31
0.0
  0
LINE
  5
10ED8
100
AcDbEntity
  8
WL
 62
     6
100
AcDbLine
 10
5625.0
 20
9000.0
 30
0.0
 11
5625.0
 21
9250.0
 31
0.0
  0
LINE
  5
10ED9
100
AcDbEntity
  8
WL
 62
     6
100
AcDbLine
 10
5625.0
 20
10000.0
 30
0.0
 11
5625.0
 21
9750.0
 31
0.0
  0
INSERT
  5
10EDA
100
AcDbEntity
  8
WL
 62
     6
100
AcDbBlockReference
 66
     1
  2
NUM
 10
5620.085755
 20
9499.695028
 30
0.0
  0
ATTRIB
  5
10EDB
100
AcDbEntity
  8
WL
 62
     6
100
AcDbText
 10
5524.84766
 20
9399.695028
 30
0.0
 40
200.0
  1
5
 51
15.0
  7
NORM
 72
     4
 11
5620.085755
 21
9499.695028
 31
0.0
100
AcDbAttribute
  2
NUM
 70
     0
  0
SEQEND
  5
10EDC
100
AcDbEntity
  8
WL
 62
     6
  0
LINE
  5
10EDD
100
AcDbEntity
  8
WL
 62
     6
100
AcDbLine
 10
5625.0
 20
9000.0
 30
0.0
 11
5625.0
 21
8750.0
 31
0.0
  0
INSERT
  5
10EDE
100
AcDbEntity
  8
WL
 62
     6
100
AcDbBlockReference
 66
     1
  2
NUM
 10
5620.085755
 20
8499.695028
 30
0.0
  0
ATTRIB
  5
10EDF
100
AcDbEntity
  8
WL
 62
     6
100
AcDbText
 10
5415.32385
 20
8399.695028
 30
0.0
 40
200.0
  1
13
 51
15.0
  7
NORM
 72
     4
 11
5620.085755
 21
8499.695028
 31
0.0
100
AcDbAttribute
  2
NUM
 70
     0
  0
SEQEND
  5
10EE0
100
AcDbEntity
  8
WL
 62
     6
  0
INSERT
  5
10EE1
100
AcDbEntity
  8
WL
 62
     6
100
AcDbBlockReference
 66
     1
  2
NUM
 10
6870.085755
 20
8499.695028
 30
0.0
  0
ATTRIB
  5
10EE2
100
AcDbEntity
  8
WL
 62
     6
100
AcDbText
 10
6660.561945
 20
8399.695028
 30
0.0
 40
200.0
  1
14
 51
15.0
  7
NORM
 72
     4
 11
6870.085755
 21
8499.695028
 31
0.0
100
AcDbAttribute
  2
NUM
 70
     0
  0
SEQEND
  5
10EE3
100
AcDbEntity
  8
WL
 62
     6
  0
LINE
  5
10EE4
100
AcDbEntity
  8
WL
 62
     6
100
AcDbLine
 10
6250.0
 20
9500.0
 30
0.0
 11
6450.0
 21
9500.0
 31
0.0
  0
LINE
  5
10EE5
100
AcDbEntity
  8
WL
 62
     6
100
AcDbLine
 10
6050.0
 20
9500.0
 30
0.0
 11
6250.0
 21
9500.0
 31
0.0
  0
LINE
  5
10EE6
100
AcDbEntity
  8
WL
 62
     6
100
AcDbLine
 10
6050.0
 20
8500.0
 30
0.0
 11
6250.0
 21
8500.0
 31
0.0
  0
LINE
  5
10EE7
100
AcDbEntity
  8
WL
 62
     6
100
AcDbLine
 10
6250.0
 20
8500.0
 30
0.0
 11
6450.0
 21
8500.0
 31
0.0
  0
LINE
  5
10EE8
100
AcDbEntity
  8
WL
 62
     6
100
AcDbLine
 10
6875.0
 20
9000.0
 30
0.0
 11
6875.0
 21
9250.0
 31
0.0
  0
LINE
  5
10EE9
100
AcDbEntity
  8
WL
 62
     6
100
AcDbLine
 10
7300.0
 20
9500.0
 30
0.0
 11
7500.0
 21
9500.0
 31
0.0
  0
LINE
  5
10EEA
100
AcDbEntity
  8
WL
 62
     6
100
AcDbLine
 10
6875.0
 20
10000.0
 30
0.0
 11
6875.0
 21
9750.0
 31
0.0
  0
INSERT
  5
10EEB
100
AcDbEntity
  8
WL
 62
     6
100
AcDbBlockReference
 66
     1
  2
NUM
 10
6870.085755
 20
9499.695028
 30
0.0
  0
ATTRIB
  5
10EEC
100
AcDbEntity
  8
WL
 62
     6
100
AcDbText
 10
6770.085755
 20
9399.695028
 30
0.0
 40
200.0
  1
6
 51
15.0
  7
NORM
 72
     4
 11
6870.085755
 21
9499.695028
 31
0.0
100
AcDbAttribute
  2
NUM
 70
     0
  0
SEQEND
  5
10EED
100
AcDbEntity
  8
WL
 62
     6
  0
LINE
  5
10EEE
100
AcDbEntity
  8
WL
 62
     6
100
AcDbLine
 10
7300.0
 20
8500.0
 30
0.0
 11
7500.0
 21
8500.0
 31
0.0
  0
LINE
  5
10EEF
100
AcDbEntity
  8
WL
 62
     6
100
AcDbLine
 10
6875.0
 20
9000.0
 30
0.0
 11
6875.0
 21
8750.0
 31
0.0
  0
LWPOLYLINE
  5
10EF0
100
AcDbEntity
  8
WL
 62
     6
100
AcDbPolyline
 90
        2
 70
     0
 43
8.0
 10
8750.0
 20
1000.0
 10
8750.0
 20
10000.0
  0
LINE
  5
10EF1
100
AcDbEntity
  8
WL
 62
     6
100
AcDbLine
 10
8125.0
 20
8000.0
 30
0.0
 11
8125.0
 21
8250.0
 31
0.0
  0
LINE
  5
10EF2
100
AcDbEntity
  8
WL
 62
     6
100
AcDbLine
 10
9375.0
 20
8000.0
 30
0.0
 11
9375.0
 21
8250.0
 31
0.0
  0
LINE
  5
10EF3
100
AcDbEntity
  8
WL
 62
     6
100
AcDbLine
 10
8125.0
 20
3000.0
 30
0.0
 11
8125.0
 21
3250.0
 31
0.0
  0
INSERT
  5
10EF4
100
AcDbEntity
  8
WL
 62
     6
100
AcDbBlockReference
 66
     1
  2
NUM
 10
8120.085755
 20
499.695028
 30
0.0
  0
ATTRIB
  5
10EF5
100
AcDbEntity
  8
WL
 62
     6
100
AcDbText
 10
7934.371469
 20
399.695028
 30
0.0
 40
200.0
  1
79
 51
15.0
  7
NORM
 72
     4
 11
8120.085755
 21
499.695028
 31
0.0
100
AcDbAttribute
  2
NUM
 70
     0
  0
SEQEND
  5
10EF6
100
AcDbEntity
  8
WL
 62
     6
  0
INSERT
  5
10EF7
100
AcDbEntity
  8
WL
 62
     6
100
AcDbBlockReference
 66
     1
  2
NUM
 10
8120.085755
 20
2499.695028
 30
0.0
  0
ATTRIB
  5
10EF8
100
AcDbEntity
  8
WL
 62
     6
100
AcDbText
 10
7924.84766
 20
2399.695028
 30
0.0
 40
200.0
  1
63
 51
15.0
  7
NORM
 72
     4
 11
8120.085755
 21
2499.695028
 31
0.0
100
AcDbAttribute
  2
NUM
 70
     0
  0
SEQEND
  5
10EF9
100
AcDbEntity
  8
WL
 62
     6
  0
LINE
  5
10EFA
100
AcDbEntity
  8
WL
 62
     6
100
AcDbLine
 10
8125.0
 20
0.0
 30
0.0
 11
8125.0
 21
250.0
 31
0.0
  0
LINE
  5
10EFB
100
AcDbEntity
  8
WL
 62
     6
100
AcDbLine
 10
8125.0
 20
1000.0
 30
0.0
 11
8125.0
 21
750.0
 31
0.0
  0
LINE
  5
10EFC
100
AcDbEntity
  8
WL
 62
     6
100
AcDbLine
 10
8125.0
 20
1000.0
 30
0.0
 11
8125.0
 21
1250.0
 31
0.0
  0
LINE
  5
10EFD
100
AcDbEntity
  8
WL
 62
     6
100
AcDbLine
 10
8125.0
 20
2000.0
 30
0.0
 11
8125.0
 21
1750.0
 31
0.0
  0
INSERT
  5
10EFE
100
AcDbEntity
  8
WL
 62
     6
100
AcDbBlockReference
 66
     1
  2
NUM
 10
8120.085755
 20
1499.695028
 30
0.0
  0
ATTRIB
  5
10EFF
100
AcDbEntity
  8
WL
 62
     6
100
AcDbText
 10
7958.180993
 20
1399.695028
 30
0.0
 40
200.0
  1
71
 51
15.0
  7
NORM
 72
     4
 11
8120.085755
 21
1499.695028
 31
0.0
100
AcDbAttribute
  2
NUM
 70
     0
  0
SEQEND
  5
10F00
100
AcDbEntity
  8
WL
 62
     6
  0
LINE
  5
10F01
100
AcDbEntity
  8
WL
 62
     6
100
AcDbLine
 10
8125.0
 20
2000.0
 30
0.0
 11
8125.0
 21
2250.0
 31
0.0
  0
LINE
  5
10F02
100
AcDbEntity
  8
WL
 62
     6
100
AcDbLine
 10
8125.0
 20
3000.0
 30
0.0
 11
8125.0
 21
2750.0
 31
0.0
  0
LINE
  5
10F03
100
AcDbEntity
  8
WL
 62
     6
100
AcDbLine
 10
8750.0
 20
2500.0
 30
0.0
 11
8950.0
 21
2500.0
 31
0.0
  0
LINE
  5
10F04
100
AcDbEntity
  8
WL
 62
     6
100
AcDbLine
 10
8750.0
 20
1500.0
 30
0.0
 11
8950.0
 21
1500.0
 31
0.0
  0
LINE
  5
10F05
100
AcDbEntity
  8
WL
 62
     6
100
AcDbLine
 10
8750.0
 20
500.0
 30
0.0
 11
8950.0
 21
500.0
 31
0.0
  0
LINE
  5
10F06
100
AcDbEntity
  8
WL
 62
     6
100
AcDbLine
 10
8550.0
 20
500.0
 30
0.0
 11
8750.0
 21
500.0
 31
0.0
  0
LINE
  5
10F07
100
AcDbEntity
  8
WL
 62
     6
100
AcDbLine
 10
8550.0
 20
1500.0
 30
0.0
 11
8750.0
 21
1500.0
 31
0.0
  0
LINE
  5
10F08
100
AcDbEntity
  8
WL
 62
     6
100
AcDbLine
 10
8550.0
 20
2500.0
 30
0.0
 11
8750.0
 21
2500.0
 31
0.0
  0
INSERT
  5
10F09
100
AcDbEntity
  8
WL
 62
     6
100
AcDbBlockReference
 66
     1
  2
NUM
 10
8120.085755
 20
7499.695028
 30
0.0
  0
ATTRIB
  5
10F0A
100
AcDbEntity
  8
WL
 62
     6
100
AcDbText
 10
7929.609565
 20
7399.695028
 30
0.0
 40
200.0
  1
23
 51
15.0
  7
NORM
 72
     4
 11
8120.085755
 21
7499.695028
 31
0.0
100
AcDbAttribute
  2
NUM
 70
     0
  0
SEQEND
  5
10F0B
100
AcDbEntity
  8
WL
 62
     6
  0
INSERT
  5
10F0C
100
AcDbEntity
  8
WL
 62
     6
100
AcDbBlockReference
 66
     1
  2
NUM
 10
8120.085755
 20
4499.695028
 30
0.0
  0
ATTRIB
  5
10F0D
100
AcDbEntity
  8
WL
 62
     6
100
AcDbText
 10
7929.609565
 20
4399.695028
 30
0.0
 40
200.0
  1
47
 51
15.0
  7
NORM
 72
     4
 11
8120.085755
 21
4499.695028
 31
0.0
100
AcDbAttribute
  2
NUM
 70
     0
  0
SEQEND
  5
10F0E
100
AcDbEntity
  8
WL
 62
     6
  0
INSERT
  5
10F0F
100
AcDbEntity
  8
WL
 62
     6
100
AcDbBlockReference
 66
     1
  2
NUM
 10
8120.085755
 20
5499.695028
 30
0.0
  0
ATTRIB
  5
10F10
100
AcDbEntity
  8
WL
 62
     6
100
AcDbText
 10
7934.371469
 20
5399.695028
 30
0.0
 40
200.0
  1
39
 51
15.0
  7
NORM
 72
     4
 11
8120.085755
 21
5499.695028
 31
0.0
100
AcDbAttribute
  2
NUM
 70
     0
  0
SEQEND
  5
10F11
100
AcDbEntity
  8
WL
 62
     6
  0
INSERT
  5
10F12
100
AcDbEntity
  8
WL
 62
     6
100
AcDbBlockReference
 66
     1
  2
NUM
 10
8120.085755
 20
3499.695028
 30
0.0
  0
ATTRIB
  5
10F13
100
AcDbEntity
  8
WL
 62
     6
100
AcDbText
 10
7929.609565
 20
3399.695028
 30
0.0
 40
200.0
  1
55
 51
15.0
  7
NORM
 72
     4
 11
8120.085755
 21
3499.695028
 31
0.0
100
AcDbAttribute
  2
NUM
 70
     0
  0
SEQEND
  5
10F14
100
AcDbEntity
  8
WL
 62
     6
  0
LINE
  5
10F15
100
AcDbEntity
  8
WL
 62
     6
100
AcDbLine
 10
8125.0
 20
7000.0
 30
0.0
 11
8125.0
 21
7250.0
 31
0.0
  0
LINE
  5
10F16
100
AcDbEntity
  8
WL
 62
     6
100
AcDbLine
 10
8125.0
 20
8000.0
 30
0.0
 11
8125.0
 21
7750.0
 31
0.0
  0
LINE
  5
10F17
100
AcDbEntity
  8
WL
 62
     6
100
AcDbLine
 10
8125.0
 20
4000.0
 30
0.0
 11
8125.0
 21
4250.0
 31
0.0
  0
LINE
  5
10F18
100
AcDbEntity
  8
WL
 62
     6
100
AcDbLine
 10
8125.0
 20
5000.0
 30
0.0
 11
8125.0
 21
4750.0
 31
0.0
  0
LINE
  5
10F19
100
AcDbEntity
  8
WL
 62
     6
100
AcDbLine
 10
8125.0
 20
6000.0
 30
0.0
 11
8125.0
 21
6250.0
 31
0.0
  0
LINE
  5
10F1A
100
AcDbEntity
  8
WL
 62
     6
100
AcDbLine
 10
8125.0
 20
7000.0
 30
0.0
 11
8125.0
 21
6750.0
 31
0.0
  0
INSERT
  5
10F1B
100
AcDbEntity
  8
WL
 62
     6
100
AcDbBlockReference
 66
     1
  2
NUM
 10
8120.085755
 20
6499.695028
 30
0.0
  0
ATTRIB
  5
10F1C
100
AcDbEntity
  8
WL
 62
     6
100
AcDbText
 10
7958.180993
 20
6399.695028
 30
0.0
 40
200.0
  1
31
 51
15.0
  7
NORM
 72
     4
 11
8120.085755
 21
6499.695028
 31
0.0
100
AcDbAttribute
  2
NUM
 70
     0
  0
SEQEND
  5
10F1D
100
AcDbEntity
  8
WL
 62
     6
  0
LINE
  5
10F1E
100
AcDbEntity
  8
WL
 62
     6
100
AcDbLine
 10
8125.0
 20
5000.0
 30
0.0
 11
8125.0
 21
5250.0
 31
0.0
  0
LINE
  5
10F1F
100
AcDbEntity
  8
WL
 62
     6
100
AcDbLine
 10
8125.0
 20
6000.0
 30
0.0
 11
8125.0
 21
5750.0
 31
0.0
  0
LINE
  5
10F20
100
AcDbEntity
  8
WL
 62
     6
100
AcDbLine
 10
8125.0
 20
4000.0
 30
0.0
 11
8125.0
 21
3750.0
 31
0.0
  0
LINE
  5
10F21
100
AcDbEntity
  8
WL
 62
     6
100
AcDbLine
 10
8750.0
 20
7500.0
 30
0.0
 11
8950.0
 21
7500.0
 31
0.0
  0
LINE
  5
10F22
100
AcDbEntity
  8
WL
 62
     6
100
AcDbLine
 10
8550.0
 20
7500.0
 30
0.0
 11
8750.0
 21
7500.0
 31
0.0
  0
LINE
  5
10F23
100
AcDbEntity
  8
WL
 62
     6
100
AcDbLine
 10
8550.0
 20
4500.0
 30
0.0
 11
8750.0
 21
4500.0
 31
0.0
  0
LINE
  5
10F24
100
AcDbEntity
  8
WL
 62
     6
100
AcDbLine
 10
8750.0
 20
4500.0
 30
0.0
 11
8950.0
 21
4500.0
 31
0.0
  0
LINE
  5
10F25
100
AcDbEntity
  8
WL
 62
     6
100
AcDbLine
 10
8750.0
 20
5500.0
 30
0.0
 11
8950.0
 21
5500.0
 31
0.0
  0
LINE
  5
10F26
100
AcDbEntity
  8
WL
 62
     6
100
AcDbLine
 10
8750.0
 20
6500.0
 30
0.0
 11
8950.0
 21
6500.0
 31
0.0
  0
LINE
  5
10F27
100
AcDbEntity
  8
WL
 62
     6
100
AcDbLine
 10
8550.0
 20
6500.0
 30
0.0
 11
8750.0
 21
6500.0
 31
0.0
  0
LINE
  5
10F28
100
AcDbEntity
  8
WL
 62
     6
100
AcDbLine
 10
8550.0
 20
5500.0
 30
0.0
 11
8750.0
 21
5500.0
 31
0.0
  0
LINE
  5
10F29
100
AcDbEntity
  8
WL
 62
     6
100
AcDbLine
 10
8550.0
 20
3500.0
 30
0.0
 11
8750.0
 21
3500.0
 31
0.0
  0
LINE
  5
10F2A
100
AcDbEntity
  8
WL
 62
     6
100
AcDbLine
 10
8750.0
 20
3500.0
 30
0.0
 11
8950.0
 21
3500.0
 31
0.0
  0
LINE
  5
10F2B
100
AcDbEntity
  8
WL
 62
     6
100
AcDbLine
 10
9375.0
 20
3000.0
 30
0.0
 11
9375.0
 21
3250.0
 31
0.0
  0
LINE
  5
10F2C
100
AcDbEntity
  8
WL
 62
     6
100
AcDbLine
 10
9800.0
 20
2500.0
 30
0.0
 11
10000.0
 21
2500.0
 31
0.0
  0
LINE
  5
10F2D
100
AcDbEntity
  8
WL
 62
     6
100
AcDbLine
 10
9800.0
 20
1500.0
 30
0.0
 11
10000.0
 21
1500.0
 31
0.0
  0
LINE
  5
10F2E
100
AcDbEntity
  8
WL
 62
     6
100
AcDbLine
 10
9800.0
 20
500.0
 30
0.0
 11
10000.0
 21
500.0
 31
0.0
  0
LINE
  5
10F2F
100
AcDbEntity
  8
WL
 62
     6
100
AcDbLine
 10
9375.0
 20
2000.0
 30
0.0
 11
9375.0
 21
2250.0
 31
0.0
  0
LINE
  5
10F30
100
AcDbEntity
  8
WL
 62
     6
100
AcDbLine
 10
9375.0
 20
3000.0
 30
0.0
 11
9375.0
 21
2750.0
 31
0.0
  0
INSERT
  5
10F31
100
AcDbEntity
  8
WL
 62
     6
100
AcDbBlockReference
 66
     1
  2
NUM
 10
9370.085755
 20
2499.695028
 30
0.0
  0
ATTRIB
  5
10F32
100
AcDbEntity
  8
WL
 62
     6
100
AcDbText
 10
9170.085755
 20
2399.695028
 30
0.0
 40
200.0
  1
64
 51
15.0
  7
NORM
 72
     4
 11
9370.085755
 21
2499.695028
 31
0.0
100
AcDbAttribute
  2
NUM
 70
     0
  0
SEQEND
  5
10F33
100
AcDbEntity
  8
WL
 62
     6
  0
LINE
  5
10F34
100
AcDbEntity
  8
WL
 62
     6
100
AcDbLine
 10
9375.0
 20
1000.0
 30
0.0
 11
9375.0
 21
1250.0
 31
0.0
  0
LINE
  5
10F35
100
AcDbEntity
  8
WL
 62
     6
100
AcDbLine
 10
9375.0
 20
2000.0
 30
0.0
 11
9375.0
 21
1750.0
 31
0.0
  0
INSERT
  5
10F36
100
AcDbEntity
  8
WL
 62
     6
100
AcDbBlockReference
 66
     1
  2
NUM
 10
9370.085755
 20
1499.695028
 30
0.0
  0
ATTRIB
  5
10F37
100
AcDbEntity
  8
WL
 62
     6
100
AcDbText
 10
9179.609565
 20
1399.695028
 30
0.0
 40
200.0
  1
72
 51
15.0
  7
NORM
 72
     4
 11
9370.085755
 21
1499.695028
 31
0.0
100
AcDbAttribute
  2
NUM
 70
     0
  0
SEQEND
  5
10F38
100
AcDbEntity
  8
WL
 62
     6
  0
LINE
  5
10F39
100
AcDbEntity
  8
WL
 62
     6
100
AcDbLine
 10
9375.0
 20
0.0
 30
0.0
 11
9375.0
 21
250.0
 31
0.0
  0
LINE
  5
10F3A
100
AcDbEntity
  8
WL
 62
     6
100
AcDbLine
 10
9375.0
 20
1000.0
 30
0.0
 11
9375.0
 21
750.0
 31
0.0
  0
INSERT
  5
10F3B
100
AcDbEntity
  8
WL
 62
     6
100
AcDbBlockReference
 66
     1
  2
NUM
 10
9370.085755
 20
499.695028
 30
0.0
  0
ATTRIB
  5
10F3C
100
AcDbEntity
  8
WL
 62
     6
100
AcDbText
 10
9179.609565
 20
399.695028
 30
0.0
 40
200.0
  1
80
 51
15.0
  7
NORM
 72
     4
 11
9370.085755
 21
499.695028
 31
0.0
100
AcDbAttribute
  2
NUM
 70
     0
  0
SEQEND
  5
10F3D
100
AcDbEntity
  8
WL
 62
     6
  0
LINE
  5
10F3E
100
AcDbEntity
  8
WL
 62
     6
100
AcDbLine
 10
9800.0
 20
7500.0
 30
0.0
 11
10000.0
 21
7500.0
 31
0.0
  0
LINE
  5
10F3F
100
AcDbEntity
  8
WL
 62
     6
100
AcDbLine
 10
9800.0
 20
4500.0
 30
0.0
 11
10000.0
 21
4500.0
 31
0.0
  0
LINE
  5
10F40
100
AcDbEntity
  8
WL
 62
     6
100
AcDbLine
 10
9800.0
 20
5500.0
 30
0.0
 11
10000.0
 21
5500.0
 31
0.0
  0
LINE
  5
10F41
100
AcDbEntity
  8
WL
 62
     6
100
AcDbLine
 10
9800.0
 20
6500.0
 30
0.0
 11
10000.0
 21
6500.0
 31
0.0
  0
LINE
  5
10F42
100
AcDbEntity
  8
WL
 62
     6
100
AcDbLine
 10
9800.0
 20
3500.0
 30
0.0
 11
10000.0
 21
3500.0
 31
0.0
  0
LINE
  5
10F43
100
AcDbEntity
  8
WL
 62
     6
100
AcDbLine
 10
9375.0
 20
7000.0
 30
0.0
 11
9375.0
 21
7250.0
 31
0.0
  0
LINE
  5
10F44
100
AcDbEntity
  8
WL
 62
     6
100
AcDbLine
 10
9375.0
 20
8000.0
 30
0.0
 11
9375.0
 21
7750.0
 31
0.0
  0
INSERT
  5
10F45
100
AcDbEntity
  8
WL
 62
     6
100
AcDbBlockReference
 66
     1
  2
NUM
 10
9370.085755
 20
7499.695028
 30
0.0
  0
ATTRIB
  5
10F46
100
AcDbEntity
  8
WL
 62
     6
100
AcDbText
 10
9174.84766
 20
7399.695028
 30
0.0
 40
200.0
  1
24
 51
15.0
  7
NORM
 72
     4
 11
9370.085755
 21
7499.695028
 31
0.0
100
AcDbAttribute
  2
NUM
 70
     0
  0
SEQEND
  5
10F47
100
AcDbEntity
  8
WL
 62
     6
  0
LINE
  5
10F48
100
AcDbEntity
  8
WL
 62
     6
100
AcDbLine
 10
9375.0
 20
4000.0
 30
0.0
 11
9375.0
 21
4250.0
 31
0.0
  0
LINE
  5
10F49
100
AcDbEntity
  8
WL
 62
     6
100
AcDbLine
 10
9375.0
 20
5000.0
 30
0.0
 11
9375.0
 21
4750.0
 31
0.0
  0
INSERT
  5
10F4A
100
AcDbEntity
  8
WL
 62
     6
100
AcDbBlockReference
 66
     1
  2
NUM
 10
9370.085755
 20
4499.695028
 30
0.0
  0
ATTRIB
  5
10F4B
100
AcDbEntity
  8
WL
 62
     6
100
AcDbText
 10
9179.609565
 20
4399.695028
 30
0.0
 40
200.0
  1
48
 51
15.0
  7
NORM
 72
     4
 11
9370.085755
 21
4499.695028
 31
0.0
100
AcDbAttribute
  2
NUM
 70
     0
  0
SEQEND
  5
10F4C
100
AcDbEntity
  8
WL
 62
     6
  0
LINE
  5
10F4D
100
AcDbEntity
  8
WL
 62
     6
100
AcDbLine
 10
9375.0
 20
5000.0
 30
0.0
 11
9375.0
 21
5250.0
 31
0.0
  0
LINE
  5
10F4E
100
AcDbEntity
  8
WL
 62
     6
100
AcDbLine
 10
9375.0
 20
6000.0
 30
0.0
 11
9375.0
 21
5750.0
 31
0.0
  0
INSERT
  5
10F4F
100
AcDbEntity
  8
WL
 62
     6
100
AcDbBlockReference
 66
     1
  2
NUM
 10
9370.085755
 20
5499.695028
 30
0.0
  0
ATTRIB
  5
10F50
100
AcDbEntity
  8
WL
 62
     6
100
AcDbText
 10
9179.609565
 20
5399.695028
 30
0.0
 40
200.0
  1
40
 51
15.0
  7
NORM
 72
     4
 11
9370.085755
 21
5499.695028
 31
0.0
100
AcDbAttribute
  2
NUM
 70
     0
  0
SEQEND
  5
10F51
100
AcDbEntity
  8
WL
 62
     6
  0
LINE
  5
10F52
100
AcDbEntity
  8
WL
 62
     6
100
AcDbLine
 10
9375.0
 20
6000.0
 30
0.0
 11
9375.0
 21
6250.0
 31
0.0
  0
LINE
  5
10F53
100
AcDbEntity
  8
WL
 62
     6
100
AcDbLine
 10
9375.0
 20
7000.0
 30
0.0
 11
9375.0
 21
6750.0
 31
0.0
  0
INSERT
  5
10F54
100
AcDbEntity
  8
WL
 62
     6
100
AcDbBlockReference
 66
     1
  2
NUM
 10
9370.085755
 20
6499.695028
 30
0.0
  0
ATTRIB
  5
10F55
100
AcDbEntity
  8
WL
 62
     6
100
AcDbText
 10
9179.609565
 20
6399.695028
 30
0.0
 40
200.0
  1
32
 51
15.0
  7
NORM
 72
     4
 11
9370.085755
 21
6499.695028
 31
0.0
100
AcDbAttribute
  2
NUM
 70
     0
  0
SEQEND
  5
10F56
100
AcDbEntity
  8
WL
 62
     6
  0
LINE
  5
10F57
100
AcDbEntity
  8
WL
 62
     6
100
AcDbLine
 10
9375.0
 20
4000.0
 30
0.0
 11
9375.0
 21
3750.0
 31
0.0
  0
INSERT
  5
10F58
100
AcDbEntity
  8
WL
 62
     6
100
AcDbBlockReference
 66
     1
  2
NUM
 10
9370.085755
 20
3499.695028
 30
0.0
  0
ATTRIB
  5
10F59
100
AcDbEntity
  8
WL
 62
     6
100
AcDbText
 10
9179.609565
 20
3399.695028
 30
0.0
 40
200.0
  1
56
 51
15.0
  7
NORM
 72
     4
 11
9370.085755
 21
3499.695028
 31
0.0
100
AcDbAttribute
  2
NUM
 70
     0
  0
SEQEND
  5
10F5A
100
AcDbEntity
  8
WL
 62
     6
  0
INSERT
  5
10F5B
100
AcDbEntity
  8
WL
 62
     6
100
AcDbBlockReference
 66
     1
  2
NUM
 10
8120.085755
 20
8499.695028
 30
0.0
  0
ATTRIB
  5
10F5C
100
AcDbEntity
  8
WL
 62
     6
100
AcDbText
 10
7915.32385
 20
8399.695028
 30
0.0
 40
200.0
  1
15
 51
15.0
  7
NORM
 72
     4
 11
8120.085755
 21
8499.695028
 31
0.0
100
AcDbAttribute
  2
NUM
 70
     0
  0
SEQEND
  5
10F5D
100
AcDbEntity
  8
WL
 62
     6
  0
LINE
  5
10F5E
100
AcDbEntity
  8
WL
 62
     6
100
AcDbLine
 10
8125.0
 20
9000.0
 30
0.0
 11
8125.0
 21
9250.0
 31
0.0
  0
LINE
  5
10F5F
100
AcDbEntity
  8
WL
 62
     6
100
AcDbLine
 10
8125.0
 20
10000.0
 30
0.0
 11
8125.0
 21
9750.0
 31
0.0
  0
INSERT
  5
10F60
100
AcDbEntity
  8
WL
 62
     6
100
AcDbBlockReference
 66
     1
  2
NUM
 10
8120.085755
 20
9499.695028
 30
0.0
  0
ATTRIB
  5
10F61
100
AcDbEntity
  8
WL
 62
     6
100
AcDbText
 10
8024.84766
 20
9399.695028
 30
0.0
 40
200.0
  1
7
 51
15.0
  7
NORM
 72
     4
 11
8120.085755
 21
9499.695028
 31
0.0
100
AcDbAttribute
  2
NUM
 70
     0
  0
SEQEND
  5
10F62
100
AcDbEntity
  8
WL
 62
     6
  0
LINE
  5
10F63
100
AcDbEntity
  8
WL
 62
     6
100
AcDbLine
 10
8125.0
 20
9000.0
 30
0.0
 11
8125.0
 21
8750.0
 31
0.0
  0
LINE
  5
10F64
100
AcDbEntity
  8
WL
 62
     6
100
AcDbLine
 10
8750.0
 20
9500.0
 30
0.0
 11
8950.0
 21
9500.0
 31
0.0
  0
LINE
  5
10F65
100
AcDbEntity
  8
WL
 62
     6
100
AcDbLine
 10
8550.0
 20
9500.0
 30
0.0
 11
8750.0
 21
9500.0
 31
0.0
  0
LINE
  5
10F66
100
AcDbEntity
  8
WL
 62
     6
100
AcDbLine
 10
8550.0
 20
8500.0
 30
0.0
 11
8750.0
 21
8500.0
 31
0.0
  0
LINE
  5
10F67
100
AcDbEntity
  8
WL
 62
     6
100
AcDbLine
 10
8750.0
 20
8500.0
 30
0.0
 11
8950.0
 21
8500.0
 31
0.0
  0
LINE
  5
10F68
100
AcDbEntity
  8
WL
 62
     6
100
AcDbLine
 10
9800.0
 20
9500.0
 30
0.0
 11
10000.0
 21
9500.0
 31
0.0
  0
LINE
  5
10F69
100
AcDbEntity
  8
WL
 62
     6
100
AcDbLine
 10
9800.0
 20
8500.0
 30
0.0
 11
10000.0
 21
8500.0
 31
0.0
  0
LINE
  5
10F6A
100
AcDbEntity
  8
WL
 62
     6
100
AcDbLine
 10
9375.0
 20
9000.0
 30
0.0
 11
9375.0
 21
9250.0
 31
0.0
  0
LINE
  5
10F6B
100
AcDbEntity
  8
WL
 62
     6
100
AcDbLine
 10
9375.0
 20
10000.0
 30
0.0
 11
9375.0
 21
9750.0
 31
0.0
  0
INSERT
  5
10F6C
100
AcDbEntity
  8
WL
 62
     6
100
AcDbBlockReference
 66
     1
  2
NUM
 10
9370.085755
 20
9499.695028
 30
0.0
  0
ATTRIB
  5
10F6D
100
AcDbEntity
  8
WL
 62
     6
100
AcDbText
 10
9274.84766
 20
9399.695028
 30
0.0
 40
200.0
  1
8
 51
15.0
  7
NORM
 72
     4
 11
9370.085755
 21
9499.695028
 31
0.0
100
AcDbAttribute
  2
NUM
 70
     0
  0
SEQEND
  5
10F6E
100
AcDbEntity
  8
WL
 62
     6
  0
LINE
  5
10F6F
100
AcDbEntity
  8
WL
 62
     6
100
AcDbLine
 10
9375.0
 20
9000.0
 30
0.0
 11
9375.0
 21
8750.0
 31
0.0
  0
INSERT
  5
10F70
100
AcDbEntity
  8
WL
 62
     6
100
AcDbBlockReference
 66
     1
  2
NUM
 10
9370.085755
 20
8499.695028
 30
0.0
  0
ATTRIB
  5
10F71
100
AcDbEntity
  8
WL
 62
     6
100
AcDbText
 10
9165.32385
 20
8399.695028
 30
0.0
 40
200.0
  1
16
 51
15.0
  7
NORM
 72
     4
 11
9370.085755
 21
8499.695028
 31
0.0
100
AcDbAttribute
  2
NUM
 70
     0
  0
SEQEND
  5
10F72
100
AcDbEntity
  8
WL
 62
     6
  0
ENDBLK
  5
10F74
100
AcDbEntity
  8
0
100
AcDbBlockEnd
  0
BLOCK
  5
10F77
100
AcDbEntity
  8
0
100
AcDbBlockBegin
  2
NUM
 70
     2
 10
0.0
 20
0.0
 30
0.0
  3
NUM
  1

  0
ATTDEF
  5
10F76
100
AcDbEntity
  8
WL
 62
     6
100
AcDbText
 10
-190.47619
 20
-100.0
 30
0.0
 40
200.0
  1
80
 51
15.0
  7
NORM
 72
     4
 11
0.0
 21
0.0
 31
0.0
100
AcDbAttributeDefinition
  3
num
  2
NUM
 70
     0
  0
ENDBLK
  5
10F78
100
AcDbEntity
  8
0
100
AcDbBlockEnd
  0
BLOCK
  5
10F7B
100
AcDbEntity
  8
0
100
AcDbBlockBegin
  2
BLZ
 70
     0
 10
0.0
 20
0.0
 30
0.0
  3
BLZ
  1

  0
LWPOLYLINE
  5
10F7A
100
AcDbEntity
  8
KGR
100
AcDbPolyline
 90
        2
 70
     1
 43
100.0
 10
-50.0
 20
0.0
 42
1.0
 10
50.0
 20
0.0
 42
1.0
  0
ENDBLK
  5
10F7C
100
AcDbEntity
  8
0
100
AcDbBlockEnd
  0
BLOCK
  5
10F85
100
AcDbEntity
  8
0
100
AcDbBlockBegin
  2
BLX
 70
     2
 10
0.0
 20
0.0
 30
0.0
  3
BLX
  1

  0
LINE
  5
10F7E
100
AcDbEntity
  8
0
 62
     0
100
AcDbLine
 10
312.5
 20
250.0
 30
0.0
 11
-312.5
 21
250.0
 31
0.0
  0
LINE
  5
10F7F
100
AcDbEntity
  8
0
 62
     0
100
AcDbLine
 10
-312.5
 20
250.0
 30
0.0
 11
312.5
 21
-250.0
 31
0.0
  0
LINE
  5
10F80
100
AcDbEntity
  8
0
 62
     0
100
AcDbLine
 10
-312.5
 20
-250.0
 30
0.0
 11
312.5
 21
-250.0
 31
0.0
  0
LINE
  5
10F81
100
AcDbEntity
  8
0
 62
     0
100
AcDbLine
 10
-312.5
 20
-250.0
 30
0.0
 11
312.5
 21
250.0
 31
0.0
  0
ATTDEF
  5
10F82
100
AcDbEntity
  8
0
 62
     0
100
AcDbText
 10
-120.238095
 20
-25.0
 30
0.0
 40
50.0
  1
EMTPY
 51
15.0
  7
NORM
 72
     4
 11
0.0
 21
0.0
 31
0.0
100
AcDbAttributeDefinition
  3
MBL
  2
TAG
 70
     1
  0
LINE
  5
10F83
100
AcDbEntity
  8
0
 62
     0
100
AcDbLine
 10
-312.5
 20
250.0
 30
0.0
 11
-312.5
 21
-250.0
 31
0.0
  0
LINE
  5
10F84
100
AcDbEntity
  8
0
 62
     0
100
AcDbLine
 10
312.5
 20
-250.0
 30
0.0
 11
312.5
 21
250.0
 31
0.0
  0
ENDBLK
  5
10F86
100
AcDbEntity
  8
0
100
AcDbBlockEnd
  0
BLOCK
  5
12373
100
AcDbEntity
  8
0
100
AcDbBlockBegin
  2
FIG138
 70
     2
 10
0.0
 20
0.0
 30
0.0
  3
FIG138
  1

  0
ATTDEF
  5
12374
100
AcDbEntity
  8
0
100
AcDbText
 10
1.14
 20
1.0
 30
0.0
 40
1.0
  1
BZ
  7
BEV
100
AcDbAttributeDefinition
  3

  2
DIP
 70
     8
  0
ATTDEF
  5
12375
100
AcDbEntity
  8
0
100
AcDbText
 10
1.14
 20
-0.51
 30
0.0
 40
1.0
  1

 51
15.0
  7
NORM
100
AcDbAttributeDefinition
  3
Punktnummer
  2
PNUM
 70
     1
  0
CIRCLE
  5
12376
100
AcDbEntity
  8
0
100
AcDbCircle
 10
0.0
 20
0.0
 30
0.0
 40
0.5
  0
POLYLINE
  5
12377
100
AcDbEntity
  8
0
100
AcDb2dPolyline
 66
     1
 10
0.0
 20
0.0
 30
0.0
  0
VERTEX
  5
12378
100
AcDbEntity
  8
0
100
AcDbVertex
100
AcDb2dVertex
 10
0.35
 20
-0.35
 30
0.0
  0
VERTEX
  5
12379
100
AcDbEntity
  8
0
100
AcDbVertex
100
AcDb2dVertex
 10
-0.35
 20
0.35
 30
0.0
  0
SEQEND
  5
1237A
100
AcDbEntity
  8
0
  0
POLYLINE
  5
1237B
100
AcDbEntity
  8
0
100
AcDb2dPolyline
 66
     1
 10
0.0
 20
0.0
 30
0.0
  0
VERTEX
  5
1237C
100
AcDbEntity
  8
0
100
AcDbVertex
100
AcDb2dVertex
 10
-0.35
 20
-0.35
 30
0.0
  0
VERTEX
  5
1237D
100
AcDbEntity
  8
0
100
AcDbVertex
100
AcDb2dVertex
 10
0.35
 20
0.35
 30
0.0
  0
SEQEND
  5
1237E
100
AcDbEntity
  8
0
  0
ENDBLK
  5
1237F
100
AcDbEntity
  8
0
100
AcDbBlockEnd
  0
BLOCK
  5
1238C
100
AcDbEntity
  8
0
100
AcDbBlockBegin
  2
FIG139
 70
     2
 10
0.0
 20
0.0
 30
0.0
  3
FIG139
  1

  0
ATTDEF
  5
1238D
100
AcDbEntity
  8
0
100
AcDbText
 10
1.14
 20
1.0
 30
0.0
 40
1.0
  1
BZ
  7
BEV
100
AcDbAttributeDefinition
  3

  2
DIP
 70
     8
  0
ATTDEF
  5
1238E
100
AcDbEntity
  8
0
100
AcDbText
 10
1.14
 20
-0.51
 30
0.0
 40
1.0
  1

 51
15.0
  7
NORM
100
AcDbAttributeDefinition
  3
Punktnummer
  2
PNUM
 70
     1
  0
CIRCLE
  5
1238F
100
AcDbEntity
  8
0
100
AcDbCircle
 10
0.0
 20
0.0
 30
0.0
 40
0.5
  0
POLYLINE
  5
12390
100
AcDbEntity
  8
0
100
AcDb2dPolyline
 66
     1
 10
0.0
 20
0.0
 30
0.0
  0
VERTEX
  5
12391
100
AcDbEntity
  8
0
100
AcDbVertex
100
AcDb2dVertex
 10
0.35
 20
-0.35
 30
0.0
  0
VERTEX
  5
12392
100
AcDbEntity
  8
0
100
AcDbVertex
100
AcDb2dVertex
 10
-0.35
 20
0.35
 30
0.0
  0
SEQEND
  5
12393
100
AcDbEntity
  8
0
  0
POLYLINE
  5
12394
100
AcDbEntity
  8
0
100
AcDb2dPolyline
 66
     1
 10
0.0
 20
0.0
 30
0.0
  0
VERTEX
  5
12395
100
AcDbEntity
  8
0
100
AcDbVertex
100
AcDb2dVertex
 10
-0.35
 20
-0.35
 30
0.0
  0
VERTEX
  5
12396
100
AcDbEntity
  8
0
100
AcDbVertex
100
AcDb2dVertex
 10
0.35
 20
0.35
 30
0.0
  0
SEQEND
  5
12397
100
AcDbEntity
  8
0
  0
ENDBLK
  5
12398
100
AcDbEntity
  8
0
100
AcDbBlockEnd
  0
BLOCK
  5
123A5
100
AcDbEntity
  8
0
100
AcDbBlockBegin
  2
FIG140
 70
     2
 10
0.0
 20
0.0
 30
0.0
  3
FIG140
  1

  0
ATTDEF
  5
123A6
100
AcDbEntity
  8
0
100
AcDbText
 10
1.14
 20
1.0
 30
0.0
 40
1.0
  1
BZ
  7
BEV
100
AcDbAttributeDefinition
  3

  2
DIP
 70
     8
  0
ATTDEF
  5
123A7
100
AcDbEntity
  8
0
100
AcDbText
 10
1.14
 20
-0.51
 30
0.0
 40
1.0
  1

 51
15.0
  7
NORM
100
AcDbAttributeDefinition
  3
Punktnummer
  2
PNUM
 70
     1
  0
CIRCLE
  5
123A8
100
AcDbEntity
  8
0
100
AcDbCircle
 10
0.0
 20
0.0
 30
0.0
 40
0.5
  0
POLYLINE
  5
123A9
100
AcDbEntity
  8
0
100
AcDb2dPolyline
 66
     1
 10
0.0
 20
0.0
 30
0.0
  0
VERTEX
  5
123AA
100
AcDbEntity
  8
0
100
AcDbVertex
100
AcDb2dVertex
 10
0.35
 20
-0.35
 30
0.0
  0
VERTEX
  5
123AB
100
AcDbEntity
  8
0
100
AcDbVertex
100
AcDb2dVertex
 10
-0.35
 20
0.35
 30
0.0
  0
SEQEND
  5
123AC
100
AcDbEntity
  8
0
  0
POLYLINE
  5
123AD
100
AcDbEntity
  8
0
100
AcDb2dPolyline
 66
     1
 10
0.0
 20
0.0
 30
0.0
  0
VERTEX
  5
123AE
100
AcDbEntity
  8
0
100
AcDbVertex
100
AcDb2dVertex
 10
-0.35
 20
-0.35
 30
0.0
  0
VERTEX
  5
123AF
100
AcDbEntity
  8
0
100
AcDbVertex
100
AcDb2dVertex
 10
0.35
 20
0.35
 30
0.0
  0
SEQEND
  5
123B0
100
AcDbEntity
  8
0
  0
ENDBLK
  5
123B1
100
AcDbEntity
  8
0
100
AcDbBlockEnd
  0
BLOCK
  5
123BE
100
AcDbEntity
  8
0
100
AcDbBlockBegin
  2
FIG141
 70
     2
 10
0.0
 20
0.0
 30
0.0
  3
FIG141
  1

  0
ATTDEF
  5
123BF
100
AcDbEntity
  8
0
100
AcDbText
 10
1.14
 20
1.0
 30
0.0
 40
1.0
  1
BZ
  7
BEV
100
AcDbAttributeDefinition
  3

  2
DIP
 70
     8
  0
ATTDEF
  5
123C0
100
AcDbEntity
  8
0
100
AcDbText
 10
1.14
 20
-0.51
 30
0.0
 40
1.0
  1

 51
15.0
  7
NORM
100
AcDbAttributeDefinition
  3
Punktnummer
  2
PNUM
 70
     1
  0
CIRCLE
  5
123C1
100
AcDbEntity
  8
0
100
AcDbCircle
 10
0.0
 20
0.0
 30
0.0
 40
0.5
  0
POLYLINE
  5
123C2
100
AcDbEntity
  8
0
100
AcDb2dPolyline
 66
     1
 10
0.0
 20
0.0
 30
0.0
  0
VERTEX
  5
123C3
100
AcDbEntity
  8
0
100
AcDbVertex
100
AcDb2dVertex
 10
0.35
 20
-0.35
 30
0.0
  0
VERTEX
  5
123C4
100
AcDbEntity
  8
0
100
AcDbVertex
100
AcDb2dVertex
 10
-0.35
 20
0.35
 30
0.0
  0
SEQEND
  5
123C5
100
AcDbEntity
  8
0
  0
POLYLINE
  5
123C6
100
AcDbEntity
  8
0
100
AcDb2dPolyline
 66
     1
 10
0.0
 20
0.0
 30
0.0
  0
VERTEX
  5
123C7
100
AcDbEntity
  8
0
100
AcDbVertex
100
AcDb2dVertex
 10
-0.35
 20
-0.35
 30
0.0
  0
VERTEX
  5
123C8
100
AcDbEntity
  8
0
100
AcDbVertex
100
AcDb2dVertex
 10
0.35
 20
0.35
 30
0.0
  0
SEQEND
  5
123C9
100
AcDbEntity
  8
0
  0
ENDBLK
  5
123CA
100
AcDbEntity
  8
0
100
AcDbBlockEnd
  0
BLOCK
  5
126BD
100
AcDbEntity
  8
0
100
AcDbBlockBegin
  2
FIG058
 70
     0
 10
0.0
 20
0.0
 30
0.0
  3
FIG058
  1

  0
TEXT
  5
126BE
100
AcDbEntity
  8
0
100
AcDbText
 10
-2.47
 20
-1.25
 30
0.0
 40
2.5
  1
F
 51
15.0
  7
NORM
100
AcDbText
  0
TEXT
  5
126BF
100
AcDbEntity
  8
0
100
AcDbText
 10
-0.27
 20
-1.25
 30
0.0
 40
2.5
  1
S
 51
15.0
  7
NORM
100
AcDbText
  0
ENDBLK
  5
126C0
100
AcDbEntity
  8
0
100
AcDbBlockEnd
  0
BLOCK
  5
1265C
100
AcDbEntity
  8
0
100
AcDbBlockBegin
  2
FIG042
 70
     0
 10
0.0
 20
0.0
 30
0.0
  3
FIG042
  1

  0
TEXT
  5
1265D
100
AcDbEntity
  8
0
100
AcDbText
 10
-1.51
 20
-1.15
 30
0.0
 40
2.5
  1
P
 51
15.0
  7
NORM
100
AcDbText
  0
ENDBLK
  5
1265E
100
AcDbEntity
  8
0
100
AcDbBlockEnd
  0
BLOCK
  5
12668
100
AcDbEntity
  8
0
100
AcDbBlockBegin
  2
FIG057
 70
     0
 10
0.0
 20
0.0
 30
0.0
  3
FIG057
  1

  0
POLYLINE
  5
12669
100
AcDbEntity
  8
0
100
AcDb2dPolyline
 66
     1
 10
0.0
 20
0.0
 30
0.0
  0
VERTEX
  5
1266A
100
AcDbEntity
  8
0
100
AcDbVertex
100
AcDb2dVertex
 10
1.0
 20
0.0
 30
0.0
  0
VERTEX
  5
1266B
100
AcDbEntity
  8
0
100
AcDbVertex
100
AcDb2dVertex
 10
0.8
 20
-0.8
 30
0.0
  0
SEQEND
  5
1266C
100
AcDbEntity
  8
0
  0
ARC
  5
1266D
100
AcDbEntity
  8
0
100
AcDbCircle
 10
0.0
 20
0.2
 30
0.0
 40
1.019804
100
AcDbArc
 50
348.690068
 51
191.309932
  0
POLYLINE
  5
1266E
100
AcDbEntity
  8
0
100
AcDb2dPolyline
 66
     1
 10
0.0
 20
0.0
 30
0.0
  0
VERTEX
  5
1266F
100
AcDbEntity
  8
0
100
AcDbVertex
100
AcDb2dVertex
 10
-1.0
 20
0.0
 30
0.0
  0
VERTEX
  5
12670
100
AcDbEntity
  8
0
100
AcDbVertex
100
AcDb2dVertex
 10
-0.8
 20
-0.8
 30
0.0
  0
SEQEND
  5
12671
100
AcDbEntity
  8
0
  0
ENDBLK
  5
12672
100
AcDbEntity
  8
0
100
AcDbBlockEnd
  0
BLOCK
  5
1282A
100
AcDbEntity
  8
0
100
AcDbBlockBegin
  2
FIG063
 70
     0
 10
0.0
 20
0.0
 30
0.0
  3
FIG063
  1

  0
CIRCLE
  5
1282B
100
AcDbEntity
  8
0
100
AcDbCircle
 10
0.0
 20
0.0
 30
0.0
 40
1.5
  0
LINE
  5
1282C
100
AcDbEntity
  8
0
100
AcDbLine
 10
-1.47
 20
0.85
 30
0.0
 11
1.47
 21
-0.85
 31
0.0
  0
LINE
  5
1282D
100
AcDbEntity
  8
0
100
AcDbLine
 10
-1.47
 20
-0.85
 30
0.0
 11
1.47
 21
0.85
 31
0.0
  0
LINE
  5
1282E
100
AcDbEntity
  8
0
100
AcDbLine
 10
0.0
 20
-1.7
 30
0.0
 11
0.0
 21
1.7
 31
0.0
  0
ENDBLK
  5
1282F
100
AcDbEntity
  8
0
100
AcDbBlockEnd
  0
BLOCK
  5
126AB
100
AcDbEntity
  8
0
100
AcDbBlockBegin
  2
FIG064
 70
     0
 10
0.0
 20
0.0
 30
0.0
  3
FIG064
  1

  0
TEXT
  5
126AC
100
AcDbEntity
  8
0
100
AcDbText
 10
-2.67
 20
-1.25
 30
0.0
 40
2.5
  1
G
 51
15.0
  7
NORM
100
AcDbText
  0
TEXT
  5
126AD
100
AcDbEntity
  8
0
100
AcDbText
 10
-0.47
 20
-1.25
 30
0.0
 40
2.5
  1
R
 51
15.0
  7
NORM
100
AcDbText
  0
ENDBLK
  5
126AE
100
AcDbEntity
  8
0
100
AcDbBlockEnd
  0
BLOCK
  5
126B1
100
AcDbEntity
  8
0
100
AcDbBlockBegin
  2
FIG065
 70
     0
 10
0.0
 20
0.0
 30
0.0
  3
FIG065
  1

  0
TEXT
  5
126B2
100
AcDbEntity
  8
0
100
AcDbText
 10
-2.57
 20
-1.25
 30
0.0
 40
2.5
  1
V
 51
15.0
  7
NORM
100
AcDbText
  0
TEXT
  5
126B3
100
AcDbEntity
  8
0
100
AcDbText
 10
-0.37
 20
-1.25
 30
0.0
 40
2.5
  1
R
 51
15.0
  7
NORM
100
AcDbText
  0
ENDBLK
  5
126B4
100
AcDbEntity
  8
0
100
AcDbBlockEnd
  0
BLOCK
  5
12507
100
AcDbEntity
  8
0
100
AcDbBlockBegin
  2
FIG078
 70
     0
 10
0.0
 20
0.0
 30
0.0
  3
FIG078
  1

  0
LINE
  5
12508
100
AcDbEntity
  8
0
 62
     0
100
AcDbLine
 10
1.33
 20
0.0
 30
0.0
 11
0.0
 21
0.0
 31
0.0
  0
LINE
  5
12509
100
AcDbEntity
  8
0
 62
     0
100
AcDbLine
 10
0.0
 20
0.0
 30
0.0
 11
0.0
 21
3.22
 31
0.0
  0
ARC
  5
1250A
100
AcDbEntity
  8
0
 62
     0
100
AcDbCircle
 10
0.25
 20
0.84
 30
0.0
 40
0.88
100
AcDbArc
 50
106.26
 51
253.74
  0
ARC
  5
1250B
100
AcDbEntity
  8
0
 62
     0
100
AcDbCircle
 10
-0.25
 20
2.52
 30
0.0
 40
0.88
100
AcDbArc
 50
286.26
 51
0.0
  0
LINE
  5
1250C
100
AcDbEntity
  8
0
 62
     0
100
AcDbLine
 10
-2.0
 20
4.1
 30
0.0
 11
2.0
 21
0.9
 31
0.0
  0
LINE
  5
1250D
100
AcDbEntity
  8
0
 62
     0
100
AcDbLine
 10
2.0
 20
4.1
 30
0.0
 11
-2.0
 21
0.9
 31
0.0
  0
ARC
  5
1250E
100
AcDbEntity
  8
0
 62
     0
100
AcDbCircle
 10
-4.0
 20
2.5
 30
0.0
 40
6.5
100
AcDbArc
 50
337.38
 51
22.62
  0
ARC
  5
1250F
100
AcDbEntity
  8
0
 62
     0
100
AcDbCircle
 10
4.0
 20
2.5
 30
0.0
 40
6.5
100
AcDbArc
 50
157.38
 51
202.62
  0
ENDBLK
  5
12510
100
AcDbEntity
  8
0
100
AcDbBlockEnd
  0
BLOCK
  5
12585
100
AcDbEntity
  8
0
100
AcDbBlockBegin
  2
FIG038
 70
     0
 10
0.0
 20
0.0
 30
0.0
  3
FIG038
  1

  0
ARC
  5
12586
100
AcDbEntity
  8
0
 62
     0
100
AcDbCircle
 10
4.0
 20
2.5
 30
0.0
 40
6.5
100
AcDbArc
 50
157.38
 51
202.62
  0
POLYLINE
  5
12587
100
AcDbEntity
  8
0
 62
     0
100
AcDb2dPolyline
 66
     1
 10
0.0
 20
0.0
 30
0.0
 70
     1
  0
VERTEX
  5
12588
100
AcDbEntity
  8
0
 62
     0
100
AcDbVertex
100
AcDb2dVertex
 10
1.0
 20
2.0
 30
0.0
  0
VERTEX
  5
12589
100
AcDbEntity
  8
0
 62
     0
100
AcDbVertex
100
AcDb2dVertex
 10
-1.0
 20
2.0
 30
0.0
  0
VERTEX
  5
1258A
100
AcDbEntity
  8
0
 62
     0
100
AcDbVertex
100
AcDb2dVertex
 10
-1.0
 20
0.0
 30
0.0
  0
VERTEX
  5
1258B
100
AcDbEntity
  8
0
 62
     0
100
AcDbVertex
100
AcDb2dVertex
 10
1.0
 20
0.0
 30
0.0
  0
SEQEND
  5
1258C
100
AcDbEntity
  8
0
 62
     0
  0
ARC
  5
1258D
100
AcDbEntity
  8
0
 62
     0
100
AcDbCircle
 10
-4.0
 20
2.5
 30
0.0
 40
6.5
100
AcDbArc
 50
337.38
 51
22.62
  0
ENDBLK
  5
1258E
100
AcDbEntity
  8
0
100
AcDbBlockEnd
  0
ENDSEC
  0
SECTION
  2
ENTITIES
  0
INSERT
 5
14051
 330
19
100
AcDbEntity
  8
GN
100
AcDbBlockReference
 66
     1
  2
GN1G
 10
-15570.023
 20
336387.414
 30
0.0
  0
ATTRIB
 5
14052
 330
14051
100
AcDbEntity
  8
GN
100
AcDbText
 10
0.0
 20
0.0
 30
0.0
 40
2.00
  1
89/6
 51
15.0
  7
NORM
 72
     1
 11
-15570.023
 21
336387.414
 31
0.0
100
AcDbAttribute
  2
01909
 70
     4
 74
     2
  0
SEQEND
 5
14053
 330
14051
100
AcDbEntity
  8
GN
  0
INSERT
 5
14054
 330
19
100
AcDbEntity
  8
GN
100
AcDbBlockReference
 66
     1
  2
GN1
 10
-15551.079
 20
336377.670
 30
0.0
  0
ATTRIB
 5
14055
 330
14054
100
AcDbEntity
  8
GN
100
AcDbText
 10
0.0
 20
0.0
 30
0.0
 40
2.00
  1
.137
 51
15.0
  7
NORM
 72
     1
 11
-15551.079
 21
336377.670
 31
0.0
100
AcDbAttribute
  2
01909
 70
     4
 74
     2
  0
SEQEND
 5
14056
 330
14054
100
AcDbEntity
  8
GN
  0
INSERT
 5
14057
 330
19
100
AcDbEntity
  8
NS
 62
     1
100
AcDbBlockReference
  2
FIG041
 10
-15551.120
 20
336380.170
 30
0.0
  0
INSERT
 5
14058
 330
19
100
AcDbEntity
  8
NS
 62
     1
100
AcDbBlockReference
  2
FIG041
 10
-15564.650
 20
336396.000
 30
0.0
  0
INSERT
 5
14059
 330
19
100
AcDbEntity
  8
NS
100
AcDbBlockReference
  2
FIG052
 10
-15569.345
 20
336401.929
 30
0.0
  0
POLYLINE
 5
1405A
 330
19
100
AcDbEntity
  8
GG
100
AcDb2dPolyline
 66
     1
 10
0.0
 20
0.0
 30
0.0
  0
VERTEX
 5
1405B
 330
1405A
100
AcDbEntity
  8
GG
100
AcDbVertex
100
AcDb2dVertex
 10
-15550.610
 20
336385.340
 30
0.0
  0
VERTEX
 5
1405C
 330
1405A
100
AcDbEntity
  8
GG
100
AcDbVertex
100
AcDb2dVertex
 10
-15544.190
 20
336378.755
 30
0.0
  0
VERTEX
 5
1405D
 330
1405A
100
AcDbEntity
  8
GG
100
AcDbVertex
100
AcDb2dVertex
 10
-15552.950
 20
336370.215
 30
0.0
  0
VERTEX
 5
1405E
 330
1405A
100
AcDbEntity
  8
GG
100
AcDbVertex
100
AcDb2dVertex
 10
-15559.370
 20
336376.800
 30
0.0
  0
VERTEX
 5
1405F
 330
1405A
100
AcDbEntity
  8
GG
100
AcDbVertex
100
AcDb2dVertex
 10
-15550.610
 20
336385.340
 30
0.0
  0
SEQEND
 5
14060
 330
1405A
100
AcDbEntity
  8
GG
  0
POLYLINE
 5
14061
 330
19
100
AcDbEntity
  8
GG
100
AcDb2dPolyline
 66
     1
 10
0.0
 20
0.0
 30
0.0
  0
VERTEX
 5
14062
 330
14061
100
AcDbEntity
  8
GG
100
AcDbVertex
100
AcDb2dVertex
 10
-15600.860
 20
336427.340
 30
0.0
  0
VERTEX
 5
14063
 330
14061
100
AcDbEntity
  8
GG
100
AcDbVertex
100
AcDb2dVertex
 10
-15603.900
 20
336429.960
 30
0.0
  0
SEQEND
 5
14064
 330
14061
100
AcDbEntity
  8
GG
  0
POLYLINE
 5
14065
 330
19
100
AcDbEntity
  8
GG
100
AcDb2dPolyline
 66
     1
 10
0.0
 20
0.0
 30
0.0
  0
VERTEX
 5
14066
 330
14065
100
AcDbEntity
  8
GG
100
AcDbVertex
100
AcDb2dVertex
 10
-15606.890
 20
336424.250
 30
0.0
  0
VERTEX
 5
14067
 330
14065
100
AcDbEntity
  8
GG
100
AcDbVertex
100
AcDb2dVertex
 10
-15603.900
 20
336429.960
 30
0.0
  0
SEQEND
 5
14068
 330
14065
100
AcDbEntity
  8
GG
  0
POLYLINE
 5
14069
 330
19
100
AcDbEntity
  8
GG
100
AcDb2dPolyline
 66
     1
 10
0.0
 20
0.0
 30
0.0
  0
VERTEX
 5
1406A
 330
14069
100
AcDbEntity
  8
GG
100
AcDbVertex
100
AcDb2dVertex
 10
-15563.260
 20
336404.770
 30
0.0
  0
VERTEX
 5
1406B
 330
14069
100
AcDbEntity
  8
GG
100
AcDbVertex
100
AcDb2dVertex
 10
-15568.590
 20
336410.040
 30
0.0
  0
SEQEND
 5
1406C
 330
14069
100
AcDbEntity
  8
GG
  0
POLYLINE
 5
1406D
 330
19
100
AcDbEntity
  8
GG
100
AcDb2dPolyline
 66
     1
 10
0.0
 20
0.0
 30
0.0
  0
VERTEX
 5
1406E
 330
1406D
100
AcDbEntity
  8
GG
100
AcDbVertex
100
AcDb2dVertex
 10
-15578.970
 20
336384.050
 30
0.0
  0
VERTEX
 5
1406F
 330
1406D
100
AcDbEntity
  8
GG
100
AcDbVertex
100
AcDb2dVertex
 10
-15573.280
 20
336390.330
 30
0.0
  0
VERTEX
 5
14070
 330
1406D
100
AcDbEntity
  8
GG
100
AcDbVertex
100
AcDb2dVertex
 10
-15576.470
 20
336399.120
 30
0.0
  0
VERTEX
 5
14071
 330
1406D
100
AcDbEntity
  8
GG
100
AcDbVertex
100
AcDb2dVertex
 10
-15583.800
 20
336408.980
 30
0.0
  0
VERTEX
 5
14072
 330
1406D
100
AcDbEntity
  8
GG
100
AcDbVertex
100
AcDb2dVertex
 10
-15606.890
 20
336424.250
 30
0.0
  0
SEQEND
 5
14073
 330
1406D
100
AcDbEntity
  8
GG
  0
POLYLINE
 5
14074
 330
19
100
AcDbEntity
  8
GG
100
AcDb2dPolyline
 66
     1
 10
0.0
 20
0.0
 30
0.0
  0
VERTEX
 5
14075
 330
14074
100
AcDbEntity
  8
GG
100
AcDbVertex
100
AcDb2dVertex
 10
-15568.590
 20
336410.040
 30
0.0
  0
VERTEX
 5
14076
 330
14074
100
AcDbEntity
  8
GG
100
AcDbVertex
100
AcDb2dVertex
 10
-15575.130
 20
336405.200
 30
0.0
  0
VERTEX
 5
14077
 330
14074
100
AcDbEntity
  8
GG
100
AcDbVertex
100
AcDb2dVertex
 10
-15600.860
 20
336427.340
 30
0.0
  0
SEQEND
 5
14078
 330
14074
100
AcDbEntity
  8
GG
  0
POLYLINE
 5
14079
 330
19
100
AcDbEntity
  8
GG
100
AcDb2dPolyline
 66
     1
 10
0.0
 20
0.0
 30
0.0
  0
VERTEX
 5
1407A
 330
14079
100
AcDbEntity
  8
GG
100
AcDbVertex
100
AcDb2dVertex
 10
-15569.350
 20
336379.850
 30
0.0
  0
VERTEX
 5
1407B
 330
14079
100
AcDbEntity
  8
GG
100
AcDbVertex
100
AcDb2dVertex
 10
-15554.020
 20
336395.620
 30
0.0
  0
VERTEX
 5
1407C
 330
14079
100
AcDbEntity
  8
GG
100
AcDbVertex
100
AcDb2dVertex
 10
-15563.260
 20
336404.770
 30
0.0
  0
SEQEND
 5
1407D
 330
14079
100
AcDbEntity
  8
GG
  0
POLYLINE
 5
1407E
 330
19
100
AcDbEntity
  8
GG
100
AcDb2dPolyline
 66
     1
 10
0.0
 20
0.0
 30
0.0
  0
VERTEX
 5
1407F
 330
1407E
100
AcDbEntity
  8
GG
100
AcDbVertex
100
AcDb2dVertex
 10
-15569.350
 20
336379.850
 30
0.0
  0
VERTEX
 5
14080
 330
1407E
100
AcDbEntity
  8
GG
100
AcDbVertex
100
AcDb2dVertex
 10
-15575.220
 20
336383.980
 30
0.0
  0
VERTEX
 5
14081
 330
1407E
100
AcDbEntity
  8
GG
100
AcDbVertex
100
AcDb2dVertex
 10
-15578.970
 20
336384.050
 30
0.0
  0
SEQEND
 5
14082
 330
1407E
100
AcDbEntity
  8
GG
  0
POLYLINE
 5
14083
 330
19
100
AcDbEntity
  8
HG
100
AcDb2dPolyline
 66
     1
 10
0.0
 20
0.0
 30
0.0
  0
VERTEX
 5
14084
 330
14083
100
AcDbEntity
  8
HG
100
AcDbVertex
100
AcDb2dVertex
 10
-15562.510
 20
336402.400
 30
0.0
  0
VERTEX
 5
14085
 330
14083
100
AcDbEntity
  8
HG
100
AcDbVertex
100
AcDb2dVertex
 10
-15570.870
 20
336396.590
 30
0.0
  0
VERTEX
 5
14086
 330
14083
100
AcDbEntity
  8
HG
100
AcDbVertex
100
AcDb2dVertex
 10
-15565.920
 20
336389.800
 30
0.0
  0
VERTEX
 5
14087
 330
14083
100
AcDbEntity
  8
HG
100
AcDbVertex
100
AcDb2dVertex
 10
-15557.730
 20
336395.820
 30
0.0
  0
VERTEX
 5
14088
 330
14083
100
AcDbEntity
  8
HG
100
AcDbVertex
100
AcDb2dVertex
 10
-15562.510
 20
336402.400
 30
0.0
  0
SEQEND
 5
14089
 330
14083
100
AcDbEntity
  8
HG
  0
INSERT
 5
1408A
 330
19
100
AcDbEntity
  8
GP
100
AcDbBlockReference
 66
     1
  2
FIG020
 10
-15550.61
 20
336385.34
 30
0.0
  0
ATTRIB
 5
1408B
 330
1408A
100
AcDbEntity
  8
GP
100
AcDbText
 10
-15554.55
 20
336385.45
 30
0.0
 40
1.00
  1
958
 51
15.0
  7
NORM
100
AcDbAttribute
  2
01909*E*2/1986
 70
     1
  0
SEQEND
 5
1408C
 330
1408A
100
AcDbEntity
  8
GP
  0
INSERT
 5
1408D
 330
19
100
AcDbEntity
  8
GP
100
AcDbBlockReference
 66
     1
  2
FIG020
 10
-15559.37
 20
336376.80
 30
0.0
  0
ATTRIB
 5
1408E
 330
1408D
100
AcDbEntity
  8
GP
100
AcDbText
 10
-15563.04
 20
336376.29
 30
0.0
 40
1.00
  1
959
 51
15.0
  7
NORM
100
AcDbAttribute
  2
01909*E*2/1986
 70
     1
  0
SEQEND
 5
1408F
 330
1408D
100
AcDbEntity
  8
GP
  0
INSERT
 5
14090
 330
19
100
AcDbEntity
  8
GP
100
AcDbBlockReference
 66
     1
  2
FIG020
 10
-15554.02
 20
336395.62
 30
0.0
  0
ATTRIB
 5
14091
 330
14090
100
AcDbEntity
  8
GP
100
AcDbText
 10
-15552.52
 20
336396.12
 30
0.0
 40
1.00
  1
230
 51
15.0
  7
NORM
100
AcDbAttribute
  2
01909*G*2/1986
 70
     1
  0
SEQEND
 5
14092
 330
14090
100
AcDbEntity
  8
GP
  0
INSERT
 5
14093
 330
19
100
AcDbEntity
  8
GP
100
AcDbBlockReference
 66
     1
  2
FIG024
 10
-15600.86
 20
336427.34
 30
0.0
  0
ATTRIB
 5
14094
 330
14093
100
AcDbEntity
  8
GP
100
AcDbText
 10
-15600.05
 20
336427.26
 30
0.0
 40
1.00
  1
8634
 51
15.0
  7
NORM
100
AcDbAttribute
  2
01909*G*8/2004
 70
     1
  0
SEQEND
 5
14095
 330
14093
100
AcDbEntity
  8
GP
  0
INSERT
 5
14096
 330
19
100
AcDbEntity
  8
GP
100
AcDbBlockReference
 66
     1
  2
FIG020
 10
-15583.80
 20
336408.98
 30
0.0
  0
ATTRIB
 5
14097
 330
14096
100
AcDbEntity
  8
GP
100
AcDbText
 10
-15582.90
 20
336408.32
 30
0.0
 40
1.00
  1
233
 51
15.0
  7
NORM
100
AcDbAttribute
  2
01909*G*2/1986
 70
     1
  0
SEQEND
 5
14098
 330
14096
100
AcDbEntity
  8
GP
  0
INSERT
 5
14099
 330
19
100
AcDbEntity
  8
GP
100
AcDbBlockReference
 66
     1
  2
FIG020
 10
-15578.97
 20
336384.05
 30
0.0
  0
ATTRIB
 5
1409A
 330
14099
100
AcDbEntity
  8
GP
100
AcDbText
 10
-15582.91
 20
336383.07
 30
0.0
 40
1.00
  1
224
 51
15.0
  7
NORM
100
AcDbAttribute
  2
01909*G*2/1986
 70
     1
  0
SEQEND
 5
1409B
 330
14099
100
AcDbEntity
  8
GP
  0
INSERT
 5
1409C
 330
19
100
AcDbEntity
  8
GP
100
AcDbBlockReference
 66
     1
  2
FIG020
 10
-15557.73
 20
336395.82
 30
0.0
  0
ATTRIB
 5
1409D
 330
1409C
100
AcDbEntity
  8
GP
100
AcDbText
 10
-15561.41
 20
336395.55
 30
0.0
 40
1.00
  1
966
 51
15.0
  7
NORM
100
AcDbAttribute
  2
01909*E*2/1986
 70
     1
  0
SEQEND
 5
1409E
 330
1409C
100
AcDbEntity
  8
GP
  0
INSERT
 5
1409F
 330
19
100
AcDbEntity
  8
GP
100
AcDbBlockReference
 66
     1
  2
FIG024
 10
-15603.90
 20
336429.96
 30
0.0
  0
ATTRIB
 5
140A0
 330
1409F
100
AcDbEntity
  8
GP
100
AcDbText
 10
-15603.23
 20
336430.24
 30
0.0
 40
1.00
  1
227
 51
15.0
  7
NORM
100
AcDbAttribute
  2
01909*G*2/1986
 70
     1
  0
SEQEND
 5
140A1
 330
1409F
100
AcDbEntity
  8
GP
  0
INSERT
 5
140A2
 330
19
100
AcDbEntity
  8
GP
100
AcDbBlockReference
 66
     1
  2
FIG020
 10
-15576.47
 20
336399.12
 30
0.0
  0
ATTRIB
 5
140A3
 330
140A2
100
AcDbEntity
  8
GP
100
AcDbText
 10
-15575.18
 20
336398.67
 30
0.0
 40
1.00
  1
232
 51
15.0
  7
NORM
100
AcDbAttribute
  2
01909*G*2/1986
 70
     1
  0
SEQEND
 5
140A4
 330
140A2
100
AcDbEntity
  8
GP
  0
INSERT
 5
140A5
 330
19
100
AcDbEntity
  8
GP
100
AcDbBlockReference
 66
     1
  2
FIG020
 10
-15573.28
 20
336390.33
 30
0.0
  0
ATTRIB
 5
140A6
 330
140A5
100
AcDbEntity
  8
GP
100
AcDbText
 10
-15576.74
 20
336390.06
 30
0.0
 40
1.00
  1
231
 51
15.0
  7
NORM
100
AcDbAttribute
  2
01909*G*2/1986
 70
     1
  0
SEQEND
 5
140A7
 330
140A5
100
AcDbEntity
  8
GP
  0
INSERT
 5
140A8
 330
19
100
AcDbEntity
  8
GP
100
AcDbBlockReference
 66
     1
  2
FIG020
 10
-15565.92
 20
336389.80
 30
0.0
  0
ATTRIB
 5
140A9
 330
140A8
100
AcDbEntity
  8
GP
100
AcDbText
 10
-15565.34
 20
336388.30
 30
0.0
 40
1.00
  1
967
 51
15.0
  7
NORM
100
AcDbAttribute
  2
01909*E*2/1986
 70
     1
  0
SEQEND
 5
140AA
 330
140A8
100
AcDbEntity
  8
GP
  0
INSERT
 5
140AB
 330
19
100
AcDbEntity
  8
GP
100
AcDbBlockReference
 66
     1
  2
FIG020
 10
-15563.26
 20
336404.77
 30
0.0
  0
ATTRIB
 5
140AC
 330
140AB
100
AcDbEntity
  8
GP
100
AcDbText
 10
-15561.61
 20
336404.37
 30
0.0
 40
1.00
  1
957
 51
15.0
  7
NORM
100
AcDbAttribute
  2
01909*G*2/1986
 70
     1
  0
SEQEND
 5
140AD
 330
140AB
100
AcDbEntity
  8
GP
  0
INSERT
 5
140AE
 330
19
100
AcDbEntity
  8
GP
100
AcDbBlockReference
 66
     1
  2
FIG020
 10
-15606.89
 20
336424.25
 30
0.0
  0
ATTRIB
 5
140AF
 330
140AE
100
AcDbEntity
  8
GP
100
AcDbText
 10
-15605.39
 20
336424.75
 30
0.0
 40
1.00
  1
226
 51
15.0
  7
NORM
100
AcDbAttribute
  2
01909*G*2/1986
 70
     1
  0
SEQEND
 5
140B0
 330
140AE
100
AcDbEntity
  8
GP
  0
INSERT
 5
140B1
 330
19
100
AcDbEntity
  8
GP
100
AcDbBlockReference
 66
     1
  2
FIG024
 10
-15575.13
 20
336405.20
 30
0.0
  0
ATTRIB
 5
140B2
 330
140B1
100
AcDbEntity
  8
GP
100
AcDbText
 10
-15574.22
 20
336403.77
 30
0.0
 40
1.00
  1
228
 51
15.0
  7
NORM
100
AcDbAttribute
  2
01909*G*2/1986
 70
     1
  0
SEQEND
 5
140B3
 330
140B1
100
AcDbEntity
  8
GP
  0
INSERT
 5
140B4
 330
19
100
AcDbEntity
  8
GP
100
AcDbBlockReference
 66
     1
  2
FIG020
 10
-15568.59
 20
336410.04
 30
0.0
  0
ATTRIB
 5
140B5
 330
140B4
100
AcDbEntity
  8
GP
100
AcDbText
 10
-15572.87
 20
336409.53
 30
0.0
 40
1.00
  1
229
 51
15.0
  7
NORM
100
AcDbAttribute
  2
01909*G*2/1986
 70
     1
  0
SEQEND
 5
140B6
 330
140B4
100
AcDbEntity
  8
GP
  0
INSERT
 5
140B7
 330
19
100
AcDbEntity
  8
GP
100
AcDbBlockReference
 66
     1
  2
FIG020
 10
-15569.35
 20
336379.85
 30
0.0
  0
ATTRIB
 5
140B8
 330
140B7
100
AcDbEntity
  8
GP
100
AcDbText
 10
-15567.85
 20
336379.41
 30
0.0
 40
1.00
  1
222
 51
15.0
  7
NORM
100
AcDbAttribute
  2
01909*G*2/1986
 70
     1
  0
SEQEND
 5
140B9
 330
140B7
100
AcDbEntity
  8
GP
  0
INSERT
 5
140BA
 330
19
100
AcDbEntity
  8
GP
100
AcDbBlockReference
 66
     1
  2
FIG020
 10
-15575.22
 20
336383.98
 30
0.0
  0
ATTRIB
 5
140BB
 330
140BA
100
AcDbEntity
  8
GP
100
AcDbText
 10
-15576.54
 20
336384.56
 30
0.0
 40
1.00
  1
223
 51
15.0
  7
NORM
100
AcDbAttribute
  2
01909*G*2/1986
 70
     1
  0
SEQEND
 5
140BC
 330
140BA
100
AcDbEntity
  8
GP
  0
INSERT
 5
140BD
 330
19
100
AcDbEntity
  8
GP
100
AcDbBlockReference
 66
     1
  2
FIG020
 10
-15570.87
 20
336396.59
 30
0.0
  0
ATTRIB
 5
140BE
 330
140BD
100
AcDbEntity
  8
GP
100
AcDbText
 10
-15569.68
 20
336395.76
 30
0.0
 40
1.00
  1
964
 51
15.0
  7
NORM
100
AcDbAttribute
  2
01909*E*2/1986
 70
     1
  0
SEQEND
 5
140BF
 330
140BD
100
AcDbEntity
  8
GP
  0
INSERT
 5
140C0
 330
19
100
AcDbEntity
  8
GP
100
AcDbBlockReference
 66
     1
  2
FIG020
 10
-15562.51
 20
336402.40
 30
0.0
  0
ATTRIB
 5
140C1
 330
140C0
100
AcDbEntity
  8
GP
100
AcDbText
 10
-15566.22
 20
336402.40
 30
0.0
 40
1.00
  1
965
 51
15.0
  7
NORM
100
AcDbAttribute
  2
01909*E*2/1986
 70
     1
  0
SEQEND
 5
140C2
 330
140C0
100
AcDbEntity
  8
GP
  0
INSERT
 5
140C3
 330
19
100
AcDbEntity
  8
SS
100
AcDbBlockReference
  2
FIG032
 10
-15566.724
 20
336399.472
 30
0.0
 50
214.798
  0
ENDSEC
  0
SECTION
  2
OBJECTS
  0
DICTIONARY
  5
C
100
AcDbDictionary
  3
ACAD_GROUP
350
D
  3
ACAD_IMAGE_DICT
350
12248
  3
ACAD_IMAGE_VARS
350
12247
  3
ACAD_MLINESTYLE
350
E
  3
ADE_DRAWING_SETS
350
EA3D
  3
ADE_QUERY_LIBRARY
350
EA3E
  0
IMAGEDEF_REACTOR
  5
12417
100
AcDbRasterImageDefReactor
 90
        2
330
12416
  0
DICTIONARY
  5
D
102
{ACAD_REACTORS
330
C
102
}
100
AcDbDictionary
  0
DICTIONARY
  5
12248
102
{ACAD_REACTORS
330
C
102
}
100
AcDbDictionary
  3
LOGO
350
12407
  0
RASTERVARIABLES
  5
12247
102
{ACAD_REACTORS
330
C
102
}
100
AcDbRasterVariables
 90
        0
 70
     1
 71
     1
 72
     0
  0
DICTIONARY
  5
E
102
{ACAD_REACTORS
330
C
102
}
100
AcDbDictionary
  3
STANDARD
350
1C
  0
DICTIONARY
  5
EA3D
102
{ACAD_REACTORS
330
C
102
}
100
AcDbDictionary
  0
DICTIONARY
  5
EA3E
102
{ACAD_REACTORS
330
C
102
}
100
AcDbDictionary
  3
_CURRQRY
350
EA3F
  0
IMAGEDEF
  5
12407
102
{ACAD_REACTORS
330
12248
330
12417
102
}
100
AcDbRasterImageDef
 90
        0
  1
C:\BEV_DKM\BevFunc\DkmFunc\oppl\Logo.bmp
 10
838.0
 20
273.0
 11
0.26455
 21
0.26455
280
     1
281
     2
  0
MLINESTYLE
  5
1C
102
{ACAD_REACTORS
330
E
102
}
100
AcDbMlineStyle
  2
STANDARD
 70
     0
  3

 62
     0
 51
90.0
 52
90.0
 71
     2
 49
0.5
 62
   256
  6
BYLAYER
 49
-0.5
 62
   256
  6
BYLAYER
  0
XRECORD
  5
EA3F
102
{ACAD_REACTORS
330
EA3E
102
}
100
AcDbXrecord
1000
ADE02C001
1070
     1
1070
     0
1002
{
1002
}
1002
{
1002
}
1002
{
1002
}
1000

  0
ENDSEC
  0
EOF
