  0
SECTION
  2
HEADER
  9
$ACADVER
  1
AC1027
  9
$ACADMAINTVER
 70
    20
  9
$DWGCODEPAGE
  3
ANSI_1252
  9
$LASTSAVEDBY
  1
CAD1
  9
$REQUIREDVERSIONS
160
                 0
  9
$INSBASE
 10
0.0
 20
0.0
 30
0.0
  9
$EXTMIN
 10
22.51739427012278
 20
25.50989085948158
 30
0.0
  9
$EXTMAX
 10
396.25
 20
257.6589358799454
 30
0.0
  9
$LIMMIN
 10
0.0
 20
0.0
  9
$LIMMAX
 10
420.0
 20
297.0
  9
$ORTHOMODE
 70
     0
  9
$REGENMODE
 70
     1
  9
$FILLMODE
 70
     1
  9
$QTEXTMODE
 70
     0
  9
$MIRRTEXT
 70
     1
  9
$LTSCALE
 40
1.0
  9
$ATTMODE
 70
     1
  9
$TEXTSIZE
 40
3.5
  9
$TRACEWID
 40
0.05
  9
$TEXTSTYLE
  7
Standard
  9
$CLAYER
  8
0
  9
$CELTYPE
  6
ByLayer
  9
$CECOLOR
 62
   256
  9
$CELTSCALE
 40
1.0
  9
$DISPSILH
 70
     0
  9
$DIMSCALE
 40
1.0
  9
$DIMASZ
 40
0.18
  9
$DIMEXO
 40
0.0625
  9
$DIMDLI
 40
0.38
  9
$DIMRND
 40
0.0
  9
$DIMDLE
 40
0.0
  9
$DIMEXE
 40
0.18
  9
$DIMTP
 40
0.0
  9
$DIMTM
 40
0.0
  9
$DIMTXT
 40
0.18
  9
$DIMCEN
 40
0.09
  9
$DIMTSZ
 40
0.0
  9
$DIMTOL
 70
     0
  9
$DIMLIM
 70
     0
  9
$DIMTIH
 70
     1
  9
$DIMTOH
 70
     1
  9
$DIMSE1
 70
     0
  9
$DIMSE2
 70
     0
  9
$DIMTAD
 70
     0
  9
$DIMZIN
 70
     0
  9
$DIMBLK
  1

  9
$DIMASO
 70
     1
  9
$DIMSHO
 70
     1
  9
$DIMPOST
  1

  9
$DIMAPOST
  1

  9
$DIMALT
 70
     0
  9
$DIMALTD
 70
     2
  9
$DIMALTF
 40
25.4
  9
$DIMLFAC
 40
1.0
  9
$DIMTOFL
 70
     0
  9
$DIMTVP
 40
0.0
  9
$DIMTIX
 70
     0
  9
$DIMSOXD
 70
     0
  9
$DIMSAH
 70
     0
  9
$DIMBLK1
  1

  9
$DIMBLK2
  1

  9
$DIMSTYLE
  2
Standard
  9
$DIMCLRD
 70
    18
  9
$DIMCLRE
 70
    18
  9
$DIMCLRT
 70
    18
  9
$DIMTFAC
 40
1.0
  9
$DIMGAP
 40
0.09
  9
$DIMJUST
 70
     0
  9
$DIMSD1
 70
     0
  9
$DIMSD2
 70
     0
  9
$DIMTOLJ
 70
     1
  9
$DIMTZIN
 70
     0
  9
$DIMALTZ
 70
     0
  9
$DIMALTTZ
 70
     0
  9
$DIMUPT
 70
     0
  9
$DIMDEC
 70
     4
  9
$DIMTDEC
 70
     4
  9
$DIMALTU
 70
     2
  9
$DIMALTTD
 70
     2
  9
$DIMTXSTY
  7
Standard
  9
$DIMAUNIT
 70
     0
  9
$DIMADEC
 70
     0
  9
$DIMALTRND
 40
0.0
  9
$DIMAZIN
 70
     0
  9
$DIMDSEP
 70
    46
  9
$DIMATFIT
 70
     3
  9
$DIMFRAC
 70
     0
  9
$DIMLDRBLK
  1

  9
$DIMLUNIT
 70
     2
  9
$DIMLWD
 70
    -2
  9
$DIMLWE
 70
    -2
  9
$DIMTMOVE
 70
     0
  9
$DIMFXL
 40
1.0
  9
$DIMFXLON
 70
     0
  9
$DIMJOGANG
 40
0.7853981633974483
  9
$DIMTFILL
 70
     0
  9
$DIMTFILLCLR
 70
     0
  9
$DIMARCSYM
 70
     0
  9
$DIMLTYPE
  6

  9
$DIMLTEX1
  6

  9
$DIMLTEX2
  6

  9
$DIMTXTDIRECTION
 70
     0
  9
$LUNITS
 70
     2
  9
$LUPREC
 70
     4
  9
$SKETCHINC
 40
0.1
  9
$FILLETRAD
 40
0.5
  9
$AUNITS
 70
     0
  9
$AUPREC
 70
     0
  9
$MENU
  1
.
  9
$ELEVATION
 40
0.0
  9
$PELEVATION
 40
0.0
  9
$THICKNESS
 40
0.0
  9
$LIMCHECK
 70
     0
  9
$CHAMFERA
 40
0.0
  9
$CHAMFERB
 40
0.0
  9
$CHAMFERC
 40
0.0
  9
$CHAMFERD
 40
0.0
  9
$SKPOLY
 70
     0
  9
$TDCREATE
 40
2459149.453909040
  9
$TDUCREATE
 40
2459149.412242373
  9
$TDUPDATE
 40
2459153.417193241
  9
$TDUUPDATE
 40
2459153.375526574
  9
$TDINDWG
 40
0.0259575579
  9
$TDUSRTIMER
 40
0.0259574306
  9
$USRTIMER
 70
     1
  9
$ANGBASE
 50
0.0
  9
$ANGDIR
 70
     0
  9
$PDMODE
 70
     0
  9
$PDSIZE
 40
0.0
  9
$PLINEWID
 40
0.0
  9
$SPLFRAME
 70
     0
  9
$SPLINETYPE
 70
     6
  9
$SPLINESEGS
 70
     8
  9
$HANDSEED
  5
2C60
  9
$SURFTAB1
 70
     6
  9
$SURFTAB2
 70
     6
  9
$SURFTYPE
 70
     6
  9
$SURFU
 70
     6
  9
$SURFV
 70
     6
  9
$UCSBASE
  2

  9
$UCSNAME
  2

  9
$UCSORG
 10
0.0
 20
0.0
 30
0.0
  9
$UCSXDIR
 10
1.0
 20
0.0
 30
0.0
  9
$UCSYDIR
 10
0.0
 20
1.0
 30
0.0
  9
$UCSORTHOREF
  2

  9
$UCSORTHOVIEW
 70
     0
  9
$UCSORGTOP
 10
0.0
 20
0.0
 30
0.0
  9
$UCSORGBOTTOM
 10
0.0
 20
0.0
 30
0.0
  9
$UCSORGLEFT
 10
0.0
 20
0.0
 30
0.0
  9
$UCSORGRIGHT
 10
0.0
 20
0.0
 30
0.0
  9
$UCSORGFRONT
 10
0.0
 20
0.0
 30
0.0
  9
$UCSORGBACK
 10
0.0
 20
0.0
 30
0.0
  9
$PUCSBASE
  2

  9
$PUCSNAME
  2

  9
$PUCSORG
 10
0.0
 20
0.0
 30
0.0
  9
$PUCSXDIR
 10
1.0
 20
0.0
 30
0.0
  9
$PUCSYDIR
 10
0.0
 20
1.0
 30
0.0
  9
$PUCSORTHOREF
  2

  9
$PUCSORTHOVIEW
 70
     0
  9
$PUCSORGTOP
 10
0.0
 20
0.0
 30
0.0
  9
$PUCSORGBOTTOM
 10
0.0
 20
0.0
 30
0.0
  9
$PUCSORGLEFT
 10
0.0
 20
0.0
 30
0.0
  9
$PUCSORGRIGHT
 10
0.0
 20
0.0
 30
0.0
  9
$PUCSORGFRONT
 10
0.0
 20
0.0
 30
0.0
  9
$PUCSORGBACK
 10
0.0
 20
0.0
 30
0.0
  9
$USERI1
 70
     0
  9
$USERI2
 70
     0
  9
$USERI3
 70
     0
  9
$USERI4
 70
     0
  9
$USERI5
 70
     0
  9
$USERR1
 40
0.0
  9
$USERR2
 40
0.0
  9
$USERR3
 40
0.0
  9
$USERR4
 40
0.0
  9
$USERR5
 40
0.0
  9
$WORLDVIEW
 70
     1
  9
$SHADEDGE
 70
     3
  9
$SHADEDIF
 70
    70
  9
$TILEMODE
 70
     1
  9
$MAXACTVP
 70
     2
  9
$PINSBASE
 10
0.0
 20
0.0
 30
0.0
  9
$PLIMCHECK
 70
     0
  9
$PEXTMIN
 10
1.000000000000000E+20
 20
1.000000000000000E+20
 30
1.000000000000000E+20
  9
$PEXTMAX
 10
-1.000000000000000E+20
 20
-1.000000000000000E+20
 30
-1.000000000000000E+20
  9
$PLIMMIN
 10
-0.25
 20
-0.25
  9
$PLIMMAX
 10
10.75
 20
8.25
  9
$UNITMODE
 70
     0
  9
$VISRETAIN
 70
     1
  9
$PLINEGEN
 70
     0
  9
$PSLTSCALE
 70
     1
  9
$TREEDEPTH
 70
  3020
  9
$CMLSTYLE
  2
Standard
  9
$CMLJUST
 70
     0
  9
$CMLSCALE
 40
1.0
  9
$PROXYGRAPHICS
 70
     1
  9
$MEASUREMENT
 70
     0
  9
$CELWEIGHT
370
    -1
  9
$ENDCAPS
280
     0
  9
$JOINSTYLE
280
     0
  9
$LWDISPLAY
290
     0
  9
$INSUNITS
 70
     0
  9
$HYPERLINKBASE
  1

  9
$STYLESHEET
  1

  9
$XEDIT
290
     1
  9
$CEPSNTYPE
380
     0
  9
$PSTYLEMODE
290
     1
  9
$FINGERPRINTGUID
  2
{F2C7F8A9-0F75-4523-90C1-995C7A9F0832}
  9
$VERSIONGUID
  2
{0167E360-9BA5-4448-889C-6361E1A5962E}
  9
$EXTNAMES
290
     1
  9
$PSVPSCALE
 40
0.0
  9
$OLESTARTUP
290
     0
  9
$SORTENTS
280
   127
  9
$INDEXCTL
280
     0
  9
$HIDETEXT
280
     1
  9
$XCLIPFRAME
280
     2
  9
$HALOGAP
280
     0
  9
$OBSCOLOR
 70
   257
  9
$OBSLTYPE
280
     0
  9
$INTERSECTIONDISPLAY
280
     0
  9
$INTERSECTIONCOLOR
 70
   257
  9
$DIMASSOC
280
     2
  9
$PROJECTNAME
  1

  9
$CAMERADISPLAY
290
     0
  9
$LENSLENGTH
 40
50.0
  9
$CAMERAHEIGHT
 40
0.0
  9
$STEPSPERSEC
 40
2.0
  9
$STEPSIZE
 40
6.0
  9
$3DDWFPREC
 40
2.0
  9
$PSOLWIDTH
 40
0.25
  9
$PSOLHEIGHT
 40
4.0
  9
$LOFTANG1
 40
1.570796326794897
  9
$LOFTANG2
 40
1.570796326794897
  9
$LOFTMAG1
 40
0.0
  9
$LOFTMAG2
 40
0.0
  9
$LOFTPARAM
 70
     7
  9
$LOFTNORMALS
280
     1
  9
$LATITUDE
 40
37.795
  9
$LONGITUDE
 40
-122.394
  9
$NORTHDIRECTION
 40
0.0
  9
$TIMEZONE
 70
 -8000
  9
$LIGHTGLYPHDISPLAY
280
     1
  9
$TILEMODELIGHTSYNCH
280
     1
  9
$CMATERIAL
347
12AC
  9
$SOLIDHIST
280
     0
  9
$SHOWHIST
280
     1
  9
$DWFFRAME
280
     2
  9
$DGNFRAME
280
     2
  9
$REALWORLDSCALE
290
     1
  9
$INTERFERECOLOR
 62
   256
  9
$INTERFEREOBJVS
345
129B
  9
$INTERFEREVPVS
346
1298
  9
$CSHADOW
280
     0
  9
$SHADOWPLANELOCATION
 40
0.0
  0
ENDSEC
  0
SECTION
  2
CLASSES
  0
CLASS
  1
ACDBDICTIONARYWDFLT
  2
AcDbDictionaryWithDefault
  3
ObjectDBX Classes
 90
        0
 91
        1
280
     0
281
     0
  0
CLASS
  1
VISUALSTYLE
  2
AcDbVisualStyle
  3
ObjectDBX Classes
 90
     4095
 91
       24
280
     0
281
     0
  0
CLASS
  1
MATERIAL
  2
AcDbMaterial
  3
ObjectDBX Classes
 90
     1153
 91
        3
280
     0
281
     0
  0
CLASS
  1
SCALE
  2
AcDbScale
  3
ObjectDBX Classes
 90
     1153
 91
       33
280
     0
281
     0
  0
CLASS
  1
TABLESTYLE
  2
AcDbTableStyle
  3
ObjectDBX Classes
 90
     4095
 91
        1
280
     0
281
     0
  0
CLASS
  1
MLEADERSTYLE
  2
AcDbMLeaderStyle
  3
ACDB_MLEADERSTYLE_CLASS
 90
     4095
 91
        1
280
     0
281
     0
  0
CLASS
  1
SUN
  2
AcDbSun
  3
SCENEOE
 90
     1153
 91
        2
280
     0
281
     0
  0
CLASS
  1
DICTIONARYVAR
  2
AcDbDictionaryVar
  3
ObjectDBX Classes
 90
        0
 91
        5
280
     0
281
     0
  0
CLASS
  1
CELLSTYLEMAP
  2
AcDbCellStyleMap
  3
ObjectDBX Classes
 90
     1152
 91
        3
280
     0
281
     0
  0
CLASS
  1
ACDBSECTIONVIEWSTYLE
  2
AcDbSectionViewStyle
  3
ObjectDBX Classes
 90
     1025
 91
        1
280
     0
281
     0
  0
CLASS
  1
ACDBDETAILVIEWSTYLE
  2
AcDbDetailViewStyle
  3
ObjectDBX Classes
 90
     1025
 91
        1
280
     0
281
     0
  0
CLASS
  1
SORTENTSTABLE
  2
AcDbSortentsTable
  3
ObjectDBX Classes
 90
        0
 91
        1
280
     0
281
     0
  0
CLASS
  1
ACAD_EVALUATION_GRAPH
  2
AcDbEvalGraph
  3
ObjectDBX Classes
 90
     1153
 91
        0
280
     0
281
     0
  0
CLASS
  1
ACAECUSTOBJ
  2
AcAeEditorObj
  3
AcAeEditorObj
 90
     1024
 91
        0
280
     0
281
     0
  0
ENDSEC
  0
SECTION
  2
TABLES
  0
TABLE
  2
VPORT
  5
1271
330
0
100
AcDbSymbolTable
 70
     1
  0
VPORT
  5
1291
330
1271
100
AcDbSymbolTableRecord
100
AcDbViewportTableRecord
  2
*Active
 70
     0
 10
0.0
 20
0.0
 11
1.0
 21
1.0
 12
973.7825441306448
 22
78.94432231127211
 13
0.0
 23
0.0
 14
0.5
 24
0.5
 15
0.5
 25
0.5
 16
0.0
 26
0.0
 36
1.0
 17
0.0
 27
0.0
 37
0.0
 40
1109.143902332474
 41
2.342250922509224
 42
50.0
 43
0.0
 44
0.0
 50
0.0
 51
0.0
 71
     0
 72
   100
 73
     1
 74
     3
 75
     0
 76
     0
 77
     0
 78
     0
281
     0
 65
     1
110
0.0
120
0.0
130
0.0
111
1.0
121
0.0
131
0.0
112
0.0
122
1.0
132
0.0
 79
     0
146
0.0
348
1297
 60
     3
 61
     5
292
     1
282
     1
141
0.0
142
0.0
 63
   250
361
12D5
1001
ACAD_NAV_VCDISPLAY
1070
     3
  0
ENDTAB
  0
TABLE
  2
LTYPE
  5
126E
330
0
100
AcDbSymbolTable
 70
     7
  0
LTYPE
  5
127C
330
126E
100
AcDbSymbolTableRecord
100
AcDbLinetypeTableRecord
  2
ByBlock
 70
     0
  3

 72
    65
 73
     0
 40
0.0
  0
LTYPE
  5
127D
330
126E
100
AcDbSymbolTableRecord
100
AcDbLinetypeTableRecord
  2
ByLayer
 70
     0
  3

 72
    65
 73
     0
 40
0.0
  0
LTYPE
  5
127E
330
126E
100
AcDbSymbolTableRecord
100
AcDbLinetypeTableRecord
  2
Continuous
 70
     0
  3
Solid line
 72
    65
 73
     0
 40
0.0
  0
LTYPE
  5
130F
330
126E
100
AcDbSymbolTableRecord
100
AcDbLinetypeTableRecord
  2
PHANTOM2
 70
     0
  3
Phantom (.5x) ___ _ _ ___ _ _ ___ _ _ ___ _ _
 72
    65
 73
     6
 40
31.75
 49
15.875
 74
     0
 49
-3.174999999999998
 74
     0
 49
3.174999999999998
 74
     0
 49
-3.174999999999998
 74
     0
 49
3.174999999999998
 74
     0
 49
-3.174999999999998
 74
     0
  0
LTYPE
  5
1340
330
126E
100
AcDbSymbolTableRecord
100
AcDbLinetypeTableRecord
  2
LTY4
 70
     0
  3
__  __  __  __  __  __  __  __  __
 72
    65
 73
     2
 40
6.0
 49
3.0
 74
     0
 49
-3.0
 74
     0
  0
LTYPE
  5
1342
330
126E
100
AcDbSymbolTableRecord
100
AcDbLinetypeTableRecord
  2
LTY6
 70
     0
  3
____  __  ____  __  ____  __  ____
 72
    65
 73
     4
 40
17.5
 49
11.5
 74
     0
 49
-2.0
 74
     0
 49
2.0
 74
     0
 49
-2.0
 74
     0
  0
LTYPE
  5
1343
330
126E
100
AcDbSymbolTableRecord
100
AcDbLinetypeTableRecord
  2
LTY7
 70
     0
  3
___ . ___ . ___ . ___ . ___ . ___
 72
    65
 73
     4
 40
15.0
 49
11.0
 74
     0
 49
-2.0
 74
     0
 49
0.0
 74
     0
 49
-2.0
 74
     0
  0
LTYPE
  5
1345
330
126E
100
AcDbSymbolTableRecord
100
AcDbLinetypeTableRecord
  2
LTY1
 70
     0
  3
________________________________
 72
    65
 73
     0
 40
0.0
  0
LTYPE
  5
1347
330
126E
100
AcDbSymbolTableRecord
100
AcDbLinetypeTableRecord
  2
LTY3
 70
     0
  3
_ _ _ _ _ _ _ _ _ _ _ _ _ _ _ _ _
 72
    65
 73
     2
 40
3.0
 49
1.5
 74
     0
 49
-1.5
 74
     0
  0
ENDTAB
  0
TABLE
  2
LAYER
  5
126C
102
{ACAD_XDICTIONARY
360
2778
102
}
330
0
100
AcDbSymbolTable
 70
     8
  0
LAYER
  5
1279
330
126C
100
AcDbSymbolTableRecord
100
AcDbLayerTableRecord
  2
0
 70
     0
 62
     7
420
 16777215
  6
Continuous
370
    -3
390
1278
347
12AE
348
0
  0
LAYER
  5
1350
330
126C
100
AcDbSymbolTableRecord
100
AcDbLayerTableRecord
  2
PEN4
 70
     0
 62
     4
420
    65535
  6
LTY1
370
    -3
390
1278
347
12AE
348
0
  0
LAYER
  5
1352
330
126C
100
AcDbSymbolTableRecord
100
AcDbLayerTableRecord
  2
PEN6
 70
     0
 62
     6
420
 16711935
  6
LTY1
370
    -3
390
1278
347
12AE
348
0
  0
LAYER
  5
1354
330
126C
100
AcDbSymbolTableRecord
100
AcDbLayerTableRecord
  2
PEN1
 70
     0
 62
     1
420
 16711680
  6
LTY1
370
    -3
390
1278
347
12AE
348
0
  0
LAYER
  5
1355
330
126C
100
AcDbSymbolTableRecord
100
AcDbLayerTableRecord
  2
PEN2
 70
     0
 62
     2
420
 16776960
  6
LTY1
370
    -3
390
1278
347
12AE
348
0
  0
LAYER
  5
1356
330
126C
100
AcDbSymbolTableRecord
100
AcDbLayerTableRecord
  2
PEN3
 70
     0
 62
     3
420
    65280
  6
LTY1
370
    -3
390
1278
347
12AE
348
0
  0
LAYER
  5
2C56
330
126C
100
AcDbSymbolTableRecord
100
AcDbLayerTableRecord
  2
SYMBOL
 70
     0
 62
     7
  6
Continuous
370
    -3
390
1278
347
12AE
348
0
  0
ENDTAB
  0
TABLE
  2
STYLE
  5
126D
330
0
100
AcDbSymbolTable
 70
   159
  0
STYLE
  5
127A
330
126D
100
AcDbSymbolTableRecord
100
AcDbTextStyleTableRecord
  2
Standard
 70
     0
 40
0.0
 41
1.0
 50
0.0
 71
     0
 42
3.5
  3
txt
  4

  0
STYLE
  5
143C
330
126D
100
AcDbSymbolTableRecord
100
AcDbTextStyleTableRecord
  2
textstyle142
 70
     0
 40
0.0
 41
1.0
 50
0.0
 71
     0
 42
3.5
  3
arial.ttf
  4

1001
ACAD
1000
Arial
1071
        0
  0
STYLE
  5
143D
330
126D
100
AcDbSymbolTableRecord
100
AcDbTextStyleTableRecord
  2
textstyle143
 70
     0
 40
0.0
 41
1.0
 50
0.0
 71
     0
 42
3.5
  3
arial.ttf
  4

1001
ACAD
1000
Arial
1071
        0
  0
STYLE
  5
143E
330
126D
100
AcDbSymbolTableRecord
100
AcDbTextStyleTableRecord
  2
textstyle144
 70
     0
 40
0.0
 41
1.0
 50
0.0
 71
     0
 42
3.5
  3
arial.ttf
  4

1001
ACAD
1000
Arial
1071
        0
  0
STYLE
  5
15BE
330
126D
100
AcDbSymbolTableRecord
100
AcDbTextStyleTableRecord
  2
textstyle528
 70
     0
 40
0.0
 41
1.0
 50
0.0
 71
     0
 42
3.5
  3
arial.ttf
  4

1001
ACAD
1000
Arial
1071
        0
  0
STYLE
  5
172D
330
126D
100
AcDbSymbolTableRecord
100
AcDbTextStyleTableRecord
  2
textstyle895
 70
     0
 40
0.0
 41
1.0
 50
0.0
 71
     0
 42
3.5
  3
arial.ttf
  4

1001
ACAD
1000
Arial
1071
        0
  0
STYLE
  5
1733
330
126D
100
AcDbSymbolTableRecord
100
AcDbTextStyleTableRecord
  2
textstyle901
 70
     0
 40
0.0
 41
1.0
 50
0.0
 71
     0
 42
3.5
  3
arial.ttf
  4

1001
ACAD
1000
Arial
1071
        0
  0
STYLE
  5
1748
330
126D
100
AcDbSymbolTableRecord
100
AcDbTextStyleTableRecord
  2
textstyle922
 70
     0
 40
0.0
 41
1.0
 50
0.0
 71
     0
 42
3.5
  3
arial.ttf
  4

1001
ACAD
1000
Arial
1071
        0
  0
STYLE
  5
1749
330
126D
100
AcDbSymbolTableRecord
100
AcDbTextStyleTableRecord
  2
textstyle923
 70
     0
 40
0.0
 41
1.0
 50
0.0
 71
     0
 42
3.5
  3
arial.ttf
  4

1001
ACAD
1000
Arial
1071
        0
  0
STYLE
  5
174A
330
126D
100
AcDbSymbolTableRecord
100
AcDbTextStyleTableRecord
  2
textstyle924
 70
     0
 40
0.0
 41
1.0
 50
0.0
 71
     0
 42
3.5
  3
arial.ttf
  4

1001
ACAD
1000
Arial
1071
        0
  0
STYLE
  5
174B
330
126D
100
AcDbSymbolTableRecord
100
AcDbTextStyleTableRecord
  2
textstyle925
 70
     0
 40
0.0
 41
1.0
 50
0.0
 71
     0
 42
3.5
  3
arial.ttf
  4

1001
ACAD
1000
Arial
1071
        0
  0
STYLE
  5
174C
330
126D
100
AcDbSymbolTableRecord
100
AcDbTextStyleTableRecord
  2
textstyle926
 70
     0
 40
0.0
 41
1.0
 50
0.0
 71
     0
 42
3.5
  3
arial.ttf
  4

1001
ACAD
1000
Arial
1071
        0
  0
STYLE
  5
174D
330
126D
100
AcDbSymbolTableRecord
100
AcDbTextStyleTableRecord
  2
textstyle927
 70
     0
 40
0.0
 41
1.0
 50
0.0
 71
     0
 42
3.5
  3
arial.ttf
  4

1001
ACAD
1000
Arial
1071
        0
  0
STYLE
  5
175E
330
126D
100
AcDbSymbolTableRecord
100
AcDbTextStyleTableRecord
  2
textstyle943
 70
     0
 40
0.0
 41
1.0
 50
0.0
 71
     0
 42
3.5
  3
arial.ttf
  4

1001
ACAD
1000
Arial
1071
        0
  0
STYLE
  5
175F
330
126D
100
AcDbSymbolTableRecord
100
AcDbTextStyleTableRecord
  2
textstyle944
 70
     0
 40
0.0
 41
1.0
 50
0.0
 71
     0
 42
3.5
  3
arial.ttf
  4

1001
ACAD
1000
Arial
1071
        0
  0
STYLE
  5
1760
330
126D
100
AcDbSymbolTableRecord
100
AcDbTextStyleTableRecord
  2
textstyle945
 70
     0
 40
0.0
 41
1.0
 50
0.0
 71
     0
 42
3.5
  3
arial.ttf
  4

1001
ACAD
1000
Arial
1071
        0
  0
STYLE
  5
1761
330
126D
100
AcDbSymbolTableRecord
100
AcDbTextStyleTableRecord
  2
textstyle946
 70
     0
 40
0.0
 41
1.0
 50
0.0
 71
     0
 42
3.5
  3
arial.ttf
  4

1001
ACAD
1000
Arial
1071
        0
  0
STYLE
  5
1762
330
126D
100
AcDbSymbolTableRecord
100
AcDbTextStyleTableRecord
  2
textstyle947
 70
     0
 40
0.0
 41
1.0
 50
0.0
 71
     0
 42
3.5
  3
arial.ttf
  4

1001
ACAD
1000
Arial
1071
        0
  0
STYLE
  5
1764
330
126D
100
AcDbSymbolTableRecord
100
AcDbTextStyleTableRecord
  2
textstyle949
 70
     0
 40
0.0
 41
1.0
 50
0.0
 71
     0
 42
3.5
  3
arial.ttf
  4

1001
ACAD
1000
Arial
1071
        0
  0
STYLE
  5
1766
330
126D
100
AcDbSymbolTableRecord
100
AcDbTextStyleTableRecord
  2
textstyle951
 70
     0
 40
0.0
 41
1.0
 50
0.0
 71
     0
 42
3.5
  3
arial.ttf
  4

1001
ACAD
1000
Arial
1071
        0
  0
STYLE
  5
177D
330
126D
100
AcDbSymbolTableRecord
100
AcDbTextStyleTableRecord
  2
textstyle974
 70
     0
 40
0.0
 41
1.0
 50
0.0
 71
     0
 42
3.5
  3
arial.ttf
  4

1001
ACAD
1000
Arial
1071
        0
  0
STYLE
  5
177E
330
126D
100
AcDbSymbolTableRecord
100
AcDbTextStyleTableRecord
  2
textstyle975
 70
     0
 40
0.0
 41
1.0
 50
0.0
 71
     0
 42
3.5
  3
arial.ttf
  4

1001
ACAD
1000
Arial
1071
        0
  0
STYLE
  5
1788
330
126D
100
AcDbSymbolTableRecord
100
AcDbTextStyleTableRecord
  2
textstyle984
 70
     0
 40
0.0
 41
1.0
 50
0.0
 71
     0
 42
3.5
  3
arial.ttf
  4

1001
ACAD
1000
Arial
1071
        0
  0
STYLE
  5
17A2
330
126D
100
AcDbSymbolTableRecord
100
AcDbTextStyleTableRecord
  2
textstyle1010
 70
     0
 40
0.0
 41
1.0
 50
0.0
 71
     0
 42
3.5
  3
arial.ttf
  4

1001
ACAD
1000
Arial
1071
        0
  0
STYLE
  5
17A3
330
126D
100
AcDbSymbolTableRecord
100
AcDbTextStyleTableRecord
  2
textstyle1011
 70
     0
 40
0.0
 41
1.0
 50
0.0
 71
     0
 42
3.5
  3
arial.ttf
  4

1001
ACAD
1000
Arial
1071
        0
  0
STYLE
  5
17AE
330
126D
100
AcDbSymbolTableRecord
100
AcDbTextStyleTableRecord
  2
textstyle1021
 70
     0
 40
0.0
 41
1.0
 50
0.0
 71
     0
 42
3.5
  3
arial.ttf
  4

1001
ACAD
1000
Arial
1071
        0
  0
STYLE
  5
17CF
330
126D
100
AcDbSymbolTableRecord
100
AcDbTextStyleTableRecord
  2
textstyle1053
 70
     0
 40
0.0
 41
1.0
 50
0.0
 71
     0
 42
3.5
  3
arial.ttf
  4

1001
ACAD
1000
Arial
1071
        0
  0
STYLE
  5
17D1
330
126D
100
AcDbSymbolTableRecord
100
AcDbTextStyleTableRecord
  2
textstyle1055
 70
     0
 40
0.0
 41
1.0
 50
0.0
 71
     0
 42
3.5
  3
arial.ttf
  4

1001
ACAD
1000
Arial
1071
        0
  0
STYLE
  5
17F3
330
126D
100
AcDbSymbolTableRecord
100
AcDbTextStyleTableRecord
  2
textstyle1088
 70
     0
 40
0.0
 41
1.0
 50
0.0
 71
     0
 42
3.5
  3
arial.ttf
  4

1001
ACAD
1000
Arial
1071
        0
  0
STYLE
  5
1815
330
126D
100
AcDbSymbolTableRecord
100
AcDbTextStyleTableRecord
  2
textstyle1121
 70
     0
 40
0.0
 41
1.0
 50
0.0
 71
     0
 42
3.5
  3
arial.ttf
  4

1001
ACAD
1000
Arial
1071
        0
  0
STYLE
  5
1836
330
126D
100
AcDbSymbolTableRecord
100
AcDbTextStyleTableRecord
  2
textstyle1153
 70
     0
 40
0.0
 41
1.0
 50
0.0
 71
     0
 42
3.5
  3
arial.ttf
  4

1001
ACAD
1000
Arial
1071
        0
  0
STYLE
  5
1838
330
126D
100
AcDbSymbolTableRecord
100
AcDbTextStyleTableRecord
  2
textstyle1155
 70
     0
 40
0.0
 41
1.0
 50
0.0
 71
     0
 42
3.5
  3
arial.ttf
  4

1001
ACAD
1000
Arial
1071
        0
  0
STYLE
  5
185A
330
126D
100
AcDbSymbolTableRecord
100
AcDbTextStyleTableRecord
  2
textstyle1188
 70
     0
 40
0.0
 41
1.0
 50
0.0
 71
     0
 42
3.5
  3
arial.ttf
  4

1001
ACAD
1000
Arial
1071
        0
  0
STYLE
  5
187C
330
126D
100
AcDbSymbolTableRecord
100
AcDbTextStyleTableRecord
  2
textstyle1221
 70
     0
 40
0.0
 41
1.0
 50
0.0
 71
     0
 42
3.5
  3
arial.ttf
  4

1001
ACAD
1000
Arial
1071
        0
  0
STYLE
  5
18A4
330
126D
100
AcDbSymbolTableRecord
100
AcDbTextStyleTableRecord
  2
textstyle1260
 70
     0
 40
0.0
 41
1.0
 50
0.0
 71
     0
 42
3.5
  3
arial.ttf
  4

1001
ACAD
1000
Arial
1071
        0
  0
STYLE
  5
18A5
330
126D
100
AcDbSymbolTableRecord
100
AcDbTextStyleTableRecord
  2
textstyle1261
 70
     0
 40
0.0
 41
1.0
 50
0.0
 71
     0
 42
3.5
  3
arial.ttf
  4

1001
ACAD
1000
Arial
1071
        0
  0
STYLE
  5
18A6
330
126D
100
AcDbSymbolTableRecord
100
AcDbTextStyleTableRecord
  2
textstyle1262
 70
     0
 40
0.0
 41
1.0
 50
0.0
 71
     0
 42
3.5
  3
arial.ttf
  4

1001
ACAD
1000
Arial
1071
        0
  0
STYLE
  5
18AA
330
126D
100
AcDbSymbolTableRecord
100
AcDbTextStyleTableRecord
  2
textstyle1265
 70
     0
 40
0.0
 41
1.0
 50
0.0
 71
     0
 42
3.5
  3
arial.ttf
  4

1001
ACAD
1000
Arial
1071
        0
  0
STYLE
  5
18AC
330
126D
100
AcDbSymbolTableRecord
100
AcDbTextStyleTableRecord
  2
textstyle1267
 70
     0
 40
0.0
 41
1.0
 50
0.0
 71
     0
 42
3.5
  3
arial.ttf
  4

1001
ACAD
1000
Arial
1071
        0
  0
STYLE
  5
18CE
330
126D
100
AcDbSymbolTableRecord
100
AcDbTextStyleTableRecord
  2
textstyle1300
 70
     0
 40
0.0
 41
1.0
 50
0.0
 71
     0
 42
3.5
  3
arial.ttf
  4

1001
ACAD
1000
Arial
1071
        0
  0
STYLE
  5
18F0
330
126D
100
AcDbSymbolTableRecord
100
AcDbTextStyleTableRecord
  2
textstyle1333
 70
     0
 40
0.0
 41
1.0
 50
0.0
 71
     0
 42
3.5
  3
arial.ttf
  4

1001
ACAD
1000
Arial
1071
        0
  0
STYLE
  5
1912
330
126D
100
AcDbSymbolTableRecord
100
AcDbTextStyleTableRecord
  2
textstyle1366
 70
     0
 40
0.0
 41
1.0
 50
0.0
 71
     0
 42
3.5
  3
arial.ttf
  4

1001
ACAD
1000
Arial
1071
        0
  0
STYLE
  5
1933
330
126D
100
AcDbSymbolTableRecord
100
AcDbTextStyleTableRecord
  2
textstyle1398
 70
     0
 40
0.0
 41
1.0
 50
0.0
 71
     0
 42
3.5
  3
arial.ttf
  4

1001
ACAD
1000
Arial
1071
        0
  0
STYLE
  5
193F
330
126D
100
AcDbSymbolTableRecord
100
AcDbTextStyleTableRecord
  2
textstyle1409
 70
     0
 40
0.0
 41
1.0
 50
0.0
 71
     0
 42
3.5
  3
arial.ttf
  4

1001
ACAD
1000
Arial
1071
        0
  0
STYLE
  5
1960
330
126D
100
AcDbSymbolTableRecord
100
AcDbTextStyleTableRecord
  2
textstyle1441
 70
     0
 40
0.0
 41
1.0
 50
0.0
 71
     0
 42
3.5
  3
arial.ttf
  4

1001
ACAD
1000
Arial
1071
        0
  0
STYLE
  5
1961
330
126D
100
AcDbSymbolTableRecord
100
AcDbTextStyleTableRecord
  2
textstyle1442
 70
     0
 40
0.0
 41
1.0
 50
0.0
 71
     0
 42
3.5
  3
arial.ttf
  4

1001
ACAD
1000
Arial
1071
        0
  0
STYLE
  5
1963
330
126D
100
AcDbSymbolTableRecord
100
AcDbTextStyleTableRecord
  2
textstyle1444
 70
     0
 40
0.0
 41
1.0
 50
0.0
 71
     0
 42
3.5
  3
arial.ttf
  4

1001
ACAD
1000
Arial
1071
        0
  0
STYLE
  5
198B
330
126D
100
AcDbSymbolTableRecord
100
AcDbTextStyleTableRecord
  2
textstyle1483
 70
     0
 40
0.0
 41
1.0
 50
0.0
 71
     0
 42
3.5
  3
arial.ttf
  4

1001
ACAD
1000
Arial
1071
        0
  0
STYLE
  5
198C
330
126D
100
AcDbSymbolTableRecord
100
AcDbTextStyleTableRecord
  2
textstyle1484
 70
     0
 40
0.0
 41
1.0
 50
0.0
 71
     0
 42
3.5
  3
arial.ttf
  4

1001
ACAD
1000
Arial
1071
        0
  0
STYLE
  5
198D
330
126D
100
AcDbSymbolTableRecord
100
AcDbTextStyleTableRecord
  2
textstyle1485
 70
     0
 40
0.0
 41
1.0
 50
0.0
 71
     0
 42
3.5
  3
arial.ttf
  4

1001
ACAD
1000
Arial
1071
        0
  0
STYLE
  5
198E
330
126D
100
AcDbSymbolTableRecord
100
AcDbTextStyleTableRecord
  2
textstyle1486
 70
     0
 40
0.0
 41
1.0
 50
0.0
 71
     0
 42
3.5
  3
arial.ttf
  4

1001
ACAD
1000
Arial
1071
        0
  0
STYLE
  5
198F
330
126D
100
AcDbSymbolTableRecord
100
AcDbTextStyleTableRecord
  2
textstyle1487
 70
     0
 40
0.0
 41
1.0
 50
0.0
 71
     0
 42
3.5
  3
arial.ttf
  4

1001
ACAD
1000
Arial
1071
        0
  0
STYLE
  5
1990
330
126D
100
AcDbSymbolTableRecord
100
AcDbTextStyleTableRecord
  2
textstyle1488
 70
     0
 40
0.0
 41
1.0
 50
0.0
 71
     0
 42
3.5
  3
arial.ttf
  4

1001
ACAD
1000
Arial
1071
        0
  0
STYLE
  5
1991
330
126D
100
AcDbSymbolTableRecord
100
AcDbTextStyleTableRecord
  2
textstyle1489
 70
     0
 40
0.0
 41
1.0
 50
0.0
 71
     0
 42
3.5
  3
arial.ttf
  4

1001
ACAD
1000
Arial
1071
        0
  0
STYLE
  5
1995
330
126D
100
AcDbSymbolTableRecord
100
AcDbTextStyleTableRecord
  2
textstyle1492
 70
     0
 40
0.0
 41
1.0
 50
0.0
 71
     0
 42
3.5
  3
arial.ttf
  4

1001
ACAD
1000
Arial
1071
        0
  0
STYLE
  5
1997
330
126D
100
AcDbSymbolTableRecord
100
AcDbTextStyleTableRecord
  2
textstyle1494
 70
     0
 40
0.0
 41
1.0
 50
0.0
 71
     0
 42
3.5
  3
arial.ttf
  4

1001
ACAD
1000
Arial
1071
        0
  0
STYLE
  5
19B8
330
126D
100
AcDbSymbolTableRecord
100
AcDbTextStyleTableRecord
  2
textstyle1526
 70
     0
 40
0.0
 41
1.0
 50
0.0
 71
     0
 42
3.5
  3
arial.ttf
  4

1001
ACAD
1000
Arial
1071
        0
  0
STYLE
  5
19BA
330
126D
100
AcDbSymbolTableRecord
100
AcDbTextStyleTableRecord
  2
textstyle1528
 70
     0
 40
0.0
 41
1.0
 50
0.0
 71
     0
 42
3.5
  3
arial.ttf
  4

1001
ACAD
1000
Arial
1071
        0
  0
STYLE
  5
19FF
330
126D
100
AcDbSymbolTableRecord
100
AcDbTextStyleTableRecord
  2
textstyle1595
 70
     0
 40
0.0
 41
1.0
 50
0.0
 71
     0
 42
3.5
  3
arial.ttf
  4

1001
ACAD
1000
Arial
1071
        0
  0
STYLE
  5
1A1B
330
126D
100
AcDbSymbolTableRecord
100
AcDbTextStyleTableRecord
  2
textstyle1622
 70
     0
 40
0.0
 41
1.0
 50
0.0
 71
     0
 42
3.5
  3
arial.ttf
  4

1001
ACAD
1000
Arial
1071
        0
  0
STYLE
  5
1A2C
330
126D
100
AcDbSymbolTableRecord
100
AcDbTextStyleTableRecord
  2
textstyle1638
 70
     0
 40
0.0
 41
1.0
 50
0.0
 71
     0
 42
3.5
  3
arial.ttf
  4

1001
ACAD
1000
Arial
1071
        0
  0
STYLE
  5
1A3D
330
126D
100
AcDbSymbolTableRecord
100
AcDbTextStyleTableRecord
  2
textstyle1654
 70
     0
 40
0.0
 41
1.0
 50
0.0
 71
     0
 42
3.5
  3
arial.ttf
  4

1001
ACAD
1000
Arial
1071
        0
  0
STYLE
  5
1A4E
330
126D
100
AcDbSymbolTableRecord
100
AcDbTextStyleTableRecord
  2
textstyle1670
 70
     0
 40
0.0
 41
1.0
 50
0.0
 71
     0
 42
3.5
  3
arial.ttf
  4

1001
ACAD
1000
Arial
1071
        0
  0
STYLE
  5
1A5F
330
126D
100
AcDbSymbolTableRecord
100
AcDbTextStyleTableRecord
  2
textstyle1686
 70
     0
 40
0.0
 41
1.0
 50
0.0
 71
     0
 42
3.5
  3
arial.ttf
  4

1001
ACAD
1000
Arial
1071
        0
  0
STYLE
  5
1A70
330
126D
100
AcDbSymbolTableRecord
100
AcDbTextStyleTableRecord
  2
textstyle1702
 70
     0
 40
0.0
 41
1.0
 50
0.0
 71
     0
 42
3.5
  3
arial.ttf
  4

1001
ACAD
1000
Arial
1071
        0
  0
STYLE
  5
1A81
330
126D
100
AcDbSymbolTableRecord
100
AcDbTextStyleTableRecord
  2
textstyle1718
 70
     0
 40
0.0
 41
1.0
 50
0.0
 71
     0
 42
3.5
  3
arial.ttf
  4

1001
ACAD
1000
Arial
1071
        0
  0
STYLE
  5
1A92
330
126D
100
AcDbSymbolTableRecord
100
AcDbTextStyleTableRecord
  2
textstyle1734
 70
     0
 40
0.0
 41
1.0
 50
0.0
 71
     0
 42
3.5
  3
arial.ttf
  4

1001
ACAD
1000
Arial
1071
        0
  0
STYLE
  5
1AA3
330
126D
100
AcDbSymbolTableRecord
100
AcDbTextStyleTableRecord
  2
textstyle1750
 70
     0
 40
0.0
 41
1.0
 50
0.0
 71
     0
 42
3.5
  3
arial.ttf
  4

1001
ACAD
1000
Arial
1071
        0
  0
STYLE
  5
1AB8
330
126D
100
AcDbSymbolTableRecord
100
AcDbTextStyleTableRecord
  2
textstyle1771
 70
     0
 40
0.0
 41
1.0
 50
0.0
 71
     0
 42
3.5
  3
arial.ttf
  4

1001
ACAD
1000
Arial
1071
        0
  0
STYLE
  5
1AB9
330
126D
100
AcDbSymbolTableRecord
100
AcDbTextStyleTableRecord
  2
textstyle1772
 70
     0
 40
0.0
 41
1.0
 50
0.0
 71
     0
 42
3.5
  3
arial.ttf
  4

1001
ACAD
1000
Arial
1071
        0
  0
STYLE
  5
1ACD
330
126D
100
AcDbSymbolTableRecord
100
AcDbTextStyleTableRecord
  2
textstyle1791
 70
     0
 40
0.0
 41
1.0
 50
0.0
 71
     0
 42
3.5
  3
arial.ttf
  4

1001
ACAD
1000
Arial
1071
        0
  0
STYLE
  5
1ACE
330
126D
100
AcDbSymbolTableRecord
100
AcDbTextStyleTableRecord
  2
textstyle1792
 70
     0
 40
0.0
 41
1.0
 50
0.0
 71
     0
 42
3.5
  3
arial.ttf
  4

1001
ACAD
1000
Arial
1071
        0
  0
STYLE
  5
1ACF
330
126D
100
AcDbSymbolTableRecord
100
AcDbTextStyleTableRecord
  2
textstyle1793
 70
     0
 40
0.0
 41
1.0
 50
0.0
 71
     0
 42
3.5
  3
arial.ttf
  4

1001
ACAD
1000
Arial
1071
        0
  0
STYLE
  5
1AD0
330
126D
100
AcDbSymbolTableRecord
100
AcDbTextStyleTableRecord
  2
textstyle1794
 70
     0
 40
0.0
 41
1.0
 50
0.0
 71
     0
 42
3.5
  3
arial.ttf
  4

1001
ACAD
1000
Arial
1071
        0
  0
STYLE
  5
1AD4
330
126D
100
AcDbSymbolTableRecord
100
AcDbTextStyleTableRecord
  2
textstyle1798
 70
     0
 40
0.0
 41
1.0
 50
0.0
 71
     0
 42
3.5
  3
arial.ttf
  4

1001
ACAD
1000
Arial
1071
        0
  0
STYLE
  5
1AD6
330
126D
100
AcDbSymbolTableRecord
100
AcDbTextStyleTableRecord
  2
textstyle1800
 70
     0
 40
0.0
 41
1.0
 50
0.0
 71
     0
 42
3.5
  3
arial.ttf
  4

1001
ACAD
1000
Arial
1071
        0
  0
STYLE
  5
1AD7
330
126D
100
AcDbSymbolTableRecord
100
AcDbTextStyleTableRecord
  2
textstyle1801
 70
     0
 40
0.0
 41
1.0
 50
0.0
 71
     0
 42
3.5
  3
arial.ttf
  4

1001
ACAD
1000
Arial
1071
        0
  0
STYLE
  5
1AD8
330
126D
100
AcDbSymbolTableRecord
100
AcDbTextStyleTableRecord
  2
textstyle1802
 70
     0
 40
0.0
 41
1.0
 50
0.0
 71
     0
 42
3.5
  3
arial.ttf
  4

1001
ACAD
1000
Arial
1071
        0
  0
STYLE
  5
1AD9
330
126D
100
AcDbSymbolTableRecord
100
AcDbTextStyleTableRecord
  2
textstyle1803
 70
     0
 40
0.0
 41
1.0
 50
0.0
 71
     0
 42
3.5
  3
arial.ttf
  4

1001
ACAD
1000
Arial
1071
        0
  0
STYLE
  5
1ADA
330
126D
100
AcDbSymbolTableRecord
100
AcDbTextStyleTableRecord
  2
textstyle1804
 70
     0
 40
0.0
 41
1.0
 50
0.0
 71
     0
 42
3.5
  3
arial.ttf
  4

1001
ACAD
1000
Arial
1071
        0
  0
STYLE
  5
1ADB
330
126D
100
AcDbSymbolTableRecord
100
AcDbTextStyleTableRecord
  2
textstyle1805
 70
     0
 40
0.0
 41
1.0
 50
0.0
 71
     0
 42
3.5
  3
arial.ttf
  4

1001
ACAD
1000
Arial
1071
        0
  0
STYLE
  5
1ADC
330
126D
100
AcDbSymbolTableRecord
100
AcDbTextStyleTableRecord
  2
textstyle1806
 70
     0
 40
0.0
 41
1.0
 50
0.0
 71
     0
 42
3.5
  3
arial.ttf
  4

1001
ACAD
1000
Arial
1071
        0
  0
STYLE
  5
1ADD
330
126D
100
AcDbSymbolTableRecord
100
AcDbTextStyleTableRecord
  2
textstyle1807
 70
     0
 40
0.0
 41
1.0
 50
0.0
 71
     0
 42
3.5
  3
arial.ttf
  4

1001
ACAD
1000
Arial
1071
        0
  0
STYLE
  5
1ADE
330
126D
100
AcDbSymbolTableRecord
100
AcDbTextStyleTableRecord
  2
textstyle1808
 70
     0
 40
0.0
 41
1.0
 50
0.0
 71
     0
 42
3.5
  3
arial.ttf
  4

1001
ACAD
1000
Arial
1071
        0
  0
STYLE
  5
1ADF
330
126D
100
AcDbSymbolTableRecord
100
AcDbTextStyleTableRecord
  2
textstyle1809
 70
     0
 40
0.0
 41
1.0
 50
0.0
 71
     0
 42
3.5
  3
arial.ttf
  4

1001
ACAD
1000
Arial
1071
        0
  0
STYLE
  5
1AE0
330
126D
100
AcDbSymbolTableRecord
100
AcDbTextStyleTableRecord
  2
textstyle1810
 70
     0
 40
0.0
 41
1.0
 50
0.0
 71
     0
 42
3.5
  3
arial.ttf
  4

1001
ACAD
1000
Arial
1071
        0
  0
STYLE
  5
1AE1
330
126D
100
AcDbSymbolTableRecord
100
AcDbTextStyleTableRecord
  2
textstyle1811
 70
     0
 40
0.0
 41
1.0
 50
0.0
 71
     0
 42
3.5
  3
arial.ttf
  4

1001
ACAD
1000
Arial
1071
        0
  0
STYLE
  5
1AE2
330
126D
100
AcDbSymbolTableRecord
100
AcDbTextStyleTableRecord
  2
textstyle1812
 70
     0
 40
0.0
 41
1.0
 50
0.0
 71
     0
 42
3.5
  3
arial.ttf
  4

1001
ACAD
1000
Arial
1071
        0
  0
STYLE
  5
1AE3
330
126D
100
AcDbSymbolTableRecord
100
AcDbTextStyleTableRecord
  2
textstyle1813
 70
     0
 40
0.0
 41
1.0
 50
0.0
 71
     0
 42
3.5
  3
arial.ttf
  4

1001
ACAD
1000
Arial
1071
        0
  0
STYLE
  5
1AE4
330
126D
100
AcDbSymbolTableRecord
100
AcDbTextStyleTableRecord
  2
textstyle1814
 70
     0
 40
0.0
 41
1.0
 50
0.0
 71
     0
 42
3.5
  3
arial.ttf
  4

1001
ACAD
1000
Arial
1071
        0
  0
STYLE
  5
1AE5
330
126D
100
AcDbSymbolTableRecord
100
AcDbTextStyleTableRecord
  2
textstyle1815
 70
     0
 40
0.0
 41
1.0
 50
0.0
 71
     0
 42
3.5
  3
arial.ttf
  4

1001
ACAD
1000
Arial
1071
        0
  0
STYLE
  5
1AE7
330
126D
100
AcDbSymbolTableRecord
100
AcDbTextStyleTableRecord
  2
textstyle1817
 70
     0
 40
0.0
 41
1.0
 50
0.0
 71
     0
 42
3.5
  3
arial.ttf
  4

1001
ACAD
1000
Arial
1071
        0
  0
STYLE
  5
1AF8
330
126D
100
AcDbSymbolTableRecord
100
AcDbTextStyleTableRecord
  2
textstyle1833
 70
     0
 40
0.0
 41
1.0
 50
0.0
 71
     0
 42
3.5
  3
arial.ttf
  4

1001
ACAD
1000
Arial
1071
        0
  0
STYLE
  5
1B09
330
126D
100
AcDbSymbolTableRecord
100
AcDbTextStyleTableRecord
  2
textstyle1849
 70
     0
 40
0.0
 41
1.0
 50
0.0
 71
     0
 42
3.5
  3
arial.ttf
  4

1001
ACAD
1000
Arial
1071
        0
  0
STYLE
  5
1B1A
330
126D
100
AcDbSymbolTableRecord
100
AcDbTextStyleTableRecord
  2
textstyle1865
 70
     0
 40
0.0
 41
1.0
 50
0.0
 71
     0
 42
3.5
  3
arial.ttf
  4

1001
ACAD
1000
Arial
1071
        0
  0
STYLE
  5
1B2B
330
126D
100
AcDbSymbolTableRecord
100
AcDbTextStyleTableRecord
  2
textstyle1881
 70
     0
 40
0.0
 41
1.0
 50
0.0
 71
     0
 42
3.5
  3
arial.ttf
  4

1001
ACAD
1000
Arial
1071
        0
  0
STYLE
  5
1B41
330
126D
100
AcDbSymbolTableRecord
100
AcDbTextStyleTableRecord
  2
textstyle1902
 70
     0
 40
0.0
 41
1.0
 50
0.0
 71
     0
 42
3.5
  3
arial.ttf
  4

1001
ACAD
1000
Arial
1071
        0
  0
STYLE
  5
1B55
330
126D
100
AcDbSymbolTableRecord
100
AcDbTextStyleTableRecord
  2
textstyle1922
 70
     0
 40
0.0
 41
1.0
 50
0.0
 71
     0
 42
3.5
  3
arial.ttf
  4

1001
ACAD
1000
Arial
1071
        0
  0
STYLE
  5
1B56
330
126D
100
AcDbSymbolTableRecord
100
AcDbTextStyleTableRecord
  2
textstyle1923
 70
     0
 40
0.0
 41
1.0
 50
0.0
 71
     0
 42
3.5
  3
arial.ttf
  4

1001
ACAD
1000
Arial
1071
        0
  0
STYLE
  5
1B5F
330
126D
100
AcDbSymbolTableRecord
100
AcDbTextStyleTableRecord
  2
textstyle1931
 70
     0
 40
0.0
 41
1.0
 50
0.0
 71
     0
 42
3.5
  3
arial.ttf
  4

1001
ACAD
1000
Arial
1071
        0
  0
STYLE
  5
1B61
330
126D
100
AcDbSymbolTableRecord
100
AcDbTextStyleTableRecord
  2
textstyle1933
 70
     0
 40
0.0
 41
1.0
 50
0.0
 71
     0
 42
3.5
  3
arial.ttf
  4

1001
ACAD
1000
Arial
1071
        0
  0
STYLE
  5
1B82
330
126D
100
AcDbSymbolTableRecord
100
AcDbTextStyleTableRecord
  2
textstyle1965
 70
     0
 40
0.0
 41
1.0
 50
0.0
 71
     0
 42
3.5
  3
arial.ttf
  4

1001
ACAD
1000
Arial
1071
        0
  0
STYLE
  5
1B84
330
126D
100
AcDbSymbolTableRecord
100
AcDbTextStyleTableRecord
  2
textstyle1967
 70
     0
 40
0.0
 41
1.0
 50
0.0
 71
     0
 42
3.5
  3
arial.ttf
  4

1001
ACAD
1000
Arial
1071
        0
  0
STYLE
  5
1BA6
330
126D
100
AcDbSymbolTableRecord
100
AcDbTextStyleTableRecord
  2
textstyle2000
 70
     0
 40
0.0
 41
1.0
 50
0.0
 71
     0
 42
3.5
  3
arial.ttf
  4

1001
ACAD
1000
Arial
1071
        0
  0
STYLE
  5
1BB7
330
126D
100
AcDbSymbolTableRecord
100
AcDbTextStyleTableRecord
  2
textstyle2016
 70
     0
 40
0.0
 41
1.0
 50
0.0
 71
     0
 42
3.5
  3
arial.ttf
  4

1001
ACAD
1000
Arial
1071
        0
  0
STYLE
  5
1BCE
330
126D
100
AcDbSymbolTableRecord
100
AcDbTextStyleTableRecord
  2
textstyle2038
 70
     0
 40
0.0
 41
1.0
 50
0.0
 71
     0
 42
3.5
  3
arial.ttf
  4

1001
ACAD
1000
Arial
1071
        0
  0
STYLE
  5
1BCF
330
126D
100
AcDbSymbolTableRecord
100
AcDbTextStyleTableRecord
  2
textstyle2039
 70
     0
 40
0.0
 41
1.0
 50
0.0
 71
     0
 42
3.5
  3
arial.ttf
  4

1001
ACAD
1000
Arial
1071
        0
  0
STYLE
  5
1BD0
330
126D
100
AcDbSymbolTableRecord
100
AcDbTextStyleTableRecord
  2
textstyle2040
 70
     0
 40
0.0
 41
1.0
 50
0.0
 71
     0
 42
3.5
  3
arial.ttf
  4

1001
ACAD
1000
Arial
1071
        0
  0
STYLE
  5
1BD4
330
126D
100
AcDbSymbolTableRecord
100
AcDbTextStyleTableRecord
  2
textstyle2043
 70
     0
 40
0.0
 41
1.0
 50
0.0
 71
     0
 42
3.5
  3
arial.ttf
  4

1001
ACAD
1000
Arial
1071
        0
  0
STYLE
  5
1BD6
330
126D
100
AcDbSymbolTableRecord
100
AcDbTextStyleTableRecord
  2
textstyle2045
 70
     0
 40
0.0
 41
1.0
 50
0.0
 71
     0
 42
3.5
  3
arial.ttf
  4

1001
ACAD
1000
Arial
1071
        0
  0
STYLE
  5
1BDC
330
126D
100
AcDbSymbolTableRecord
100
AcDbTextStyleTableRecord
  2
textstyle2051
 70
     0
 40
0.0
 41
1.0
 50
0.0
 71
     0
 42
3.5
  3
arial.ttf
  4

1001
ACAD
1000
Arial
1071
        0
  0
STYLE
  5
1BDD
330
126D
100
AcDbSymbolTableRecord
100
AcDbTextStyleTableRecord
  2
textstyle2052
 70
     0
 40
0.0
 41
1.0
 50
0.0
 71
     0
 42
3.5
  3
arial.ttf
  4

1001
ACAD
1000
Arial
1071
        0
  0
STYLE
  5
1BDE
330
126D
100
AcDbSymbolTableRecord
100
AcDbTextStyleTableRecord
  2
textstyle2053
 70
     0
 40
0.0
 41
1.0
 50
0.0
 71
     0
 42
3.5
  3
arial.ttf
  4

1001
ACAD
1000
Arial
1071
        0
  0
STYLE
  5
1BE2
330
126D
100
AcDbSymbolTableRecord
100
AcDbTextStyleTableRecord
  2
textstyle2056
 70
     0
 40
0.0
 41
1.0
 50
0.0
 71
     0
 42
3.5
  3
arial.ttf
  4

1001
ACAD
1000
Arial
1071
        0
  0
STYLE
  5
1BE9
330
126D
100
AcDbSymbolTableRecord
100
AcDbTextStyleTableRecord
  2
textstyle2063
 70
     0
 40
0.0
 41
1.0
 50
0.0
 71
     0
 42
3.5
  3
arial.ttf
  4

1001
ACAD
1000
Arial
1071
        0
  0
STYLE
  5
1BFD
330
126D
100
AcDbSymbolTableRecord
100
AcDbTextStyleTableRecord
  2
textstyle2083
 70
     0
 40
0.0
 41
1.0
 50
0.0
 71
     0
 42
3.5
  3
arial.ttf
  4

1001
ACAD
1000
Arial
1071
        0
  0
STYLE
  5
1BFE
330
126D
100
AcDbSymbolTableRecord
100
AcDbTextStyleTableRecord
  2
textstyle2084
 70
     0
 40
0.0
 41
1.0
 50
0.0
 71
     0
 42
3.5
  3
arial.ttf
  4

1001
ACAD
1000
Arial
1071
        0
  0
STYLE
  5
1BFF
330
126D
100
AcDbSymbolTableRecord
100
AcDbTextStyleTableRecord
  2
textstyle2085
 70
     0
 40
0.0
 41
1.0
 50
0.0
 71
     0
 42
3.5
  3
arial.ttf
  4

1001
ACAD
1000
Arial
1071
        0
  0
STYLE
  5
1C00
330
126D
100
AcDbSymbolTableRecord
100
AcDbTextStyleTableRecord
  2
textstyle2086
 70
     0
 40
0.0
 41
1.0
 50
0.0
 71
     0
 42
3.5
  3
arial.ttf
  4

1001
ACAD
1000
Arial
1071
        0
  0
STYLE
  5
1C10
330
126D
100
AcDbSymbolTableRecord
100
AcDbTextStyleTableRecord
  2
textstyle2101
 70
     0
 40
0.0
 41
1.0
 50
0.0
 71
     0
 42
3.5
  3
arial.ttf
  4

1001
ACAD
1000
Arial
1071
        0
  0
STYLE
  5
1C11
330
126D
100
AcDbSymbolTableRecord
100
AcDbTextStyleTableRecord
  2
textstyle2102
 70
     0
 40
0.0
 41
1.0
 50
0.0
 71
     0
 42
3.5
  3
arial.ttf
  4

1001
ACAD
1000
Arial
1071
        0
  0
STYLE
  5
1C12
330
126D
100
AcDbSymbolTableRecord
100
AcDbTextStyleTableRecord
  2
textstyle2103
 70
     0
 40
0.0
 41
1.0
 50
0.0
 71
     0
 42
3.5
  3
arial.ttf
  4

1001
ACAD
1000
Arial
1071
        0
  0
STYLE
  5
1C13
330
126D
100
AcDbSymbolTableRecord
100
AcDbTextStyleTableRecord
  2
textstyle2104
 70
     0
 40
0.0
 41
1.0
 50
0.0
 71
     0
 42
3.5
  3
arial.ttf
  4

1001
ACAD
1000
Arial
1071
        0
  0
STYLE
  5
1C14
330
126D
100
AcDbSymbolTableRecord
100
AcDbTextStyleTableRecord
  2
textstyle2105
 70
     0
 40
0.0
 41
1.0
 50
0.0
 71
     0
 42
3.5
  3
arial.ttf
  4

1001
ACAD
1000
Arial
1071
        0
  0
STYLE
  5
1C15
330
126D
100
AcDbSymbolTableRecord
100
AcDbTextStyleTableRecord
  2
textstyle2106
 70
     0
 40
0.0
 41
1.0
 50
0.0
 71
     0
 42
3.5
  3
arial.ttf
  4

1001
ACAD
1000
Arial
1071
        0
  0
STYLE
  5
1C18
330
126D
100
AcDbSymbolTableRecord
100
AcDbTextStyleTableRecord
  2
textstyle2109
 70
     0
 40
0.0
 41
1.0
 50
0.0
 71
     0
 42
3.5
  3
arial.ttf
  4

1001
ACAD
1000
Arial
1071
        0
  0
STYLE
  5
1C29
330
126D
100
AcDbSymbolTableRecord
100
AcDbTextStyleTableRecord
  2
textstyle2125
 70
     0
 40
0.0
 41
1.0
 50
0.0
 71
     0
 42
3.5
  3
arial.ttf
  4

1001
ACAD
1000
Arial
1071
        0
  0
STYLE
  5
1C3A
330
126D
100
AcDbSymbolTableRecord
100
AcDbTextStyleTableRecord
  2
textstyle2141
 70
     0
 40
0.0
 41
1.0
 50
0.0
 71
     0
 42
3.5
  3
arial.ttf
  4

1001
ACAD
1000
Arial
1071
        0
  0
STYLE
  5
1C4B
330
126D
100
AcDbSymbolTableRecord
100
AcDbTextStyleTableRecord
  2
textstyle2157
 70
     0
 40
0.0
 41
1.0
 50
0.0
 71
     0
 42
3.5
  3
arial.ttf
  4

1001
ACAD
1000
Arial
1071
        0
  0
STYLE
  5
1C5C
330
126D
100
AcDbSymbolTableRecord
100
AcDbTextStyleTableRecord
  2
textstyle2173
 70
     0
 40
0.0
 41
1.0
 50
0.0
 71
     0
 42
3.5
  3
arial.ttf
  4

1001
ACAD
1000
Arial
1071
        0
  0
STYLE
  5
1C6D
330
126D
100
AcDbSymbolTableRecord
100
AcDbTextStyleTableRecord
  2
textstyle2189
 70
     0
 40
0.0
 41
1.0
 50
0.0
 71
     0
 42
3.5
  3
arial.ttf
  4

1001
ACAD
1000
Arial
1071
        0
  0
STYLE
  5
1C8F
330
126D
100
AcDbSymbolTableRecord
100
AcDbTextStyleTableRecord
  2
textstyle2222
 70
     0
 40
0.0
 41
1.0
 50
0.0
 71
     0
 42
3.5
  3
arial.ttf
  4

1001
ACAD
1000
Arial
1071
        0
  0
STYLE
  5
1CB1
330
126D
100
AcDbSymbolTableRecord
100
AcDbTextStyleTableRecord
  2
textstyle2255
 70
     0
 40
0.0
 41
1.0
 50
0.0
 71
     0
 42
3.5
  3
arial.ttf
  4

1001
ACAD
1000
Arial
1071
        0
  0
STYLE
  5
1CC2
330
126D
100
AcDbSymbolTableRecord
100
AcDbTextStyleTableRecord
  2
textstyle2271
 70
     0
 40
0.0
 41
1.0
 50
0.0
 71
     0
 42
3.5
  3
arial.ttf
  4

1001
ACAD
1000
Arial
1071
        0
  0
STYLE
  5
1CD3
330
126D
100
AcDbSymbolTableRecord
100
AcDbTextStyleTableRecord
  2
textstyle2287
 70
     0
 40
0.0
 41
1.0
 50
0.0
 71
     0
 42
3.5
  3
arial.ttf
  4

1001
ACAD
1000
Arial
1071
        0
  0
STYLE
  5
1CE3
330
126D
100
AcDbSymbolTableRecord
100
AcDbTextStyleTableRecord
  2
textstyle2302
 70
     0
 40
0.0
 41
1.0
 50
0.0
 71
     0
 42
3.5
  3
arial.ttf
  4

1001
ACAD
1000
Arial
1071
        0
  0
STYLE
  5
1CE9
330
126D
100
AcDbSymbolTableRecord
100
AcDbTextStyleTableRecord
  2
textstyle2307
 70
     0
 40
0.0
 41
1.0
 50
0.0
 71
     0
 42
3.5
  3
arial.ttf
  4

1001
ACAD
1000
Arial
1071
        0
  0
STYLE
  5
1CEF
330
126D
100
AcDbSymbolTableRecord
100
AcDbTextStyleTableRecord
  2
textstyle2312
 70
     0
 40
0.0
 41
1.0
 50
0.0
 71
     0
 42
3.5
  3
arial.ttf
  4

1001
ACAD
1000
Arial
1071
        0
  0
STYLE
  5
1CF0
330
126D
100
AcDbSymbolTableRecord
100
AcDbTextStyleTableRecord
  2
textstyle2313
 70
     0
 40
0.0
 41
1.0
 50
0.0
 71
     0
 42
3.5
  3
arial.ttf
  4

1001
ACAD
1000
Arial
1071
        0
  0
STYLE
  5
1CF1
330
126D
100
AcDbSymbolTableRecord
100
AcDbTextStyleTableRecord
  2
textstyle2314
 70
     0
 40
0.0
 41
1.0
 50
0.0
 71
     0
 42
3.5
  3
arial.ttf
  4

1001
ACAD
1000
Arial
1071
        0
  0
STYLE
  5
1CF2
330
126D
100
AcDbSymbolTableRecord
100
AcDbTextStyleTableRecord
  2
textstyle2315
 70
     0
 40
0.0
 41
1.0
 50
0.0
 71
     0
 42
3.5
  3
arial.ttf
  4

1001
ACAD
1000
Arial
1071
        0
  0
STYLE
  5
1CF3
330
126D
100
AcDbSymbolTableRecord
100
AcDbTextStyleTableRecord
  2
textstyle2316
 70
     0
 40
0.0
 41
1.0
 50
0.0
 71
     0
 42
3.5
  3
arial.ttf
  4

1001
ACAD
1000
Arial
1071
        0
  0
STYLE
  5
1CF4
330
126D
100
AcDbSymbolTableRecord
100
AcDbTextStyleTableRecord
  2
textstyle2317
 70
     0
 40
0.0
 41
1.0
 50
0.0
 71
     0
 42
3.5
  3
arial.ttf
  4

1001
ACAD
1000
Arial
1071
        0
  0
STYLE
  5
1CF5
330
126D
100
AcDbSymbolTableRecord
100
AcDbTextStyleTableRecord
  2
textstyle2318
 70
     0
 40
0.0
 41
1.0
 50
0.0
 71
     0
 42
3.5
  3
arial.ttf
  4

1001
ACAD
1000
Arial
1071
        0
  0
STYLE
  5
1CF6
330
126D
100
AcDbSymbolTableRecord
100
AcDbTextStyleTableRecord
  2
textstyle2319
 70
     0
 40
0.0
 41
1.0
 50
0.0
 71
     0
 42
3.5
  3
arial.ttf
  4

1001
ACAD
1000
Arial
1071
        0
  0
STYLE
  5
1CF7
330
126D
100
AcDbSymbolTableRecord
100
AcDbTextStyleTableRecord
  2
textstyle2320
 70
     0
 40
0.0
 41
1.0
 50
0.0
 71
     0
 42
3.5
  3
arial.ttf
  4

1001
ACAD
1000
Arial
1071
        0
  0
STYLE
  5
1CF8
330
126D
100
AcDbSymbolTableRecord
100
AcDbTextStyleTableRecord
  2
textstyle2321
 70
     0
 40
0.0
 41
1.0
 50
0.0
 71
     0
 42
3.5
  3
arial.ttf
  4

1001
ACAD
1000
Arial
1071
        0
  0
STYLE
  5
1CF9
330
126D
100
AcDbSymbolTableRecord
100
AcDbTextStyleTableRecord
  2
textstyle2322
 70
     0
 40
0.0
 41
1.0
 50
0.0
 71
     0
 42
3.5
  3
arial.ttf
  4

1001
ACAD
1000
Arial
1071
        0
  0
STYLE
  5
1CFA
330
126D
100
AcDbSymbolTableRecord
100
AcDbTextStyleTableRecord
  2
textstyle2323
 70
     0
 40
0.0
 41
1.0
 50
0.0
 71
     0
 42
3.5
  3
arial.ttf
  4

1001
ACAD
1000
Arial
1071
        0
  0
STYLE
  5
1CFB
330
126D
100
AcDbSymbolTableRecord
100
AcDbTextStyleTableRecord
  2
textstyle2324
 70
     0
 40
0.0
 41
1.0
 50
0.0
 71
     0
 42
3.5
  3
arial.ttf
  4

1001
ACAD
1000
Arial
1071
        0
  0
STYLE
  5
1CFC
330
126D
100
AcDbSymbolTableRecord
100
AcDbTextStyleTableRecord
  2
textstyle2325
 70
     0
 40
0.0
 41
1.0
 50
0.0
 71
     0
 42
3.5
  3
arial.ttf
  4

1001
ACAD
1000
Arial
1071
        0
  0
STYLE
  5
1CFD
330
126D
100
AcDbSymbolTableRecord
100
AcDbTextStyleTableRecord
  2
textstyle2326
 70
     0
 40
0.0
 41
1.0
 50
0.0
 71
     0
 42
3.5
  3
arial.ttf
  4

1001
ACAD
1000
Arial
1071
        0
  0
STYLE
  5
1CFE
330
126D
100
AcDbSymbolTableRecord
100
AcDbTextStyleTableRecord
  2
textstyle2327
 70
     0
 40
0.0
 41
1.0
 50
0.0
 71
     0
 42
3.5
  3
arial.ttf
  4

1001
ACAD
1000
Arial
1071
        0
  0
STYLE
  5
1D1C
330
126D
100
AcDbSymbolTableRecord
100
AcDbTextStyleTableRecord
  2
textstyle2356
 70
     0
 40
0.0
 41
1.0
 50
0.0
 71
     0
 42
3.5
  3
arial.ttf
  4

1001
ACAD
1000
Arial
1071
        0
  0
STYLE
  5
1D3E
330
126D
100
AcDbSymbolTableRecord
100
AcDbTextStyleTableRecord
  2
textstyle2389
 70
     0
 40
0.0
 41
1.0
 50
0.0
 71
     0
 42
3.5
  3
arial.ttf
  4

1001
ACAD
1000
Arial
1071
        0
  0
STYLE
  5
1D60
330
126D
100
AcDbSymbolTableRecord
100
AcDbTextStyleTableRecord
  2
textstyle2422
 70
     0
 40
0.0
 41
1.0
 50
0.0
 71
     0
 42
3.5
  3
arial.ttf
  4

1001
ACAD
1000
Arial
1071
        0
  0
STYLE
  5
1D82
330
126D
100
AcDbSymbolTableRecord
100
AcDbTextStyleTableRecord
  2
textstyle2455
 70
     0
 40
0.0
 41
1.0
 50
0.0
 71
     0
 42
3.5
  3
arial.ttf
  4

1001
ACAD
1000
Arial
1071
        0
  0
STYLE
  5
1D99
330
126D
100
AcDbSymbolTableRecord
100
AcDbTextStyleTableRecord
  2
textstyle2476
 70
     0
 40
0.0
 41
1.0
 50
0.0
 71
     0
 42
3.5
  3
arial.ttf
  4

1001
ACAD
1000
Arial
1071
        0
  0
STYLE
  5
1DBB
330
126D
100
AcDbSymbolTableRecord
100
AcDbTextStyleTableRecord
  2
textstyle2509
 70
     0
 40
0.0
 41
1.0
 50
0.0
 71
     0
 42
3.5
  3
arial.ttf
  4

1001
ACAD
1000
Arial
1071
        0
  0
ENDTAB
  0
TABLE
  2
VIEW
  5
126F
330
0
100
AcDbSymbolTable
 70
     1
  0
ENDTAB
  0
TABLE
  2
UCS
  5
1270
330
0
100
AcDbSymbolTable
 70
     0
  0
ENDTAB
  0
TABLE
  2
APPID
  5
1272
330
0
100
AcDbSymbolTable
 70
     3
  0
APPID
  5
127B
330
1272
100
AcDbSymbolTableRecord
100
AcDbRegAppTableRecord
  2
ACAD
 70
     0
  0
APPID
  5
276B
330
1272
100
AcDbSymbolTableRecord
100
AcDbRegAppTableRecord
  2
ACAD_NAV_VCDISPLAY
 70
     0
  0
APPID
  5
27C2
330
1272
100
AcDbSymbolTableRecord
100
AcDbRegAppTableRecord
  2
ACAUTHENVIRON
 70
     0
  0
ENDTAB
  0
TABLE
  2
DIMSTYLE
  5
1273
330
0
100
AcDbSymbolTable
 70
     1
100
AcDbDimStyleTable
 71
     0
  0
DIMSTYLE
105
128F
330
1273
100
AcDbSymbolTableRecord
100
AcDbDimStyleTableRecord
  2
Standard
 70
     0
340
127A
  0
ENDTAB
  0
TABLE
  2
BLOCK_RECORD
  5
126B
330
0
100
AcDbSymbolTable
 70
     1
  0
BLOCK_RECORD
  5
1287
102
{ACAD_XDICTIONARY
360
1E24
102
}
330
126B
100
AcDbSymbolTableRecord
100
AcDbBlockTableRecord
  2
*Model_Space
340
128A
 70
     0
280
     1
281
     0
  0
BLOCK_RECORD
  5
1283
330
126B
100
AcDbSymbolTableRecord
100
AcDbBlockTableRecord
  2
*Paper_Space
340
1286
 70
     0
280
     1
281
     0
  0
BLOCK_RECORD
  5
27F3
330
126B
100
AcDbSymbolTableRecord
100
AcDbBlockTableRecord
  2
ALLBLOCK201030
340
0
310
2800000020000000200000000100080000000000000400000000000000000000000000000000000000000000000080000080000000808000800000008000800080800000C0C0C000C0DCC000F0CAA6000020400000206000002080000020A0000020C0000020E00000400000004020000040400000406000004080000040A0
310
000040C0000040E00000600000006020000060400000606000006080000060A0000060C0000060E00000800000008020000080400000806000008080000080A0000080C0000080E00000A0000000A0200000A0400000A0600000A0800000A0A00000A0C00000A0E00000C0000000C0200000C0400000C0600000C0800000C0
310
A00000C0C00000C0E00000E0000000E0200000E0400000E0600000E0800000E0A00000E0C00000E0E00040000000400020004000400040006000400080004000A0004000C0004000E00040200000402020004020400040206000402080004020A0004020C0004020E000404000004040200040404000404060004040800040
310
40A0004040C0004040E00040600000406020004060400040606000406080004060A0004060C0004060E00040800000408020004080400040806000408080004080A0004080C0004080E00040A0000040A0200040A0400040A0600040A0800040A0A00040A0C00040A0E00040C0000040C0200040C0400040C0600040C08000
310
40C0A00040C0C00040C0E00040E0000040E0200040E0400040E0600040E0800040E0A00040E0C00040E0E00080000000800020008000400080006000800080008000A0008000C0008000E00080200000802020008020400080206000802080008020A0008020C0008020E00080400000804020008040400080406000804080
310
008040A0008040C0008040E00080600000806020008060400080606000806080008060A0008060C0008060E00080800000808020008080400080806000808080008080A0008080C0008080E00080A0000080A0200080A0400080A0600080A0800080A0A00080A0C00080A0E00080C0000080C0200080C0400080C0600080C0
310
800080C0A00080C0C00080C0E00080E0000080E0200080E0400080E0600080E0800080E0A00080E0C00080E0E000C0000000C0002000C0004000C0006000C0008000C000A000C000C000C000E000C0200000C0202000C0204000C0206000C0208000C020A000C020C000C020E000C0400000C0402000C0404000C0406000C0
310
408000C040A000C040C000C040E000C0600000C0602000C0604000C0606000C0608000C060A000C060C000C060E000C0800000C0802000C0804000C0806000C0808000C080A000C080C000C080E000C0A00000C0A02000C0A04000C0A06000C0A08000C0A0A000C0A0C000C0A0E000C0C00000C0C02000C0C04000C0C06000
310
C0C08000C0C0A000F0FBFF00A4A0A000808080000000FF0000FF000000FFFF00FF000000FF00FF00FFFF0000FFFFFF0000000000000000000000000000000000000000000000000000000000000000000000000000000000000000000000000000000000000000000000000000000000000000000000000000000000000000
310
00000000000000000000000000000000000000000000000000000000000000000000000000000000000000000000000000000000000000000000000000000000000000000000000000000000000000000000000000000000000000000000000000000000000000000000000000000000000000000000000000000000000000
310
00000000000000000000000000000000000000000000000000000000000000000000000000000000000000F9F9000000000000000000000000000000000000000000000000000000000000F9F9000000000000000000000000000000000000000000000000000000000000F9F90000000000000000F9F9F9F9FD00000000F9
310
0000000000F9F9F9F9F90000F9F90000000000000000F9FBFBFBFB00000000FB00F9F9F9FBFBFBFBFBFB0000FBF9F9F90000000000F9FEFEFBF9F900000000F9FBFBFBFBFBF9F9F9000000F9FBF900F900000000000000F9F9F9F900000000F9FBFEFEFEF9F9F9F9000000FBFBF900F90000000000F9F9FBFBF9FBFBF9F9F9
310
FBF9FBFBF9FBFBFBFBFBFBF9F9F9FBF9F90000000000F900F9F9FBFBF9FBFB00F9F9F9F9F9F9F9F9F9F900000000F9F9F90000000000F900F9F9FBFBFBFBFB00F9F9F9F9F9F9F9F9F9F9000000F9F9F9F900000000FBFB00F9F9FBFBFBFBF900F9F9000000F9F9F9F9F9F9F9F9F9F9F9F90000000000F9F9FBFBF9F9F9F9F9
310
F9FBFBFBF9F9FBFBFBF9F9F9F9F9F9FBF9F90000000000FBFBFBFBF9F9FBFBFBF9F9F9000000F9F900000000000000F900F90000000000FBFBFBFB00F9F900F9F9F9F9000000F9F900000000000000F9F9F9FB00000000FBF9F9F9F9F9FBFBF9FBFBF9000000F9F9F9000000000000F9FBFBF900000000F9F9FBFBF9FBF9F9
310
F9FBFBF9000000F9F900000000000000F9F9FBF9F90000000000F9F9F9F9F9F9F9F9F9F9F9F9F9F9F90000FAFAFA0000F900F9000000000000F9FBFBFB00000000F9FBFB000000FBFBF900FAFAFA00FBFBF9FBF900000000000000000000000000000000000000000000000000000000000000000000000000000000000000
310
00000000000000000000000000000000000000000000000000000000000000000000000000000000000000000000000000000000000000000000000000000000000000000000000000000000000000000000000000000000000000000000000000000000000000000000000000000000000000000000000000000000000000
310
0000000000000000000000000000000000000000000000000000000000000000000000000000000000000000000000000000000000000000
102
{BLKREFS
331
2C53
102
}
 70
     0
280
     1
281
     0
  0
ENDTAB
  0
ENDSEC
  0
SECTION
  2
BLOCKS
  0
BLOCK
  5
1288
330
1287
100
AcDbEntity
  8
0
100
AcDbBlockBegin
  2
*Model_Space
 70
     0
 10
0.0
 20
0.0
 30
0.0
  3
*Model_Space
  1

  0
ENDBLK
  5
1289
330
1287
100
AcDbEntity
  8
0
100
AcDbBlockEnd
  0
BLOCK
  5
1284
330
1283
100
AcDbEntity
 67
     1
  8
0
100
AcDbBlockBegin
  2
*Paper_Space
 70
     0
 10
0.0
 20
0.0
 30
0.0
  3
*Paper_Space
  1

  0
ENDBLK
  5
1285
330
1283
100
AcDbEntity
 67
     1
  8
0
100
AcDbBlockEnd
  0
BLOCK
  5
27F4
330
27F3
100
AcDbEntity
  8
0
100
AcDbBlockBegin
  2
ALLBLOCK201030
 70
     0
 10
0.0
 20
0.0
 30
0.0
  3
ALLBLOCK201030
  1

  0
LINE
  5
27F6
330
27F3
100
AcDbEntity
  8
PEN1
  6
LTY1
100
AcDbLine
 10
55.0
 20
227.5
 30
0.0
 11
55.0
 21
225.0
 31
0.0
  0
LINE
  5
27F7
330
27F3
100
AcDbEntity
  8
PEN1
  6
LTY1
100
AcDbLine
 10
55.0
 20
217.5
 30
0.0
 11
52.5
 21
225.0
 31
0.0
  0
LINE
  5
27F8
330
27F3
100
AcDbEntity
  8
PEN1
  6
LTY1
100
AcDbLine
 10
60.0
 20
217.5
 30
0.0
 11
57.5
 21
225.0
 31
0.0
  0
LINE
  5
27F9
330
27F3
100
AcDbEntity
  8
PEN1
  6
LTY1
100
AcDbLine
 10
60.0
 20
225.0
 30
0.0
 11
60.0
 21
227.5
 31
0.0
  0
LINE
  5
27FA
330
27F3
100
AcDbEntity
  8
PEN1
  6
LTY1
100
AcDbLine
 10
65.0
 20
217.5
 30
0.0
 11
62.5
 21
225.0
 31
0.0
  0
LINE
  5
27FB
330
27F3
100
AcDbEntity
  8
PEN1
  6
LTY1
100
AcDbLine
 10
65.0
 20
225.0
 30
0.0
 11
65.0
 21
227.5
 31
0.0
  0
LINE
  5
27FC
330
27F3
100
AcDbEntity
  8
PEN1
  6
LTY1
100
AcDbLine
 10
65.0
 20
212.5
 30
0.0
 11
65.0
 21
217.5
 31
0.0
  0
LINE
  5
27FD
330
27F3
100
AcDbEntity
  8
PEN1
  6
LTY1
100
AcDbLine
 10
60.0
 20
212.5
 30
0.0
 11
60.0
 21
217.5
 31
0.0
  0
LINE
  5
27FE
330
27F3
100
AcDbEntity
  8
PEN1
  6
LTY1
100
AcDbLine
 10
55.0
 20
212.5
 30
0.0
 11
55.0
 21
217.5
 31
0.0
  0
LINE
  5
27FF
330
27F3
100
AcDbEntity
  8
PEN1
  6
LTY1
100
AcDbLine
 10
55.0
 20
212.5
 30
0.0
 11
55.0
 21
211.25
 31
0.0
  0
LINE
  5
2800
330
27F3
100
AcDbEntity
  8
PEN1
  6
LTY1
100
AcDbLine
 10
55.0
 20
211.25
 30
0.0
 11
53.5
 21
211.25
 31
0.0
  0
LINE
  5
2801
330
27F3
100
AcDbEntity
  8
PEN1
  6
LTY1
100
AcDbLine
 10
53.5
 20
211.25
 30
0.0
 11
53.5
 21
208.75
 31
0.0
  0
LINE
  5
2802
330
27F3
100
AcDbEntity
  8
PEN1
  6
LTY1
100
AcDbLine
 10
53.5
 20
208.75
 30
0.0
 11
55.0
 21
208.75
 31
0.0
  0
LINE
  5
2803
330
27F3
100
AcDbEntity
  8
PEN1
  6
LTY1
100
AcDbLine
 10
55.0
 20
208.75
 30
0.0
 11
55.0
 21
207.5
 31
0.0
  0
LINE
  5
2804
330
27F3
100
AcDbEntity
  8
PEN1
  6
LTY1
100
AcDbLine
 10
52.0
 20
212.5
 30
0.0
 11
68.0
 21
212.5
 31
0.0
  0
LINE
  5
2805
330
27F3
100
AcDbEntity
  8
PEN1
  6
LTY1
100
AcDbLine
 10
68.0
 20
212.5
 30
0.0
 11
68.0
 21
207.5
 31
0.0
  0
LINE
  5
2806
330
27F3
100
AcDbEntity
  8
PEN1
  6
LTY1
100
AcDbLine
 10
68.0
 20
207.5
 30
0.0
 11
52.0
 21
207.5
 31
0.0
  0
LINE
  5
2807
330
27F3
100
AcDbEntity
  8
PEN1
  6
LTY1
100
AcDbLine
 10
52.0
 20
207.5
 30
0.0
 11
52.0
 21
212.5
 31
0.0
  0
LINE
  5
2808
330
27F3
100
AcDbEntity
  8
PEN1
  6
LTY1
100
AcDbLine
 10
60.0
 20
212.5
 30
0.0
 11
60.0
 21
211.25
 31
0.0
  0
LINE
  5
2809
330
27F3
100
AcDbEntity
  8
PEN1
  6
LTY1
100
AcDbLine
 10
60.0
 20
211.25
 30
0.0
 11
58.5
 21
211.25
 31
0.0
  0
LINE
  5
280A
330
27F3
100
AcDbEntity
  8
PEN1
  6
LTY1
100
AcDbLine
 10
58.5
 20
211.25
 30
0.0
 11
58.5
 21
208.75
 31
0.0
  0
LINE
  5
280B
330
27F3
100
AcDbEntity
  8
PEN1
  6
LTY1
100
AcDbLine
 10
58.5
 20
208.75
 30
0.0
 11
60.0
 21
208.75
 31
0.0
  0
LINE
  5
280C
330
27F3
100
AcDbEntity
  8
PEN1
  6
LTY1
100
AcDbLine
 10
60.0
 20
208.75
 30
0.0
 11
60.0
 21
207.5
 31
0.0
  0
LINE
  5
280D
330
27F3
100
AcDbEntity
  8
PEN1
  6
LTY1
100
AcDbLine
 10
65.0
 20
212.5
 30
0.0
 11
65.0
 21
217.5
 31
0.0
  0
LINE
  5
280E
330
27F3
100
AcDbEntity
  8
PEN1
  6
LTY1
100
AcDbLine
 10
65.0
 20
212.5
 30
0.0
 11
65.0
 21
211.25
 31
0.0
  0
LINE
  5
280F
330
27F3
100
AcDbEntity
  8
PEN1
  6
LTY1
100
AcDbLine
 10
65.0
 20
211.25
 30
0.0
 11
63.5
 21
211.25
 31
0.0
  0
LINE
  5
2810
330
27F3
100
AcDbEntity
  8
PEN1
  6
LTY1
100
AcDbLine
 10
63.5
 20
211.25
 30
0.0
 11
63.5
 21
208.75
 31
0.0
  0
LINE
  5
2811
330
27F3
100
AcDbEntity
  8
PEN1
  6
LTY1
100
AcDbLine
 10
63.5
 20
208.75
 30
0.0
 11
65.0
 21
208.75
 31
0.0
  0
LINE
  5
2812
330
27F3
100
AcDbEntity
  8
PEN1
  6
LTY1
100
AcDbLine
 10
65.0
 20
208.75
 30
0.0
 11
65.0
 21
207.5
 31
0.0
  0
LINE
  5
2813
330
27F3
100
AcDbEntity
  8
PEN1
  6
LTY1
100
AcDbLine
 10
62.5
 20
212.5
 30
0.0
 11
62.5
 21
207.5
 31
0.0
  0
LINE
  5
2814
330
27F3
100
AcDbEntity
  8
PEN1
  6
LTY1
100
AcDbLine
 10
57.5
 20
207.5
 30
0.0
 11
57.5
 21
212.5
 31
0.0
  0
LINE
  5
2815
330
27F3
100
AcDbEntity
  8
PEN1
  6
LTY1
100
AcDbLine
 10
52.0
 20
207.5
 30
0.0
 11
52.0
 21
202.5
 31
0.0
  0
LINE
  5
2816
330
27F3
100
AcDbEntity
  8
PEN1
  6
LTY1
100
AcDbLine
 10
52.0
 20
202.5
 30
0.0
 11
68.0
 21
202.5
 31
0.0
  0
LINE
  5
2817
330
27F3
100
AcDbEntity
  8
PEN1
  6
LTY1
100
AcDbLine
 10
68.0
 20
202.5
 30
0.0
 11
68.0
 21
207.5
 31
0.0
  0
LINE
  5
2818
330
27F3
100
AcDbEntity
  8
PEN1
  6
LTY1
100
AcDbLine
 10
62.5
 20
207.5
 30
0.0
 11
62.5
 21
202.5
 31
0.0
  0
LINE
  5
2819
330
27F3
100
AcDbEntity
  8
PEN1
  6
LTY1
100
AcDbLine
 10
57.5
 20
207.5
 30
0.0
 11
57.5
 21
202.5
 31
0.0
  0
TEXT
  5
281A
330
27F3
100
AcDbEntity
  8
PEN2
100
AcDbText
 10
51.97527285129604
 20
203.75
 30
0.0
 40
2.5
  1
I>>
  7
textstyle142
 72
     1
 11
54.5
 21
203.75
 31
0.0
100
AcDbText
  0
TEXT
  5
281B
330
27F3
100
AcDbEntity
  8
PEN2
100
AcDbText
 10
57.47527285129604
 20
203.75
 30
0.0
 40
2.5
  1
I>>
  7
textstyle143
 72
     1
 11
60.0
 21
203.75
 31
0.0
100
AcDbText
  0
TEXT
  5
281C
330
27F3
100
AcDbEntity
  8
PEN2
100
AcDbText
 10
62.97527285129604
 20
203.75
 30
0.0
 40
2.5
  1
I>>
  7
textstyle144
 72
     1
 11
65.5
 21
203.75
 31
0.0
100
AcDbText
  0
LINE
  5
281D
330
27F3
100
AcDbEntity
  8
PEN1
  6
LTY1
100
AcDbLine
 10
65.0
 20
202.5
 30
0.0
 11
65.0
 21
200.0
 31
0.0
  0
LINE
  5
281E
330
27F3
100
AcDbEntity
  8
PEN1
  6
LTY1
100
AcDbLine
 10
60.0
 20
202.5
 30
0.0
 11
60.0
 21
200.0
 31
0.0
  0
LINE
  5
281F
330
27F3
100
AcDbEntity
  8
PEN1
  6
LTY1
100
AcDbLine
 10
55.0
 20
202.5
 30
0.0
 11
55.0
 21
200.0
 31
0.0
  0
LINE
  5
2820
330
27F3
100
AcDbEntity
  8
PEN1
  6
LTY1
100
AcDbLine
 10
45.0
 20
223.75
 30
0.0
 11
40.0
 21
223.75
 31
0.0
  0
LINE
  5
2821
330
27F3
100
AcDbEntity
  8
PEN1
  6
LTY1
100
AcDbLine
 10
40.0
 20
223.75
 30
0.0
 11
40.0
 21
218.75
 31
0.0
  0
LINE
  5
2822
330
27F3
100
AcDbEntity
  8
PEN1
  6
LTY1
100
AcDbLine
 10
40.0
 20
218.75
 30
0.0
 11
45.0
 21
218.75
 31
0.0
  0
LINE
  5
2823
330
27F3
100
AcDbEntity
  8
PEN1
  6
LTY1
100
AcDbLine
 10
45.0
 20
218.75
 30
0.0
 11
45.0
 21
223.75
 31
0.0
  0
LINE
  5
2824
330
27F3
100
AcDbEntity
  8
PEN1
  6
LTY1
100
AcDbLine
 10
42.5
 20
223.75
 30
0.0
 11
42.5
 21
218.75
 31
0.0
  0
LINE
  5
2825
330
27F3
100
AcDbEntity
  8
PEN1
  6
LTY1
100
AcDbLine
 10
40.0
 20
221.25
 30
0.0
 11
45.0
 21
221.25
 31
0.0
  0
LINE
  5
2826
330
27F3
100
AcDbEntity
  8
PEN1
  6
LTY1
100
AcDbLine
 10
40.0
 20
221.25
 30
0.0
 11
37.5
 21
221.25
 31
0.0
  0
LINE
  5
2827
330
27F3
100
AcDbEntity
  8
PEN1
  6
LTY1
100
AcDbLine
 10
37.5
 20
222.5
 30
0.0
 11
37.5
 21
220.0
 31
0.0
  0
LINE
  5
2828
330
27F3
100
AcDbEntity
  8
PEN1
  6
LTY4
100
AcDbLine
 10
42.5
 20
218.75
 30
0.0
 11
42.5
 21
205.0
 31
0.0
  0
LINE
  5
2829
330
27F3
100
AcDbEntity
  8
PEN1
  6
LTY4
100
AcDbLine
 10
42.5
 20
205.0
 30
0.0
 11
51.75
 21
205.0
 31
0.0
  0
LINE
  5
282A
330
27F3
100
AcDbEntity
  8
PEN1
  6
LTY4
100
AcDbLine
 10
51.75
 20
210.0
 30
0.0
 11
42.5
 21
210.0
 31
0.0
  0
TEXT
  5
282B
330
27F3
100
AcDbEntity
  8
PEN1
100
AcDbText
 10
26.14924965893588
 20
226.75
 30
0.0
 40
3.5
  1
-Q1
  7
textstyle943
 72
     2
 11
34.3
 21
226.75
 31
0.0
100
AcDbText
  0
TEXT
  5
282C
330
27F3
100
AcDbEntity
  8
PEN2
100
AcDbText
 10
76.25
 20
226.75
 30
0.0
 40
2.5
  1
13
 50
90.0
  7
textstyle944
100
AcDbText
  0
TEXT
  5
282D
330
27F3
100
AcDbEntity
  8
PEN2
100
AcDbText
 10
76.25
 20
211.8652796725784
 30
0.0
 40
2.5
  1
14
 50
90.0
  7
textstyle945
 72
     2
 11
76.25
 21
215.75
 31
0.0
100
AcDbText
  0
TEXT
  5
282E
330
27F3
100
AcDbEntity
  8
PEN2
100
AcDbText
 10
81.25
 20
226.75
 30
0.0
 40
2.5
  1
21
 50
90.0
  7
textstyle946
100
AcDbText
  0
TEXT
  5
282F
330
27F3
100
AcDbEntity
  8
PEN2
100
AcDbText
 10
81.25
 20
211.8652796725784
 30
0.0
 40
2.5
  1
22
 50
90.0
  7
textstyle947
 72
     2
 11
81.25
 21
215.75
 31
0.0
100
AcDbText
  0
TEXT
  5
2830
330
27F3
100
AcDbEntity
  8
PEN4
100
AcDbText
 10
83.49999999999999
 20
208.5283765347885
 30
0.0
 40
2.0
  1
D5
 50
90.0
  7
textstyle949
 72
     2
 11
83.49999999999999
 21
212.1
 31
0.0
100
AcDbText
  0
LINE
  5
2831
330
27F3
100
AcDbEntity
  8
PEN1
  6
LTY4
100
AcDbLine
 10
45.0
 20
221.25
 30
0.0
 11
83.75
 21
221.25
 31
0.0
  0
LINE
  5
2832
330
27F3
100
AcDbEntity
  8
PEN1
  6
LTY1
100
AcDbLine
 10
77.5
 20
227.5
 30
0.0
 11
77.5
 21
225.0
 31
0.0
  0
LINE
  5
2833
330
27F3
100
AcDbEntity
  8
PEN1
  6
LTY1
100
AcDbLine
 10
75.0
 20
225.0
 30
0.0
 11
77.5
 21
217.5
 31
0.0
  0
LINE
  5
2834
330
27F3
100
AcDbEntity
  8
PEN1
  6
LTY1
100
AcDbLine
 10
77.5
 20
217.5
 30
0.0
 11
77.5
 21
215.0
 31
0.0
  0
LINE
  5
2835
330
27F3
100
AcDbEntity
  8
PEN1
  6
LTY1
100
AcDbLine
 10
82.5
 20
215.0
 30
0.0
 11
82.5
 21
217.5
 31
0.0
  0
LINE
  5
2836
330
27F3
100
AcDbEntity
  8
PEN1
  6
LTY1
100
AcDbLine
 10
82.5
 20
217.5
 30
0.0
 11
85.0
 21
226.25
 31
0.0
  0
LINE
  5
2837
330
27F3
100
AcDbEntity
  8
PEN1
  6
LTY1
100
AcDbLine
 10
82.5
 20
225.0
 30
0.0
 11
82.5
 21
227.5
 31
0.0
  0
LINE
  5
2838
330
27F3
100
AcDbEntity
  8
PEN1
  6
LTY1
100
AcDbLine
 10
82.5
 20
225.0
 30
0.0
 11
86.25
 21
225.0
 31
0.0
  0
ARC
  5
2839
330
27F3
100
AcDbEntity
  8
PEN1
  6
LTY1
100
AcDbCircle
 10
60.0
 20
188.0
 30
0.0
 40
1.5
100
AcDbArc
 50
270.0
 51
90.0
  0
ARC
  5
283A
330
27F3
100
AcDbEntity
  8
PEN1
  6
LTY1
100
AcDbCircle
 10
60.0
 20
185.0
 30
0.0
 40
1.5
100
AcDbArc
 50
270.0
 51
90.0
  0
ARC
  5
283B
330
27F3
100
AcDbEntity
  8
PEN1
  6
LTY1
100
AcDbCircle
 10
60.0
 20
182.0
 30
0.0
 40
1.5
100
AcDbArc
 50
270.0
 51
90.0
  0
LINE
  5
283C
330
27F3
100
AcDbEntity
  8
PEN1
  6
LTY1
100
AcDbLine
 10
60.0
 20
177.5
 30
0.0
 11
60.0
 21
180.5
 31
0.0
  0
LINE
  5
283D
330
27F3
100
AcDbEntity
  8
PEN1
  6
LTY1
100
AcDbLine
 10
60.0
 20
189.5
 30
0.0
 11
60.0
 21
192.5
 31
0.0
  0
TEXT
  5
283E
330
27F3
100
AcDbEntity
  8
PEN1
100
AcDbText
 10
46.96575716234651
 20
188.25
 30
0.0
 40
3.5
  1
-T2
  7
textstyle984
 72
     2
 11
54.29999999999999
 21
188.25
 31
0.0
100
AcDbText
  0
ARC
  5
283F
330
27F3
100
AcDbEntity
  8
PEN1
  6
LTY1
100
AcDbCircle
 10
70.0
 20
188.0
 30
0.0
 40
1.5
100
AcDbArc
 50
270.0
 51
90.0
  0
ARC
  5
2840
330
27F3
100
AcDbEntity
  8
PEN1
  6
LTY1
100
AcDbCircle
 10
70.0
 20
185.0
 30
0.0
 40
1.5
100
AcDbArc
 50
270.0
 51
90.0
  0
ARC
  5
2841
330
27F3
100
AcDbEntity
  8
PEN1
  6
LTY1
100
AcDbCircle
 10
70.0
 20
182.0
 30
0.0
 40
1.5
100
AcDbArc
 50
270.0
 51
90.0
  0
LINE
  5
2842
330
27F3
100
AcDbEntity
  8
PEN1
  6
LTY1
100
AcDbLine
 10
70.0
 20
177.5
 30
0.0
 11
70.0
 21
180.5
 31
0.0
  0
LINE
  5
2843
330
27F3
100
AcDbEntity
  8
PEN1
  6
LTY1
100
AcDbLine
 10
70.0
 20
189.5
 30
0.0
 11
70.0
 21
192.5
 31
0.0
  0
LINE
  5
2844
330
27F3
100
AcDbEntity
  8
PEN1
  6
LTY1
100
AcDbLine
 10
54.5
 20
77.5
 30
0.0
 11
54.5
 21
72.5
 31
0.0
  0
LINE
  5
2845
330
27F3
100
AcDbEntity
  8
PEN1
  6
LTY1
100
AcDbLine
 10
54.5
 20
72.5
 30
0.0
 11
55.5
 21
72.5
 31
0.0
  0
LINE
  5
2846
330
27F3
100
AcDbEntity
  8
PEN1
  6
LTY1
100
AcDbLine
 10
55.5
 20
72.5
 30
0.0
 11
55.5
 21
77.5
 31
0.0
  0
LINE
  5
2847
330
27F3
100
AcDbEntity
  8
PEN1
  6
LTY1
100
AcDbLine
 10
55.5
 20
77.5
 30
0.0
 11
54.5
 21
77.5
 31
0.0
  0
LINE
  5
2848
330
27F3
100
AcDbEntity
  8
PEN1
  6
LTY1
100
AcDbLine
 10
54.5
 20
72.5
 30
0.0
 11
55.5
 21
72.5
 31
0.0
  0
LINE
  5
2849
330
27F3
100
AcDbEntity
  8
PEN1
  6
LTY1
100
AcDbLine
 10
54.5
 20
73.0
 30
0.0
 11
55.5
 21
73.0
 31
0.0
  0
LINE
  5
284A
330
27F3
100
AcDbEntity
  8
PEN1
  6
LTY1
100
AcDbLine
 10
54.5
 20
73.5
 30
0.0
 11
55.5
 21
73.5
 31
0.0
  0
LINE
  5
284B
330
27F3
100
AcDbEntity
  8
PEN1
  6
LTY1
100
AcDbLine
 10
54.5
 20
74.0
 30
0.0
 11
55.5
 21
74.0
 31
0.0
  0
LINE
  5
284C
330
27F3
100
AcDbEntity
  8
PEN1
  6
LTY1
100
AcDbLine
 10
54.5
 20
74.5
 30
0.0
 11
55.5
 21
74.5
 31
0.0
  0
LINE
  5
284D
330
27F3
100
AcDbEntity
  8
PEN1
  6
LTY1
100
AcDbLine
 10
54.5
 20
75.0
 30
0.0
 11
55.5
 21
75.0
 31
0.0
  0
LINE
  5
284E
330
27F3
100
AcDbEntity
  8
PEN1
  6
LTY1
100
AcDbLine
 10
54.5
 20
75.5
 30
0.0
 11
55.5
 21
75.5
 31
0.0
  0
LINE
  5
284F
330
27F3
100
AcDbEntity
  8
PEN1
  6
LTY1
100
AcDbLine
 10
54.5
 20
76.0
 30
0.0
 11
55.5
 21
76.0
 31
0.0
  0
LINE
  5
2850
330
27F3
100
AcDbEntity
  8
PEN1
  6
LTY1
100
AcDbLine
 10
54.5
 20
76.5
 30
0.0
 11
55.5
 21
76.5
 31
0.0
  0
LINE
  5
2851
330
27F3
100
AcDbEntity
  8
PEN1
  6
LTY1
100
AcDbLine
 10
54.5
 20
77.0
 30
0.0
 11
55.5
 21
77.0
 31
0.0
  0
LINE
  5
2852
330
27F3
100
AcDbEntity
  8
PEN1
  6
LTY1
100
AcDbLine
 10
54.5
 20
77.5
 30
0.0
 11
55.5
 21
77.5
 31
0.0
  0
ARC
  5
2853
330
27F3
100
AcDbEntity
  8
PEN1
  6
LTY1
100
AcDbCircle
 10
55.0
 20
72.0
 30
0.0
 40
1.5
100
AcDbArc
 50
180.0
 51
0.0
  0
ARC
  5
2854
330
27F3
100
AcDbEntity
  8
PEN1
  6
LTY1
100
AcDbCircle
 10
55.0
 20
72.0
 30
0.0
 40
1.7
100
AcDbArc
 50
180.0
 51
0.0
  0
ARC
  5
2855
330
27F3
100
AcDbEntity
  8
PEN1
  6
LTY1
100
AcDbCircle
 10
55.0
 20
72.0
 30
0.0
 40
1.9
100
AcDbArc
 50
180.0
 51
0.0
  0
TEXT
  5
2856
330
27F3
100
AcDbEntity
  8
PEN1
100
AcDbText
 10
44.19120054570258
 20
73.25
 30
0.0
 40
3.5
  1
-X1
  7
textstyle1053
 72
     2
 11
51.79999999999999
 21
73.25
 31
0.0
100
AcDbText
  0
LINE
  5
2857
330
27F3
100
AcDbEntity
  8
PEN1
  6
LTY1
100
AcDbLine
 10
59.5
 20
77.5
 30
0.0
 11
59.5
 21
72.5
 31
0.0
  0
LINE
  5
2858
330
27F3
100
AcDbEntity
  8
PEN1
  6
LTY1
100
AcDbLine
 10
59.5
 20
72.5
 30
0.0
 11
60.5
 21
72.5
 31
0.0
  0
LINE
  5
2859
330
27F3
100
AcDbEntity
  8
PEN1
  6
LTY1
100
AcDbLine
 10
60.5
 20
72.5
 30
0.0
 11
60.5
 21
77.5
 31
0.0
  0
LINE
  5
285A
330
27F3
100
AcDbEntity
  8
PEN1
  6
LTY1
100
AcDbLine
 10
60.5
 20
77.5
 30
0.0
 11
59.5
 21
77.5
 31
0.0
  0
LINE
  5
285B
330
27F3
100
AcDbEntity
  8
PEN1
  6
LTY1
100
AcDbLine
 10
59.5
 20
72.5
 30
0.0
 11
60.5
 21
72.5
 31
0.0
  0
LINE
  5
285C
330
27F3
100
AcDbEntity
  8
PEN1
  6
LTY1
100
AcDbLine
 10
59.5
 20
73.0
 30
0.0
 11
60.5
 21
73.0
 31
0.0
  0
LINE
  5
285D
330
27F3
100
AcDbEntity
  8
PEN1
  6
LTY1
100
AcDbLine
 10
59.5
 20
73.5
 30
0.0
 11
60.5
 21
73.5
 31
0.0
  0
LINE
  5
285E
330
27F3
100
AcDbEntity
  8
PEN1
  6
LTY1
100
AcDbLine
 10
59.5
 20
74.0
 30
0.0
 11
60.5
 21
74.0
 31
0.0
  0
LINE
  5
285F
330
27F3
100
AcDbEntity
  8
PEN1
  6
LTY1
100
AcDbLine
 10
59.5
 20
74.5
 30
0.0
 11
60.5
 21
74.5
 31
0.0
  0
LINE
  5
2860
330
27F3
100
AcDbEntity
  8
PEN1
  6
LTY1
100
AcDbLine
 10
59.5
 20
75.0
 30
0.0
 11
60.5
 21
75.0
 31
0.0
  0
LINE
  5
2861
330
27F3
100
AcDbEntity
  8
PEN1
  6
LTY1
100
AcDbLine
 10
59.5
 20
75.5
 30
0.0
 11
60.5
 21
75.5
 31
0.0
  0
LINE
  5
2862
330
27F3
100
AcDbEntity
  8
PEN1
  6
LTY1
100
AcDbLine
 10
59.5
 20
76.0
 30
0.0
 11
60.5
 21
76.0
 31
0.0
  0
LINE
  5
2863
330
27F3
100
AcDbEntity
  8
PEN1
  6
LTY1
100
AcDbLine
 10
59.5
 20
76.5
 30
0.0
 11
60.5
 21
76.5
 31
0.0
  0
LINE
  5
2864
330
27F3
100
AcDbEntity
  8
PEN1
  6
LTY1
100
AcDbLine
 10
59.5
 20
77.0
 30
0.0
 11
60.5
 21
77.0
 31
0.0
  0
LINE
  5
2865
330
27F3
100
AcDbEntity
  8
PEN1
  6
LTY1
100
AcDbLine
 10
59.5
 20
77.5
 30
0.0
 11
60.5
 21
77.5
 31
0.0
  0
ARC
  5
2866
330
27F3
100
AcDbEntity
  8
PEN1
  6
LTY1
100
AcDbCircle
 10
60.0
 20
72.0
 30
0.0
 40
1.5
100
AcDbArc
 50
180.0
 51
0.0
  0
ARC
  5
2867
330
27F3
100
AcDbEntity
  8
PEN1
  6
LTY1
100
AcDbCircle
 10
60.0
 20
72.0
 30
0.0
 40
1.7
100
AcDbArc
 50
180.0
 51
0.0
  0
ARC
  5
2868
330
27F3
100
AcDbEntity
  8
PEN1
  6
LTY1
100
AcDbCircle
 10
60.0
 20
72.0
 30
0.0
 40
1.9
100
AcDbArc
 50
180.0
 51
0.0
  0
LINE
  5
2869
330
27F3
100
AcDbEntity
  8
PEN1
  6
LTY1
100
AcDbLine
 10
64.5
 20
77.5
 30
0.0
 11
64.5
 21
72.5
 31
0.0
  0
LINE
  5
286A
330
27F3
100
AcDbEntity
  8
PEN1
  6
LTY1
100
AcDbLine
 10
64.5
 20
72.5
 30
0.0
 11
65.5
 21
72.5
 31
0.0
  0
LINE
  5
286B
330
27F3
100
AcDbEntity
  8
PEN1
  6
LTY1
100
AcDbLine
 10
65.5
 20
72.5
 30
0.0
 11
65.5
 21
77.5
 31
0.0
  0
LINE
  5
286C
330
27F3
100
AcDbEntity
  8
PEN1
  6
LTY1
100
AcDbLine
 10
65.5
 20
77.5
 30
0.0
 11
64.5
 21
77.5
 31
0.0
  0
LINE
  5
286D
330
27F3
100
AcDbEntity
  8
PEN1
  6
LTY1
100
AcDbLine
 10
64.5
 20
72.5
 30
0.0
 11
65.5
 21
72.5
 31
0.0
  0
LINE
  5
286E
330
27F3
100
AcDbEntity
  8
PEN1
  6
LTY1
100
AcDbLine
 10
64.5
 20
73.0
 30
0.0
 11
65.5
 21
73.0
 31
0.0
  0
LINE
  5
286F
330
27F3
100
AcDbEntity
  8
PEN1
  6
LTY1
100
AcDbLine
 10
64.5
 20
73.5
 30
0.0
 11
65.5
 21
73.5
 31
0.0
  0
LINE
  5
2870
330
27F3
100
AcDbEntity
  8
PEN1
  6
LTY1
100
AcDbLine
 10
64.5
 20
74.0
 30
0.0
 11
65.5
 21
74.0
 31
0.0
  0
LINE
  5
2871
330
27F3
100
AcDbEntity
  8
PEN1
  6
LTY1
100
AcDbLine
 10
64.5
 20
74.5
 30
0.0
 11
65.5
 21
74.5
 31
0.0
  0
LINE
  5
2872
330
27F3
100
AcDbEntity
  8
PEN1
  6
LTY1
100
AcDbLine
 10
64.5
 20
75.0
 30
0.0
 11
65.5
 21
75.0
 31
0.0
  0
LINE
  5
2873
330
27F3
100
AcDbEntity
  8
PEN1
  6
LTY1
100
AcDbLine
 10
64.5
 20
75.5
 30
0.0
 11
65.5
 21
75.5
 31
0.0
  0
LINE
  5
2874
330
27F3
100
AcDbEntity
  8
PEN1
  6
LTY1
100
AcDbLine
 10
64.5
 20
76.0
 30
0.0
 11
65.5
 21
76.0
 31
0.0
  0
LINE
  5
2875
330
27F3
100
AcDbEntity
  8
PEN1
  6
LTY1
100
AcDbLine
 10
64.5
 20
76.5
 30
0.0
 11
65.5
 21
76.5
 31
0.0
  0
LINE
  5
2876
330
27F3
100
AcDbEntity
  8
PEN1
  6
LTY1
100
AcDbLine
 10
64.5
 20
77.0
 30
0.0
 11
65.5
 21
77.0
 31
0.0
  0
LINE
  5
2877
330
27F3
100
AcDbEntity
  8
PEN1
  6
LTY1
100
AcDbLine
 10
64.5
 20
77.5
 30
0.0
 11
65.5
 21
77.5
 31
0.0
  0
ARC
  5
2878
330
27F3
100
AcDbEntity
  8
PEN1
  6
LTY1
100
AcDbCircle
 10
65.0
 20
72.0
 30
0.0
 40
1.5
100
AcDbArc
 50
180.0
 51
0.0
  0
ARC
  5
2879
330
27F3
100
AcDbEntity
  8
PEN1
  6
LTY1
100
AcDbCircle
 10
65.0
 20
72.0
 30
0.0
 40
1.7
100
AcDbArc
 50
180.0
 51
0.0
  0
ARC
  5
287A
330
27F3
100
AcDbEntity
  8
PEN1
  6
LTY1
100
AcDbCircle
 10
65.0
 20
72.0
 30
0.0
 40
1.9
100
AcDbArc
 50
180.0
 51
0.0
  0
LINE
  5
287B
330
27F3
100
AcDbEntity
  8
PEN1
  6
LTY1
100
AcDbLine
 10
54.5
 20
250.0
 30
0.0
 11
54.5
 21
245.0
 31
0.0
  0
LINE
  5
287C
330
27F3
100
AcDbEntity
  8
PEN1
  6
LTY1
100
AcDbLine
 10
54.5
 20
245.0
 30
0.0
 11
55.5
 21
245.0
 31
0.0
  0
LINE
  5
287D
330
27F3
100
AcDbEntity
  8
PEN1
  6
LTY1
100
AcDbLine
 10
55.5
 20
245.0
 30
0.0
 11
55.5
 21
250.0
 31
0.0
  0
LINE
  5
287E
330
27F3
100
AcDbEntity
  8
PEN1
  6
LTY1
100
AcDbLine
 10
55.5
 20
250.0
 30
0.0
 11
54.5
 21
250.0
 31
0.0
  0
LINE
  5
287F
330
27F3
100
AcDbEntity
  8
PEN1
  6
LTY1
100
AcDbLine
 10
54.5
 20
245.0
 30
0.0
 11
55.5
 21
245.0
 31
0.0
  0
LINE
  5
2880
330
27F3
100
AcDbEntity
  8
PEN1
  6
LTY1
100
AcDbLine
 10
54.5
 20
245.5
 30
0.0
 11
55.5
 21
245.5
 31
0.0
  0
LINE
  5
2881
330
27F3
100
AcDbEntity
  8
PEN1
  6
LTY1
100
AcDbLine
 10
54.5
 20
246.0
 30
0.0
 11
55.5
 21
246.0
 31
0.0
  0
LINE
  5
2882
330
27F3
100
AcDbEntity
  8
PEN1
  6
LTY1
100
AcDbLine
 10
54.5
 20
246.5
 30
0.0
 11
55.5
 21
246.5
 31
0.0
  0
LINE
  5
2883
330
27F3
100
AcDbEntity
  8
PEN1
  6
LTY1
100
AcDbLine
 10
54.5
 20
247.0
 30
0.0
 11
55.5
 21
247.0
 31
0.0
  0
LINE
  5
2884
330
27F3
100
AcDbEntity
  8
PEN1
  6
LTY1
100
AcDbLine
 10
54.5
 20
247.5
 30
0.0
 11
55.5
 21
247.5
 31
0.0
  0
LINE
  5
2885
330
27F3
100
AcDbEntity
  8
PEN1
  6
LTY1
100
AcDbLine
 10
54.5
 20
248.0
 30
0.0
 11
55.5
 21
248.0
 31
0.0
  0
LINE
  5
2886
330
27F3
100
AcDbEntity
  8
PEN1
  6
LTY1
100
AcDbLine
 10
54.5
 20
248.5
 30
0.0
 11
55.5
 21
248.5
 31
0.0
  0
LINE
  5
2887
330
27F3
100
AcDbEntity
  8
PEN1
  6
LTY1
100
AcDbLine
 10
54.5
 20
249.0
 30
0.0
 11
55.5
 21
249.0
 31
0.0
  0
LINE
  5
2888
330
27F3
100
AcDbEntity
  8
PEN1
  6
LTY1
100
AcDbLine
 10
54.5
 20
249.5
 30
0.0
 11
55.5
 21
249.5
 31
0.0
  0
LINE
  5
2889
330
27F3
100
AcDbEntity
  8
PEN1
  6
LTY1
100
AcDbLine
 10
54.5
 20
250.0
 30
0.0
 11
55.5
 21
250.0
 31
0.0
  0
ARC
  5
288A
330
27F3
100
AcDbEntity
  8
PEN1
  6
LTY1
100
AcDbCircle
 10
55.0
 20
250.5
 30
0.0
 40
1.5
100
AcDbArc
 50
0.0
 51
180.0
  0
ARC
  5
288B
330
27F3
100
AcDbEntity
  8
PEN1
  6
LTY1
100
AcDbCircle
 10
55.0
 20
250.5
 30
0.0
 40
1.7
100
AcDbArc
 50
0.0
 51
180.0
  0
ARC
  5
288C
330
27F3
100
AcDbEntity
  8
PEN1
  6
LTY1
100
AcDbCircle
 10
55.0
 20
250.5
 30
0.0
 40
1.9
100
AcDbArc
 50
0.0
 51
180.0
  0
TEXT
  5
288D
330
27F3
100
AcDbEntity
  8
PEN1
100
AcDbText
 10
43.19120054570258
 20
249.75
 30
0.0
 40
3.5
  1
-X1
  7
textstyle1153
 72
     2
 11
50.8
 21
249.75
 31
0.0
100
AcDbText
  0
LINE
  5
288E
330
27F3
100
AcDbEntity
  8
PEN1
  6
LTY1
100
AcDbLine
 10
59.5
 20
250.0
 30
0.0
 11
59.5
 21
245.0
 31
0.0
  0
LINE
  5
288F
330
27F3
100
AcDbEntity
  8
PEN1
  6
LTY1
100
AcDbLine
 10
59.5
 20
245.0
 30
0.0
 11
60.5
 21
245.0
 31
0.0
  0
LINE
  5
2890
330
27F3
100
AcDbEntity
  8
PEN1
  6
LTY1
100
AcDbLine
 10
60.5
 20
245.0
 30
0.0
 11
60.5
 21
250.0
 31
0.0
  0
LINE
  5
2891
330
27F3
100
AcDbEntity
  8
PEN1
  6
LTY1
100
AcDbLine
 10
60.5
 20
250.0
 30
0.0
 11
59.5
 21
250.0
 31
0.0
  0
LINE
  5
2892
330
27F3
100
AcDbEntity
  8
PEN1
  6
LTY1
100
AcDbLine
 10
59.5
 20
245.0
 30
0.0
 11
60.5
 21
245.0
 31
0.0
  0
LINE
  5
2893
330
27F3
100
AcDbEntity
  8
PEN1
  6
LTY1
100
AcDbLine
 10
59.5
 20
245.5
 30
0.0
 11
60.5
 21
245.5
 31
0.0
  0
LINE
  5
2894
330
27F3
100
AcDbEntity
  8
PEN1
  6
LTY1
100
AcDbLine
 10
59.5
 20
246.0
 30
0.0
 11
60.5
 21
246.0
 31
0.0
  0
LINE
  5
2895
330
27F3
100
AcDbEntity
  8
PEN1
  6
LTY1
100
AcDbLine
 10
59.5
 20
246.5
 30
0.0
 11
60.5
 21
246.5
 31
0.0
  0
LINE
  5
2896
330
27F3
100
AcDbEntity
  8
PEN1
  6
LTY1
100
AcDbLine
 10
59.5
 20
247.0
 30
0.0
 11
60.5
 21
247.0
 31
0.0
  0
LINE
  5
2897
330
27F3
100
AcDbEntity
  8
PEN1
  6
LTY1
100
AcDbLine
 10
59.5
 20
247.5
 30
0.0
 11
60.5
 21
247.5
 31
0.0
  0
LINE
  5
2898
330
27F3
100
AcDbEntity
  8
PEN1
  6
LTY1
100
AcDbLine
 10
59.5
 20
248.0
 30
0.0
 11
60.5
 21
248.0
 31
0.0
  0
LINE
  5
2899
330
27F3
100
AcDbEntity
  8
PEN1
  6
LTY1
100
AcDbLine
 10
59.5
 20
248.5
 30
0.0
 11
60.5
 21
248.5
 31
0.0
  0
LINE
  5
289A
330
27F3
100
AcDbEntity
  8
PEN1
  6
LTY1
100
AcDbLine
 10
59.5
 20
249.0
 30
0.0
 11
60.5
 21
249.0
 31
0.0
  0
LINE
  5
289B
330
27F3
100
AcDbEntity
  8
PEN1
  6
LTY1
100
AcDbLine
 10
59.5
 20
249.5
 30
0.0
 11
60.5
 21
249.5
 31
0.0
  0
LINE
  5
289C
330
27F3
100
AcDbEntity
  8
PEN1
  6
LTY1
100
AcDbLine
 10
59.5
 20
250.0
 30
0.0
 11
60.5
 21
250.0
 31
0.0
  0
ARC
  5
289D
330
27F3
100
AcDbEntity
  8
PEN1
  6
LTY1
100
AcDbCircle
 10
60.0
 20
250.5
 30
0.0
 40
1.5
100
AcDbArc
 50
0.0
 51
180.0
  0
ARC
  5
289E
330
27F3
100
AcDbEntity
  8
PEN1
  6
LTY1
100
AcDbCircle
 10
60.0
 20
250.5
 30
0.0
 40
1.7
100
AcDbArc
 50
0.0
 51
180.0
  0
ARC
  5
289F
330
27F3
100
AcDbEntity
  8
PEN1
  6
LTY1
100
AcDbCircle
 10
60.0
 20
250.5
 30
0.0
 40
1.9
100
AcDbArc
 50
0.0
 51
180.0
  0
LINE
  5
28A0
330
27F3
100
AcDbEntity
  8
PEN1
  6
LTY1
100
AcDbLine
 10
64.5
 20
250.0
 30
0.0
 11
64.5
 21
245.0
 31
0.0
  0
LINE
  5
28A1
330
27F3
100
AcDbEntity
  8
PEN1
  6
LTY1
100
AcDbLine
 10
64.5
 20
245.0
 30
0.0
 11
65.5
 21
245.0
 31
0.0
  0
LINE
  5
28A2
330
27F3
100
AcDbEntity
  8
PEN1
  6
LTY1
100
AcDbLine
 10
65.5
 20
245.0
 30
0.0
 11
65.5
 21
250.0
 31
0.0
  0
LINE
  5
28A3
330
27F3
100
AcDbEntity
  8
PEN1
  6
LTY1
100
AcDbLine
 10
65.5
 20
250.0
 30
0.0
 11
64.5
 21
250.0
 31
0.0
  0
LINE
  5
28A4
330
27F3
100
AcDbEntity
  8
PEN1
  6
LTY1
100
AcDbLine
 10
64.5
 20
245.0
 30
0.0
 11
65.5
 21
245.0
 31
0.0
  0
LINE
  5
28A5
330
27F3
100
AcDbEntity
  8
PEN1
  6
LTY1
100
AcDbLine
 10
64.5
 20
245.5
 30
0.0
 11
65.5
 21
245.5
 31
0.0
  0
LINE
  5
28A6
330
27F3
100
AcDbEntity
  8
PEN1
  6
LTY1
100
AcDbLine
 10
64.5
 20
246.0
 30
0.0
 11
65.5
 21
246.0
 31
0.0
  0
LINE
  5
28A7
330
27F3
100
AcDbEntity
  8
PEN1
  6
LTY1
100
AcDbLine
 10
64.5
 20
246.5
 30
0.0
 11
65.5
 21
246.5
 31
0.0
  0
LINE
  5
28A8
330
27F3
100
AcDbEntity
  8
PEN1
  6
LTY1
100
AcDbLine
 10
64.5
 20
247.0
 30
0.0
 11
65.5
 21
247.0
 31
0.0
  0
LINE
  5
28A9
330
27F3
100
AcDbEntity
  8
PEN1
  6
LTY1
100
AcDbLine
 10
64.5
 20
247.5
 30
0.0
 11
65.5
 21
247.5
 31
0.0
  0
LINE
  5
28AA
330
27F3
100
AcDbEntity
  8
PEN1
  6
LTY1
100
AcDbLine
 10
64.5
 20
248.0
 30
0.0
 11
65.5
 21
248.0
 31
0.0
  0
LINE
  5
28AB
330
27F3
100
AcDbEntity
  8
PEN1
  6
LTY1
100
AcDbLine
 10
64.5
 20
248.5
 30
0.0
 11
65.5
 21
248.5
 31
0.0
  0
LINE
  5
28AC
330
27F3
100
AcDbEntity
  8
PEN1
  6
LTY1
100
AcDbLine
 10
64.5
 20
249.0
 30
0.0
 11
65.5
 21
249.0
 31
0.0
  0
LINE
  5
28AD
330
27F3
100
AcDbEntity
  8
PEN1
  6
LTY1
100
AcDbLine
 10
64.5
 20
249.5
 30
0.0
 11
65.5
 21
249.5
 31
0.0
  0
LINE
  5
28AE
330
27F3
100
AcDbEntity
  8
PEN1
  6
LTY1
100
AcDbLine
 10
64.5
 20
250.0
 30
0.0
 11
65.5
 21
250.0
 31
0.0
  0
ARC
  5
28AF
330
27F3
100
AcDbEntity
  8
PEN1
  6
LTY1
100
AcDbCircle
 10
65.0
 20
250.5
 30
0.0
 40
1.5
100
AcDbArc
 50
0.0
 51
180.0
  0
ARC
  5
28B0
330
27F3
100
AcDbEntity
  8
PEN1
  6
LTY1
100
AcDbCircle
 10
65.0
 20
250.5
 30
0.0
 40
1.7
100
AcDbArc
 50
0.0
 51
180.0
  0
ARC
  5
28B1
330
27F3
100
AcDbEntity
  8
PEN1
  6
LTY1
100
AcDbCircle
 10
65.0
 20
250.5
 30
0.0
 40
1.9
100
AcDbArc
 50
0.0
 51
180.0
  0
LINE
  5
28B2
330
27F3
100
AcDbEntity
  8
PEN1
  6
LTY1
100
AcDbLine
 10
79.5
 20
250.0
 30
0.0
 11
79.5
 21
245.0
 31
0.0
  0
LINE
  5
28B3
330
27F3
100
AcDbEntity
  8
PEN1
  6
LTY1
100
AcDbLine
 10
79.5
 20
245.0
 30
0.0
 11
80.5
 21
245.0
 31
0.0
  0
LINE
  5
28B4
330
27F3
100
AcDbEntity
  8
PEN1
  6
LTY1
100
AcDbLine
 10
80.5
 20
245.0
 30
0.0
 11
80.5
 21
250.0
 31
0.0
  0
LINE
  5
28B5
330
27F3
100
AcDbEntity
  8
PEN1
  6
LTY1
100
AcDbLine
 10
80.5
 20
250.0
 30
0.0
 11
79.5
 21
250.0
 31
0.0
  0
LINE
  5
28B6
330
27F3
100
AcDbEntity
  8
PEN1
  6
LTY1
100
AcDbLine
 10
79.5
 20
245.0
 30
0.0
 11
80.5
 21
245.0
 31
0.0
  0
LINE
  5
28B7
330
27F3
100
AcDbEntity
  8
PEN1
  6
LTY1
100
AcDbLine
 10
79.5
 20
245.5
 30
0.0
 11
80.5
 21
245.5
 31
0.0
  0
LINE
  5
28B8
330
27F3
100
AcDbEntity
  8
PEN1
  6
LTY1
100
AcDbLine
 10
79.5
 20
246.0
 30
0.0
 11
80.5
 21
246.0
 31
0.0
  0
LINE
  5
28B9
330
27F3
100
AcDbEntity
  8
PEN1
  6
LTY1
100
AcDbLine
 10
79.5
 20
246.5
 30
0.0
 11
80.5
 21
246.5
 31
0.0
  0
LINE
  5
28BA
330
27F3
100
AcDbEntity
  8
PEN1
  6
LTY1
100
AcDbLine
 10
79.5
 20
247.0
 30
0.0
 11
80.5
 21
247.0
 31
0.0
  0
LINE
  5
28BB
330
27F3
100
AcDbEntity
  8
PEN1
  6
LTY1
100
AcDbLine
 10
79.5
 20
247.5
 30
0.0
 11
80.5
 21
247.5
 31
0.0
  0
LINE
  5
28BC
330
27F3
100
AcDbEntity
  8
PEN1
  6
LTY1
100
AcDbLine
 10
79.5
 20
248.0
 30
0.0
 11
80.5
 21
248.0
 31
0.0
  0
LINE
  5
28BD
330
27F3
100
AcDbEntity
  8
PEN1
  6
LTY1
100
AcDbLine
 10
79.5
 20
248.5
 30
0.0
 11
80.5
 21
248.5
 31
0.0
  0
LINE
  5
28BE
330
27F3
100
AcDbEntity
  8
PEN1
  6
LTY1
100
AcDbLine
 10
79.5
 20
249.0
 30
0.0
 11
80.5
 21
249.0
 31
0.0
  0
LINE
  5
28BF
330
27F3
100
AcDbEntity
  8
PEN1
  6
LTY1
100
AcDbLine
 10
79.5
 20
249.5
 30
0.0
 11
80.5
 21
249.5
 31
0.0
  0
LINE
  5
28C0
330
27F3
100
AcDbEntity
  8
PEN1
  6
LTY1
100
AcDbLine
 10
79.5
 20
250.0
 30
0.0
 11
80.5
 21
250.0
 31
0.0
  0
ARC
  5
28C1
330
27F3
100
AcDbEntity
  8
PEN1
  6
LTY1
100
AcDbCircle
 10
80.0
 20
250.5
 30
0.0
 40
1.5
100
AcDbArc
 50
0.0
 51
180.0
  0
ARC
  5
28C2
330
27F3
100
AcDbEntity
  8
PEN1
  6
LTY1
100
AcDbCircle
 10
80.0
 20
250.5
 30
0.0
 40
1.7
100
AcDbArc
 50
0.0
 51
180.0
  0
ARC
  5
28C3
330
27F3
100
AcDbEntity
  8
PEN1
  6
LTY1
100
AcDbCircle
 10
80.0
 20
250.5
 30
0.0
 40
1.9
100
AcDbArc
 50
0.0
 51
180.0
  0
LINE
  5
28C4
330
27F3
100
AcDbEntity
  8
PEN1
  6
LTY1
100
AcDbLine
 10
203.5
 20
107.5
 30
0.0
 11
205.0
 21
102.5
 31
0.0
  0
LINE
  5
28C5
330
27F3
100
AcDbEntity
  8
PEN1
  6
LTY1
100
AcDbLine
 10
205.0
 20
100.0
 30
0.0
 11
205.0
 21
102.5
 31
0.0
  0
LINE
  5
28C6
330
27F3
100
AcDbEntity
  8
PEN1
  6
LTY1
100
AcDbLine
 10
205.0
 20
110.0
 30
0.0
 11
205.0
 21
107.5
 31
0.0
  0
TEXT
  5
28C7
330
27F3
100
AcDbEntity
  8
PEN1
100
AcDbText
 10
191.6912005457026
 20
110.5
 30
0.0
 40
3.5
  1
-K1
  7
textstyle1265
 72
     2
 11
199.3
 21
110.5
 31
0.0
100
AcDbText
  0
LINE
  5
28C8
330
27F3
100
AcDbEntity
  8
PEN1
  6
LTY1
100
AcDbLine
 10
379.5
 20
250.0
 30
0.0
 11
379.5
 21
245.0
 31
0.0
  0
LINE
  5
28C9
330
27F3
100
AcDbEntity
  8
PEN1
  6
LTY1
100
AcDbLine
 10
379.5
 20
245.0
 30
0.0
 11
380.5
 21
245.0
 31
0.0
  0
LINE
  5
28CA
330
27F3
100
AcDbEntity
  8
PEN1
  6
LTY1
100
AcDbLine
 10
380.5
 20
245.0
 30
0.0
 11
380.5
 21
250.0
 31
0.0
  0
LINE
  5
28CB
330
27F3
100
AcDbEntity
  8
PEN1
  6
LTY1
100
AcDbLine
 10
380.5
 20
250.0
 30
0.0
 11
379.5
 21
250.0
 31
0.0
  0
LINE
  5
28CC
330
27F3
100
AcDbEntity
  8
PEN1
  6
LTY1
100
AcDbLine
 10
379.5
 20
245.0
 30
0.0
 11
380.5
 21
245.0
 31
0.0
  0
LINE
  5
28CD
330
27F3
100
AcDbEntity
  8
PEN1
  6
LTY1
100
AcDbLine
 10
379.5
 20
245.5
 30
0.0
 11
380.5
 21
245.5
 31
0.0
  0
LINE
  5
28CE
330
27F3
100
AcDbEntity
  8
PEN1
  6
LTY1
100
AcDbLine
 10
379.5
 20
246.0
 30
0.0
 11
380.5
 21
246.0
 31
0.0
  0
LINE
  5
28CF
330
27F3
100
AcDbEntity
  8
PEN1
  6
LTY1
100
AcDbLine
 10
379.5
 20
246.5
 30
0.0
 11
380.5
 21
246.5
 31
0.0
  0
LINE
  5
28D0
330
27F3
100
AcDbEntity
  8
PEN1
  6
LTY1
100
AcDbLine
 10
379.5
 20
247.0
 30
0.0
 11
380.5
 21
247.0
 31
0.0
  0
LINE
  5
28D1
330
27F3
100
AcDbEntity
  8
PEN1
  6
LTY1
100
AcDbLine
 10
379.5
 20
247.5
 30
0.0
 11
380.5
 21
247.5
 31
0.0
  0
LINE
  5
28D2
330
27F3
100
AcDbEntity
  8
PEN1
  6
LTY1
100
AcDbLine
 10
379.5
 20
248.0
 30
0.0
 11
380.5
 21
248.0
 31
0.0
  0
LINE
  5
28D3
330
27F3
100
AcDbEntity
  8
PEN1
  6
LTY1
100
AcDbLine
 10
379.5
 20
248.5
 30
0.0
 11
380.5
 21
248.5
 31
0.0
  0
LINE
  5
28D4
330
27F3
100
AcDbEntity
  8
PEN1
  6
LTY1
100
AcDbLine
 10
379.5
 20
249.0
 30
0.0
 11
380.5
 21
249.0
 31
0.0
  0
LINE
  5
28D5
330
27F3
100
AcDbEntity
  8
PEN1
  6
LTY1
100
AcDbLine
 10
379.5
 20
249.5
 30
0.0
 11
380.5
 21
249.5
 31
0.0
  0
LINE
  5
28D6
330
27F3
100
AcDbEntity
  8
PEN1
  6
LTY1
100
AcDbLine
 10
379.5
 20
250.0
 30
0.0
 11
380.5
 21
250.0
 31
0.0
  0
ARC
  5
28D7
330
27F3
100
AcDbEntity
  8
PEN1
  6
LTY1
100
AcDbCircle
 10
380.0
 20
250.5
 30
0.0
 40
1.5
100
AcDbArc
 50
0.0
 51
180.0
  0
ARC
  5
28D8
330
27F3
100
AcDbEntity
  8
PEN1
  6
LTY1
100
AcDbCircle
 10
380.0
 20
250.5
 30
0.0
 40
1.7
100
AcDbArc
 50
0.0
 51
180.0
  0
ARC
  5
28D9
330
27F3
100
AcDbEntity
  8
PEN1
  6
LTY1
100
AcDbCircle
 10
380.0
 20
250.5
 30
0.0
 40
1.9
100
AcDbArc
 50
0.0
 51
180.0
  0
LINE
  5
28DA
330
27F3
100
AcDbEntity
  8
PEN1
  6
LTY1
100
AcDbLine
 10
342.0
 20
250.0
 30
0.0
 11
342.0
 21
245.0
 31
0.0
  0
LINE
  5
28DB
330
27F3
100
AcDbEntity
  8
PEN1
  6
LTY1
100
AcDbLine
 10
342.0
 20
245.0
 30
0.0
 11
343.0
 21
245.0
 31
0.0
  0
LINE
  5
28DC
330
27F3
100
AcDbEntity
  8
PEN1
  6
LTY1
100
AcDbLine
 10
343.0
 20
245.0
 30
0.0
 11
343.0
 21
250.0
 31
0.0
  0
LINE
  5
28DD
330
27F3
100
AcDbEntity
  8
PEN1
  6
LTY1
100
AcDbLine
 10
343.0
 20
250.0
 30
0.0
 11
342.0
 21
250.0
 31
0.0
  0
LINE
  5
28DE
330
27F3
100
AcDbEntity
  8
PEN1
  6
LTY1
100
AcDbLine
 10
342.0
 20
245.0
 30
0.0
 11
343.0
 21
245.0
 31
0.0
  0
LINE
  5
28DF
330
27F3
100
AcDbEntity
  8
PEN1
  6
LTY1
100
AcDbLine
 10
342.0
 20
245.5
 30
0.0
 11
343.0
 21
245.5
 31
0.0
  0
LINE
  5
28E0
330
27F3
100
AcDbEntity
  8
PEN1
  6
LTY1
100
AcDbLine
 10
342.0
 20
246.0
 30
0.0
 11
343.0
 21
246.0
 31
0.0
  0
LINE
  5
28E1
330
27F3
100
AcDbEntity
  8
PEN1
  6
LTY1
100
AcDbLine
 10
342.0
 20
246.5
 30
0.0
 11
343.0
 21
246.5
 31
0.0
  0
LINE
  5
28E2
330
27F3
100
AcDbEntity
  8
PEN1
  6
LTY1
100
AcDbLine
 10
342.0
 20
247.0
 30
0.0
 11
343.0
 21
247.0
 31
0.0
  0
LINE
  5
28E3
330
27F3
100
AcDbEntity
  8
PEN1
  6
LTY1
100
AcDbLine
 10
342.0
 20
247.5
 30
0.0
 11
343.0
 21
247.5
 31
0.0
  0
LINE
  5
28E4
330
27F3
100
AcDbEntity
  8
PEN1
  6
LTY1
100
AcDbLine
 10
342.0
 20
248.0
 30
0.0
 11
343.0
 21
248.0
 31
0.0
  0
LINE
  5
28E5
330
27F3
100
AcDbEntity
  8
PEN1
  6
LTY1
100
AcDbLine
 10
342.0
 20
248.5
 30
0.0
 11
343.0
 21
248.5
 31
0.0
  0
LINE
  5
28E6
330
27F3
100
AcDbEntity
  8
PEN1
  6
LTY1
100
AcDbLine
 10
342.0
 20
249.0
 30
0.0
 11
343.0
 21
249.0
 31
0.0
  0
LINE
  5
28E7
330
27F3
100
AcDbEntity
  8
PEN1
  6
LTY1
100
AcDbLine
 10
342.0
 20
249.5
 30
0.0
 11
343.0
 21
249.5
 31
0.0
  0
LINE
  5
28E8
330
27F3
100
AcDbEntity
  8
PEN1
  6
LTY1
100
AcDbLine
 10
342.0
 20
250.0
 30
0.0
 11
343.0
 21
250.0
 31
0.0
  0
ARC
  5
28E9
330
27F3
100
AcDbEntity
  8
PEN1
  6
LTY1
100
AcDbCircle
 10
342.5
 20
250.5
 30
0.0
 40
1.5
100
AcDbArc
 50
0.0
 51
180.0
  0
ARC
  5
28EA
330
27F3
100
AcDbEntity
  8
PEN1
  6
LTY1
100
AcDbCircle
 10
342.5
 20
250.5
 30
0.0
 40
1.7
100
AcDbArc
 50
0.0
 51
180.0
  0
ARC
  5
28EB
330
27F3
100
AcDbEntity
  8
PEN1
  6
LTY1
100
AcDbCircle
 10
342.5
 20
250.5
 30
0.0
 40
1.9
100
AcDbArc
 50
0.0
 51
180.0
  0
LINE
  5
28EC
330
27F3
100
AcDbEntity
  8
PEN1
  6
LTY1
100
AcDbLine
 10
347.0
 20
250.0
 30
0.0
 11
347.0
 21
245.0
 31
0.0
  0
LINE
  5
28ED
330
27F3
100
AcDbEntity
  8
PEN1
  6
LTY1
100
AcDbLine
 10
347.0
 20
245.0
 30
0.0
 11
348.0
 21
245.0
 31
0.0
  0
LINE
  5
28EE
330
27F3
100
AcDbEntity
  8
PEN1
  6
LTY1
100
AcDbLine
 10
348.0
 20
245.0
 30
0.0
 11
348.0
 21
250.0
 31
0.0
  0
LINE
  5
28EF
330
27F3
100
AcDbEntity
  8
PEN1
  6
LTY1
100
AcDbLine
 10
348.0
 20
250.0
 30
0.0
 11
347.0
 21
250.0
 31
0.0
  0
LINE
  5
28F0
330
27F3
100
AcDbEntity
  8
PEN1
  6
LTY1
100
AcDbLine
 10
347.0
 20
245.0
 30
0.0
 11
348.0
 21
245.0
 31
0.0
  0
LINE
  5
28F1
330
27F3
100
AcDbEntity
  8
PEN1
  6
LTY1
100
AcDbLine
 10
347.0
 20
245.5
 30
0.0
 11
348.0
 21
245.5
 31
0.0
  0
LINE
  5
28F2
330
27F3
100
AcDbEntity
  8
PEN1
  6
LTY1
100
AcDbLine
 10
347.0
 20
246.0
 30
0.0
 11
348.0
 21
246.0
 31
0.0
  0
LINE
  5
28F3
330
27F3
100
AcDbEntity
  8
PEN1
  6
LTY1
100
AcDbLine
 10
347.0
 20
246.5
 30
0.0
 11
348.0
 21
246.5
 31
0.0
  0
LINE
  5
28F4
330
27F3
100
AcDbEntity
  8
PEN1
  6
LTY1
100
AcDbLine
 10
347.0
 20
247.0
 30
0.0
 11
348.0
 21
247.0
 31
0.0
  0
LINE
  5
28F5
330
27F3
100
AcDbEntity
  8
PEN1
  6
LTY1
100
AcDbLine
 10
347.0
 20
247.5
 30
0.0
 11
348.0
 21
247.5
 31
0.0
  0
LINE
  5
28F6
330
27F3
100
AcDbEntity
  8
PEN1
  6
LTY1
100
AcDbLine
 10
347.0
 20
248.0
 30
0.0
 11
348.0
 21
248.0
 31
0.0
  0
LINE
  5
28F7
330
27F3
100
AcDbEntity
  8
PEN1
  6
LTY1
100
AcDbLine
 10
347.0
 20
248.5
 30
0.0
 11
348.0
 21
248.5
 31
0.0
  0
LINE
  5
28F8
330
27F3
100
AcDbEntity
  8
PEN1
  6
LTY1
100
AcDbLine
 10
347.0
 20
249.0
 30
0.0
 11
348.0
 21
249.0
 31
0.0
  0
LINE
  5
28F9
330
27F3
100
AcDbEntity
  8
PEN1
  6
LTY1
100
AcDbLine
 10
347.0
 20
249.5
 30
0.0
 11
348.0
 21
249.5
 31
0.0
  0
LINE
  5
28FA
330
27F3
100
AcDbEntity
  8
PEN1
  6
LTY1
100
AcDbLine
 10
347.0
 20
250.0
 30
0.0
 11
348.0
 21
250.0
 31
0.0
  0
ARC
  5
28FB
330
27F3
100
AcDbEntity
  8
PEN1
  6
LTY1
100
AcDbCircle
 10
347.5
 20
250.5
 30
0.0
 40
1.5
100
AcDbArc
 50
0.0
 51
180.0
  0
ARC
  5
28FC
330
27F3
100
AcDbEntity
  8
PEN1
  6
LTY1
100
AcDbCircle
 10
347.5
 20
250.5
 30
0.0
 40
1.7
100
AcDbArc
 50
0.0
 51
180.0
  0
ARC
  5
28FD
330
27F3
100
AcDbEntity
  8
PEN1
  6
LTY1
100
AcDbCircle
 10
347.5
 20
250.5
 30
0.0
 40
1.9
100
AcDbArc
 50
0.0
 51
180.0
  0
LINE
  5
28FE
330
27F3
100
AcDbEntity
  8
PEN1
  6
LTY1
100
AcDbLine
 10
267.0
 20
77.5
 30
0.0
 11
267.0
 21
72.5
 31
0.0
  0
LINE
  5
28FF
330
27F3
100
AcDbEntity
  8
PEN1
  6
LTY1
100
AcDbLine
 10
267.0
 20
72.5
 30
0.0
 11
268.0
 21
72.5
 31
0.0
  0
LINE
  5
2900
330
27F3
100
AcDbEntity
  8
PEN1
  6
LTY1
100
AcDbLine
 10
268.0
 20
72.5
 30
0.0
 11
268.0
 21
77.5
 31
0.0
  0
LINE
  5
2901
330
27F3
100
AcDbEntity
  8
PEN1
  6
LTY1
100
AcDbLine
 10
268.0
 20
77.5
 30
0.0
 11
267.0
 21
77.5
 31
0.0
  0
LINE
  5
2902
330
27F3
100
AcDbEntity
  8
PEN1
  6
LTY1
100
AcDbLine
 10
267.0
 20
72.5
 30
0.0
 11
268.0
 21
72.5
 31
0.0
  0
LINE
  5
2903
330
27F3
100
AcDbEntity
  8
PEN1
  6
LTY1
100
AcDbLine
 10
267.0
 20
73.0
 30
0.0
 11
268.0
 21
73.0
 31
0.0
  0
LINE
  5
2904
330
27F3
100
AcDbEntity
  8
PEN1
  6
LTY1
100
AcDbLine
 10
267.0
 20
73.5
 30
0.0
 11
268.0
 21
73.5
 31
0.0
  0
LINE
  5
2905
330
27F3
100
AcDbEntity
  8
PEN1
  6
LTY1
100
AcDbLine
 10
267.0
 20
74.0
 30
0.0
 11
268.0
 21
74.0
 31
0.0
  0
LINE
  5
2906
330
27F3
100
AcDbEntity
  8
PEN1
  6
LTY1
100
AcDbLine
 10
267.0
 20
74.5
 30
0.0
 11
268.0
 21
74.5
 31
0.0
  0
LINE
  5
2907
330
27F3
100
AcDbEntity
  8
PEN1
  6
LTY1
100
AcDbLine
 10
267.0
 20
75.0
 30
0.0
 11
268.0
 21
75.0
 31
0.0
  0
LINE
  5
2908
330
27F3
100
AcDbEntity
  8
PEN1
  6
LTY1
100
AcDbLine
 10
267.0
 20
75.5
 30
0.0
 11
268.0
 21
75.5
 31
0.0
  0
LINE
  5
2909
330
27F3
100
AcDbEntity
  8
PEN1
  6
LTY1
100
AcDbLine
 10
267.0
 20
76.0
 30
0.0
 11
268.0
 21
76.0
 31
0.0
  0
LINE
  5
290A
330
27F3
100
AcDbEntity
  8
PEN1
  6
LTY1
100
AcDbLine
 10
267.0
 20
76.5
 30
0.0
 11
268.0
 21
76.5
 31
0.0
  0
LINE
  5
290B
330
27F3
100
AcDbEntity
  8
PEN1
  6
LTY1
100
AcDbLine
 10
267.0
 20
77.0
 30
0.0
 11
268.0
 21
77.0
 31
0.0
  0
LINE
  5
290C
330
27F3
100
AcDbEntity
  8
PEN1
  6
LTY1
100
AcDbLine
 10
267.0
 20
77.5
 30
0.0
 11
268.0
 21
77.5
 31
0.0
  0
ARC
  5
290D
330
27F3
100
AcDbEntity
  8
PEN1
  6
LTY1
100
AcDbCircle
 10
267.5
 20
72.0
 30
0.0
 40
1.5
100
AcDbArc
 50
180.0
 51
0.0
  0
ARC
  5
290E
330
27F3
100
AcDbEntity
  8
PEN1
  6
LTY1
100
AcDbCircle
 10
267.5
 20
72.0
 30
0.0
 40
1.7
100
AcDbArc
 50
180.0
 51
0.0
  0
ARC
  5
290F
330
27F3
100
AcDbEntity
  8
PEN1
  6
LTY1
100
AcDbCircle
 10
267.5
 20
72.0
 30
0.0
 40
1.9
100
AcDbArc
 50
180.0
 51
0.0
  0
LINE
  5
2910
330
27F3
100
AcDbEntity
  8
PEN1
  6
LTY1
100
AcDbLine
 10
95.0
 20
230.0
 30
0.0
 11
95.0
 21
228.0
 31
0.0
  0
LINE
  5
2911
330
27F3
100
AcDbEntity
  8
PEN1
  6
LTY1
100
AcDbLine
 10
93.0
 20
228.0
 30
0.0
 11
97.0
 21
228.0
 31
0.0
  0
LINE
  5
2912
330
27F3
100
AcDbEntity
  8
PEN1
  6
LTY1
100
AcDbLine
 10
96.5
 20
226.5
 30
0.0
 11
93.49999999999999
 21
226.5
 31
0.0
  0
LINE
  5
2913
330
27F3
100
AcDbEntity
  8
PEN1
  6
LTY1
100
AcDbLine
 10
96.0
 20
225.0
 30
0.0
 11
94.0
 21
225.0
 31
0.0
  0
LINE
  5
2914
330
27F3
100
AcDbEntity
  8
PEN1
  6
LTY1
100
AcDbLine
 10
374.5
 20
250.0
 30
0.0
 11
374.5
 21
245.0
 31
0.0
  0
LINE
  5
2915
330
27F3
100
AcDbEntity
  8
PEN1
  6
LTY1
100
AcDbLine
 10
374.5
 20
245.0
 30
0.0
 11
375.5
 21
245.0
 31
0.0
  0
LINE
  5
2916
330
27F3
100
AcDbEntity
  8
PEN1
  6
LTY1
100
AcDbLine
 10
375.5
 20
245.0
 30
0.0
 11
375.5
 21
250.0
 31
0.0
  0
LINE
  5
2917
330
27F3
100
AcDbEntity
  8
PEN1
  6
LTY1
100
AcDbLine
 10
375.5
 20
250.0
 30
0.0
 11
374.5
 21
250.0
 31
0.0
  0
LINE
  5
2918
330
27F3
100
AcDbEntity
  8
PEN1
  6
LTY1
100
AcDbLine
 10
374.5
 20
245.0
 30
0.0
 11
375.5
 21
245.0
 31
0.0
  0
LINE
  5
2919
330
27F3
100
AcDbEntity
  8
PEN1
  6
LTY1
100
AcDbLine
 10
374.5
 20
245.5
 30
0.0
 11
375.5
 21
245.5
 31
0.0
  0
LINE
  5
291A
330
27F3
100
AcDbEntity
  8
PEN1
  6
LTY1
100
AcDbLine
 10
374.5
 20
246.0
 30
0.0
 11
375.5
 21
246.0
 31
0.0
  0
LINE
  5
291B
330
27F3
100
AcDbEntity
  8
PEN1
  6
LTY1
100
AcDbLine
 10
374.5
 20
246.5
 30
0.0
 11
375.5
 21
246.5
 31
0.0
  0
LINE
  5
291C
330
27F3
100
AcDbEntity
  8
PEN1
  6
LTY1
100
AcDbLine
 10
374.5
 20
247.0
 30
0.0
 11
375.5
 21
247.0
 31
0.0
  0
LINE
  5
291D
330
27F3
100
AcDbEntity
  8
PEN1
  6
LTY1
100
AcDbLine
 10
374.5
 20
247.5
 30
0.0
 11
375.5
 21
247.5
 31
0.0
  0
LINE
  5
291E
330
27F3
100
AcDbEntity
  8
PEN1
  6
LTY1
100
AcDbLine
 10
374.5
 20
248.0
 30
0.0
 11
375.5
 21
248.0
 31
0.0
  0
LINE
  5
291F
330
27F3
100
AcDbEntity
  8
PEN1
  6
LTY1
100
AcDbLine
 10
374.5
 20
248.5
 30
0.0
 11
375.5
 21
248.5
 31
0.0
  0
LINE
  5
2920
330
27F3
100
AcDbEntity
  8
PEN1
  6
LTY1
100
AcDbLine
 10
374.5
 20
249.0
 30
0.0
 11
375.5
 21
249.0
 31
0.0
  0
LINE
  5
2921
330
27F3
100
AcDbEntity
  8
PEN1
  6
LTY1
100
AcDbLine
 10
374.5
 20
249.5
 30
0.0
 11
375.5
 21
249.5
 31
0.0
  0
LINE
  5
2922
330
27F3
100
AcDbEntity
  8
PEN1
  6
LTY1
100
AcDbLine
 10
374.5
 20
250.0
 30
0.0
 11
375.5
 21
250.0
 31
0.0
  0
ARC
  5
2923
330
27F3
100
AcDbEntity
  8
PEN1
  6
LTY1
100
AcDbCircle
 10
375.0
 20
250.5
 30
0.0
 40
1.5
100
AcDbArc
 50
0.0
 51
180.0
  0
ARC
  5
2924
330
27F3
100
AcDbEntity
  8
PEN1
  6
LTY1
100
AcDbCircle
 10
375.0
 20
250.5
 30
0.0
 40
1.7
100
AcDbArc
 50
0.0
 51
180.0
  0
ARC
  5
2925
330
27F3
100
AcDbEntity
  8
PEN1
  6
LTY1
100
AcDbCircle
 10
375.0
 20
250.5
 30
0.0
 40
1.9
100
AcDbArc
 50
0.0
 51
180.0
  0
TEXT
  5
2926
330
27F3
100
AcDbEntity
  8
PEN1
100
AcDbText
 10
360.4718963165075
 20
249.75
 30
0.0
 40
3.5
  1
-X19
  7
textstyle1441
 72
     2
 11
370.8
 21
249.75
 31
0.0
100
AcDbText
  0
TEXT
  5
2927
330
27F3
100
AcDbEntity
  8
PEN3
100
AcDbText
 10
276.0
 20
247.5
 30
0.0
 40
5.0
  1
Einschub
  7
textstyle1442
100
AcDbText
  0
LINE
  5
2928
330
27F3
100
AcDbEntity
  8
PEN1
  6
LTY1
100
AcDbLine
 10
259.5
 20
77.5
 30
0.0
 11
259.5
 21
72.5
 31
0.0
  0
LINE
  5
2929
330
27F3
100
AcDbEntity
  8
PEN1
  6
LTY1
100
AcDbLine
 10
259.5
 20
72.5
 30
0.0
 11
260.5
 21
72.5
 31
0.0
  0
LINE
  5
292A
330
27F3
100
AcDbEntity
  8
PEN1
  6
LTY1
100
AcDbLine
 10
260.5
 20
72.5
 30
0.0
 11
260.5
 21
77.5
 31
0.0
  0
LINE
  5
292B
330
27F3
100
AcDbEntity
  8
PEN1
  6
LTY1
100
AcDbLine
 10
260.5
 20
77.5
 30
0.0
 11
259.5
 21
77.5
 31
0.0
  0
LINE
  5
292C
330
27F3
100
AcDbEntity
  8
PEN1
  6
LTY1
100
AcDbLine
 10
259.5
 20
72.5
 30
0.0
 11
260.5
 21
72.5
 31
0.0
  0
LINE
  5
292D
330
27F3
100
AcDbEntity
  8
PEN1
  6
LTY1
100
AcDbLine
 10
259.5
 20
73.0
 30
0.0
 11
260.5
 21
73.0
 31
0.0
  0
LINE
  5
292E
330
27F3
100
AcDbEntity
  8
PEN1
  6
LTY1
100
AcDbLine
 10
259.5
 20
73.5
 30
0.0
 11
260.5
 21
73.5
 31
0.0
  0
LINE
  5
292F
330
27F3
100
AcDbEntity
  8
PEN1
  6
LTY1
100
AcDbLine
 10
259.5
 20
74.0
 30
0.0
 11
260.5
 21
74.0
 31
0.0
  0
LINE
  5
2930
330
27F3
100
AcDbEntity
  8
PEN1
  6
LTY1
100
AcDbLine
 10
259.5
 20
74.5
 30
0.0
 11
260.5
 21
74.5
 31
0.0
  0
LINE
  5
2931
330
27F3
100
AcDbEntity
  8
PEN1
  6
LTY1
100
AcDbLine
 10
259.5
 20
75.0
 30
0.0
 11
260.5
 21
75.0
 31
0.0
  0
LINE
  5
2932
330
27F3
100
AcDbEntity
  8
PEN1
  6
LTY1
100
AcDbLine
 10
259.5
 20
75.5
 30
0.0
 11
260.5
 21
75.5
 31
0.0
  0
LINE
  5
2933
330
27F3
100
AcDbEntity
  8
PEN1
  6
LTY1
100
AcDbLine
 10
259.5
 20
76.0
 30
0.0
 11
260.5
 21
76.0
 31
0.0
  0
LINE
  5
2934
330
27F3
100
AcDbEntity
  8
PEN1
  6
LTY1
100
AcDbLine
 10
259.5
 20
76.5
 30
0.0
 11
260.5
 21
76.5
 31
0.0
  0
LINE
  5
2935
330
27F3
100
AcDbEntity
  8
PEN1
  6
LTY1
100
AcDbLine
 10
259.5
 20
77.0
 30
0.0
 11
260.5
 21
77.0
 31
0.0
  0
LINE
  5
2936
330
27F3
100
AcDbEntity
  8
PEN1
  6
LTY1
100
AcDbLine
 10
259.5
 20
77.5
 30
0.0
 11
260.5
 21
77.5
 31
0.0
  0
ARC
  5
2937
330
27F3
100
AcDbEntity
  8
PEN1
  6
LTY1
100
AcDbCircle
 10
260.0
 20
72.0
 30
0.0
 40
1.5
100
AcDbArc
 50
180.0
 51
0.0
  0
ARC
  5
2938
330
27F3
100
AcDbEntity
  8
PEN1
  6
LTY1
100
AcDbCircle
 10
260.0
 20
72.0
 30
0.0
 40
1.7
100
AcDbArc
 50
180.0
 51
0.0
  0
ARC
  5
2939
330
27F3
100
AcDbEntity
  8
PEN1
  6
LTY1
100
AcDbCircle
 10
260.0
 20
72.0
 30
0.0
 40
1.9
100
AcDbArc
 50
180.0
 51
0.0
  0
LINE
  5
293A
330
27F3
100
AcDbEntity
  8
PEN1
  6
LTY1
100
AcDbLine
 10
53.0
 20
96.0
 30
0.0
 11
55.0
 21
90.0
 31
0.0
  0
LINE
  5
293B
330
27F3
100
AcDbEntity
  8
PEN1
  6
LTY1
100
AcDbLine
 10
58.0
 20
96.0
 30
0.0
 11
60.0
 21
90.0
 31
0.0
  0
LINE
  5
293C
330
27F3
100
AcDbEntity
  8
PEN1
  6
LTY1
100
AcDbLine
 10
63.0
 20
96.0
 30
0.0
 11
65.0
 21
90.0
 31
0.0
  0
LINE
  5
293D
330
27F3
100
AcDbEntity
  8
PEN1
  6
LTY4
100
AcDbLine
 10
54.2
 20
92.5
 30
0.0
 11
64.2
 21
92.5
 31
0.0
  0
LINE
  5
293E
330
27F3
100
AcDbEntity
  8
PEN1
  6
LTY1
100
AcDbLine
 10
55.0
 20
95.0
 30
0.0
 11
55.0
 21
97.5
 31
0.0
  0
LINE
  5
293F
330
27F3
100
AcDbEntity
  8
PEN1
  6
LTY1
100
AcDbLine
 10
60.0
 20
95.0
 30
0.0
 11
60.0
 21
97.5
 31
0.0
  0
LINE
  5
2940
330
27F3
100
AcDbEntity
  8
PEN1
  6
LTY1
100
AcDbLine
 10
65.0
 20
95.0
 30
0.0
 11
65.0
 21
97.5
 31
0.0
  0
LINE
  5
2941
330
27F3
100
AcDbEntity
  8
PEN1
  6
LTY1
100
AcDbLine
 10
55.0
 20
87.5
 30
0.0
 11
55.0
 21
90.0
 31
0.0
  0
LINE
  5
2942
330
27F3
100
AcDbEntity
  8
PEN1
  6
LTY1
100
AcDbLine
 10
60.0
 20
87.5
 30
0.0
 11
60.0
 21
90.0
 31
0.0
  0
LINE
  5
2943
330
27F3
100
AcDbEntity
  8
PEN1
  6
LTY1
100
AcDbLine
 10
65.0
 20
87.5
 30
0.0
 11
65.0
 21
90.0
 31
0.0
  0
ARC
  5
2944
330
27F3
100
AcDbEntity
  8
PEN1
  6
LTY1
100
AcDbCircle
 10
55.0
 20
96.0
 30
0.0
 40
1.0
100
AcDbArc
 50
90.0
 51
270.0
  0
ARC
  5
2945
330
27F3
100
AcDbEntity
  8
PEN1
  6
LTY1
100
AcDbCircle
 10
60.0
 20
96.0
 30
0.0
 40
1.0
100
AcDbArc
 50
90.0
 51
270.0
  0
ARC
  5
2946
330
27F3
100
AcDbEntity
  8
PEN1
  6
LTY1
100
AcDbCircle
 10
65.0
 20
96.0
 30
0.0
 40
1.0
100
AcDbArc
 50
90.0
 51
270.0
  0
TEXT
  5
2947
330
27F3
100
AcDbEntity
  8
PEN1
100
AcDbText
 10
36.69120054570259
 20
91.75
 30
0.0
 40
3.5
  1
-K1
  7
textstyle1492
 72
     2
 11
44.29999999999998
 21
91.75
 31
0.0
100
AcDbText
  0
LINE
  5
2948
330
27F3
100
AcDbEntity
  8
PEN1
  6
LTY1
100
AcDbLine
 10
89.50000000000001
 20
77.5
 30
0.0
 11
89.50000000000001
 21
72.5
 31
0.0
  0
LINE
  5
2949
330
27F3
100
AcDbEntity
  8
PEN1
  6
LTY1
100
AcDbLine
 10
89.50000000000001
 20
72.5
 30
0.0
 11
90.5
 21
72.5
 31
0.0
  0
LINE
  5
294A
330
27F3
100
AcDbEntity
  8
PEN1
  6
LTY1
100
AcDbLine
 10
90.5
 20
72.5
 30
0.0
 11
90.5
 21
77.5
 31
0.0
  0
LINE
  5
294B
330
27F3
100
AcDbEntity
  8
PEN1
  6
LTY1
100
AcDbLine
 10
90.5
 20
77.5
 30
0.0
 11
89.50000000000001
 21
77.5
 31
0.0
  0
LINE
  5
294C
330
27F3
100
AcDbEntity
  8
PEN1
  6
LTY1
100
AcDbLine
 10
89.50000000000001
 20
72.5
 30
0.0
 11
90.5
 21
72.5
 31
0.0
  0
LINE
  5
294D
330
27F3
100
AcDbEntity
  8
PEN1
  6
LTY1
100
AcDbLine
 10
89.50000000000001
 20
73.0
 30
0.0
 11
90.5
 21
73.0
 31
0.0
  0
LINE
  5
294E
330
27F3
100
AcDbEntity
  8
PEN1
  6
LTY1
100
AcDbLine
 10
89.50000000000001
 20
73.5
 30
0.0
 11
90.5
 21
73.5
 31
0.0
  0
LINE
  5
294F
330
27F3
100
AcDbEntity
  8
PEN1
  6
LTY1
100
AcDbLine
 10
89.50000000000001
 20
74.0
 30
0.0
 11
90.5
 21
74.0
 31
0.0
  0
LINE
  5
2950
330
27F3
100
AcDbEntity
  8
PEN1
  6
LTY1
100
AcDbLine
 10
89.50000000000001
 20
74.5
 30
0.0
 11
90.5
 21
74.5
 31
0.0
  0
LINE
  5
2951
330
27F3
100
AcDbEntity
  8
PEN1
  6
LTY1
100
AcDbLine
 10
89.50000000000001
 20
75.0
 30
0.0
 11
90.5
 21
75.0
 31
0.0
  0
LINE
  5
2952
330
27F3
100
AcDbEntity
  8
PEN1
  6
LTY1
100
AcDbLine
 10
89.50000000000001
 20
75.5
 30
0.0
 11
90.5
 21
75.5
 31
0.0
  0
LINE
  5
2953
330
27F3
100
AcDbEntity
  8
PEN1
  6
LTY1
100
AcDbLine
 10
89.50000000000001
 20
76.0
 30
0.0
 11
90.5
 21
76.0
 31
0.0
  0
LINE
  5
2954
330
27F3
100
AcDbEntity
  8
PEN1
  6
LTY1
100
AcDbLine
 10
89.50000000000001
 20
76.5
 30
0.0
 11
90.5
 21
76.5
 31
0.0
  0
LINE
  5
2955
330
27F3
100
AcDbEntity
  8
PEN1
  6
LTY1
100
AcDbLine
 10
89.50000000000001
 20
77.0
 30
0.0
 11
90.5
 21
77.0
 31
0.0
  0
LINE
  5
2956
330
27F3
100
AcDbEntity
  8
PEN1
  6
LTY1
100
AcDbLine
 10
89.50000000000001
 20
77.5
 30
0.0
 11
90.5
 21
77.5
 31
0.0
  0
ARC
  5
2957
330
27F3
100
AcDbEntity
  8
PEN1
  6
LTY1
100
AcDbCircle
 10
90.0
 20
72.0
 30
0.0
 40
1.5
100
AcDbArc
 50
180.0
 51
0.0
  0
ARC
  5
2958
330
27F3
100
AcDbEntity
  8
PEN1
  6
LTY1
100
AcDbCircle
 10
90.0
 20
72.0
 30
0.0
 40
1.7
100
AcDbArc
 50
180.0
 51
0.0
  0
ARC
  5
2959
330
27F3
100
AcDbEntity
  8
PEN1
  6
LTY1
100
AcDbCircle
 10
90.0
 20
72.0
 30
0.0
 40
1.9
100
AcDbArc
 50
180.0
 51
0.0
  0
TEXT
  5
295A
330
27F3
100
AcDbEntity
  8
PEN1
100
AcDbText
 10
76.47189631650748
 20
73.25
 30
0.0
 40
3.5
  1
-X19
  7
textstyle1526
 72
     2
 11
86.79999999999997
 21
73.25
 31
0.0
100
AcDbText
  0
LINE
  5
295B
330
27F3
100
AcDbEntity
  8
PEN1
  6
LTY1
100
AcDbLine
 10
99.50000000000001
 20
77.5
 30
0.0
 11
99.50000000000001
 21
72.5
 31
0.0
  0
LINE
  5
295C
330
27F3
100
AcDbEntity
  8
PEN1
  6
LTY1
100
AcDbLine
 10
99.50000000000001
 20
72.5
 30
0.0
 11
100.5
 21
72.5
 31
0.0
  0
LINE
  5
295D
330
27F3
100
AcDbEntity
  8
PEN1
  6
LTY1
100
AcDbLine
 10
100.5
 20
72.5
 30
0.0
 11
100.5
 21
77.5
 31
0.0
  0
LINE
  5
295E
330
27F3
100
AcDbEntity
  8
PEN1
  6
LTY1
100
AcDbLine
 10
100.5
 20
77.5
 30
0.0
 11
99.50000000000001
 21
77.5
 31
0.0
  0
LINE
  5
295F
330
27F3
100
AcDbEntity
  8
PEN1
  6
LTY1
100
AcDbLine
 10
99.50000000000001
 20
72.5
 30
0.0
 11
100.5
 21
72.5
 31
0.0
  0
LINE
  5
2960
330
27F3
100
AcDbEntity
  8
PEN1
  6
LTY1
100
AcDbLine
 10
99.50000000000001
 20
73.0
 30
0.0
 11
100.5
 21
73.0
 31
0.0
  0
LINE
  5
2961
330
27F3
100
AcDbEntity
  8
PEN1
  6
LTY1
100
AcDbLine
 10
99.50000000000001
 20
73.5
 30
0.0
 11
100.5
 21
73.5
 31
0.0
  0
LINE
  5
2962
330
27F3
100
AcDbEntity
  8
PEN1
  6
LTY1
100
AcDbLine
 10
99.50000000000001
 20
74.0
 30
0.0
 11
100.5
 21
74.0
 31
0.0
  0
LINE
  5
2963
330
27F3
100
AcDbEntity
  8
PEN1
  6
LTY1
100
AcDbLine
 10
99.50000000000001
 20
74.5
 30
0.0
 11
100.5
 21
74.5
 31
0.0
  0
LINE
  5
2964
330
27F3
100
AcDbEntity
  8
PEN1
  6
LTY1
100
AcDbLine
 10
99.50000000000001
 20
75.0
 30
0.0
 11
100.5
 21
75.0
 31
0.0
  0
LINE
  5
2965
330
27F3
100
AcDbEntity
  8
PEN1
  6
LTY1
100
AcDbLine
 10
99.50000000000001
 20
75.5
 30
0.0
 11
100.5
 21
75.5
 31
0.0
  0
LINE
  5
2966
330
27F3
100
AcDbEntity
  8
PEN1
  6
LTY1
100
AcDbLine
 10
99.50000000000001
 20
76.0
 30
0.0
 11
100.5
 21
76.0
 31
0.0
  0
LINE
  5
2967
330
27F3
100
AcDbEntity
  8
PEN1
  6
LTY1
100
AcDbLine
 10
99.50000000000001
 20
76.5
 30
0.0
 11
100.5
 21
76.5
 31
0.0
  0
LINE
  5
2968
330
27F3
100
AcDbEntity
  8
PEN1
  6
LTY1
100
AcDbLine
 10
99.50000000000001
 20
77.0
 30
0.0
 11
100.5
 21
77.0
 31
0.0
  0
LINE
  5
2969
330
27F3
100
AcDbEntity
  8
PEN1
  6
LTY1
100
AcDbLine
 10
99.50000000000001
 20
77.5
 30
0.0
 11
100.5
 21
77.5
 31
0.0
  0
ARC
  5
296A
330
27F3
100
AcDbEntity
  8
PEN1
  6
LTY1
100
AcDbCircle
 10
100.0
 20
72.0
 30
0.0
 40
1.5
100
AcDbArc
 50
180.0
 51
0.0
  0
ARC
  5
296B
330
27F3
100
AcDbEntity
  8
PEN1
  6
LTY1
100
AcDbCircle
 10
100.0
 20
72.0
 30
0.0
 40
1.7
100
AcDbArc
 50
180.0
 51
0.0
  0
ARC
  5
296C
330
27F3
100
AcDbEntity
  8
PEN1
  6
LTY1
100
AcDbCircle
 10
100.0
 20
72.0
 30
0.0
 40
1.9
100
AcDbArc
 50
180.0
 51
0.0
  0
CIRCLE
  5
296D
330
27F3
100
AcDbEntity
  8
PEN1
  6
LTY1
100
AcDbCircle
 10
78.75
 20
177.5
 30
0.0
 40
3.75
  0
TEXT
  5
296E
330
27F3
100
AcDbEntity
  8
PEN1
100
AcDbText
 10
80.75000000000001
 20
175.8693724420191
 30
0.0
 40
3.5
  1
A
 50
90.0
  7
textstyle528
 72
     1
 11
80.75000000000001
 21
177.5
 31
0.0
100
AcDbText
  0
LINE
  5
296F
330
27F3
100
AcDbEntity
  8
PEN1
  6
LTY1
100
AcDbLine
 10
85.0
 20
177.5
 30
0.0
 11
82.5
 21
177.5
 31
0.0
  0
LINE
  5
2970
330
27F3
100
AcDbEntity
  8
PEN1
  6
LTY1
100
AcDbLine
 10
75.0
 20
177.5
 30
0.0
 11
72.5
 21
177.5
 31
0.0
  0
TEXT
  5
2971
330
27F3
100
AcDbEntity
  8
PEN1
100
AcDbText
 10
74.19120054570257
 20
185.75
 30
0.0
 40
3.5
  1
-P2
  7
textstyle1595
 72
     2
 11
81.79999999999997
 21
185.75
 31
0.0
100
AcDbText
  0
LINE
  5
2972
330
27F3
100
AcDbEntity
  8
PEN6
  6
LTY1
100
AcDbLine
 10
101.0
 20
71.5
 30
0.0
 11
99.0
 21
69.5
 31
0.0
  0
LINE
  5
2973
330
27F3
100
AcDbEntity
  8
PEN1
  6
LTY4
100
AcDbLine
 10
35.0
 20
170.0
 30
0.0
 11
35.0
 21
125.0
 31
0.0
  0
LINE
  5
2974
330
27F3
100
AcDbEntity
  8
PEN1
  6
LTY4
100
AcDbLine
 10
35.0
 20
125.0
 30
0.0
 11
362.5
 21
125.0
 31
0.0
  0
LINE
  5
2975
330
27F3
100
AcDbEntity
  8
PEN1
  6
LTY4
100
AcDbLine
 10
362.5
 20
125.0
 30
0.0
 11
362.5
 21
170.0
 31
0.0
  0
LINE
  5
2976
330
27F3
100
AcDbEntity
  8
PEN1
  6
LTY4
100
AcDbLine
 10
362.5
 20
170.0
 30
0.0
 11
35.0
 21
170.0
 31
0.0
  0
LINE
  5
2977
330
27F3
100
AcDbEntity
  8
PEN1
  6
LTY1
100
AcDbLine
 10
55.0
 20
170.0
 30
0.0
 11
55.0
 21
165.0
 31
0.0
  0
LINE
  5
2978
330
27F3
100
AcDbEntity
  8
PEN1
  6
LTY1
100
AcDbLine
 10
60.0
 20
170.0
 30
0.0
 11
60.0
 21
165.0
 31
0.0
  0
LINE
  5
2979
330
27F3
100
AcDbEntity
  8
PEN1
  6
LTY1
100
AcDbLine
 10
65.0
 20
170.0
 30
0.0
 11
65.0
 21
165.0
 31
0.0
  0
LINE
  5
297A
330
27F3
100
AcDbEntity
  8
PEN1
  6
LTY1
100
AcDbLine
 10
167.5
 20
170.0
 30
0.0
 11
167.5
 21
165.0
 31
0.0
  0
LINE
  5
297B
330
27F3
100
AcDbEntity
  8
PEN1
  6
LTY1
100
AcDbLine
 10
177.5
 20
170.0
 30
0.0
 11
177.5
 21
165.0
 31
0.0
  0
LINE
  5
297C
330
27F3
100
AcDbEntity
  8
PEN1
  6
LTY1
100
AcDbLine
 10
237.5
 20
170.0
 30
0.0
 11
237.5
 21
165.0
 31
0.0
  0
LINE
  5
297D
330
27F3
100
AcDbEntity
  8
PEN1
  6
LTY1
100
AcDbLine
 10
247.5
 20
170.0
 30
0.0
 11
247.5
 21
165.0
 31
0.0
  0
LINE
  5
297E
330
27F3
100
AcDbEntity
  8
PEN1
  6
LTY1
100
AcDbLine
 10
342.5
 20
170.0
 30
0.0
 11
342.5
 21
165.0
 31
0.0
  0
LINE
  5
297F
330
27F3
100
AcDbEntity
  8
PEN1
  6
LTY1
100
AcDbLine
 10
337.5
 20
92.5
 30
0.0
 11
347.5
 21
92.5
 31
0.0
  0
LINE
  5
2980
330
27F3
100
AcDbEntity
  8
PEN1
  6
LTY1
100
AcDbLine
 10
347.5
 20
92.5
 30
0.0
 11
347.5
 21
97.5
 31
0.0
  0
LINE
  5
2981
330
27F3
100
AcDbEntity
  8
PEN1
  6
LTY1
100
AcDbLine
 10
347.5
 20
97.5
 30
0.0
 11
337.5
 21
97.5
 31
0.0
  0
LINE
  5
2982
330
27F3
100
AcDbEntity
  8
PEN1
  6
LTY1
100
AcDbLine
 10
337.5
 20
97.5
 30
0.0
 11
337.5
 21
92.5
 31
0.0
  0
LINE
  5
2983
330
27F3
100
AcDbEntity
  8
PEN1
  6
LTY1
100
AcDbLine
 10
342.5
 20
92.5
 30
0.0
 11
342.5
 21
90.0
 31
0.0
  0
LINE
  5
2984
330
27F3
100
AcDbEntity
  8
PEN1
  6
LTY1
100
AcDbLine
 10
342.5
 20
97.5
 30
0.0
 11
342.5
 21
100.0
 31
0.0
  0
TEXT
  5
2985
330
27F3
100
AcDbEntity
  8
PEN1
100
AcDbText
 10
328.6912005457026
 20
95.75000000000001
 30
0.0
 40
3.5
  1
-K1
  7
textstyle1791
 72
     2
 11
336.3
 21
95.75000000000001
 31
0.0
100
AcDbText
  0
TEXT
  5
2986
330
27F3
100
AcDbEntity
  8
PEN2
100
AcDbText
 10
329.0354706684857
 20
61.25
 30
0.0
 40
2.5
  1
D2
  7
textstyle1792
 72
     2
 11
333.5
 21
61.25
 31
0.0
100
AcDbText
  0
TEXT
  5
2987
330
27F3
100
AcDbEntity
  8
PEN2
100
AcDbText
 10
329.0354706684857
 20
56.25
 30
0.0
 40
2.5
  1
D2
  7
textstyle1793
 72
     2
 11
333.5
 21
56.25
 31
0.0
100
AcDbText
  0
TEXT
  5
2988
330
27F3
100
AcDbEntity
  8
PEN2
100
AcDbText
 10
329.0354706684857
 20
51.25
 30
0.0
 40
2.5
  1
D2
  7
textstyle1794
 72
     2
 11
333.5
 21
51.25
 31
0.0
100
AcDbText
  0
TEXT
  5
2989
330
27F3
100
AcDbEntity
  8
PEN2
100
AcDbText
 10
328.9354706684857
 20
26.25
 30
0.0
 40
2.5
  1
D4
  7
textstyle1798
 72
     2
 11
333.4
 21
26.25
 31
0.0
100
AcDbText
  0
LINE
  5
298A
330
27F3
100
AcDbEntity
  8
PEN1
  6
LTY3
100
AcDbLine
 10
342.5
 20
61.5
 30
0.0
 11
342.5
 21
27.0
 31
0.0
  0
TEXT
  5
298B
330
27F3
100
AcDbEntity
  8
PEN2
100
AcDbText
 10
336.5576398362892
 20
63.75
 30
0.0
 40
2.5
  1
1
  7
textstyle1800
 72
     2
 11
338.5
 21
63.75
 31
0.0
100
AcDbText
  0
TEXT
  5
298C
330
27F3
100
AcDbEntity
  8
PEN2
100
AcDbText
 10
336.5576398362892
 20
58.75
 30
0.0
 40
2.5
  1
3
  7
textstyle1801
 72
     2
 11
338.5
 21
58.75
 31
0.0
100
AcDbText
  0
TEXT
  5
298D
330
27F3
100
AcDbEntity
  8
PEN2
100
AcDbText
 10
336.5576398362892
 20
53.75
 30
0.0
 40
2.5
  1
5
  7
textstyle1802
 72
     2
 11
338.5
 21
53.75
 31
0.0
100
AcDbText
  0
TEXT
  5
298E
330
27F3
100
AcDbEntity
  8
PEN2
100
AcDbText
 10
334.6152796725784
 20
48.75
 30
0.0
 40
2.5
  1
13
  7
textstyle1803
 72
     2
 11
338.5
 21
48.75
 31
0.0
100
AcDbText
  0
TEXT
  5
298F
330
27F3
100
AcDbEntity
  8
PEN2
100
AcDbText
 10
346.5576398362892
 20
63.75
 30
0.0
 40
2.5
  1
2
  7
textstyle1804
 72
     2
 11
348.5
 21
63.75
 31
0.0
100
AcDbText
  0
TEXT
  5
2990
330
27F3
100
AcDbEntity
  8
PEN2
100
AcDbText
 10
346.5576398362892
 20
58.75
 30
0.0
 40
2.5
  1
4
  7
textstyle1805
 72
     2
 11
348.5
 21
58.75
 31
0.0
100
AcDbText
  0
TEXT
  5
2991
330
27F3
100
AcDbEntity
  8
PEN2
100
AcDbText
 10
346.5576398362892
 20
53.75
 30
0.0
 40
2.5
  1
6
  7
textstyle1806
 72
     2
 11
348.5
 21
53.75
 31
0.0
100
AcDbText
  0
TEXT
  5
2992
330
27F3
100
AcDbEntity
  8
PEN2
100
AcDbText
 10
344.6152796725784
 20
48.75
 30
0.0
 40
2.5
  1
14
  7
textstyle1807
 72
     2
 11
348.5
 21
48.75
 31
0.0
100
AcDbText
  0
LINE
  5
2993
330
27F3
100
AcDbEntity
  8
PEN1
  6
LTY1
100
AcDbLine
 10
350.0
 20
62.5
 30
0.0
 11
345.0
 21
62.5
 31
0.0
  0
LINE
  5
2994
330
27F3
100
AcDbEntity
  8
PEN1
  6
LTY1
100
AcDbLine
 10
345.0
 20
62.5
 30
0.0
 11
340.0
 21
61.0
 31
0.0
  0
LINE
  5
2995
330
27F3
100
AcDbEntity
  8
PEN1
  6
LTY1
100
AcDbLine
 10
340.0
 20
62.5
 30
0.0
 11
335.0
 21
62.5
 31
0.0
  0
LINE
  5
2996
330
27F3
100
AcDbEntity
  8
PEN1
  6
LTY1
100
AcDbLine
 10
350.0
 20
47.5
 30
0.0
 11
345.0
 21
47.5
 31
0.0
  0
LINE
  5
2997
330
27F3
100
AcDbEntity
  8
PEN1
  6
LTY1
100
AcDbLine
 10
345.0
 20
47.5
 30
0.0
 11
340.0
 21
46.0
 31
0.0
  0
LINE
  5
2998
330
27F3
100
AcDbEntity
  8
PEN1
  6
LTY1
100
AcDbLine
 10
340.0
 20
47.5
 30
0.0
 11
335.0
 21
47.5
 31
0.0
  0
LINE
  5
2999
330
27F3
100
AcDbEntity
  8
PEN1
  6
LTY1
100
AcDbLine
 10
340.0
 20
52.5
 30
0.0
 11
335.0
 21
52.5
 31
0.0
  0
LINE
  5
299A
330
27F3
100
AcDbEntity
  8
PEN1
  6
LTY1
100
AcDbLine
 10
350.0
 20
52.5
 30
0.0
 11
345.0
 21
52.5
 31
0.0
  0
LINE
  5
299B
330
27F3
100
AcDbEntity
  8
PEN1
  6
LTY1
100
AcDbLine
 10
345.0
 20
52.5
 30
0.0
 11
340.0
 21
51.0
 31
0.0
  0
LINE
  5
299C
330
27F3
100
AcDbEntity
  8
PEN1
  6
LTY1
100
AcDbLine
 10
350.0
 20
57.5
 30
0.0
 11
345.0
 21
57.5
 31
0.0
  0
LINE
  5
299D
330
27F3
100
AcDbEntity
  8
PEN1
  6
LTY1
100
AcDbLine
 10
345.0
 20
57.5
 30
0.0
 11
340.0
 21
56.0
 31
0.0
  0
LINE
  5
299E
330
27F3
100
AcDbEntity
  8
PEN1
  6
LTY1
100
AcDbLine
 10
340.0
 20
57.5
 30
0.0
 11
335.0
 21
57.5
 31
0.0
  0
LINE
  5
299F
330
27F3
100
AcDbEntity
  8
PEN1
  6
LTY1
100
AcDbLine
 10
350.0
 20
37.5
 30
0.0
 11
345.0
 21
37.5
 31
0.0
  0
LINE
  5
29A0
330
27F3
100
AcDbEntity
  8
PEN1
  6
LTY1
100
AcDbLine
 10
345.0
 20
37.5
 30
0.0
 11
339.5
 21
39.0
 31
0.0
  0
LINE
  5
29A1
330
27F3
100
AcDbEntity
  8
PEN1
  6
LTY1
100
AcDbLine
 10
340.0
 20
39.5
 30
0.0
 11
340.0
 21
37.5
 31
0.0
  0
LINE
  5
29A2
330
27F3
100
AcDbEntity
  8
PEN1
  6
LTY1
100
AcDbLine
 10
340.0
 20
37.5
 30
0.0
 11
335.0
 21
37.5
 31
0.0
  0
TEXT
  5
29A3
330
27F3
100
AcDbEntity
  8
PEN2
100
AcDbText
 10
334.6152796725784
 20
38.75
 30
0.0
 40
2.5
  1
61
  7
textstyle1808
 72
     2
 11
338.5
 21
38.75
 31
0.0
100
AcDbText
  0
TEXT
  5
29A4
330
27F3
100
AcDbEntity
  8
PEN2
100
AcDbText
 10
344.6152796725784
 20
38.75
 30
0.0
 40
2.5
  1
62
  7
textstyle1809
 72
     2
 11
348.5
 21
38.75
 31
0.0
100
AcDbText
  0
LINE
  5
29A5
330
27F3
100
AcDbEntity
  8
PEN1
  6
LTY1
100
AcDbLine
 10
350.0
 20
32.5
 30
0.0
 11
345.0
 21
32.5
 31
0.0
  0
LINE
  5
29A6
330
27F3
100
AcDbEntity
  8
PEN1
  6
LTY1
100
AcDbLine
 10
345.0
 20
32.5
 30
0.0
 11
339.5
 21
34.0
 31
0.0
  0
LINE
  5
29A7
330
27F3
100
AcDbEntity
  8
PEN1
  6
LTY1
100
AcDbLine
 10
340.0
 20
34.5
 30
0.0
 11
340.0
 21
32.5
 31
0.0
  0
LINE
  5
29A8
330
27F3
100
AcDbEntity
  8
PEN1
  6
LTY1
100
AcDbLine
 10
340.0
 20
32.5
 30
0.0
 11
335.0
 21
32.5
 31
0.0
  0
TEXT
  5
29A9
330
27F3
100
AcDbEntity
  8
PEN2
100
AcDbText
 10
334.6152796725784
 20
33.75
 30
0.0
 40
2.5
  1
71
  7
textstyle1810
 72
     2
 11
338.5
 21
33.75
 31
0.0
100
AcDbText
  0
TEXT
  5
29AA
330
27F3
100
AcDbEntity
  8
PEN2
100
AcDbText
 10
344.6152796725784
 20
33.75
 30
0.0
 40
2.5
  1
72
  7
textstyle1811
 72
     2
 11
348.5
 21
33.75
 31
0.0
100
AcDbText
  0
TEXT
  5
29AB
330
27F3
100
AcDbEntity
  8
PEN2
100
AcDbText
 10
334.6152796725784
 20
28.75
 30
0.0
 40
2.5
  1
83
  7
textstyle1812
 72
     2
 11
338.5
 21
28.75
 31
0.0
100
AcDbText
  0
TEXT
  5
29AC
330
27F3
100
AcDbEntity
  8
PEN2
100
AcDbText
 10
344.6152796725784
 20
28.75
 30
0.0
 40
2.5
  1
84
  7
textstyle1813
 72
     2
 11
348.5
 21
28.75
 31
0.0
100
AcDbText
  0
LINE
  5
29AD
330
27F3
100
AcDbEntity
  8
PEN1
  6
LTY1
100
AcDbLine
 10
350.0
 20
27.5
 30
0.0
 11
345.0
 21
27.5
 31
0.0
  0
LINE
  5
29AE
330
27F3
100
AcDbEntity
  8
PEN1
  6
LTY1
100
AcDbLine
 10
345.0
 20
27.5
 30
0.0
 11
340.0
 21
26.0
 31
0.0
  0
LINE
  5
29AF
330
27F3
100
AcDbEntity
  8
PEN1
  6
LTY1
100
AcDbLine
 10
340.0
 20
27.5
 30
0.0
 11
335.0
 21
27.5
 31
0.0
  0
ARC
  5
29B0
330
27F3
100
AcDbEntity
  8
PEN1
  6
LTY1
100
AcDbCircle
 10
339.0
 20
62.5
 30
0.0
 40
1.0
100
AcDbArc
 50
180.0
 51
0.0
  0
ARC
  5
29B1
330
27F3
100
AcDbEntity
  8
PEN1
  6
LTY1
100
AcDbCircle
 10
339.0
 20
57.5
 30
0.0
 40
1.0
100
AcDbArc
 50
180.0
 51
0.0
  0
ARC
  5
29B2
330
27F3
100
AcDbEntity
  8
PEN1
  6
LTY1
100
AcDbCircle
 10
339.0
 20
52.5
 30
0.0
 40
1.0
100
AcDbArc
 50
180.0
 51
0.0
  0
TEXT
  5
29B3
330
27F3
100
AcDbEntity
  8
PEN2
100
AcDbText
 10
334.5152796725784
 20
43.75
 30
0.0
 40
2.5
  1
53
  7
textstyle1814
 72
     2
 11
338.4
 21
43.75
 31
0.0
100
AcDbText
  0
TEXT
  5
29B4
330
27F3
100
AcDbEntity
  8
PEN2
100
AcDbText
 10
344.6152796725784
 20
43.75
 30
0.0
 40
2.5
  1
54
  7
textstyle1815
 72
     2
 11
348.5
 21
43.75
 31
0.0
100
AcDbText
  0
LINE
  5
29B5
330
27F3
100
AcDbEntity
  8
PEN1
  6
LTY1
100
AcDbLine
 10
350.0
 20
42.5
 30
0.0
 11
345.0
 21
42.5
 31
0.0
  0
LINE
  5
29B6
330
27F3
100
AcDbEntity
  8
PEN1
  6
LTY1
100
AcDbLine
 10
345.0
 20
42.5
 30
0.0
 11
340.0
 21
41.0
 31
0.0
  0
LINE
  5
29B7
330
27F3
100
AcDbEntity
  8
PEN1
  6
LTY1
100
AcDbLine
 10
340.0
 20
42.5
 30
0.0
 11
335.0
 21
42.5
 31
0.0
  0
LINE
  5
29B8
330
27F3
100
AcDbEntity
  8
PEN1
  6
LTY1
100
AcDbLine
 10
342.5
 20
130.5
 30
0.0
 11
342.5
 21
125.0
 31
0.0
  0
LINE
  5
29B9
330
27F3
100
AcDbEntity
  8
PEN1
  6
LTY1
100
AcDbLine
 10
277.5
 20
130.5
 30
0.0
 11
277.5
 21
125.0
 31
0.0
  0
LINE
  5
29BA
330
27F3
100
AcDbEntity
  8
PEN1
  6
LTY1
100
AcDbLine
 10
267.5
 20
130.5
 30
0.0
 11
267.5
 21
125.0
 31
0.0
  0
LINE
  5
29BB
330
27F3
100
AcDbEntity
  8
PEN1
  6
LTY1
100
AcDbLine
 10
260.0
 20
130.5
 30
0.0
 11
260.0
 21
125.0
 31
0.0
  0
LINE
  5
29BC
330
27F3
100
AcDbEntity
  8
PEN1
  6
LTY1
100
AcDbLine
 10
287.5
 20
130.5
 30
0.0
 11
287.5
 21
125.0
 31
0.0
  0
LINE
  5
29BD
330
27F3
100
AcDbEntity
  8
PEN1
  6
LTY1
100
AcDbLine
 10
167.5
 20
227.5
 30
0.0
 11
167.5
 21
225.0
 31
0.0
  0
LINE
  5
29BE
330
27F3
100
AcDbEntity
  8
PEN1
  6
LTY1
100
AcDbLine
 10
167.5
 20
215.0
 30
0.0
 11
167.5
 21
217.5
 31
0.0
  0
LINE
  5
29BF
330
27F3
100
AcDbEntity
  8
PEN1
  6
LTY1
100
AcDbLine
 10
167.5
 20
217.5
 30
0.0
 11
165.0
 21
225.0
 31
0.0
  0
LINE
  5
29C0
330
27F3
100
AcDbEntity
  8
PEN1
  6
LTY1
100
AcDbLine
 10
166.25
 20
221.25
 30
0.0
 11
162.65
 21
220.175
 31
0.0
  0
LINE
  5
29C1
330
27F3
100
AcDbEntity
  8
PEN1
  6
LTY1
100
AcDbLine
 10
162.65
 20
220.175
 30
0.0
 11
164.95
 21
220.35
 31
0.0
  0
LINE
  5
29C2
330
27F3
100
AcDbEntity
  8
PEN1
  6
LTY1
100
AcDbLine
 10
164.95
 20
220.35
 30
0.0
 11
164.65
 21
221.3
 31
0.0
  0
LINE
  5
29C3
330
27F3
100
AcDbEntity
  8
PEN1
  6
LTY1
100
AcDbLine
 10
164.65
 20
221.3
 30
0.0
 11
162.65
 21
220.175
 31
0.0
  0
LINE
  5
29C4
330
27F3
100
AcDbEntity
  8
PEN1
  6
LTY1
100
AcDbLine
 10
164.675
 20
221.2
 30
0.0
 11
164.25
 21
221.075
 31
0.0
  0
LINE
  5
29C5
330
27F3
100
AcDbEntity
  8
PEN1
  6
LTY1
100
AcDbLine
 10
164.725
 20
221.1
 30
0.0
 11
163.85
 21
220.85
 31
0.0
  0
LINE
  5
29C6
330
27F3
100
AcDbEntity
  8
PEN1
  6
LTY1
100
AcDbLine
 10
164.75
 20
221.025
 30
0.0
 11
163.45
 21
220.625
 31
0.0
  0
LINE
  5
29C7
330
27F3
100
AcDbEntity
  8
PEN1
  6
LTY1
100
AcDbLine
 10
164.775
 20
220.925
 30
0.0
 11
163.05
 21
220.4
 31
0.0
  0
LINE
  5
29C8
330
27F3
100
AcDbEntity
  8
PEN1
  6
LTY1
100
AcDbLine
 10
164.8
 20
220.825
 30
0.0
 11
162.65
 21
220.175
 31
0.0
  0
LINE
  5
29C9
330
27F3
100
AcDbEntity
  8
PEN1
  6
LTY1
100
AcDbLine
 10
164.825
 20
220.725
 30
0.0
 11
163.1
 21
220.2
 31
0.0
  0
LINE
  5
29CA
330
27F3
100
AcDbEntity
  8
PEN1
  6
LTY1
100
AcDbLine
 10
164.85
 20
220.625
 30
0.0
 11
163.5749999999999
 21
220.25
 31
0.0
  0
LINE
  5
29CB
330
27F3
100
AcDbEntity
  8
PEN1
  6
LTY1
100
AcDbLine
 10
164.9
 20
220.525
 30
0.0
 11
164.025
 21
220.275
 31
0.0
  0
LINE
  5
29CC
330
27F3
100
AcDbEntity
  8
PEN1
  6
LTY1
100
AcDbLine
 10
164.925
 20
220.45
 30
0.0
 11
164.5
 21
220.3
 31
0.0
  0
LINE
  5
29CD
330
27F3
100
AcDbEntity
  8
PEN1
  6
LTY1
100
AcDbLine
 10
165.575
 20
223.0
 30
0.0
 11
164.5
 21
222.625
 31
0.0
  0
LINE
  5
29CE
330
27F3
100
AcDbEntity
  8
PEN1
  6
LTY1
100
AcDbLine
 10
164.5
 20
222.625
 30
0.0
 11
164.275
 21
223.55
 31
0.0
  0
LINE
  5
29CF
330
27F3
100
AcDbEntity
  8
PEN1
  6
LTY1
100
AcDbLine
 10
164.275
 20
223.55
 30
0.0
 11
163.3
 21
223.25
 31
0.0
  0
LINE
  5
29D0
330
27F3
100
AcDbEntity
  8
PEN1
  6
LTY1
100
AcDbLine
 10
163.3
 20
223.25
 30
0.0
 11
163.525
 21
222.35
 31
0.0
  0
LINE
  5
29D1
330
27F3
100
AcDbEntity
  8
PEN1
  6
LTY1
100
AcDbLine
 10
163.525
 20
222.35
 30
0.0
 11
162.65
 21
222.075
 31
0.0
  0
TEXT
  5
29D2
330
27F3
100
AcDbEntity
  8
PEN1
100
AcDbText
 10
151.7464529331514
 20
226.75
 30
0.0
 40
3.5
  1
-F11
  7
textstyle1931
 72
     2
 11
161.8
 21
226.75
 31
0.0
100
AcDbText
  0
LINE
  5
29D3
330
27F3
100
AcDbEntity
  8
PEN1
  6
LTY1
100
AcDbLine
 10
166.25
 20
221.25
 30
0.0
 11
162.65
 21
220.15
 31
0.0
  0
LINE
  5
29D4
330
27F3
100
AcDbEntity
  8
PEN1
  6
LTY1
100
AcDbLine
 10
162.65
 20
220.15
 30
0.0
 11
164.95
 21
220.325
 31
0.0
  0
LINE
  5
29D5
330
27F3
100
AcDbEntity
  8
PEN1
  6
LTY1
100
AcDbLine
 10
164.95
 20
220.325
 30
0.0
 11
164.65
 21
221.275
 31
0.0
  0
LINE
  5
29D6
330
27F3
100
AcDbEntity
  8
PEN1
  6
LTY1
100
AcDbLine
 10
164.65
 20
221.275
 30
0.0
 11
162.65
 21
220.15
 31
0.0
  0
LINE
  5
29D7
330
27F3
100
AcDbEntity
  8
PEN1
  6
LTY1
100
AcDbLine
 10
164.675
 20
221.175
 30
0.0
 11
164.25
 21
221.05
 31
0.0
  0
LINE
  5
29D8
330
27F3
100
AcDbEntity
  8
PEN1
  6
LTY1
100
AcDbLine
 10
164.725
 20
221.075
 30
0.0
 11
163.85
 21
220.825
 31
0.0
  0
LINE
  5
29D9
330
27F3
100
AcDbEntity
  8
PEN1
  6
LTY1
100
AcDbLine
 10
164.75
 20
221.0
 30
0.0
 11
163.45
 21
220.6
 31
0.0
  0
LINE
  5
29DA
330
27F3
100
AcDbEntity
  8
PEN1
  6
LTY1
100
AcDbLine
 10
164.775
 20
220.9
 30
0.0
 11
163.05
 21
220.375
 31
0.0
  0
LINE
  5
29DB
330
27F3
100
AcDbEntity
  8
PEN1
  6
LTY1
100
AcDbLine
 10
164.8
 20
220.8
 30
0.0
 11
162.65
 21
220.15
 31
0.0
  0
LINE
  5
29DC
330
27F3
100
AcDbEntity
  8
PEN1
  6
LTY1
100
AcDbLine
 10
164.825
 20
220.7
 30
0.0
 11
163.1
 21
220.175
 31
0.0
  0
LINE
  5
29DD
330
27F3
100
AcDbEntity
  8
PEN1
  6
LTY1
100
AcDbLine
 10
164.85
 20
220.6
 30
0.0
 11
163.5749999999999
 21
220.225
 31
0.0
  0
LINE
  5
29DE
330
27F3
100
AcDbEntity
  8
PEN1
  6
LTY1
100
AcDbLine
 10
164.9
 20
220.5
 30
0.0
 11
164.025
 21
220.25
 31
0.0
  0
LINE
  5
29DF
330
27F3
100
AcDbEntity
  8
PEN1
  6
LTY1
100
AcDbLine
 10
164.925
 20
220.425
 30
0.0
 11
164.5
 21
220.275
 31
0.0
  0
LINE
  5
29E0
330
27F3
100
AcDbEntity
  8
PEN1
  6
LTY1
100
AcDbLine
 10
167.0
 20
250.0
 30
0.0
 11
167.0
 21
245.0
 31
0.0
  0
LINE
  5
29E1
330
27F3
100
AcDbEntity
  8
PEN1
  6
LTY1
100
AcDbLine
 10
167.0
 20
245.0
 30
0.0
 11
168.0
 21
245.0
 31
0.0
  0
LINE
  5
29E2
330
27F3
100
AcDbEntity
  8
PEN1
  6
LTY1
100
AcDbLine
 10
168.0
 20
245.0
 30
0.0
 11
168.0
 21
250.0
 31
0.0
  0
LINE
  5
29E3
330
27F3
100
AcDbEntity
  8
PEN1
  6
LTY1
100
AcDbLine
 10
168.0
 20
250.0
 30
0.0
 11
167.0
 21
250.0
 31
0.0
  0
LINE
  5
29E4
330
27F3
100
AcDbEntity
  8
PEN1
  6
LTY1
100
AcDbLine
 10
167.0
 20
245.0
 30
0.0
 11
168.0
 21
245.0
 31
0.0
  0
LINE
  5
29E5
330
27F3
100
AcDbEntity
  8
PEN1
  6
LTY1
100
AcDbLine
 10
167.0
 20
245.5
 30
0.0
 11
168.0
 21
245.5
 31
0.0
  0
LINE
  5
29E6
330
27F3
100
AcDbEntity
  8
PEN1
  6
LTY1
100
AcDbLine
 10
167.0
 20
246.0
 30
0.0
 11
168.0
 21
246.0
 31
0.0
  0
LINE
  5
29E7
330
27F3
100
AcDbEntity
  8
PEN1
  6
LTY1
100
AcDbLine
 10
167.0
 20
246.5
 30
0.0
 11
168.0
 21
246.5
 31
0.0
  0
LINE
  5
29E8
330
27F3
100
AcDbEntity
  8
PEN1
  6
LTY1
100
AcDbLine
 10
167.0
 20
247.0
 30
0.0
 11
168.0
 21
247.0
 31
0.0
  0
LINE
  5
29E9
330
27F3
100
AcDbEntity
  8
PEN1
  6
LTY1
100
AcDbLine
 10
167.0
 20
247.5
 30
0.0
 11
168.0
 21
247.5
 31
0.0
  0
LINE
  5
29EA
330
27F3
100
AcDbEntity
  8
PEN1
  6
LTY1
100
AcDbLine
 10
167.0
 20
248.0
 30
0.0
 11
168.0
 21
248.0
 31
0.0
  0
LINE
  5
29EB
330
27F3
100
AcDbEntity
  8
PEN1
  6
LTY1
100
AcDbLine
 10
167.0
 20
248.5
 30
0.0
 11
168.0
 21
248.5
 31
0.0
  0
LINE
  5
29EC
330
27F3
100
AcDbEntity
  8
PEN1
  6
LTY1
100
AcDbLine
 10
167.0
 20
249.0
 30
0.0
 11
168.0
 21
249.0
 31
0.0
  0
LINE
  5
29ED
330
27F3
100
AcDbEntity
  8
PEN1
  6
LTY1
100
AcDbLine
 10
167.0
 20
249.5
 30
0.0
 11
168.0
 21
249.5
 31
0.0
  0
LINE
  5
29EE
330
27F3
100
AcDbEntity
  8
PEN1
  6
LTY1
100
AcDbLine
 10
167.0
 20
250.0
 30
0.0
 11
168.0
 21
250.0
 31
0.0
  0
ARC
  5
29EF
330
27F3
100
AcDbEntity
  8
PEN1
  6
LTY1
100
AcDbCircle
 10
167.5
 20
250.5
 30
0.0
 40
1.5
100
AcDbArc
 50
0.0
 51
180.0
  0
ARC
  5
29F0
330
27F3
100
AcDbEntity
  8
PEN1
  6
LTY1
100
AcDbCircle
 10
167.5
 20
250.5
 30
0.0
 40
1.7
100
AcDbArc
 50
0.0
 51
180.0
  0
ARC
  5
29F1
330
27F3
100
AcDbEntity
  8
PEN1
  6
LTY1
100
AcDbCircle
 10
167.5
 20
250.5
 30
0.0
 40
1.9
100
AcDbArc
 50
0.0
 51
180.0
  0
TEXT
  5
29F2
330
27F3
100
AcDbEntity
  8
PEN1
100
AcDbText
 10
152.9718963165075
 20
249.75
 30
0.0
 40
3.5
  1
-X19
  7
textstyle1965
 72
     2
 11
163.3
 21
249.75
 31
0.0
100
AcDbText
  0
LINE
  5
29F3
330
27F3
100
AcDbEntity
  8
PEN1
  6
LTY1
100
AcDbLine
 10
177.0
 20
250.0
 30
0.0
 11
177.0
 21
245.0
 31
0.0
  0
LINE
  5
29F4
330
27F3
100
AcDbEntity
  8
PEN1
  6
LTY1
100
AcDbLine
 10
177.0
 20
245.0
 30
0.0
 11
178.0
 21
245.0
 31
0.0
  0
LINE
  5
29F5
330
27F3
100
AcDbEntity
  8
PEN1
  6
LTY1
100
AcDbLine
 10
178.0
 20
245.0
 30
0.0
 11
178.0
 21
250.0
 31
0.0
  0
LINE
  5
29F6
330
27F3
100
AcDbEntity
  8
PEN1
  6
LTY1
100
AcDbLine
 10
178.0
 20
250.0
 30
0.0
 11
177.0
 21
250.0
 31
0.0
  0
LINE
  5
29F7
330
27F3
100
AcDbEntity
  8
PEN1
  6
LTY1
100
AcDbLine
 10
177.0
 20
245.0
 30
0.0
 11
178.0
 21
245.0
 31
0.0
  0
LINE
  5
29F8
330
27F3
100
AcDbEntity
  8
PEN1
  6
LTY1
100
AcDbLine
 10
177.0
 20
245.5
 30
0.0
 11
178.0
 21
245.5
 31
0.0
  0
LINE
  5
29F9
330
27F3
100
AcDbEntity
  8
PEN1
  6
LTY1
100
AcDbLine
 10
177.0
 20
246.0
 30
0.0
 11
178.0
 21
246.0
 31
0.0
  0
LINE
  5
29FA
330
27F3
100
AcDbEntity
  8
PEN1
  6
LTY1
100
AcDbLine
 10
177.0
 20
246.5
 30
0.0
 11
178.0
 21
246.5
 31
0.0
  0
LINE
  5
29FB
330
27F3
100
AcDbEntity
  8
PEN1
  6
LTY1
100
AcDbLine
 10
177.0
 20
247.0
 30
0.0
 11
178.0
 21
247.0
 31
0.0
  0
LINE
  5
29FC
330
27F3
100
AcDbEntity
  8
PEN1
  6
LTY1
100
AcDbLine
 10
177.0
 20
247.5
 30
0.0
 11
178.0
 21
247.5
 31
0.0
  0
LINE
  5
29FD
330
27F3
100
AcDbEntity
  8
PEN1
  6
LTY1
100
AcDbLine
 10
177.0
 20
248.0
 30
0.0
 11
178.0
 21
248.0
 31
0.0
  0
LINE
  5
29FE
330
27F3
100
AcDbEntity
  8
PEN1
  6
LTY1
100
AcDbLine
 10
177.0
 20
248.5
 30
0.0
 11
178.0
 21
248.5
 31
0.0
  0
LINE
  5
29FF
330
27F3
100
AcDbEntity
  8
PEN1
  6
LTY1
100
AcDbLine
 10
177.0
 20
249.0
 30
0.0
 11
178.0
 21
249.0
 31
0.0
  0
LINE
  5
2A00
330
27F3
100
AcDbEntity
  8
PEN1
  6
LTY1
100
AcDbLine
 10
177.0
 20
249.5
 30
0.0
 11
178.0
 21
249.5
 31
0.0
  0
LINE
  5
2A01
330
27F3
100
AcDbEntity
  8
PEN1
  6
LTY1
100
AcDbLine
 10
177.0
 20
250.0
 30
0.0
 11
178.0
 21
250.0
 31
0.0
  0
ARC
  5
2A02
330
27F3
100
AcDbEntity
  8
PEN1
  6
LTY1
100
AcDbCircle
 10
177.5
 20
250.5
 30
0.0
 40
1.5
100
AcDbArc
 50
0.0
 51
180.0
  0
ARC
  5
2A03
330
27F3
100
AcDbEntity
  8
PEN1
  6
LTY1
100
AcDbCircle
 10
177.5
 20
250.5
 30
0.0
 40
1.7
100
AcDbArc
 50
0.0
 51
180.0
  0
ARC
  5
2A04
330
27F3
100
AcDbEntity
  8
PEN1
  6
LTY1
100
AcDbCircle
 10
177.5
 20
250.5
 30
0.0
 40
1.9
100
AcDbArc
 50
0.0
 51
180.0
  0
LINE
  5
2A05
330
27F3
100
AcDbEntity
  8
PEN1
  6
LTY1
100
AcDbLine
 10
90.0
 20
130.5
 30
0.0
 11
90.0
 21
125.0
 31
0.0
  0
LINE
  5
2A06
330
27F3
100
AcDbEntity
  8
PEN1
  6
LTY1
100
AcDbLine
 10
100.0
 20
130.5
 30
0.0
 11
100.0
 21
125.0
 31
0.0
  0
LINE
  5
2A07
330
27F3
100
AcDbEntity
  8
PEN1
  6
LTY1
100
AcDbLine
 10
183.5
 20
107.5
 30
0.0
 11
185.0
 21
102.5
 31
0.0
  0
LINE
  5
2A08
330
27F3
100
AcDbEntity
  8
PEN1
  6
LTY1
100
AcDbLine
 10
185.0
 20
100.0
 30
0.0
 11
185.0
 21
102.5
 31
0.0
  0
LINE
  5
2A09
330
27F3
100
AcDbEntity
  8
PEN1
  6
LTY1
100
AcDbLine
 10
185.0
 20
110.0
 30
0.0
 11
185.0
 21
107.5
 31
0.0
  0
TEXT
  5
2A0A
330
27F3
100
AcDbEntity
  8
PEN1
100
AcDbText
 10
169.2464529331514
 20
110.5
 30
0.0
 40
3.5
  1
-F12
  7
textstyle2043
 72
     2
 11
179.3
 21
110.5
 31
0.0
100
AcDbText
  0
LINE
  5
2A0B
330
27F3
100
AcDbEntity
  8
PEN1
  6
LTY1
100
AcDbLine
 10
222.5
 20
100.0
 30
0.0
 11
222.5
 21
102.5
 31
0.0
  0
LINE
  5
2A0C
330
27F3
100
AcDbEntity
  8
PEN1
  6
LTY1
100
AcDbLine
 10
222.5
 20
110.0
 30
0.0
 11
222.5
 21
107.5
 31
0.0
  0
LINE
  5
2A0D
330
27F3
100
AcDbEntity
  8
PEN1
  6
LTY1
100
AcDbLine
 10
222.5
 20
107.5
 30
0.0
 11
223.75
 21
107.5
 31
0.0
  0
LINE
  5
2A0E
330
27F3
100
AcDbEntity
  8
PEN1
  6
LTY1
100
AcDbLine
 10
222.5
 20
102.5
 30
0.0
 11
223.75
 21
108.75
 31
0.0
  0
TEXT
  5
2A0F
330
27F3
100
AcDbEntity
  8
PEN1
100
AcDbText
 10
208.6492496589359
 20
110.25
 30
0.0
 40
3.5
  1
-Q1
  7
textstyle2056
 72
     2
 11
216.8
 21
110.25
 31
0.0
100
AcDbText
  0
LINE
  5
2A10
330
27F3
100
AcDbEntity
  8
PEN1
  6
LTY1
100
AcDbLine
 10
375.0
 20
225.0
 30
0.0
 11
375.0
 21
222.5
 31
0.0
  0
LINE
  5
2A11
330
27F3
100
AcDbEntity
  8
PEN1
  6
LTY1
100
AcDbLine
 10
375.0
 20
212.5
 30
0.0
 11
375.0
 21
215.0
 31
0.0
  0
LINE
  5
2A12
330
27F3
100
AcDbEntity
  8
PEN1
  6
LTY1
100
AcDbLine
 10
375.0
 20
215.0
 30
0.0
 11
372.5
 21
222.5
 31
0.0
  0
LINE
  5
2A13
330
27F3
100
AcDbEntity
  8
PEN1
  6
LTY1
100
AcDbLine
 10
373.75
 20
218.75
 30
0.0
 11
370.175
 21
217.675
 31
0.0
  0
LINE
  5
2A14
330
27F3
100
AcDbEntity
  8
PEN1
  6
LTY1
100
AcDbLine
 10
370.175
 20
217.675
 30
0.0
 11
372.475
 21
217.85
 31
0.0
  0
LINE
  5
2A15
330
27F3
100
AcDbEntity
  8
PEN1
  6
LTY1
100
AcDbLine
 10
372.475
 20
217.85
 30
0.0
 11
372.175
 21
218.8
 31
0.0
  0
LINE
  5
2A16
330
27F3
100
AcDbEntity
  8
PEN1
  6
LTY1
100
AcDbLine
 10
372.175
 20
218.8
 30
0.0
 11
370.175
 21
217.675
 31
0.0
  0
LINE
  5
2A17
330
27F3
100
AcDbEntity
  8
PEN1
  6
LTY1
100
AcDbLine
 10
372.2
 20
218.7
 30
0.0
 11
371.775
 21
218.575
 31
0.0
  0
LINE
  5
2A18
330
27F3
100
AcDbEntity
  8
PEN1
  6
LTY1
100
AcDbLine
 10
372.25
 20
218.6
 30
0.0
 11
371.375
 21
218.35
 31
0.0
  0
LINE
  5
2A19
330
27F3
100
AcDbEntity
  8
PEN1
  6
LTY1
100
AcDbLine
 10
372.275
 20
218.525
 30
0.0
 11
370.975
 21
218.125
 31
0.0
  0
LINE
  5
2A1A
330
27F3
100
AcDbEntity
  8
PEN1
  6
LTY1
100
AcDbLine
 10
372.3
 20
218.425
 30
0.0
 11
370.575
 21
217.9
 31
0.0
  0
LINE
  5
2A1B
330
27F3
100
AcDbEntity
  8
PEN1
  6
LTY1
100
AcDbLine
 10
372.325
 20
218.325
 30
0.0
 11
370.175
 21
217.675
 31
0.0
  0
LINE
  5
2A1C
330
27F3
100
AcDbEntity
  8
PEN1
  6
LTY1
100
AcDbLine
 10
372.35
 20
218.225
 30
0.0
 11
370.625
 21
217.7
 31
0.0
  0
LINE
  5
2A1D
330
27F3
100
AcDbEntity
  8
PEN1
  6
LTY1
100
AcDbLine
 10
372.375
 20
218.125
 30
0.0
 11
371.1
 21
217.75
 31
0.0
  0
LINE
  5
2A1E
330
27F3
100
AcDbEntity
  8
PEN1
  6
LTY1
100
AcDbLine
 10
372.425
 20
218.025
 30
0.0
 11
371.55
 21
217.775
 31
0.0
  0
LINE
  5
2A1F
330
27F3
100
AcDbEntity
  8
PEN1
  6
LTY1
100
AcDbLine
 10
372.45
 20
217.95
 30
0.0
 11
372.025
 21
217.8
 31
0.0
  0
LINE
  5
2A20
330
27F3
100
AcDbEntity
  8
PEN1
  6
LTY1
100
AcDbLine
 10
380.0
 20
215.0
 30
0.0
 11
377.5
 21
222.5
 31
0.0
  0
LINE
  5
2A21
330
27F3
100
AcDbEntity
  8
PEN1
  6
LTY1
100
AcDbLine
 10
378.75
 20
218.75
 30
0.0
 11
375.15
 21
217.675
 31
0.0
  0
LINE
  5
2A22
330
27F3
100
AcDbEntity
  8
PEN1
  6
LTY1
100
AcDbLine
 10
375.15
 20
217.675
 30
0.0
 11
377.45
 21
217.85
 31
0.0
  0
LINE
  5
2A23
330
27F3
100
AcDbEntity
  8
PEN1
  6
LTY1
100
AcDbLine
 10
377.45
 20
217.85
 30
0.0
 11
377.15
 21
218.8
 31
0.0
  0
LINE
  5
2A24
330
27F3
100
AcDbEntity
  8
PEN1
  6
LTY1
100
AcDbLine
 10
377.15
 20
218.8
 30
0.0
 11
375.15
 21
217.675
 31
0.0
  0
LINE
  5
2A25
330
27F3
100
AcDbEntity
  8
PEN1
  6
LTY1
100
AcDbLine
 10
377.175
 20
218.7
 30
0.0
 11
376.75
 21
218.575
 31
0.0
  0
LINE
  5
2A26
330
27F3
100
AcDbEntity
  8
PEN1
  6
LTY1
100
AcDbLine
 10
377.225
 20
218.6
 30
0.0
 11
376.35
 21
218.35
 31
0.0
  0
LINE
  5
2A27
330
27F3
100
AcDbEntity
  8
PEN1
  6
LTY1
100
AcDbLine
 10
377.25
 20
218.525
 30
0.0
 11
375.95
 21
218.125
 31
0.0
  0
LINE
  5
2A28
330
27F3
100
AcDbEntity
  8
PEN1
  6
LTY1
100
AcDbLine
 10
377.275
 20
218.425
 30
0.0
 11
375.55
 21
217.9
 31
0.0
  0
LINE
  5
2A29
330
27F3
100
AcDbEntity
  8
PEN1
  6
LTY1
100
AcDbLine
 10
377.3
 20
218.325
 30
0.0
 11
375.15
 21
217.675
 31
0.0
  0
LINE
  5
2A2A
330
27F3
100
AcDbEntity
  8
PEN1
  6
LTY1
100
AcDbLine
 10
377.325
 20
218.225
 30
0.0
 11
375.6
 21
217.7
 31
0.0
  0
LINE
  5
2A2B
330
27F3
100
AcDbEntity
  8
PEN1
  6
LTY1
100
AcDbLine
 10
377.35
 20
218.125
 30
0.0
 11
376.075
 21
217.75
 31
0.0
  0
LINE
  5
2A2C
330
27F3
100
AcDbEntity
  8
PEN1
  6
LTY1
100
AcDbLine
 10
377.4
 20
218.025
 30
0.0
 11
376.525
 21
217.775
 31
0.0
  0
LINE
  5
2A2D
330
27F3
100
AcDbEntity
  8
PEN1
  6
LTY1
100
AcDbLine
 10
377.425
 20
217.95
 30
0.0
 11
377.0
 21
217.8
 31
0.0
  0
LINE
  5
2A2E
330
27F3
100
AcDbEntity
  8
PEN1
  6
LTY1
100
AcDbLine
 10
380.0
 20
215.0
 30
0.0
 11
380.0
 21
212.5
 31
0.0
  0
LINE
  5
2A2F
330
27F3
100
AcDbEntity
  8
PEN1
  6
LTY1
100
AcDbLine
 10
380.0
 20
222.5
 30
0.0
 11
380.0
 21
225.0
 31
0.0
  0
LINE
  5
2A30
330
27F3
100
AcDbEntity
  8
PEN1
  6
LTY1
100
AcDbLine
 10
373.075
 20
220.5
 30
0.0
 11
372.0
 21
220.125
 31
0.0
  0
LINE
  5
2A31
330
27F3
100
AcDbEntity
  8
PEN1
  6
LTY1
100
AcDbLine
 10
372.0
 20
220.125
 30
0.0
 11
371.775
 21
221.05
 31
0.0
  0
LINE
  5
2A32
330
27F3
100
AcDbEntity
  8
PEN1
  6
LTY1
100
AcDbLine
 10
371.775
 20
221.05
 30
0.0
 11
370.8
 21
220.75
 31
0.0
  0
LINE
  5
2A33
330
27F3
100
AcDbEntity
  8
PEN1
  6
LTY1
100
AcDbLine
 10
370.8
 20
220.75
 30
0.0
 11
371.025
 21
219.85
 31
0.0
  0
LINE
  5
2A34
330
27F3
100
AcDbEntity
  8
PEN1
  6
LTY1
100
AcDbLine
 10
371.025
 20
219.85
 30
0.0
 11
370.15
 21
219.575
 31
0.0
  0
LINE
  5
2A35
330
27F3
100
AcDbEntity
  8
PEN1
  6
LTY1
100
AcDbLine
 10
378.075
 20
220.5
 30
0.0
 11
377.0
 21
220.125
 31
0.0
  0
LINE
  5
2A36
330
27F3
100
AcDbEntity
  8
PEN1
  6
LTY1
100
AcDbLine
 10
377.0
 20
220.125
 30
0.0
 11
376.775
 21
221.05
 31
0.0
  0
LINE
  5
2A37
330
27F3
100
AcDbEntity
  8
PEN1
  6
LTY1
100
AcDbLine
 10
376.775
 20
221.05
 30
0.0
 11
375.8
 21
220.75
 31
0.0
  0
LINE
  5
2A38
330
27F3
100
AcDbEntity
  8
PEN1
  6
LTY1
100
AcDbLine
 10
375.8
 20
220.75
 30
0.0
 11
376.025
 21
219.85
 31
0.0
  0
LINE
  5
2A39
330
27F3
100
AcDbEntity
  8
PEN1
  6
LTY1
100
AcDbLine
 10
376.025
 20
219.85
 30
0.0
 11
375.15
 21
219.575
 31
0.0
  0
LINE
  5
2A3A
330
27F3
100
AcDbEntity
  8
PEN1
  6
LTY4
100
AcDbLine
 10
378.75
 20
218.75
 30
0.0
 11
373.75
 21
218.75
 31
0.0
  0
TEXT
  5
2A3B
330
27F3
100
AcDbEntity
  8
PEN1
100
AcDbText
 10
356.7464529331514
 20
224.25
 30
0.0
 40
3.5
  1
-F12
  7
textstyle2101
 72
     2
 11
366.8
 21
224.25
 31
0.0
100
AcDbText
  0
TEXT
  5
2A3C
330
27F3
100
AcDbEntity
  8
PEN2
100
AcDbText
 10
386.25
 20
224.25
 30
0.0
 40
2.5
  1
13
 50
90.0
  7
textstyle2102
100
AcDbText
  0
TEXT
  5
2A3D
330
27F3
100
AcDbEntity
  8
PEN2
100
AcDbText
 10
386.25
 20
209.3652796725784
 30
0.0
 40
2.5
  1
14
 50
90.0
  7
textstyle2103
 72
     2
 11
386.25
 21
213.25
 31
0.0
100
AcDbText
  0
TEXT
  5
2A3E
330
27F3
100
AcDbEntity
  8
PEN2
100
AcDbText
 10
391.25
 20
224.25
 30
0.0
 40
2.5
  1
21
 50
90.0
  7
textstyle2104
100
AcDbText
  0
TEXT
  5
2A3F
330
27F3
100
AcDbEntity
  8
PEN2
100
AcDbText
 10
391.25
 20
209.3652796725784
 30
0.0
 40
2.5
  1
22
 50
90.0
  7
textstyle2105
 72
     2
 11
391.25
 21
213.25
 31
0.0
100
AcDbText
  0
TEXT
  5
2A40
330
27F3
100
AcDbEntity
  8
PEN2
100
AcDbText
 10
386.25
 20
201.2854706684857
 30
0.0
 40
2.5
  1
D4
 50
90.0
  7
textstyle2106
 72
     2
 11
386.25
 21
205.75
 31
0.0
100
AcDbText
  0
LINE
  5
2A41
330
27F3
100
AcDbEntity
  8
PEN1
  6
LTY1
100
AcDbLine
 10
373.75
 20
218.75
 30
0.0
 11
370.15
 21
217.65
 31
0.0
  0
LINE
  5
2A42
330
27F3
100
AcDbEntity
  8
PEN1
  6
LTY1
100
AcDbLine
 10
370.15
 20
217.65
 30
0.0
 11
372.45
 21
217.825
 31
0.0
  0
LINE
  5
2A43
330
27F3
100
AcDbEntity
  8
PEN1
  6
LTY1
100
AcDbLine
 10
372.45
 20
217.825
 30
0.0
 11
372.15
 21
218.775
 31
0.0
  0
LINE
  5
2A44
330
27F3
100
AcDbEntity
  8
PEN1
  6
LTY1
100
AcDbLine
 10
372.15
 20
218.775
 30
0.0
 11
370.15
 21
217.65
 31
0.0
  0
LINE
  5
2A45
330
27F3
100
AcDbEntity
  8
PEN1
  6
LTY1
100
AcDbLine
 10
372.175
 20
218.675
 30
0.0
 11
371.75
 21
218.55
 31
0.0
  0
LINE
  5
2A46
330
27F3
100
AcDbEntity
  8
PEN1
  6
LTY1
100
AcDbLine
 10
372.225
 20
218.575
 30
0.0
 11
371.35
 21
218.325
 31
0.0
  0
LINE
  5
2A47
330
27F3
100
AcDbEntity
  8
PEN1
  6
LTY1
100
AcDbLine
 10
372.25
 20
218.5
 30
0.0
 11
370.95
 21
218.1
 31
0.0
  0
LINE
  5
2A48
330
27F3
100
AcDbEntity
  8
PEN1
  6
LTY1
100
AcDbLine
 10
372.275
 20
218.4
 30
0.0
 11
370.55
 21
217.875
 31
0.0
  0
LINE
  5
2A49
330
27F3
100
AcDbEntity
  8
PEN1
  6
LTY1
100
AcDbLine
 10
372.3
 20
218.3
 30
0.0
 11
370.15
 21
217.65
 31
0.0
  0
LINE
  5
2A4A
330
27F3
100
AcDbEntity
  8
PEN1
  6
LTY1
100
AcDbLine
 10
372.325
 20
218.2
 30
0.0
 11
370.6
 21
217.675
 31
0.0
  0
LINE
  5
2A4B
330
27F3
100
AcDbEntity
  8
PEN1
  6
LTY1
100
AcDbLine
 10
372.35
 20
218.1
 30
0.0
 11
371.075
 21
217.725
 31
0.0
  0
LINE
  5
2A4C
330
27F3
100
AcDbEntity
  8
PEN1
  6
LTY1
100
AcDbLine
 10
372.4
 20
218.0
 30
0.0
 11
371.525
 21
217.75
 31
0.0
  0
LINE
  5
2A4D
330
27F3
100
AcDbEntity
  8
PEN1
  6
LTY1
100
AcDbLine
 10
372.425
 20
217.925
 30
0.0
 11
372.0
 21
217.775
 31
0.0
  0
LINE
  5
2A4E
330
27F3
100
AcDbEntity
  8
PEN1
  6
LTY1
100
AcDbLine
 10
378.75
 20
218.75
 30
0.0
 11
375.15
 21
217.65
 31
0.0
  0
LINE
  5
2A4F
330
27F3
100
AcDbEntity
  8
PEN1
  6
LTY1
100
AcDbLine
 10
375.15
 20
217.65
 30
0.0
 11
377.45
 21
217.825
 31
0.0
  0
LINE
  5
2A50
330
27F3
100
AcDbEntity
  8
PEN1
  6
LTY1
100
AcDbLine
 10
377.45
 20
217.825
 30
0.0
 11
377.15
 21
218.775
 31
0.0
  0
LINE
  5
2A51
330
27F3
100
AcDbEntity
  8
PEN1
  6
LTY1
100
AcDbLine
 10
377.15
 20
218.775
 30
0.0
 11
375.15
 21
217.65
 31
0.0
  0
LINE
  5
2A52
330
27F3
100
AcDbEntity
  8
PEN1
  6
LTY1
100
AcDbLine
 10
377.175
 20
218.675
 30
0.0
 11
376.75
 21
218.55
 31
0.0
  0
LINE
  5
2A53
330
27F3
100
AcDbEntity
  8
PEN1
  6
LTY1
100
AcDbLine
 10
377.225
 20
218.575
 30
0.0
 11
376.35
 21
218.325
 31
0.0
  0
LINE
  5
2A54
330
27F3
100
AcDbEntity
  8
PEN1
  6
LTY1
100
AcDbLine
 10
377.25
 20
218.5
 30
0.0
 11
375.95
 21
218.1
 31
0.0
  0
LINE
  5
2A55
330
27F3
100
AcDbEntity
  8
PEN1
  6
LTY1
100
AcDbLine
 10
377.275
 20
218.4
 30
0.0
 11
375.55
 21
217.875
 31
0.0
  0
LINE
  5
2A56
330
27F3
100
AcDbEntity
  8
PEN1
  6
LTY1
100
AcDbLine
 10
377.3
 20
218.3
 30
0.0
 11
375.15
 21
217.65
 31
0.0
  0
LINE
  5
2A57
330
27F3
100
AcDbEntity
  8
PEN1
  6
LTY1
100
AcDbLine
 10
377.325
 20
218.2
 30
0.0
 11
375.6
 21
217.675
 31
0.0
  0
LINE
  5
2A58
330
27F3
100
AcDbEntity
  8
PEN1
  6
LTY1
100
AcDbLine
 10
377.35
 20
218.1
 30
0.0
 11
376.075
 21
217.725
 31
0.0
  0
LINE
  5
2A59
330
27F3
100
AcDbEntity
  8
PEN1
  6
LTY1
100
AcDbLine
 10
377.4
 20
218.0
 30
0.0
 11
376.525
 21
217.75
 31
0.0
  0
LINE
  5
2A5A
330
27F3
100
AcDbEntity
  8
PEN1
  6
LTY1
100
AcDbLine
 10
377.425
 20
217.925
 30
0.0
 11
377.0
 21
217.775
 31
0.0
  0
LINE
  5
2A5B
330
27F3
100
AcDbEntity
  8
PEN1
  6
LTY4
100
AcDbLine
 10
378.75
 20
218.75
 30
0.0
 11
393.75
 21
218.75
 31
0.0
  0
LINE
  5
2A5C
330
27F3
100
AcDbEntity
  8
PEN1
  6
LTY1
100
AcDbLine
 10
387.5
 20
225.0
 30
0.0
 11
387.5
 21
222.5
 31
0.0
  0
LINE
  5
2A5D
330
27F3
100
AcDbEntity
  8
PEN1
  6
LTY1
100
AcDbLine
 10
385.0
 20
222.5
 30
0.0
 11
387.5
 21
215.0
 31
0.0
  0
LINE
  5
2A5E
330
27F3
100
AcDbEntity
  8
PEN1
  6
LTY1
100
AcDbLine
 10
387.5
 20
215.0
 30
0.0
 11
387.5
 21
212.5
 31
0.0
  0
LINE
  5
2A5F
330
27F3
100
AcDbEntity
  8
PEN1
  6
LTY1
100
AcDbLine
 10
392.5
 20
212.5
 30
0.0
 11
392.5
 21
215.0
 31
0.0
  0
LINE
  5
2A60
330
27F3
100
AcDbEntity
  8
PEN1
  6
LTY1
100
AcDbLine
 10
392.5
 20
215.0
 30
0.0
 11
395.0
 21
223.75
 31
0.0
  0
LINE
  5
2A61
330
27F3
100
AcDbEntity
  8
PEN1
  6
LTY1
100
AcDbLine
 10
392.5
 20
222.5
 30
0.0
 11
392.5
 21
225.0
 31
0.0
  0
LINE
  5
2A62
330
27F3
100
AcDbEntity
  8
PEN1
  6
LTY1
100
AcDbLine
 10
392.5
 20
222.5
 30
0.0
 11
396.25
 21
222.5
 31
0.0
  0
LINE
  5
2A63
330
27F3
100
AcDbEntity
  8
PEN1
  6
LTY1
100
AcDbLine
 10
222.5
 20
135.0
 30
0.0
 11
222.5
 21
130.0
 31
0.0
  0
LINE
  5
2A64
330
27F3
100
AcDbEntity
  8
PEN1
  6
LTY1
100
AcDbLine
 10
222.5
 20
135.0
 30
0.0
 11
220.0
 21
135.0
 31
0.0
  0
LINE
  5
2A65
330
27F3
100
AcDbEntity
  8
PEN1
  6
LTY1
100
AcDbLine
 10
220.0
 20
135.0
 30
0.0
 11
225.0
 21
135.0
 31
0.0
  0
LINE
  5
2A66
330
27F3
100
AcDbEntity
  8
PEN1
  6
LTY1
100
AcDbLine
 10
220.0
 20
135.0
 30
0.0
 11
222.5
 21
140.0
 31
0.0
  0
LINE
  5
2A67
330
27F3
100
AcDbEntity
  8
PEN1
  6
LTY1
100
AcDbLine
 10
222.5
 20
140.0
 30
0.0
 11
225.0
 21
135.0
 31
0.0
  0
LINE
  5
2A68
330
27F3
100
AcDbEntity
  8
PEN1
  6
LTY1
100
AcDbLine
 10
220.0
 20
140.0
 30
0.0
 11
225.0
 21
140.0
 31
0.0
  0
LINE
  5
2A69
330
27F3
100
AcDbEntity
  8
PEN1
  6
LTY1
100
AcDbLine
 10
222.5
 20
140.0
 30
0.0
 11
222.5
 21
145.0
 31
0.0
  0
LINE
  5
2A6A
330
27F3
100
AcDbEntity
  8
PEN1
  6
LTY1
100
AcDbLine
 10
222.5
 20
130.5
 30
0.0
 11
222.5
 21
125.0
 31
0.0
  0
LINE
  5
2A6B
330
27F3
100
AcDbEntity
  8
PEN1
  6
LTY1
100
AcDbLine
 10
205.0
 20
130.5
 30
0.0
 11
205.0
 21
125.0
 31
0.0
  0
LINE
  5
2A6C
330
27F3
100
AcDbEntity
  8
PEN1
  6
LTY1
100
AcDbLine
 10
185.0
 20
130.5
 30
0.0
 11
185.0
 21
125.0
 31
0.0
  0
LINE
  5
2A6D
330
27F3
100
AcDbEntity
  8
PEN1
  6
LTY1
100
AcDbLine
 10
165.0
 20
130.5
 30
0.0
 11
165.0
 21
125.0
 31
0.0
  0
LINE
  5
2A6E
330
27F3
100
AcDbEntity
  8
PEN1
  6
LTY1
100
AcDbLine
 10
240.0
 20
130.5
 30
0.0
 11
240.0
 21
125.0
 31
0.0
  0
LINE
  5
2A6F
330
27F3
100
AcDbEntity
  8
PEN1
  6
LTY1
100
AcDbLine
 10
205.0
 20
135.0
 30
0.0
 11
205.0
 21
130.0
 31
0.0
  0
LINE
  5
2A70
330
27F3
100
AcDbEntity
  8
PEN1
  6
LTY1
100
AcDbLine
 10
205.0
 20
135.0
 30
0.0
 11
202.5
 21
135.0
 31
0.0
  0
LINE
  5
2A71
330
27F3
100
AcDbEntity
  8
PEN1
  6
LTY1
100
AcDbLine
 10
202.5
 20
135.0
 30
0.0
 11
207.5
 21
135.0
 31
0.0
  0
LINE
  5
2A72
330
27F3
100
AcDbEntity
  8
PEN1
  6
LTY1
100
AcDbLine
 10
202.5
 20
135.0
 30
0.0
 11
205.0
 21
140.0
 31
0.0
  0
LINE
  5
2A73
330
27F3
100
AcDbEntity
  8
PEN1
  6
LTY1
100
AcDbLine
 10
205.0
 20
140.0
 30
0.0
 11
207.5
 21
135.0
 31
0.0
  0
LINE
  5
2A74
330
27F3
100
AcDbEntity
  8
PEN1
  6
LTY1
100
AcDbLine
 10
202.5
 20
140.0
 30
0.0
 11
207.5
 21
140.0
 31
0.0
  0
LINE
  5
2A75
330
27F3
100
AcDbEntity
  8
PEN1
  6
LTY1
100
AcDbLine
 10
205.0
 20
140.0
 30
0.0
 11
205.0
 21
145.0
 31
0.0
  0
LINE
  5
2A76
330
27F3
100
AcDbEntity
  8
PEN1
  6
LTY1
100
AcDbLine
 10
185.0
 20
135.0
 30
0.0
 11
185.0
 21
130.0
 31
0.0
  0
LINE
  5
2A77
330
27F3
100
AcDbEntity
  8
PEN1
  6
LTY1
100
AcDbLine
 10
185.0
 20
135.0
 30
0.0
 11
182.5
 21
135.0
 31
0.0
  0
LINE
  5
2A78
330
27F3
100
AcDbEntity
  8
PEN1
  6
LTY1
100
AcDbLine
 10
182.5
 20
135.0
 30
0.0
 11
187.5
 21
135.0
 31
0.0
  0
LINE
  5
2A79
330
27F3
100
AcDbEntity
  8
PEN1
  6
LTY1
100
AcDbLine
 10
182.5
 20
135.0
 30
0.0
 11
185.0
 21
140.0
 31
0.0
  0
LINE
  5
2A7A
330
27F3
100
AcDbEntity
  8
PEN1
  6
LTY1
100
AcDbLine
 10
185.0
 20
140.0
 30
0.0
 11
187.5
 21
135.0
 31
0.0
  0
LINE
  5
2A7B
330
27F3
100
AcDbEntity
  8
PEN1
  6
LTY1
100
AcDbLine
 10
182.5
 20
140.0
 30
0.0
 11
187.5
 21
140.0
 31
0.0
  0
LINE
  5
2A7C
330
27F3
100
AcDbEntity
  8
PEN1
  6
LTY1
100
AcDbLine
 10
185.0
 20
140.0
 30
0.0
 11
185.0
 21
145.0
 31
0.0
  0
LINE
  5
2A7D
330
27F3
100
AcDbEntity
  8
PEN1
  6
LTY1
100
AcDbLine
 10
165.0
 20
135.0
 30
0.0
 11
165.0
 21
130.0
 31
0.0
  0
LINE
  5
2A7E
330
27F3
100
AcDbEntity
  8
PEN1
  6
LTY1
100
AcDbLine
 10
165.0
 20
135.0
 30
0.0
 11
162.5
 21
135.0
 31
0.0
  0
LINE
  5
2A7F
330
27F3
100
AcDbEntity
  8
PEN1
  6
LTY1
100
AcDbLine
 10
162.5
 20
135.0
 30
0.0
 11
167.5
 21
135.0
 31
0.0
  0
LINE
  5
2A80
330
27F3
100
AcDbEntity
  8
PEN1
  6
LTY1
100
AcDbLine
 10
162.5
 20
135.0
 30
0.0
 11
165.0
 21
140.0
 31
0.0
  0
LINE
  5
2A81
330
27F3
100
AcDbEntity
  8
PEN1
  6
LTY1
100
AcDbLine
 10
165.0
 20
140.0
 30
0.0
 11
167.5
 21
135.0
 31
0.0
  0
LINE
  5
2A82
330
27F3
100
AcDbEntity
  8
PEN1
  6
LTY1
100
AcDbLine
 10
162.5
 20
140.0
 30
0.0
 11
167.5
 21
140.0
 31
0.0
  0
LINE
  5
2A83
330
27F3
100
AcDbEntity
  8
PEN1
  6
LTY1
100
AcDbLine
 10
165.0
 20
140.0
 30
0.0
 11
165.0
 21
145.0
 31
0.0
  0
LINE
  5
2A84
330
27F3
100
AcDbEntity
  8
PEN1
  6
LTY1
100
AcDbLine
 10
165.0
 20
145.0
 30
0.0
 11
240.0
 21
145.0
 31
0.0
  0
LINE
  5
2A85
330
27F3
100
AcDbEntity
  8
PEN1
  6
LTY1
100
AcDbLine
 10
240.0
 20
145.0
 30
0.0
 11
240.0
 21
137.5
 31
0.0
  0
LINE
  5
2A86
330
27F3
100
AcDbEntity
  8
PEN1
  6
LTY1
100
AcDbLine
 10
240.0
 20
137.5
 30
0.0
 11
237.5
 21
137.5
 31
0.0
  0
LINE
  5
2A87
330
27F3
100
AcDbEntity
  8
PEN1
  6
LTY1
100
AcDbLine
 10
237.5
 20
137.5
 30
0.0
 11
242.5
 21
137.5
 31
0.0
  0
LINE
  5
2A88
330
27F3
100
AcDbEntity
  8
PEN1
  6
LTY1
100
AcDbLine
 10
235.0
 20
135.0
 30
0.0
 11
245.0
 21
135.0
 31
0.0
  0
LINE
  5
2A89
330
27F3
100
AcDbEntity
  8
PEN1
  6
LTY1
100
AcDbLine
 10
240.0
 20
130.0
 30
0.0
 11
240.0
 21
135.0
 31
0.0
  0
LINE
  5
2A8A
330
27F3
100
AcDbEntity
  8
PEN1
  6
LTY1
100
AcDbLine
 10
172.5
 20
130.0
 30
0.0
 11
165.0
 21
130.0
 31
0.0
  0
LINE
  5
2A8B
330
27F3
100
AcDbEntity
  8
PEN1
  6
LTY1
100
AcDbLine
 10
239.5
 20
77.5
 30
0.0
 11
239.5
 21
72.5
 31
0.0
  0
LINE
  5
2A8C
330
27F3
100
AcDbEntity
  8
PEN1
  6
LTY1
100
AcDbLine
 10
239.5
 20
72.5
 30
0.0
 11
240.5
 21
72.5
 31
0.0
  0
LINE
  5
2A8D
330
27F3
100
AcDbEntity
  8
PEN1
  6
LTY1
100
AcDbLine
 10
240.5
 20
72.5
 30
0.0
 11
240.5
 21
77.5
 31
0.0
  0
LINE
  5
2A8E
330
27F3
100
AcDbEntity
  8
PEN1
  6
LTY1
100
AcDbLine
 10
240.5
 20
77.5
 30
0.0
 11
239.5
 21
77.5
 31
0.0
  0
LINE
  5
2A8F
330
27F3
100
AcDbEntity
  8
PEN1
  6
LTY1
100
AcDbLine
 10
239.5
 20
72.5
 30
0.0
 11
240.5
 21
72.5
 31
0.0
  0
LINE
  5
2A90
330
27F3
100
AcDbEntity
  8
PEN1
  6
LTY1
100
AcDbLine
 10
239.5
 20
73.0
 30
0.0
 11
240.5
 21
73.0
 31
0.0
  0
LINE
  5
2A91
330
27F3
100
AcDbEntity
  8
PEN1
  6
LTY1
100
AcDbLine
 10
239.5
 20
73.5
 30
0.0
 11
240.5
 21
73.5
 31
0.0
  0
LINE
  5
2A92
330
27F3
100
AcDbEntity
  8
PEN1
  6
LTY1
100
AcDbLine
 10
239.5
 20
74.0
 30
0.0
 11
240.5
 21
74.0
 31
0.0
  0
LINE
  5
2A93
330
27F3
100
AcDbEntity
  8
PEN1
  6
LTY1
100
AcDbLine
 10
239.5
 20
74.5
 30
0.0
 11
240.5
 21
74.5
 31
0.0
  0
LINE
  5
2A94
330
27F3
100
AcDbEntity
  8
PEN1
  6
LTY1
100
AcDbLine
 10
239.5
 20
75.0
 30
0.0
 11
240.5
 21
75.0
 31
0.0
  0
LINE
  5
2A95
330
27F3
100
AcDbEntity
  8
PEN1
  6
LTY1
100
AcDbLine
 10
239.5
 20
75.5
 30
0.0
 11
240.5
 21
75.5
 31
0.0
  0
LINE
  5
2A96
330
27F3
100
AcDbEntity
  8
PEN1
  6
LTY1
100
AcDbLine
 10
239.5
 20
76.0
 30
0.0
 11
240.5
 21
76.0
 31
0.0
  0
LINE
  5
2A97
330
27F3
100
AcDbEntity
  8
PEN1
  6
LTY1
100
AcDbLine
 10
239.5
 20
76.5
 30
0.0
 11
240.5
 21
76.5
 31
0.0
  0
LINE
  5
2A98
330
27F3
100
AcDbEntity
  8
PEN1
  6
LTY1
100
AcDbLine
 10
239.5
 20
77.0
 30
0.0
 11
240.5
 21
77.0
 31
0.0
  0
LINE
  5
2A99
330
27F3
100
AcDbEntity
  8
PEN1
  6
LTY1
100
AcDbLine
 10
239.5
 20
77.5
 30
0.0
 11
240.5
 21
77.5
 31
0.0
  0
ARC
  5
2A9A
330
27F3
100
AcDbEntity
  8
PEN1
  6
LTY1
100
AcDbCircle
 10
240.0
 20
72.0
 30
0.0
 40
1.5
100
AcDbArc
 50
180.0
 51
0.0
  0
ARC
  5
2A9B
330
27F3
100
AcDbEntity
  8
PEN1
  6
LTY1
100
AcDbCircle
 10
240.0
 20
72.0
 30
0.0
 40
1.7
100
AcDbArc
 50
180.0
 51
0.0
  0
ARC
  5
2A9C
330
27F3
100
AcDbEntity
  8
PEN1
  6
LTY1
100
AcDbCircle
 10
240.0
 20
72.0
 30
0.0
 40
1.9
100
AcDbArc
 50
180.0
 51
0.0
  0
LINE
  5
2A9D
330
27F3
100
AcDbEntity
  8
PEN1
  6
LTY1
100
AcDbLine
 10
164.5
 20
77.5
 30
0.0
 11
164.5
 21
72.5
 31
0.0
  0
LINE
  5
2A9E
330
27F3
100
AcDbEntity
  8
PEN1
  6
LTY1
100
AcDbLine
 10
164.5
 20
72.5
 30
0.0
 11
165.5
 21
72.5
 31
0.0
  0
LINE
  5
2A9F
330
27F3
100
AcDbEntity
  8
PEN1
  6
LTY1
100
AcDbLine
 10
165.5
 20
72.5
 30
0.0
 11
165.5
 21
77.5
 31
0.0
  0
LINE
  5
2AA0
330
27F3
100
AcDbEntity
  8
PEN1
  6
LTY1
100
AcDbLine
 10
165.5
 20
77.5
 30
0.0
 11
164.5
 21
77.5
 31
0.0
  0
LINE
  5
2AA1
330
27F3
100
AcDbEntity
  8
PEN1
  6
LTY1
100
AcDbLine
 10
164.5
 20
72.5
 30
0.0
 11
165.5
 21
72.5
 31
0.0
  0
LINE
  5
2AA2
330
27F3
100
AcDbEntity
  8
PEN1
  6
LTY1
100
AcDbLine
 10
164.5
 20
73.0
 30
0.0
 11
165.5
 21
73.0
 31
0.0
  0
LINE
  5
2AA3
330
27F3
100
AcDbEntity
  8
PEN1
  6
LTY1
100
AcDbLine
 10
164.5
 20
73.5
 30
0.0
 11
165.5
 21
73.5
 31
0.0
  0
LINE
  5
2AA4
330
27F3
100
AcDbEntity
  8
PEN1
  6
LTY1
100
AcDbLine
 10
164.5
 20
74.0
 30
0.0
 11
165.5
 21
74.0
 31
0.0
  0
LINE
  5
2AA5
330
27F3
100
AcDbEntity
  8
PEN1
  6
LTY1
100
AcDbLine
 10
164.5
 20
74.5
 30
0.0
 11
165.5
 21
74.5
 31
0.0
  0
LINE
  5
2AA6
330
27F3
100
AcDbEntity
  8
PEN1
  6
LTY1
100
AcDbLine
 10
164.5
 20
75.0
 30
0.0
 11
165.5
 21
75.0
 31
0.0
  0
LINE
  5
2AA7
330
27F3
100
AcDbEntity
  8
PEN1
  6
LTY1
100
AcDbLine
 10
164.5
 20
75.5
 30
0.0
 11
165.5
 21
75.5
 31
0.0
  0
LINE
  5
2AA8
330
27F3
100
AcDbEntity
  8
PEN1
  6
LTY1
100
AcDbLine
 10
164.5
 20
76.0
 30
0.0
 11
165.5
 21
76.0
 31
0.0
  0
LINE
  5
2AA9
330
27F3
100
AcDbEntity
  8
PEN1
  6
LTY1
100
AcDbLine
 10
164.5
 20
76.5
 30
0.0
 11
165.5
 21
76.5
 31
0.0
  0
LINE
  5
2AAA
330
27F3
100
AcDbEntity
  8
PEN1
  6
LTY1
100
AcDbLine
 10
164.5
 20
77.0
 30
0.0
 11
165.5
 21
77.0
 31
0.0
  0
LINE
  5
2AAB
330
27F3
100
AcDbEntity
  8
PEN1
  6
LTY1
100
AcDbLine
 10
164.5
 20
77.5
 30
0.0
 11
165.5
 21
77.5
 31
0.0
  0
ARC
  5
2AAC
330
27F3
100
AcDbEntity
  8
PEN1
  6
LTY1
100
AcDbCircle
 10
165.0
 20
72.0
 30
0.0
 40
1.5
100
AcDbArc
 50
180.0
 51
0.0
  0
ARC
  5
2AAD
330
27F3
100
AcDbEntity
  8
PEN1
  6
LTY1
100
AcDbCircle
 10
165.0
 20
72.0
 30
0.0
 40
1.7
100
AcDbArc
 50
180.0
 51
0.0
  0
ARC
  5
2AAE
330
27F3
100
AcDbEntity
  8
PEN1
  6
LTY1
100
AcDbCircle
 10
165.0
 20
72.0
 30
0.0
 40
1.9
100
AcDbArc
 50
180.0
 51
0.0
  0
LINE
  5
2AAF
330
27F3
100
AcDbEntity
  8
PEN1
  6
LTY1
100
AcDbLine
 10
55.0
 20
130.5
 30
0.0
 11
55.0
 21
125.0
 31
0.0
  0
LINE
  5
2AB0
330
27F3
100
AcDbEntity
  8
PEN1
  6
LTY1
100
AcDbLine
 10
60.0
 20
130.5
 30
0.0
 11
60.0
 21
125.0
 31
0.0
  0
LINE
  5
2AB1
330
27F3
100
AcDbEntity
  8
PEN1
  6
LTY1
100
AcDbLine
 10
65.0
 20
130.5
 30
0.0
 11
65.0
 21
125.0
 31
0.0
  0
LINE
  5
2AB2
330
27F3
100
AcDbEntity
  8
PEN1
  6
LTY1
100
AcDbLine
 10
342.5
 20
130.0
 30
0.0
 11
342.5
 21
140.0
 31
0.0
  0
LINE
  5
2AB3
330
27F3
100
AcDbEntity
  8
PEN1
  6
LTY1
100
AcDbLine
 10
342.5
 20
140.0
 30
0.0
 11
340.0
 21
152.5
 31
0.0
  0
LINE
  5
2AB4
330
27F3
100
AcDbEntity
  8
PEN1
  6
LTY1
100
AcDbLine
 10
342.5
 20
165.0
 30
0.0
 11
342.5
 21
152.5
 31
0.0
  0
LINE
  5
2AB5
330
27F3
100
AcDbEntity
  8
PEN1
  6
LTY1
100
AcDbLine
 10
287.5
 20
140.0
 30
0.0
 11
285.0
 21
152.5
 31
0.0
  0
LINE
  5
2AB6
330
27F3
100
AcDbEntity
  8
PEN1
  6
LTY1
100
AcDbLine
 10
277.5
 20
140.0
 30
0.0
 11
275.0
 21
152.5
 31
0.0
  0
LINE
  5
2AB7
330
27F3
100
AcDbEntity
  8
PEN1
  6
LTY1
100
AcDbLine
 10
267.5
 20
140.0
 30
0.0
 11
265.0
 21
152.5
 31
0.0
  0
LINE
  5
2AB8
330
27F3
100
AcDbEntity
  8
PEN1
  6
LTY1
100
AcDbLine
 10
277.5
 20
162.5
 30
0.0
 11
277.5
 21
152.5
 31
0.0
  0
LINE
  5
2AB9
330
27F3
100
AcDbEntity
  8
PEN1
  6
LTY1
100
AcDbLine
 10
287.5
 20
162.5
 30
0.0
 11
287.5
 21
152.5
 31
0.0
  0
LINE
  5
2ABA
330
27F3
100
AcDbEntity
  8
PEN1
  6
LTY1
100
AcDbLine
 10
260.0
 20
130.0
 30
0.0
 11
260.0
 21
162.5
 31
0.0
  0
LINE
  5
2ABB
330
27F3
100
AcDbEntity
  8
PEN1
  6
LTY1
100
AcDbLine
 10
260.0
 20
162.5
 30
0.0
 11
267.5
 21
162.5
 31
0.0
  0
LINE
  5
2ABC
330
27F3
100
AcDbEntity
  8
PEN1
  6
LTY1
100
AcDbLine
 10
267.5
 20
152.5
 30
0.0
 11
267.5
 21
162.5
 31
0.0
  0
LINE
  5
2ABD
330
27F3
100
AcDbEntity
  8
PEN1
  6
LTY1
100
AcDbLine
 10
277.5
 20
162.5
 30
0.0
 11
342.5
 21
162.5
 31
0.0
  0
LINE
  5
2ABE
330
27F3
100
AcDbEntity
  8
PEN1
  6
LTY1
100
AcDbLine
 10
277.5
 20
140.0
 30
0.0
 11
277.5
 21
127.5
 31
0.0
  0
LINE
  5
2ABF
330
27F3
100
AcDbEntity
  8
PEN1
  6
LTY1
100
AcDbLine
 10
287.5
 20
140.0
 30
0.0
 11
287.5
 21
127.5
 31
0.0
  0
LINE
  5
2AC0
330
27F3
100
AcDbEntity
  8
PEN1
  6
LTY1
100
AcDbLine
 10
267.5
 20
140.0
 30
0.0
 11
267.5
 21
125.0
 31
0.0
  0
LINE
  5
2AC1
330
27F3
100
AcDbEntity
  8
PEN1
  6
LTY1
100
AcDbLine
 10
237.0
 20
250.0
 30
0.0
 11
237.0
 21
245.0
 31
0.0
  0
LINE
  5
2AC2
330
27F3
100
AcDbEntity
  8
PEN1
  6
LTY1
100
AcDbLine
 10
237.0
 20
245.0
 30
0.0
 11
238.0
 21
245.0
 31
0.0
  0
LINE
  5
2AC3
330
27F3
100
AcDbEntity
  8
PEN1
  6
LTY1
100
AcDbLine
 10
238.0
 20
245.0
 30
0.0
 11
238.0
 21
250.0
 31
0.0
  0
LINE
  5
2AC4
330
27F3
100
AcDbEntity
  8
PEN1
  6
LTY1
100
AcDbLine
 10
238.0
 20
250.0
 30
0.0
 11
237.0
 21
250.0
 31
0.0
  0
LINE
  5
2AC5
330
27F3
100
AcDbEntity
  8
PEN1
  6
LTY1
100
AcDbLine
 10
237.0
 20
245.0
 30
0.0
 11
238.0
 21
245.0
 31
0.0
  0
LINE
  5
2AC6
330
27F3
100
AcDbEntity
  8
PEN1
  6
LTY1
100
AcDbLine
 10
237.0
 20
245.5
 30
0.0
 11
238.0
 21
245.5
 31
0.0
  0
LINE
  5
2AC7
330
27F3
100
AcDbEntity
  8
PEN1
  6
LTY1
100
AcDbLine
 10
237.0
 20
246.0
 30
0.0
 11
238.0
 21
246.0
 31
0.0
  0
LINE
  5
2AC8
330
27F3
100
AcDbEntity
  8
PEN1
  6
LTY1
100
AcDbLine
 10
237.0
 20
246.5
 30
0.0
 11
238.0
 21
246.5
 31
0.0
  0
LINE
  5
2AC9
330
27F3
100
AcDbEntity
  8
PEN1
  6
LTY1
100
AcDbLine
 10
237.0
 20
247.0
 30
0.0
 11
238.0
 21
247.0
 31
0.0
  0
LINE
  5
2ACA
330
27F3
100
AcDbEntity
  8
PEN1
  6
LTY1
100
AcDbLine
 10
237.0
 20
247.5
 30
0.0
 11
238.0
 21
247.5
 31
0.0
  0
LINE
  5
2ACB
330
27F3
100
AcDbEntity
  8
PEN1
  6
LTY1
100
AcDbLine
 10
237.0
 20
248.0
 30
0.0
 11
238.0
 21
248.0
 31
0.0
  0
LINE
  5
2ACC
330
27F3
100
AcDbEntity
  8
PEN1
  6
LTY1
100
AcDbLine
 10
237.0
 20
248.5
 30
0.0
 11
238.0
 21
248.5
 31
0.0
  0
LINE
  5
2ACD
330
27F3
100
AcDbEntity
  8
PEN1
  6
LTY1
100
AcDbLine
 10
237.0
 20
249.0
 30
0.0
 11
238.0
 21
249.0
 31
0.0
  0
LINE
  5
2ACE
330
27F3
100
AcDbEntity
  8
PEN1
  6
LTY1
100
AcDbLine
 10
237.0
 20
249.5
 30
0.0
 11
238.0
 21
249.5
 31
0.0
  0
LINE
  5
2ACF
330
27F3
100
AcDbEntity
  8
PEN1
  6
LTY1
100
AcDbLine
 10
237.0
 20
250.0
 30
0.0
 11
238.0
 21
250.0
 31
0.0
  0
ARC
  5
2AD0
330
27F3
100
AcDbEntity
  8
PEN1
  6
LTY1
100
AcDbCircle
 10
237.5
 20
250.5
 30
0.0
 40
1.5
100
AcDbArc
 50
0.0
 51
180.0
  0
ARC
  5
2AD1
330
27F3
100
AcDbEntity
  8
PEN1
  6
LTY1
100
AcDbCircle
 10
237.5
 20
250.5
 30
0.0
 40
1.7
100
AcDbArc
 50
0.0
 51
180.0
  0
ARC
  5
2AD2
330
27F3
100
AcDbEntity
  8
PEN1
  6
LTY1
100
AcDbCircle
 10
237.5
 20
250.5
 30
0.0
 40
1.9
100
AcDbArc
 50
0.0
 51
180.0
  0
LINE
  5
2AD3
330
27F3
100
AcDbEntity
  8
PEN1
  6
LTY1
100
AcDbLine
 10
247.0
 20
250.0
 30
0.0
 11
247.0
 21
245.0
 31
0.0
  0
LINE
  5
2AD4
330
27F3
100
AcDbEntity
  8
PEN1
  6
LTY1
100
AcDbLine
 10
247.0
 20
245.0
 30
0.0
 11
248.0
 21
245.0
 31
0.0
  0
LINE
  5
2AD5
330
27F3
100
AcDbEntity
  8
PEN1
  6
LTY1
100
AcDbLine
 10
248.0
 20
245.0
 30
0.0
 11
248.0
 21
250.0
 31
0.0
  0
LINE
  5
2AD6
330
27F3
100
AcDbEntity
  8
PEN1
  6
LTY1
100
AcDbLine
 10
248.0
 20
250.0
 30
0.0
 11
247.0
 21
250.0
 31
0.0
  0
LINE
  5
2AD7
330
27F3
100
AcDbEntity
  8
PEN1
  6
LTY1
100
AcDbLine
 10
247.0
 20
245.0
 30
0.0
 11
248.0
 21
245.0
 31
0.0
  0
LINE
  5
2AD8
330
27F3
100
AcDbEntity
  8
PEN1
  6
LTY1
100
AcDbLine
 10
247.0
 20
245.5
 30
0.0
 11
248.0
 21
245.5
 31
0.0
  0
LINE
  5
2AD9
330
27F3
100
AcDbEntity
  8
PEN1
  6
LTY1
100
AcDbLine
 10
247.0
 20
246.0
 30
0.0
 11
248.0
 21
246.0
 31
0.0
  0
LINE
  5
2ADA
330
27F3
100
AcDbEntity
  8
PEN1
  6
LTY1
100
AcDbLine
 10
247.0
 20
246.5
 30
0.0
 11
248.0
 21
246.5
 31
0.0
  0
LINE
  5
2ADB
330
27F3
100
AcDbEntity
  8
PEN1
  6
LTY1
100
AcDbLine
 10
247.0
 20
247.0
 30
0.0
 11
248.0
 21
247.0
 31
0.0
  0
LINE
  5
2ADC
330
27F3
100
AcDbEntity
  8
PEN1
  6
LTY1
100
AcDbLine
 10
247.0
 20
247.5
 30
0.0
 11
248.0
 21
247.5
 31
0.0
  0
LINE
  5
2ADD
330
27F3
100
AcDbEntity
  8
PEN1
  6
LTY1
100
AcDbLine
 10
247.0
 20
248.0
 30
0.0
 11
248.0
 21
248.0
 31
0.0
  0
LINE
  5
2ADE
330
27F3
100
AcDbEntity
  8
PEN1
  6
LTY1
100
AcDbLine
 10
247.0
 20
248.5
 30
0.0
 11
248.0
 21
248.5
 31
0.0
  0
LINE
  5
2ADF
330
27F3
100
AcDbEntity
  8
PEN1
  6
LTY1
100
AcDbLine
 10
247.0
 20
249.0
 30
0.0
 11
248.0
 21
249.0
 31
0.0
  0
LINE
  5
2AE0
330
27F3
100
AcDbEntity
  8
PEN1
  6
LTY1
100
AcDbLine
 10
247.0
 20
249.5
 30
0.0
 11
248.0
 21
249.5
 31
0.0
  0
LINE
  5
2AE1
330
27F3
100
AcDbEntity
  8
PEN1
  6
LTY1
100
AcDbLine
 10
247.0
 20
250.0
 30
0.0
 11
248.0
 21
250.0
 31
0.0
  0
ARC
  5
2AE2
330
27F3
100
AcDbEntity
  8
PEN1
  6
LTY1
100
AcDbCircle
 10
247.5
 20
250.5
 30
0.0
 40
1.5
100
AcDbArc
 50
0.0
 51
180.0
  0
ARC
  5
2AE3
330
27F3
100
AcDbEntity
  8
PEN1
  6
LTY1
100
AcDbCircle
 10
247.5
 20
250.5
 30
0.0
 40
1.7
100
AcDbArc
 50
0.0
 51
180.0
  0
ARC
  5
2AE4
330
27F3
100
AcDbEntity
  8
PEN1
  6
LTY1
100
AcDbCircle
 10
247.5
 20
250.5
 30
0.0
 40
1.9
100
AcDbArc
 50
0.0
 51
180.0
  0
LINE
  5
2AE5
330
27F3
100
AcDbEntity
  8
PEN1
  6
LTY4
100
AcDbLine
 10
102.5
 20
237.5
 30
0.0
 11
102.5
 21
177.5
 31
0.0
  0
LINE
  5
2AE6
330
27F3
100
AcDbEntity
  8
PEN1
  6
LTY4
100
AcDbLine
 10
102.5
 20
177.5
 30
0.0
 11
150.0
 21
177.5
 31
0.0
  0
LINE
  5
2AE7
330
27F3
100
AcDbEntity
  8
PEN1
  6
LTY4
100
AcDbLine
 10
150.0
 20
177.5
 30
0.0
 11
150.0
 21
237.5
 31
0.0
  0
LINE
  5
2AE8
330
27F3
100
AcDbEntity
  8
PEN1
  6
LTY4
100
AcDbLine
 10
150.0
 20
237.5
 30
0.0
 11
102.5
 21
237.5
 31
0.0
  0
ARC
  5
2AE9
330
27F3
100
AcDbEntity
  8
PEN1
  6
LTY1
100
AcDbCircle
 10
55.5
 20
162.5
 30
0.0
 40
1.575
100
AcDbArc
 50
90.0
 51
270.0
  0
ARC
  5
2AEA
330
27F3
100
AcDbEntity
  8
PEN1
  6
LTY1
100
AcDbCircle
 10
55.5
 20
159.5
 30
0.0
 40
1.575
100
AcDbArc
 50
90.0
 51
270.0
  0
ARC
  5
2AEB
330
27F3
100
AcDbEntity
  8
PEN1
  6
LTY1
100
AcDbCircle
 10
60.0
 20
151.5
 30
0.0
 40
1.575
100
AcDbArc
 50
90.0
 51
270.0
  0
ARC
  5
2AEC
330
27F3
100
AcDbEntity
  8
PEN1
  6
LTY1
100
AcDbCircle
 10
60.0
 20
148.5
 30
0.0
 40
1.575
100
AcDbArc
 50
90.0
 51
270.0
  0
ARC
  5
2AED
330
27F3
100
AcDbEntity
  8
PEN1
  6
LTY1
100
AcDbCircle
 10
65.5
 20
140.5
 30
0.0
 40
1.575
100
AcDbArc
 50
90.0
 51
270.0
  0
ARC
  5
2AEE
330
27F3
100
AcDbEntity
  8
PEN1
  6
LTY1
100
AcDbCircle
 10
65.5
 20
137.5
 30
0.0
 40
1.575
100
AcDbArc
 50
90.0
 51
270.0
  0
LINE
  5
2AEF
330
27F3
100
AcDbEntity
  8
PEN1
  6
LTY1
100
AcDbLine
 10
55.0
 20
165.0
 30
0.0
 11
55.0
 21
127.5
 31
0.0
  0
LINE
  5
2AF0
330
27F3
100
AcDbEntity
  8
PEN1
  6
LTY1
100
AcDbLine
 10
60.0
 20
165.5
 30
0.0
 11
60.0
 21
127.0
 31
0.0
  0
LINE
  5
2AF1
330
27F3
100
AcDbEntity
  8
PEN1
  6
LTY1
100
AcDbLine
 10
65.0
 20
166.5
 30
0.0
 11
65.0
 21
128.5
 31
0.0
  0
LINE
  5
2AF2
330
27F3
100
AcDbEntity
  8
PEN1
  6
LTY1
100
AcDbLine
 10
75.0
 20
167.5
 30
0.0
 11
75.0
 21
132.5
 31
0.0
  0
LINE
  5
2AF3
330
27F3
100
AcDbEntity
  8
PEN1
  6
LTY1
100
AcDbLine
 10
75.0
 20
132.5
 30
0.0
 11
135.0
 21
132.5
 31
0.0
  0
LINE
  5
2AF4
330
27F3
100
AcDbEntity
  8
PEN1
  6
LTY1
100
AcDbLine
 10
135.0
 20
132.5
 30
0.0
 11
135.0
 21
167.5
 31
0.0
  0
LINE
  5
2AF5
330
27F3
100
AcDbEntity
  8
PEN1
  6
LTY1
100
AcDbLine
 10
135.0
 20
167.5
 30
0.0
 11
75.0
 21
167.5
 31
0.0
  0
TEXT
  5
2AF6
330
27F3
100
AcDbEntity
  8
PEN2
100
AcDbText
 10
80.5
 20
161.25
 30
0.0
 40
2.5
  1
Überlast
  7
textstyle2312
100
AcDbText
  0
TEXT
  5
2AF7
330
27F3
100
AcDbEntity
  8
PEN2
100
AcDbText
 10
80.5
 20
156.25
 30
0.0
 40
2.5
  1
Stromunsymetrie
  7
textstyle2313
100
AcDbText
  0
TEXT
  5
2AF8
330
27F3
100
AcDbEntity
  8
PEN2
100
AcDbText
 10
80.5
 20
151.25
 30
0.0
 40
2.5
  1
Phasenausfall
  7
textstyle2314
100
AcDbText
  0
TEXT
  5
2AF9
330
27F3
100
AcDbEntity
  8
PEN2
100
AcDbText
 10
80.5
 20
146.25
 30
0.0
 40
2.5
  1
Blockierschutz
  7
textstyle2315
100
AcDbText
  0
TEXT
  5
2AFA
330
27F3
100
AcDbEntity
  8
PEN2
100
AcDbText
 10
80.5
 20
141.25
 30
0.0
 40
2.5
  1
Stromerfassung
  7
textstyle2316
100
AcDbText
  0
CIRCLE
  5
2AFB
330
27F3
100
AcDbEntity
  8
PEN1
  6
LTY1
100
AcDbCircle
 10
112.5
 20
162.5
 30
0.0
 40
2.5
  0
LINE
  5
2AFC
330
27F3
100
AcDbEntity
  8
PEN1
  6
LTY1
100
AcDbLine
 10
111.0
 20
160.5
 30
0.0
 11
114.0
 21
164.5
 31
0.0
  0
LINE
  5
2AFD
330
27F3
100
AcDbEntity
  8
PEN1
  6
LTY1
100
AcDbLine
 10
110.5
 20
164.0
 30
0.0
 11
114.5
 21
161.0
 31
0.0
  0
CIRCLE
  5
2AFE
330
27F3
100
AcDbEntity
  8
PEN1
  6
LTY1
100
AcDbCircle
 10
112.5
 20
155.0
 30
0.0
 40
2.5
  0
LINE
  5
2AFF
330
27F3
100
AcDbEntity
  8
PEN1
  6
LTY1
100
AcDbLine
 10
111.0
 20
153.0
 30
0.0
 11
114.0
 21
157.0
 31
0.0
  0
LINE
  5
2B00
330
27F3
100
AcDbEntity
  8
PEN1
  6
LTY1
100
AcDbLine
 10
110.5
 20
156.5
 30
0.0
 11
114.5
 21
153.5
 31
0.0
  0
CIRCLE
  5
2B01
330
27F3
100
AcDbEntity
  8
PEN1
  6
LTY1
100
AcDbCircle
 10
112.5
 20
147.5
 30
0.0
 40
2.5
  0
LINE
  5
2B02
330
27F3
100
AcDbEntity
  8
PEN1
  6
LTY1
100
AcDbLine
 10
111.0
 20
145.5
 30
0.0
 11
114.0
 21
149.5
 31
0.0
  0
LINE
  5
2B03
330
27F3
100
AcDbEntity
  8
PEN1
  6
LTY1
100
AcDbLine
 10
110.5
 20
149.0
 30
0.0
 11
114.5
 21
146.0
 31
0.0
  0
CIRCLE
  5
2B04
330
27F3
100
AcDbEntity
  8
PEN1
  6
LTY1
100
AcDbCircle
 10
112.5
 20
140.0
 30
0.0
 40
2.5
  0
LINE
  5
2B05
330
27F3
100
AcDbEntity
  8
PEN1
  6
LTY1
100
AcDbLine
 10
111.0
 20
138.0
 30
0.0
 11
114.0
 21
142.0
 31
0.0
  0
LINE
  5
2B06
330
27F3
100
AcDbEntity
  8
PEN1
  6
LTY1
100
AcDbLine
 10
110.5
 20
141.5
 30
0.0
 11
114.5
 21
138.5
 31
0.0
  0
TEXT
  5
2B07
330
27F3
100
AcDbEntity
  8
PEN2
100
AcDbText
 10
115.5
 20
161.25
 30
0.0
 40
2.5
  1
Ready
  7
textstyle2317
100
AcDbText
  0
TEXT
  5
2B08
330
27F3
100
AcDbEntity
  8
PEN2
100
AcDbText
 10
115.5
 20
153.75
 30
0.0
 40
2.5
  1
BUS
  7
textstyle2318
100
AcDbText
  0
TEXT
  5
2B09
330
27F3
100
AcDbEntity
  8
PEN2
100
AcDbText
 10
115.5
 20
146.25
 30
0.0
 40
2.5
  1
Gen.Fault
  7
textstyle2319
100
AcDbText
  0
TEXT
  5
2B0A
330
27F3
100
AcDbEntity
  8
PEN2
100
AcDbText
 10
115.5
 20
138.75
 30
0.0
 40
2.5
  1
Test/Reset
  7
textstyle2320
100
AcDbText
  0
LINE
  5
2B0B
330
27F3
100
AcDbEntity
  8
PEN1
  6
LTY1
100
AcDbLine
 10
55.5
 20
164.0
 30
0.0
 11
75.0
 21
164.0
 31
0.0
  0
LINE
  5
2B0C
330
27F3
100
AcDbEntity
  8
PEN1
  6
LTY1
100
AcDbLine
 10
55.5
 20
158.0
 30
0.0
 11
75.0
 21
158.0
 31
0.0
  0
LINE
  5
2B0D
330
27F3
100
AcDbEntity
  8
PEN1
  6
LTY1
100
AcDbLine
 10
60.0
 20
153.0
 30
0.0
 11
75.0
 21
153.0
 31
0.0
  0
LINE
  5
2B0E
330
27F3
100
AcDbEntity
  8
PEN1
  6
LTY1
100
AcDbLine
 10
60.0
 20
147.0
 30
0.0
 11
75.0
 21
147.0
 31
0.0
  0
LINE
  5
2B0F
330
27F3
100
AcDbEntity
  8
PEN1
  6
LTY1
100
AcDbLine
 10
65.5
 20
142.0
 30
0.0
 11
75.0
 21
142.0
 31
0.0
  0
LINE
  5
2B10
330
27F3
100
AcDbEntity
  8
PEN1
  6
LTY1
100
AcDbLine
 10
65.5
 20
136.0
 30
0.0
 11
75.0
 21
136.0
 31
0.0
  0
CIRCLE
  5
2B11
330
27F3
100
AcDbEntity
  8
PEN1
  6
LTY1
100
AcDbCircle
 10
107.5
 20
207.5
 30
0.0
 40
2.5
  0
LINE
  5
2B12
330
27F3
100
AcDbEntity
  8
PEN1
  6
LTY1
100
AcDbLine
 10
106.0
 20
205.5
 30
0.0
 11
109.0
 21
209.5
 31
0.0
  0
LINE
  5
2B13
330
27F3
100
AcDbEntity
  8
PEN1
  6
LTY1
100
AcDbLine
 10
105.5
 20
209.0
 30
0.0
 11
109.5
 21
206.0
 31
0.0
  0
CIRCLE
  5
2B14
330
27F3
100
AcDbEntity
  8
PEN1
  6
LTY1
100
AcDbCircle
 10
107.5
 20
200.0
 30
0.0
 40
2.5
  0
LINE
  5
2B15
330
27F3
100
AcDbEntity
  8
PEN1
  6
LTY1
100
AcDbLine
 10
106.0
 20
198.0
 30
0.0
 11
109.0
 21
202.0
 31
0.0
  0
LINE
  5
2B16
330
27F3
100
AcDbEntity
  8
PEN1
  6
LTY1
100
AcDbLine
 10
105.5
 20
201.5
 30
0.0
 11
109.5
 21
198.5
 31
0.0
  0
CIRCLE
  5
2B17
330
27F3
100
AcDbEntity
  8
PEN1
  6
LTY1
100
AcDbCircle
 10
107.5
 20
192.5
 30
0.0
 40
2.5
  0
LINE
  5
2B18
330
27F3
100
AcDbEntity
  8
PEN1
  6
LTY1
100
AcDbLine
 10
106.0
 20
190.5
 30
0.0
 11
109.0
 21
194.5
 31
0.0
  0
LINE
  5
2B19
330
27F3
100
AcDbEntity
  8
PEN1
  6
LTY1
100
AcDbLine
 10
105.5
 20
194.0
 30
0.0
 11
109.5
 21
191.0
 31
0.0
  0
CIRCLE
  5
2B1A
330
27F3
100
AcDbEntity
  8
PEN1
  6
LTY1
100
AcDbCircle
 10
107.5
 20
185.0
 30
0.0
 40
2.5
  0
LINE
  5
2B1B
330
27F3
100
AcDbEntity
  8
PEN1
  6
LTY1
100
AcDbLine
 10
106.0
 20
183.0
 30
0.0
 11
109.0
 21
187.0
 31
0.0
  0
LINE
  5
2B1C
330
27F3
100
AcDbEntity
  8
PEN1
  6
LTY1
100
AcDbLine
 10
105.5
 20
186.5
 30
0.0
 11
109.5
 21
183.5
 31
0.0
  0
TEXT
  5
2B1D
330
27F3
100
AcDbEntity
  8
PEN2
100
AcDbText
 10
110.5
 20
183.75
 30
0.0
 40
2.5
  1
Test/Reset
  7
textstyle2321
100
AcDbText
  0
CIRCLE
  5
2B1E
330
27F3
100
AcDbEntity
  8
PEN1
  6
LTY1
100
AcDbCircle
 10
107.5
 20
222.5
 30
0.0
 40
2.5
  0
LINE
  5
2B1F
330
27F3
100
AcDbEntity
  8
PEN1
  6
LTY1
100
AcDbLine
 10
106.0
 20
220.5
 30
0.0
 11
109.0
 21
224.5
 31
0.0
  0
LINE
  5
2B20
330
27F3
100
AcDbEntity
  8
PEN1
  6
LTY1
100
AcDbLine
 10
105.5
 20
224.0
 30
0.0
 11
109.5
 21
221.0
 31
0.0
  0
CIRCLE
  5
2B21
330
27F3
100
AcDbEntity
  8
PEN1
  6
LTY1
100
AcDbCircle
 10
107.5
 20
215.0
 30
0.0
 40
2.5
  0
LINE
  5
2B22
330
27F3
100
AcDbEntity
  8
PEN1
  6
LTY1
100
AcDbLine
 10
106.0
 20
213.0
 30
0.0
 11
109.0
 21
217.0
 31
0.0
  0
LINE
  5
2B23
330
27F3
100
AcDbEntity
  8
PEN1
  6
LTY1
100
AcDbLine
 10
105.5
 20
216.5
 30
0.0
 11
109.5
 21
213.5
 31
0.0
  0
TEXT
  5
2B24
330
27F3
100
AcDbEntity
  8
PEN2
100
AcDbText
 10
110.5
 20
221.25
 30
0.0
 40
2.5
  1
Ready
  7
textstyle2322
100
AcDbText
  0
TEXT
  5
2B25
330
27F3
100
AcDbEntity
  8
PEN2
100
AcDbText
 10
110.5
 20
213.75
 30
0.0
 40
2.5
  1
Fault
  7
textstyle2323
100
AcDbText
  0
CIRCLE
  5
2B26
330
27F3
100
AcDbEntity
  8
PEN1
  6
LTY1
100
AcDbCircle
 10
135.0
 20
207.5
 30
0.0
 40
2.5
  0
LINE
  5
2B27
330
27F3
100
AcDbEntity
  8
PEN1
  6
LTY1
100
AcDbLine
 10
133.5
 20
205.5
 30
0.0
 11
136.5
 21
209.5
 31
0.0
  0
LINE
  5
2B28
330
27F3
100
AcDbEntity
  8
PEN1
  6
LTY1
100
AcDbLine
 10
133.0
 20
209.0
 30
0.0
 11
137.0
 21
206.0
 31
0.0
  0
CIRCLE
  5
2B29
330
27F3
100
AcDbEntity
  8
PEN1
  6
LTY1
100
AcDbCircle
 10
135.0
 20
222.5
 30
0.0
 40
2.5
  0
LINE
  5
2B2A
330
27F3
100
AcDbEntity
  8
PEN1
  6
LTY1
100
AcDbLine
 10
133.5
 20
220.5
 30
0.0
 11
136.5
 21
224.5
 31
0.0
  0
LINE
  5
2B2B
330
27F3
100
AcDbEntity
  8
PEN1
  6
LTY1
100
AcDbLine
 10
133.0
 20
224.0
 30
0.0
 11
137.0
 21
221.0
 31
0.0
  0
CIRCLE
  5
2B2C
330
27F3
100
AcDbEntity
  8
PEN1
  6
LTY1
100
AcDbCircle
 10
135.0
 20
215.0
 30
0.0
 40
2.5
  0
LINE
  5
2B2D
330
27F3
100
AcDbEntity
  8
PEN1
  6
LTY1
100
AcDbLine
 10
133.5
 20
213.0
 30
0.0
 11
136.5
 21
217.0
 31
0.0
  0
LINE
  5
2B2E
330
27F3
100
AcDbEntity
  8
PEN1
  6
LTY1
100
AcDbLine
 10
133.0
 20
216.5
 30
0.0
 11
137.0
 21
213.5
 31
0.0
  0
TEXT
  5
2B2F
330
27F3
100
AcDbEntity
  8
PEN1
100
AcDbText
 10
105.7
 20
231.75
 30
0.0
 40
3.5
  1
Operator Panel
  7
textstyle2324
100
AcDbText
  0
TEXT
  5
2B30
330
27F3
100
AcDbEntity
  8
PEN1
100
AcDbText
 10
105.7
 20
226.75
 30
0.0
 40
3.5
  1
3UF52
  7
textstyle2325
100
AcDbText
  0
LINE
  5
2B31
330
27F3
100
AcDbEntity
  8
PEN1
  6
LTY1
100
AcDbLine
 10
125.0
 20
177.5
 30
0.0
 11
125.0
 21
170.0
 31
0.0
  0
LINE
  5
2B32
330
27F3
100
AcDbEntity
  8
PEN1
  6
LTY1
100
AcDbLine
 10
249.5
 20
77.5
 30
0.0
 11
249.5
 21
72.5
 31
0.0
  0
LINE
  5
2B33
330
27F3
100
AcDbEntity
  8
PEN1
  6
LTY1
100
AcDbLine
 10
249.5
 20
72.5
 30
0.0
 11
250.5
 21
72.5
 31
0.0
  0
LINE
  5
2B34
330
27F3
100
AcDbEntity
  8
PEN1
  6
LTY1
100
AcDbLine
 10
250.5
 20
72.5
 30
0.0
 11
250.5
 21
77.5
 31
0.0
  0
LINE
  5
2B35
330
27F3
100
AcDbEntity
  8
PEN1
  6
LTY1
100
AcDbLine
 10
250.5
 20
77.5
 30
0.0
 11
249.5
 21
77.5
 31
0.0
  0
LINE
  5
2B36
330
27F3
100
AcDbEntity
  8
PEN1
  6
LTY1
100
AcDbLine
 10
249.5
 20
72.5
 30
0.0
 11
250.5
 21
72.5
 31
0.0
  0
LINE
  5
2B37
330
27F3
100
AcDbEntity
  8
PEN1
  6
LTY1
100
AcDbLine
 10
249.5
 20
73.0
 30
0.0
 11
250.5
 21
73.0
 31
0.0
  0
LINE
  5
2B38
330
27F3
100
AcDbEntity
  8
PEN1
  6
LTY1
100
AcDbLine
 10
249.5
 20
73.5
 30
0.0
 11
250.5
 21
73.5
 31
0.0
  0
LINE
  5
2B39
330
27F3
100
AcDbEntity
  8
PEN1
  6
LTY1
100
AcDbLine
 10
249.5
 20
74.0
 30
0.0
 11
250.5
 21
74.0
 31
0.0
  0
LINE
  5
2B3A
330
27F3
100
AcDbEntity
  8
PEN1
  6
LTY1
100
AcDbLine
 10
249.5
 20
74.5
 30
0.0
 11
250.5
 21
74.5
 31
0.0
  0
LINE
  5
2B3B
330
27F3
100
AcDbEntity
  8
PEN1
  6
LTY1
100
AcDbLine
 10
249.5
 20
75.0
 30
0.0
 11
250.5
 21
75.0
 31
0.0
  0
LINE
  5
2B3C
330
27F3
100
AcDbEntity
  8
PEN1
  6
LTY1
100
AcDbLine
 10
249.5
 20
75.5
 30
0.0
 11
250.5
 21
75.5
 31
0.0
  0
LINE
  5
2B3D
330
27F3
100
AcDbEntity
  8
PEN1
  6
LTY1
100
AcDbLine
 10
249.5
 20
76.0
 30
0.0
 11
250.5
 21
76.0
 31
0.0
  0
LINE
  5
2B3E
330
27F3
100
AcDbEntity
  8
PEN1
  6
LTY1
100
AcDbLine
 10
249.5
 20
76.5
 30
0.0
 11
250.5
 21
76.5
 31
0.0
  0
LINE
  5
2B3F
330
27F3
100
AcDbEntity
  8
PEN1
  6
LTY1
100
AcDbLine
 10
249.5
 20
77.0
 30
0.0
 11
250.5
 21
77.0
 31
0.0
  0
LINE
  5
2B40
330
27F3
100
AcDbEntity
  8
PEN1
  6
LTY1
100
AcDbLine
 10
249.5
 20
77.5
 30
0.0
 11
250.5
 21
77.5
 31
0.0
  0
ARC
  5
2B41
330
27F3
100
AcDbEntity
  8
PEN1
  6
LTY1
100
AcDbCircle
 10
250.0
 20
72.0
 30
0.0
 40
1.5
100
AcDbArc
 50
180.0
 51
0.0
  0
ARC
  5
2B42
330
27F3
100
AcDbEntity
  8
PEN1
  6
LTY1
100
AcDbCircle
 10
250.0
 20
72.0
 30
0.0
 40
1.7
100
AcDbArc
 50
180.0
 51
0.0
  0
ARC
  5
2B43
330
27F3
100
AcDbEntity
  8
PEN1
  6
LTY1
100
AcDbCircle
 10
250.0
 20
72.0
 30
0.0
 40
1.9
100
AcDbArc
 50
180.0
 51
0.0
  0
LINE
  5
2B44
330
27F3
100
AcDbEntity
  8
PEN1
  6
LTY1
100
AcDbLine
 10
274.5
 20
77.5
 30
0.0
 11
274.5
 21
72.5
 31
0.0
  0
LINE
  5
2B45
330
27F3
100
AcDbEntity
  8
PEN1
  6
LTY1
100
AcDbLine
 10
274.5
 20
72.5
 30
0.0
 11
275.5
 21
72.5
 31
0.0
  0
LINE
  5
2B46
330
27F3
100
AcDbEntity
  8
PEN1
  6
LTY1
100
AcDbLine
 10
275.5
 20
72.5
 30
0.0
 11
275.5
 21
77.5
 31
0.0
  0
LINE
  5
2B47
330
27F3
100
AcDbEntity
  8
PEN1
  6
LTY1
100
AcDbLine
 10
275.5
 20
77.5
 30
0.0
 11
274.5
 21
77.5
 31
0.0
  0
LINE
  5
2B48
330
27F3
100
AcDbEntity
  8
PEN1
  6
LTY1
100
AcDbLine
 10
274.5
 20
72.5
 30
0.0
 11
275.5
 21
72.5
 31
0.0
  0
LINE
  5
2B49
330
27F3
100
AcDbEntity
  8
PEN1
  6
LTY1
100
AcDbLine
 10
274.5
 20
73.0
 30
0.0
 11
275.5
 21
73.0
 31
0.0
  0
LINE
  5
2B4A
330
27F3
100
AcDbEntity
  8
PEN1
  6
LTY1
100
AcDbLine
 10
274.5
 20
73.5
 30
0.0
 11
275.5
 21
73.5
 31
0.0
  0
LINE
  5
2B4B
330
27F3
100
AcDbEntity
  8
PEN1
  6
LTY1
100
AcDbLine
 10
274.5
 20
74.0
 30
0.0
 11
275.5
 21
74.0
 31
0.0
  0
LINE
  5
2B4C
330
27F3
100
AcDbEntity
  8
PEN1
  6
LTY1
100
AcDbLine
 10
274.5
 20
74.5
 30
0.0
 11
275.5
 21
74.5
 31
0.0
  0
LINE
  5
2B4D
330
27F3
100
AcDbEntity
  8
PEN1
  6
LTY1
100
AcDbLine
 10
274.5
 20
75.0
 30
0.0
 11
275.5
 21
75.0
 31
0.0
  0
LINE
  5
2B4E
330
27F3
100
AcDbEntity
  8
PEN1
  6
LTY1
100
AcDbLine
 10
274.5
 20
75.5
 30
0.0
 11
275.5
 21
75.5
 31
0.0
  0
LINE
  5
2B4F
330
27F3
100
AcDbEntity
  8
PEN1
  6
LTY1
100
AcDbLine
 10
274.5
 20
76.0
 30
0.0
 11
275.5
 21
76.0
 31
0.0
  0
LINE
  5
2B50
330
27F3
100
AcDbEntity
  8
PEN1
  6
LTY1
100
AcDbLine
 10
274.5
 20
76.5
 30
0.0
 11
275.5
 21
76.5
 31
0.0
  0
LINE
  5
2B51
330
27F3
100
AcDbEntity
  8
PEN1
  6
LTY1
100
AcDbLine
 10
274.5
 20
77.0
 30
0.0
 11
275.5
 21
77.0
 31
0.0
  0
LINE
  5
2B52
330
27F3
100
AcDbEntity
  8
PEN1
  6
LTY1
100
AcDbLine
 10
274.5
 20
77.5
 30
0.0
 11
275.5
 21
77.5
 31
0.0
  0
ARC
  5
2B53
330
27F3
100
AcDbEntity
  8
PEN1
  6
LTY1
100
AcDbCircle
 10
275.0
 20
72.0
 30
0.0
 40
1.5
100
AcDbArc
 50
180.0
 51
0.0
  0
ARC
  5
2B54
330
27F3
100
AcDbEntity
  8
PEN1
  6
LTY1
100
AcDbCircle
 10
275.0
 20
72.0
 30
0.0
 40
1.7
100
AcDbArc
 50
180.0
 51
0.0
  0
ARC
  5
2B55
330
27F3
100
AcDbEntity
  8
PEN1
  6
LTY1
100
AcDbCircle
 10
275.0
 20
72.0
 30
0.0
 40
1.9
100
AcDbArc
 50
180.0
 51
0.0
  0
LINE
  5
2B56
330
27F3
100
AcDbEntity
  8
PEN1
  6
LTY1
100
AcDbLine
 10
282.0
 20
77.5
 30
0.0
 11
282.0
 21
72.5
 31
0.0
  0
LINE
  5
2B57
330
27F3
100
AcDbEntity
  8
PEN1
  6
LTY1
100
AcDbLine
 10
282.0
 20
72.5
 30
0.0
 11
283.0
 21
72.5
 31
0.0
  0
LINE
  5
2B58
330
27F3
100
AcDbEntity
  8
PEN1
  6
LTY1
100
AcDbLine
 10
283.0
 20
72.5
 30
0.0
 11
283.0
 21
77.5
 31
0.0
  0
LINE
  5
2B59
330
27F3
100
AcDbEntity
  8
PEN1
  6
LTY1
100
AcDbLine
 10
283.0
 20
77.5
 30
0.0
 11
282.0
 21
77.5
 31
0.0
  0
LINE
  5
2B5A
330
27F3
100
AcDbEntity
  8
PEN1
  6
LTY1
100
AcDbLine
 10
282.0
 20
72.5
 30
0.0
 11
283.0
 21
72.5
 31
0.0
  0
LINE
  5
2B5B
330
27F3
100
AcDbEntity
  8
PEN1
  6
LTY1
100
AcDbLine
 10
282.0
 20
73.0
 30
0.0
 11
283.0
 21
73.0
 31
0.0
  0
LINE
  5
2B5C
330
27F3
100
AcDbEntity
  8
PEN1
  6
LTY1
100
AcDbLine
 10
282.0
 20
73.5
 30
0.0
 11
283.0
 21
73.5
 31
0.0
  0
LINE
  5
2B5D
330
27F3
100
AcDbEntity
  8
PEN1
  6
LTY1
100
AcDbLine
 10
282.0
 20
74.0
 30
0.0
 11
283.0
 21
74.0
 31
0.0
  0
LINE
  5
2B5E
330
27F3
100
AcDbEntity
  8
PEN1
  6
LTY1
100
AcDbLine
 10
282.0
 20
74.5
 30
0.0
 11
283.0
 21
74.5
 31
0.0
  0
LINE
  5
2B5F
330
27F3
100
AcDbEntity
  8
PEN1
  6
LTY1
100
AcDbLine
 10
282.0
 20
75.0
 30
0.0
 11
283.0
 21
75.0
 31
0.0
  0
LINE
  5
2B60
330
27F3
100
AcDbEntity
  8
PEN1
  6
LTY1
100
AcDbLine
 10
282.0
 20
75.5
 30
0.0
 11
283.0
 21
75.5
 31
0.0
  0
LINE
  5
2B61
330
27F3
100
AcDbEntity
  8
PEN1
  6
LTY1
100
AcDbLine
 10
282.0
 20
76.0
 30
0.0
 11
283.0
 21
76.0
 31
0.0
  0
LINE
  5
2B62
330
27F3
100
AcDbEntity
  8
PEN1
  6
LTY1
100
AcDbLine
 10
282.0
 20
76.5
 30
0.0
 11
283.0
 21
76.5
 31
0.0
  0
LINE
  5
2B63
330
27F3
100
AcDbEntity
  8
PEN1
  6
LTY1
100
AcDbLine
 10
282.0
 20
77.0
 30
0.0
 11
283.0
 21
77.0
 31
0.0
  0
LINE
  5
2B64
330
27F3
100
AcDbEntity
  8
PEN1
  6
LTY1
100
AcDbLine
 10
282.0
 20
77.5
 30
0.0
 11
283.0
 21
77.5
 31
0.0
  0
ARC
  5
2B65
330
27F3
100
AcDbEntity
  8
PEN1
  6
LTY1
100
AcDbCircle
 10
282.5
 20
72.0
 30
0.0
 40
1.5
100
AcDbArc
 50
180.0
 51
0.0
  0
ARC
  5
2B66
330
27F3
100
AcDbEntity
  8
PEN1
  6
LTY1
100
AcDbCircle
 10
282.5
 20
72.0
 30
0.0
 40
1.7
100
AcDbArc
 50
180.0
 51
0.0
  0
ARC
  5
2B67
330
27F3
100
AcDbEntity
  8
PEN1
  6
LTY1
100
AcDbCircle
 10
282.5
 20
72.0
 30
0.0
 40
1.9
100
AcDbArc
 50
180.0
 51
0.0
  0
LINE
  5
2B68
330
27F3
100
AcDbEntity
  8
PEN1
  6
LTY1
100
AcDbLine
 10
225.0
 20
170.0
 30
0.0
 11
225.0
 21
165.0
 31
0.0
  0
LINE
  5
2B69
330
27F3
100
AcDbEntity
  8
PEN1
  6
LTY7
100
AcDbLine
 10
227.5
 20
217.5
 30
0.0
 11
250.0
 21
217.5
 31
0.0
  0
LINE
  5
2B6A
330
27F3
100
AcDbEntity
  8
PEN1
  6
LTY7
100
AcDbLine
 10
227.5
 20
212.5
 30
0.0
 11
250.0
 21
212.5
 31
0.0
  0
ARC
  5
2B6B
330
27F3
100
AcDbEntity
  8
PEN1
  6
LTY7
100
AcDbCircle
 10
250.0
 20
215.0
 30
0.0
 40
2.5
100
AcDbArc
 50
90.0
 51
270.0
  0
LINE
  5
2B6C
330
27F3
100
AcDbEntity
  8
PEN1
  6
LTY1
100
AcDbLine
 10
289.5
 20
77.5
 30
0.0
 11
289.5
 21
72.5
 31
0.0
  0
LINE
  5
2B6D
330
27F3
100
AcDbEntity
  8
PEN1
  6
LTY1
100
AcDbLine
 10
289.5
 20
72.5
 30
0.0
 11
290.5
 21
72.5
 31
0.0
  0
LINE
  5
2B6E
330
27F3
100
AcDbEntity
  8
PEN1
  6
LTY1
100
AcDbLine
 10
290.5
 20
72.5
 30
0.0
 11
290.5
 21
77.5
 31
0.0
  0
LINE
  5
2B6F
330
27F3
100
AcDbEntity
  8
PEN1
  6
LTY1
100
AcDbLine
 10
290.5
 20
77.5
 30
0.0
 11
289.5
 21
77.5
 31
0.0
  0
LINE
  5
2B70
330
27F3
100
AcDbEntity
  8
PEN1
  6
LTY1
100
AcDbLine
 10
289.5
 20
72.5
 30
0.0
 11
290.5
 21
72.5
 31
0.0
  0
LINE
  5
2B71
330
27F3
100
AcDbEntity
  8
PEN1
  6
LTY1
100
AcDbLine
 10
289.5
 20
73.0
 30
0.0
 11
290.5
 21
73.0
 31
0.0
  0
LINE
  5
2B72
330
27F3
100
AcDbEntity
  8
PEN1
  6
LTY1
100
AcDbLine
 10
289.5
 20
73.5
 30
0.0
 11
290.5
 21
73.5
 31
0.0
  0
LINE
  5
2B73
330
27F3
100
AcDbEntity
  8
PEN1
  6
LTY1
100
AcDbLine
 10
289.5
 20
74.0
 30
0.0
 11
290.5
 21
74.0
 31
0.0
  0
LINE
  5
2B74
330
27F3
100
AcDbEntity
  8
PEN1
  6
LTY1
100
AcDbLine
 10
289.5
 20
74.5
 30
0.0
 11
290.5
 21
74.5
 31
0.0
  0
LINE
  5
2B75
330
27F3
100
AcDbEntity
  8
PEN1
  6
LTY1
100
AcDbLine
 10
289.5
 20
75.0
 30
0.0
 11
290.5
 21
75.0
 31
0.0
  0
LINE
  5
2B76
330
27F3
100
AcDbEntity
  8
PEN1
  6
LTY1
100
AcDbLine
 10
289.5
 20
75.5
 30
0.0
 11
290.5
 21
75.5
 31
0.0
  0
LINE
  5
2B77
330
27F3
100
AcDbEntity
  8
PEN1
  6
LTY1
100
AcDbLine
 10
289.5
 20
76.0
 30
0.0
 11
290.5
 21
76.0
 31
0.0
  0
LINE
  5
2B78
330
27F3
100
AcDbEntity
  8
PEN1
  6
LTY1
100
AcDbLine
 10
289.5
 20
76.5
 30
0.0
 11
290.5
 21
76.5
 31
0.0
  0
LINE
  5
2B79
330
27F3
100
AcDbEntity
  8
PEN1
  6
LTY1
100
AcDbLine
 10
289.5
 20
77.0
 30
0.0
 11
290.5
 21
77.0
 31
0.0
  0
LINE
  5
2B7A
330
27F3
100
AcDbEntity
  8
PEN1
  6
LTY1
100
AcDbLine
 10
289.5
 20
77.5
 30
0.0
 11
290.5
 21
77.5
 31
0.0
  0
ARC
  5
2B7B
330
27F3
100
AcDbEntity
  8
PEN1
  6
LTY1
100
AcDbCircle
 10
290.0
 20
72.0
 30
0.0
 40
1.5
100
AcDbArc
 50
180.0
 51
0.0
  0
ARC
  5
2B7C
330
27F3
100
AcDbEntity
  8
PEN1
  6
LTY1
100
AcDbCircle
 10
290.0
 20
72.0
 30
0.0
 40
1.7
100
AcDbArc
 50
180.0
 51
0.0
  0
ARC
  5
2B7D
330
27F3
100
AcDbEntity
  8
PEN1
  6
LTY1
100
AcDbCircle
 10
290.0
 20
72.0
 30
0.0
 40
1.9
100
AcDbArc
 50
180.0
 51
0.0
  0
LINE
  5
2B7E
330
27F3
100
AcDbEntity
  8
PEN1
  6
LTY1
100
AcDbLine
 10
297.0
 20
77.5
 30
0.0
 11
297.0
 21
72.5
 31
0.0
  0
LINE
  5
2B7F
330
27F3
100
AcDbEntity
  8
PEN1
  6
LTY1
100
AcDbLine
 10
297.0
 20
72.5
 30
0.0
 11
298.0
 21
72.5
 31
0.0
  0
LINE
  5
2B80
330
27F3
100
AcDbEntity
  8
PEN1
  6
LTY1
100
AcDbLine
 10
298.0
 20
72.5
 30
0.0
 11
298.0
 21
77.5
 31
0.0
  0
LINE
  5
2B81
330
27F3
100
AcDbEntity
  8
PEN1
  6
LTY1
100
AcDbLine
 10
298.0
 20
77.5
 30
0.0
 11
297.0
 21
77.5
 31
0.0
  0
LINE
  5
2B82
330
27F3
100
AcDbEntity
  8
PEN1
  6
LTY1
100
AcDbLine
 10
297.0
 20
72.5
 30
0.0
 11
298.0
 21
72.5
 31
0.0
  0
LINE
  5
2B83
330
27F3
100
AcDbEntity
  8
PEN1
  6
LTY1
100
AcDbLine
 10
297.0
 20
73.0
 30
0.0
 11
298.0
 21
73.0
 31
0.0
  0
LINE
  5
2B84
330
27F3
100
AcDbEntity
  8
PEN1
  6
LTY1
100
AcDbLine
 10
297.0
 20
73.5
 30
0.0
 11
298.0
 21
73.5
 31
0.0
  0
LINE
  5
2B85
330
27F3
100
AcDbEntity
  8
PEN1
  6
LTY1
100
AcDbLine
 10
297.0
 20
74.0
 30
0.0
 11
298.0
 21
74.0
 31
0.0
  0
LINE
  5
2B86
330
27F3
100
AcDbEntity
  8
PEN1
  6
LTY1
100
AcDbLine
 10
297.0
 20
74.5
 30
0.0
 11
298.0
 21
74.5
 31
0.0
  0
LINE
  5
2B87
330
27F3
100
AcDbEntity
  8
PEN1
  6
LTY1
100
AcDbLine
 10
297.0
 20
75.0
 30
0.0
 11
298.0
 21
75.0
 31
0.0
  0
LINE
  5
2B88
330
27F3
100
AcDbEntity
  8
PEN1
  6
LTY1
100
AcDbLine
 10
297.0
 20
75.5
 30
0.0
 11
298.0
 21
75.5
 31
0.0
  0
LINE
  5
2B89
330
27F3
100
AcDbEntity
  8
PEN1
  6
LTY1
100
AcDbLine
 10
297.0
 20
76.0
 30
0.0
 11
298.0
 21
76.0
 31
0.0
  0
LINE
  5
2B8A
330
27F3
100
AcDbEntity
  8
PEN1
  6
LTY1
100
AcDbLine
 10
297.0
 20
76.5
 30
0.0
 11
298.0
 21
76.5
 31
0.0
  0
LINE
  5
2B8B
330
27F3
100
AcDbEntity
  8
PEN1
  6
LTY1
100
AcDbLine
 10
297.0
 20
77.0
 30
0.0
 11
298.0
 21
77.0
 31
0.0
  0
LINE
  5
2B8C
330
27F3
100
AcDbEntity
  8
PEN1
  6
LTY1
100
AcDbLine
 10
297.0
 20
77.5
 30
0.0
 11
298.0
 21
77.5
 31
0.0
  0
ARC
  5
2B8D
330
27F3
100
AcDbEntity
  8
PEN1
  6
LTY1
100
AcDbCircle
 10
297.5
 20
72.0
 30
0.0
 40
1.5
100
AcDbArc
 50
180.0
 51
0.0
  0
ARC
  5
2B8E
330
27F3
100
AcDbEntity
  8
PEN1
  6
LTY1
100
AcDbCircle
 10
297.5
 20
72.0
 30
0.0
 40
1.7
100
AcDbArc
 50
180.0
 51
0.0
  0
ARC
  5
2B8F
330
27F3
100
AcDbEntity
  8
PEN1
  6
LTY1
100
AcDbCircle
 10
297.5
 20
72.0
 30
0.0
 40
1.9
100
AcDbArc
 50
180.0
 51
0.0
  0
LINE
  5
2B90
330
27F3
100
AcDbEntity
  8
PEN1
  6
LTY1
100
AcDbLine
 10
60.0
 20
192.5
 30
0.0
 11
60.0
 21
200.0
 31
0.0
  0
LINE
  5
2B91
330
27F3
100
AcDbEntity
  8
PEN1
  6
LTY1
100
AcDbLine
 10
55.0
 20
77.5
 30
0.0
 11
55.0
 21
87.5
 31
0.0
  0
LINE
  5
2B92
330
27F3
100
AcDbEntity
  8
PEN1
  6
LTY1
100
AcDbLine
 10
60.0
 20
77.5
 30
0.0
 11
60.0
 21
87.5
 31
0.0
  0
LINE
  5
2B93
330
27F3
100
AcDbEntity
  8
PEN1
  6
LTY1
100
AcDbLine
 10
65.0
 20
77.5
 30
0.0
 11
65.0
 21
87.5
 31
0.0
  0
LINE
  5
2B94
330
27F3
100
AcDbEntity
  8
PEN1
  6
LTY1
100
AcDbLine
 10
55.0
 20
245.0
 30
0.0
 11
55.0
 21
227.5
 31
0.0
  0
LINE
  5
2B95
330
27F3
100
AcDbEntity
  8
PEN1
  6
LTY1
100
AcDbLine
 10
60.0
 20
245.0
 30
0.0
 11
60.0
 21
227.5
 31
0.0
  0
LINE
  5
2B96
330
27F3
100
AcDbEntity
  8
PEN1
  6
LTY1
100
AcDbLine
 10
65.0
 20
245.0
 30
0.0
 11
65.0
 21
227.5
 31
0.0
  0
LINE
  5
2B97
330
27F3
100
AcDbEntity
  8
PEN1
  6
LTY1
100
AcDbLine
 10
70.0
 20
177.5
 30
0.0
 11
72.5
 21
177.5
 31
0.0
  0
LINE
  5
2B98
330
27F3
100
AcDbEntity
  8
PEN1
  6
LTY1
100
AcDbLine
 10
70.0
 20
192.5
 30
0.0
 11
92.5
 21
192.5
 31
0.0
  0
LINE
  5
2B99
330
27F3
100
AcDbEntity
  8
PEN1
  6
LTY1
100
AcDbLine
 10
92.5
 20
192.5
 30
0.0
 11
92.5
 21
177.5
 31
0.0
  0
LINE
  5
2B9A
330
27F3
100
AcDbEntity
  8
PEN1
  6
LTY1
100
AcDbLine
 10
92.5
 20
177.5
 30
0.0
 11
85.0
 21
177.5
 31
0.0
  0
LINE
  5
2B9B
330
27F3
100
AcDbEntity
  8
PEN1
  6
LTY1
100
AcDbLine
 10
342.5
 20
80.0
 30
0.0
 11
342.5
 21
90.0
 31
0.0
  0
LINE
  5
2B9C
330
27F3
100
AcDbEntity
  8
PEN1
  6
LTY1
100
AcDbLine
 10
347.5
 20
245.0
 30
0.0
 11
347.5
 21
197.5
 31
0.0
  0
LINE
  5
2B9D
330
27F3
100
AcDbEntity
  8
PEN1
  6
LTY1
100
AcDbLine
 10
347.5
 20
197.5
 30
0.0
 11
375.0
 21
197.5
 31
0.0
  0
LINE
  5
2B9E
330
27F3
100
AcDbEntity
  8
PEN1
  6
LTY1
100
AcDbLine
 10
342.5
 20
245.0
 30
0.0
 11
342.5
 21
172.5
 31
0.0
  0
LINE
  5
2B9F
330
27F3
100
AcDbEntity
  8
PEN1
  6
LTY1
100
AcDbLine
 10
260.0
 20
125.0
 30
0.0
 11
260.0
 21
77.5
 31
0.0
  0
LINE
  5
2BA0
330
27F3
100
AcDbEntity
  8
PEN1
  6
LTY1
100
AcDbLine
 10
267.5
 20
125.0
 30
0.0
 11
267.5
 21
77.5
 31
0.0
  0
LINE
  5
2BA1
330
27F3
100
AcDbEntity
  8
PEN1
  6
LTY1
100
AcDbLine
 10
342.5
 20
125.0
 30
0.0
 11
342.5
 21
100.0
 31
0.0
  0
LINE
  5
2BA2
330
27F3
100
AcDbEntity
  8
PEN1
  6
LTY1
100
AcDbLine
 10
167.5
 20
245.0
 30
0.0
 11
167.5
 21
227.5
 31
0.0
  0
LINE
  5
2BA3
330
27F3
100
AcDbEntity
  8
PEN1
  6
LTY1
100
AcDbLine
 10
167.5
 20
215.0
 30
0.0
 11
167.5
 21
170.0
 31
0.0
  0
LINE
  5
2BA4
330
27F3
100
AcDbEntity
  8
PEN1
  6
LTY1
100
AcDbLine
 10
177.5
 20
245.0
 30
0.0
 11
177.5
 21
170.0
 31
0.0
  0
LINE
  5
2BA5
330
27F3
100
AcDbEntity
  8
PEN1
  6
LTY1
100
AcDbLine
 10
375.0
 20
245.0
 30
0.0
 11
375.0
 21
225.0
 31
0.0
  0
LINE
  5
2BA6
330
27F3
100
AcDbEntity
  8
PEN1
  6
LTY1
100
AcDbLine
 10
375.0
 20
212.5
 30
0.0
 11
375.0
 21
197.5
 31
0.0
  0
LINE
  5
2BA7
330
27F3
100
AcDbEntity
  8
PEN1
  6
LTY1
100
AcDbLine
 10
380.0
 20
80.0
 30
0.0
 11
342.5
 21
80.0
 31
0.0
  0
LINE
  5
2BA8
330
27F3
100
AcDbEntity
  8
PEN1
  6
LTY1
100
AcDbLine
 10
380.0
 20
245.0
 30
0.0
 11
380.0
 21
225.0
 31
0.0
  0
LINE
  5
2BA9
330
27F3
100
AcDbEntity
  8
PEN1
  6
LTY1
100
AcDbLine
 10
380.0
 20
212.5
 30
0.0
 11
380.0
 21
80.0
 31
0.0
  0
LINE
  5
2BAA
330
27F3
100
AcDbEntity
  8
PEN1
  6
LTY1
100
AcDbLine
 10
185.0
 20
110.0
 30
0.0
 11
185.0
 21
125.0
 31
0.0
  0
LINE
  5
2BAB
330
27F3
100
AcDbEntity
  8
PEN1
  6
LTY1
100
AcDbLine
 10
205.0
 20
110.0
 30
0.0
 11
205.0
 21
125.0
 31
0.0
  0
LINE
  5
2BAC
330
27F3
100
AcDbEntity
  8
PEN1
  6
LTY1
100
AcDbLine
 10
222.5
 20
110.0
 30
0.0
 11
222.5
 21
125.0
 31
0.0
  0
LINE
  5
2BAD
330
27F3
100
AcDbEntity
  8
PEN1
  6
LTY1
100
AcDbLine
 10
165.0
 20
77.5
 30
0.0
 11
165.0
 21
125.0
 31
0.0
  0
LINE
  5
2BAE
330
27F3
100
AcDbEntity
  8
PEN1
  6
LTY1
100
AcDbLine
 10
240.0
 20
77.5
 30
0.0
 11
240.0
 21
85.0
 31
0.0
  0
CIRCLE
  5
2BAF
330
27F3
100
AcDbEntity
  8
PEN1
  6
LTY1
100
AcDbCircle
 10
240.0
 20
85.0
 30
0.0
 40
0.875
  0
CIRCLE
  5
2BB0
330
27F3
100
AcDbEntity
  8
PEN1
  6
LTY1
100
AcDbCircle
 10
240.0
 20
85.0
 30
0.0
 40
0.625
  0
CIRCLE
  5
2BB1
330
27F3
100
AcDbEntity
  8
PEN1
  6
LTY1
100
AcDbCircle
 10
240.0
 20
85.0
 30
0.0
 40
0.375
  0
CIRCLE
  5
2BB2
330
27F3
100
AcDbEntity
  8
PEN1
  6
LTY1
100
AcDbCircle
 10
240.0
 20
85.0
 30
0.0
 40
0.875
  0
CIRCLE
  5
2BB3
330
27F3
100
AcDbEntity
  8
PEN1
  6
LTY1
100
AcDbCircle
 10
240.0
 20
85.0
 30
0.0
 40
0.625
  0
CIRCLE
  5
2BB4
330
27F3
100
AcDbEntity
  8
PEN1
  6
LTY1
100
AcDbCircle
 10
240.0
 20
85.0
 30
0.0
 40
0.375
  0
LINE
  5
2BB5
330
27F3
100
AcDbEntity
  8
PEN1
  6
LTY1
100
AcDbLine
 10
240.0
 20
85.0
 30
0.0
 11
240.0
 21
125.0
 31
0.0
  0
LINE
  5
2BB6
330
27F3
100
AcDbEntity
  8
PEN1
  6
LTY1
100
AcDbLine
 10
185.0
 20
100.0
 30
0.0
 11
185.0
 21
85.0
 31
0.0
  0
LINE
  5
2BB7
330
27F3
100
AcDbEntity
  8
PEN1
  6
LTY1
100
AcDbLine
 10
185.0
 20
85.0
 30
0.0
 11
205.0
 21
85.0
 31
0.0
  0
CIRCLE
  5
2BB8
330
27F3
100
AcDbEntity
  8
PEN1
  6
LTY1
100
AcDbCircle
 10
205.0
 20
85.0
 30
0.0
 40
0.875
  0
CIRCLE
  5
2BB9
330
27F3
100
AcDbEntity
  8
PEN1
  6
LTY1
100
AcDbCircle
 10
205.0
 20
85.0
 30
0.0
 40
0.625
  0
CIRCLE
  5
2BBA
330
27F3
100
AcDbEntity
  8
PEN1
  6
LTY1
100
AcDbCircle
 10
205.0
 20
85.0
 30
0.0
 40
0.375
  0
CIRCLE
  5
2BBB
330
27F3
100
AcDbEntity
  8
PEN1
  6
LTY1
100
AcDbCircle
 10
205.0
 20
85.0
 30
0.0
 40
0.875
  0
CIRCLE
  5
2BBC
330
27F3
100
AcDbEntity
  8
PEN1
  6
LTY1
100
AcDbCircle
 10
205.0
 20
85.0
 30
0.0
 40
0.625
  0
CIRCLE
  5
2BBD
330
27F3
100
AcDbEntity
  8
PEN1
  6
LTY1
100
AcDbCircle
 10
205.0
 20
85.0
 30
0.0
 40
0.375
  0
LINE
  5
2BBE
330
27F3
100
AcDbEntity
  8
PEN1
  6
LTY1
100
AcDbLine
 10
205.0
 20
85.0
 30
0.0
 11
222.5
 21
85.0
 31
0.0
  0
CIRCLE
  5
2BBF
330
27F3
100
AcDbEntity
  8
PEN1
  6
LTY1
100
AcDbCircle
 10
222.5
 20
85.0
 30
0.0
 40
0.875
  0
CIRCLE
  5
2BC0
330
27F3
100
AcDbEntity
  8
PEN1
  6
LTY1
100
AcDbCircle
 10
222.5
 20
85.0
 30
0.0
 40
0.625
  0
CIRCLE
  5
2BC1
330
27F3
100
AcDbEntity
  8
PEN1
  6
LTY1
100
AcDbCircle
 10
222.5
 20
85.0
 30
0.0
 40
0.375
  0
LINE
  5
2BC2
330
27F3
100
AcDbEntity
  8
PEN1
  6
LTY1
100
AcDbLine
 10
205.0
 20
100.0
 30
0.0
 11
205.0
 21
85.0
 31
0.0
  0
CIRCLE
  5
2BC3
330
27F3
100
AcDbEntity
  8
PEN1
  6
LTY1
100
AcDbCircle
 10
205.0
 20
85.0
 30
0.0
 40
0.875
  0
CIRCLE
  5
2BC4
330
27F3
100
AcDbEntity
  8
PEN1
  6
LTY1
100
AcDbCircle
 10
205.0
 20
85.0
 30
0.0
 40
0.625
  0
CIRCLE
  5
2BC5
330
27F3
100
AcDbEntity
  8
PEN1
  6
LTY1
100
AcDbCircle
 10
205.0
 20
85.0
 30
0.0
 40
0.375
  0
CIRCLE
  5
2BC6
330
27F3
100
AcDbEntity
  8
PEN1
  6
LTY1
100
AcDbCircle
 10
222.5
 20
85.0
 30
0.0
 40
0.875
  0
CIRCLE
  5
2BC7
330
27F3
100
AcDbEntity
  8
PEN1
  6
LTY1
100
AcDbCircle
 10
222.5
 20
85.0
 30
0.0
 40
0.625
  0
CIRCLE
  5
2BC8
330
27F3
100
AcDbEntity
  8
PEN1
  6
LTY1
100
AcDbCircle
 10
222.5
 20
85.0
 30
0.0
 40
0.375
  0
LINE
  5
2BC9
330
27F3
100
AcDbEntity
  8
PEN1
  6
LTY1
100
AcDbLine
 10
222.5
 20
85.0
 30
0.0
 11
240.0
 21
85.0
 31
0.0
  0
CIRCLE
  5
2BCA
330
27F3
100
AcDbEntity
  8
PEN1
  6
LTY1
100
AcDbCircle
 10
240.0
 20
85.0
 30
0.0
 40
0.875
  0
CIRCLE
  5
2BCB
330
27F3
100
AcDbEntity
  8
PEN1
  6
LTY1
100
AcDbCircle
 10
240.0
 20
85.0
 30
0.0
 40
0.625
  0
CIRCLE
  5
2BCC
330
27F3
100
AcDbEntity
  8
PEN1
  6
LTY1
100
AcDbCircle
 10
240.0
 20
85.0
 30
0.0
 40
0.375
  0
LINE
  5
2BCD
330
27F3
100
AcDbEntity
  8
PEN1
  6
LTY1
100
AcDbLine
 10
222.5
 20
100.0
 30
0.0
 11
222.5
 21
85.0
 31
0.0
  0
CIRCLE
  5
2BCE
330
27F3
100
AcDbEntity
  8
PEN1
  6
LTY1
100
AcDbCircle
 10
222.5
 20
85.0
 30
0.0
 40
0.875
  0
CIRCLE
  5
2BCF
330
27F3
100
AcDbEntity
  8
PEN1
  6
LTY1
100
AcDbCircle
 10
222.5
 20
85.0
 30
0.0
 40
0.625
  0
CIRCLE
  5
2BD0
330
27F3
100
AcDbEntity
  8
PEN1
  6
LTY1
100
AcDbCircle
 10
222.5
 20
85.0
 30
0.0
 40
0.375
  0
LINE
  5
2BD1
330
27F3
100
AcDbEntity
  8
PEN1
  6
LTY1
100
AcDbLine
 10
55.0
 20
125.0
 30
0.0
 11
55.0
 21
97.5
 31
0.0
  0
LINE
  5
2BD2
330
27F3
100
AcDbEntity
  8
PEN1
  6
LTY1
100
AcDbLine
 10
60.0
 20
125.0
 30
0.0
 11
60.0
 21
97.5
 31
0.0
  0
LINE
  5
2BD3
330
27F3
100
AcDbEntity
  8
PEN1
  6
LTY1
100
AcDbLine
 10
65.0
 20
125.0
 30
0.0
 11
65.0
 21
97.5
 31
0.0
  0
LINE
  5
2BD4
330
27F3
100
AcDbEntity
  8
PEN1
  6
LTY1
100
AcDbLine
 10
55.0
 20
200.0
 30
0.0
 11
55.0
 21
170.0
 31
0.0
  0
LINE
  5
2BD5
330
27F3
100
AcDbEntity
  8
PEN1
  6
LTY1
100
AcDbLine
 10
60.0
 20
177.5
 30
0.0
 11
60.0
 21
170.0
 31
0.0
  0
LINE
  5
2BD6
330
27F3
100
AcDbEntity
  8
PEN1
  6
LTY1
100
AcDbLine
 10
65.0
 20
200.0
 30
0.0
 11
65.0
 21
170.0
 31
0.0
  0
LINE
  5
2BD7
330
27F3
100
AcDbEntity
  8
PEN1
  6
LTY1
100
AcDbLine
 10
90.0
 20
125.0
 30
0.0
 11
90.0
 21
77.5
 31
0.0
  0
LINE
  5
2BD8
330
27F3
100
AcDbEntity
  8
PEN1
  6
LTY1
100
AcDbLine
 10
100.0
 20
125.0
 30
0.0
 11
100.0
 21
77.5
 31
0.0
  0
LINE
  5
2BD9
330
27F3
100
AcDbEntity
  8
PEN1
  6
LTY1
100
AcDbLine
 10
237.5
 20
245.0
 30
0.0
 11
237.5
 21
170.0
 31
0.0
  0
LINE
  5
2BDA
330
27F3
100
AcDbEntity
  8
PEN1
  6
LTY1
100
AcDbLine
 10
247.5
 20
245.0
 30
0.0
 11
247.5
 21
170.0
 31
0.0
  0
LINE
  5
2BDB
330
27F3
100
AcDbEntity
  8
PEN1
  6
LTY1
100
AcDbLine
 10
177.5
 20
252.5
 30
0.0
 11
175.0
 21
252.5
 31
0.0
  0
LINE
  5
2BDC
330
27F3
100
AcDbEntity
  8
PEN1
  6
LTY6
100
AcDbLine
 10
80.0
 20
245.0
 30
0.0
 11
80.0
 21
235.0
 31
0.0
  0
LINE
  5
2BDD
330
27F3
100
AcDbEntity
  8
PEN1
  6
LTY6
100
AcDbLine
 10
80.0
 20
235.0
 30
0.0
 11
95.0
 21
235.0
 31
0.0
  0
CIRCLE
  5
2BDE
330
27F3
100
AcDbEntity
  8
PEN1
  6
LTY1
100
AcDbCircle
 10
95.0
 20
235.0
 30
0.0
 40
0.875
  0
CIRCLE
  5
2BDF
330
27F3
100
AcDbEntity
  8
PEN1
  6
LTY1
100
AcDbCircle
 10
95.0
 20
235.0
 30
0.0
 40
0.625
  0
CIRCLE
  5
2BE0
330
27F3
100
AcDbEntity
  8
PEN1
  6
LTY1
100
AcDbCircle
 10
95.0
 20
235.0
 30
0.0
 40
0.375
  0
CIRCLE
  5
2BE1
330
27F3
100
AcDbEntity
  8
PEN1
  6
LTY1
100
AcDbCircle
 10
95.0
 20
235.0
 30
0.0
 40
0.875
  0
CIRCLE
  5
2BE2
330
27F3
100
AcDbEntity
  8
PEN1
  6
LTY1
100
AcDbCircle
 10
95.0
 20
235.0
 30
0.0
 40
0.625
  0
CIRCLE
  5
2BE3
330
27F3
100
AcDbEntity
  8
PEN1
  6
LTY1
100
AcDbCircle
 10
95.0
 20
235.0
 30
0.0
 40
0.375
  0
LINE
  5
2BE4
330
27F3
100
AcDbEntity
  8
PEN1
  6
LTY6
100
AcDbLine
 10
95.0
 20
235.0
 30
0.0
 11
95.0
 21
230.0
 31
0.0
  0
LINE
  5
2BE5
330
27F3
100
AcDbEntity
  8
PEN1
  6
LTY6
100
AcDbLine
 10
225.0
 20
240.0
 30
0.0
 11
225.0
 21
170.0
 31
0.0
  0
CIRCLE
  5
2BE6
330
27F3
100
AcDbEntity
  8
PEN1
  6
LTY1
100
AcDbCircle
 10
95.0
 20
235.0
 30
0.0
 40
0.875
  0
CIRCLE
  5
2BE7
330
27F3
100
AcDbEntity
  8
PEN1
  6
LTY1
100
AcDbCircle
 10
95.0
 20
235.0
 30
0.0
 40
0.625
  0
CIRCLE
  5
2BE8
330
27F3
100
AcDbEntity
  8
PEN1
  6
LTY1
100
AcDbCircle
 10
95.0
 20
235.0
 30
0.0
 40
0.375
  0
LINE
  5
2BE9
330
27F3
100
AcDbEntity
  8
PEN1
  6
LTY6
100
AcDbLine
 10
95.0
 20
235.0
 30
0.0
 11
95.0
 21
240.0
 31
0.0
  0
LINE
  5
2BEA
330
27F3
100
AcDbEntity
  8
PEN1
  6
LTY6
100
AcDbLine
 10
95.0
 20
240.0
 30
0.0
 11
225.0
 21
240.0
 31
0.0
  0
TEXT
  5
2BEB
330
27F3
100
AcDbEntity
  8
PEN2
100
AcDbText
 10
296.75
 20
78.0
 30
0.0
 40
2.5
  1
17
 50
90.0
  7
textstyle2509
100
AcDbText
  0
TEXT
  5
2BEC
330
27F3
100
AcDbEntity
  8
PEN2
100
AcDbText
 10
289.25
 20
78.0
 30
0.0
 40
2.5
  1
16
 50
90.0
  7
textstyle2476
100
AcDbText
  0
CIRCLE
  5
2BED
330
27F3
100
AcDbEntity
  8
PEN1
  6
LTY1
100
AcDbCircle
 10
225.0
 20
215.0
 30
0.0
 40
0.5
  0
CIRCLE
  5
2BEE
330
27F3
100
AcDbEntity
  8
PEN1
  6
LTY1
100
AcDbCircle
 10
225.0
 20
215.0
 30
0.0
 40
1.0
  0
ARC
  5
2BEF
330
27F3
100
AcDbEntity
  8
PEN1
  6
LTY7
100
AcDbCircle
 10
227.5
 20
215.0
 30
0.0
 40
2.5
100
AcDbArc
 50
90.0
 51
270.0
  0
TEXT
  5
2BF0
330
27F3
100
AcDbEntity
  8
PEN2
100
AcDbText
 10
225.5
 20
171.25
 30
0.0
 40
2.5
  1
SPE/PE
  7
textstyle2455
100
AcDbText
  0
TEXT
  5
2BF1
330
27F3
100
AcDbEntity
  8
PEN2
100
AcDbText
 10
281.75
 20
78.0
 30
0.0
 40
2.5
  1
15
 50
90.0
  7
textstyle2422
100
AcDbText
  0
TEXT
  5
2BF2
330
27F3
100
AcDbEntity
  8
PEN2
100
AcDbText
 10
274.25
 20
78.0
 30
0.0
 40
2.5
  1
14
 50
90.0
  7
textstyle2389
100
AcDbText
  0
TEXT
  5
2BF3
330
27F3
100
AcDbEntity
  8
PEN2
100
AcDbText
 10
249.25
 20
78.0
 30
0.0
 40
2.5
  1
10
 50
90.0
  7
textstyle2356
100
AcDbText
  0
TEXT
  5
2BF4
330
27F3
100
AcDbEntity
  8
PEN1
100
AcDbText
 10
25.19120054570259
 20
168.25
 30
0.0
 40
3.5
  1
-A1
  7
textstyle2326
 72
     2
 11
32.8
 21
168.25
 31
0.0
100
AcDbText
  0
TEXT
  5
2BF5
330
27F3
100
AcDbEntity
  8
PEN2
100
AcDbText
 10
22.51739427012278
 20
158.75
 30
0.0
 40
2.5
  1
3UF50
  7
textstyle2327
 72
     2
 11
33.0
 21
158.75
 31
0.0
100
AcDbText
  0
TEXT
  5
2BF6
330
27F3
100
AcDbEntity
  8
PEN2
100
AcDbText
 10
246.75
 20
253.0
 30
0.0
 40
2.5
  1
20
 50
90.0
  7
textstyle2307
100
AcDbText
  0
TEXT
  5
2BF7
330
27F3
100
AcDbEntity
  8
PEN2
100
AcDbText
 10
236.75
 20
253.0
 30
0.0
 40
2.5
  1
19
 50
90.0
  7
textstyle2302
100
AcDbText
  0
TEXT
  5
2BF8
330
27F3
100
AcDbEntity
  8
PEN2
100
AcDbText
 10
65.5
 20
118.75
 30
0.0
 40
2.5
  1
T3
  7
textstyle2287
100
AcDbText
  0
TEXT
  5
2BF9
330
27F3
100
AcDbEntity
  8
PEN2
100
AcDbText
 10
60.5
 20
118.75
 30
0.0
 40
2.5
  1
T2
  7
textstyle2271
100
AcDbText
  0
TEXT
  5
2BFA
330
27F3
100
AcDbEntity
  8
PEN2
100
AcDbText
 10
55.5
 20
118.75
 30
0.0
 40
2.5
  1
T1
  7
textstyle2255
100
AcDbText
  0
TEXT
  5
2BFB
330
27F3
100
AcDbEntity
  8
PEN2
100
AcDbText
 10
164.25
 20
78.0
 30
0.0
 40
2.5
  1
9
 50
90.0
  7
textstyle2222
100
AcDbText
  0
TEXT
  5
2BFC
330
27F3
100
AcDbEntity
  8
PEN2
100
AcDbText
 10
239.25
 20
78.0
 30
0.0
 40
2.5
  1
11
 50
90.0
  7
textstyle2189
100
AcDbText
  0
TEXT
  5
2BFD
330
27F3
100
AcDbEntity
  8
PEN2
100
AcDbText
 10
240.5
 20
118.75
 30
0.0
 40
2.5
  1
5
  7
textstyle2173
100
AcDbText
  0
TEXT
  5
2BFE
330
27F3
100
AcDbEntity
  8
PEN2
100
AcDbText
 10
165.5
 20
118.75
 30
0.0
 40
2.5
  1
1
  7
textstyle2157
100
AcDbText
  0
TEXT
  5
2BFF
330
27F3
100
AcDbEntity
  8
PEN2
100
AcDbText
 10
185.5
 20
118.75
 30
0.0
 40
2.5
  1
2
  7
textstyle2141
100
AcDbText
  0
TEXT
  5
2C00
330
27F3
100
AcDbEntity
  8
PEN2
100
AcDbText
 10
205.5
 20
118.75
 30
0.0
 40
2.5
  1
3
  7
textstyle2125
100
AcDbText
  0
TEXT
  5
2C01
330
27F3
100
AcDbEntity
  8
PEN2
100
AcDbText
 10
223.0
 20
118.75
 30
0.0
 40
2.5
  1
4
  7
textstyle2109
100
AcDbText
  0
TEXT
  5
2C02
330
27F3
100
AcDbEntity
  8
PEN2
100
AcDbText
 10
357.2881991814461
 20
217.5
 30
0.0
 40
2.5
  1
C1,6A
  7
textstyle2063
 72
     2
 11
367.0
 21
217.5
 31
0.0
100
AcDbText
  0
TEXT
  5
2C03
330
27F3
100
AcDbEntity
  8
PEN2
100
AcDbText
 10
373.75
 20
224.25
 30
0.0
 40
2.5
  1
1
 50
90.0
  7
textstyle2083
100
AcDbText
  0
TEXT
  5
2C04
330
27F3
100
AcDbEntity
  8
PEN2
100
AcDbText
 10
373.75
 20
211.3076398362892
 30
0.0
 40
2.5
  1
2
 50
90.0
  7
textstyle2084
 72
     2
 11
373.75
 21
213.25
 31
0.0
100
AcDbText
  0
TEXT
  5
2C05
330
27F3
100
AcDbEntity
  8
PEN2
100
AcDbText
 10
378.75
 20
224.25
 30
0.0
 40
2.5
  1
3
 50
90.0
  7
textstyle2085
100
AcDbText
  0
TEXT
  5
2C06
330
27F3
100
AcDbEntity
  8
PEN2
100
AcDbText
 10
378.75
 20
211.3076398362892
 30
0.0
 40
2.5
  1
4
 50
90.0
  7
textstyle2086
 72
     2
 11
378.75
 21
213.25
 31
0.0
100
AcDbText
  0
TEXT
  5
2C07
330
27F3
100
AcDbEntity
  8
PEN2
100
AcDbText
 10
211.7019099590723
 20
91.25
 30
0.0
 40
2.5
  1
Hauptschalter
  7
textstyle2045
 72
     1
 11
222.5
 21
91.25
 31
0.0
100
AcDbText
  0
TEXT
  5
2C08
330
27F3
100
AcDbEntity
  8
PEN2
100
AcDbText
 10
221.25
 20
109.5
 30
0.0
 40
2.5
  1
21
 50
90.0
  7
textstyle2051
100
AcDbText
  0
TEXT
  5
2C09
330
27F3
100
AcDbEntity
  8
PEN2
100
AcDbText
 10
221.25
 20
96.86527967257845
 30
0.0
 40
2.5
  1
22
 50
90.0
  7
textstyle2052
 72
     2
 11
221.25
 21
100.75
 31
0.0
100
AcDbText
  0
TEXT
  5
2C0A
330
27F3
100
AcDbEntity
  8
PEN4
100
AcDbText
 10
213.6825375170532
 20
104.0
 30
0.0
 40
2.0
  1
B2
  7
textstyle2053
 72
     2
 11
217.1
 21
104.0
 31
0.0
100
AcDbText
  0
TEXT
  5
2C0B
330
27F3
100
AcDbEntity
  8
PEN2
100
AcDbText
 10
183.75
 20
109.5
 30
0.0
 40
2.5
  1
13
 50
90.0
  7
textstyle2038
100
AcDbText
  0
TEXT
  5
2C0C
330
27F3
100
AcDbEntity
  8
PEN2
100
AcDbText
 10
183.75
 20
98.11527967257845
 30
0.0
 40
2.5
  1
14
 50
90.0
  7
textstyle2039
 72
     2
 11
183.75
 21
102.0
 31
0.0
100
AcDbText
  0
TEXT
  5
2C0D
330
27F3
100
AcDbEntity
  8
PEN2
100
AcDbText
 10
175.2281718963165
 20
103.75
 30
0.0
 40
2.5
  1
B8
  7
textstyle2040
 72
     2
 11
179.5
 21
103.75
 31
0.0
100
AcDbText
  0
TEXT
  5
2C0E
330
27F3
100
AcDbEntity
  8
PEN2
100
AcDbText
 10
100.5
 20
118.75
 30
0.0
 40
2.5
  1
T2.
  7
textstyle2016
100
AcDbText
  0
TEXT
  5
2C0F
330
27F3
100
AcDbEntity
  8
PEN2
100
AcDbText
 10
90.5
 20
118.75
 30
0.0
 40
2.5
  1
T1.
  7
textstyle2000
100
AcDbText
  0
TEXT
  5
2C10
330
27F3
100
AcDbEntity
  8
PEN2
100
AcDbText
 10
176.75
 20
253.0
 30
0.0
 40
2.5
  1
2
 50
90.0
  7
textstyle1967
100
AcDbText
  0
TEXT
  5
2C11
330
27F3
100
AcDbEntity
  8
PEN2
100
AcDbText
 10
166.75
 20
253.0
 30
0.0
 40
2.5
  1
1
 50
90.0
  7
textstyle1933
100
AcDbText
  0
TEXT
  5
2C12
330
27F3
100
AcDbEntity
  8
PEN2
100
AcDbText
 10
152.1227830832196
 20
220.0
 30
0.0
 40
2.5
  1
C1,6
  7
textstyle1902
 72
     2
 11
159.5
 21
220.0
 31
0.0
100
AcDbText
  0
TEXT
  5
2C13
330
27F3
100
AcDbEntity
  8
PEN2
100
AcDbText
 10
166.25
 20
226.75
 30
0.0
 40
2.5
  1
1
 50
90.0
  7
textstyle1922
100
AcDbText
  0
TEXT
  5
2C14
330
27F3
100
AcDbEntity
  8
PEN2
100
AcDbText
 10
166.25
 20
213.8076398362892
 30
0.0
 40
2.5
  1
2
 50
90.0
  7
textstyle1923
 72
     2
 11
166.25
 21
215.75
 31
0.0
100
AcDbText
  0
TEXT
  5
2C15
330
27F3
100
AcDbEntity
  8
PEN2
100
AcDbText
 10
288.0
 20
118.75
 30
0.0
 40
2.5
  1
8
  7
textstyle1881
100
AcDbText
  0
TEXT
  5
2C16
330
27F3
100
AcDbEntity
  8
PEN2
100
AcDbText
 10
260.5
 20
118.75
 30
0.0
 40
2.5
  1
11
  7
textstyle1865
100
AcDbText
  0
TEXT
  5
2C17
330
27F3
100
AcDbEntity
  8
PEN2
100
AcDbText
 10
268.0
 20
118.75
 30
0.0
 40
2.5
  1
10
  7
textstyle1849
100
AcDbText
  0
TEXT
  5
2C18
330
27F3
100
AcDbEntity
  8
PEN2
100
AcDbText
 10
278.0
 20
118.75
 30
0.0
 40
2.5
  1
9
  7
textstyle1833
100
AcDbText
  0
TEXT
  5
2C19
330
27F3
100
AcDbEntity
  8
PEN2
100
AcDbText
 10
343.0
 20
118.75
 30
0.0
 40
2.5
  1
7
  7
textstyle1817
100
AcDbText
  0
TEXT
  5
2C1A
330
27F3
100
AcDbEntity
  8
PEN2
100
AcDbText
 10
320.2933151432469
 20
103.75
 30
0.0
 40
2.5
  1
Hauptschütz
  7
textstyle1750
 72
     1
 11
330.0
 21
103.75
 31
0.0
100
AcDbText
  0
TEXT
  5
2C1B
330
27F3
100
AcDbEntity
  8
PEN2
100
AcDbText
 10
341.25
 20
98.50000000000001
 30
0.0
 40
2.5
  1
A1
 50
90.0
  7
textstyle1771
100
AcDbText
  0
TEXT
  5
2C1C
330
27F3
100
AcDbEntity
  8
PEN2
100
AcDbText
 10
341.25
 20
87.22817189631651
 30
0.0
 40
2.5
  1
A2
 50
90.0
  7
textstyle1772
 72
     2
 11
341.25
 21
91.5
 31
0.0
100
AcDbText
  0
TEXT
  5
2C1D
330
27F3
100
AcDbEntity
  8
PEN2
100
AcDbText
 10
343.0
 20
171.25
 30
0.0
 40
2.5
  1
6
  7
textstyle1734
100
AcDbText
  0
TEXT
  5
2C1E
330
27F3
100
AcDbEntity
  8
PEN2
100
AcDbText
 10
248.0
 20
171.25
 30
0.0
 40
2.5
  1
B
  7
textstyle1718
100
AcDbText
  0
TEXT
  5
2C1F
330
27F3
100
AcDbEntity
  8
PEN2
100
AcDbText
 10
238.0
 20
171.25
 30
0.0
 40
2.5
  1
A
  7
textstyle1702
100
AcDbText
  0
TEXT
  5
2C20
330
27F3
100
AcDbEntity
  8
PEN2
100
AcDbText
 10
178.0
 20
171.25
 30
0.0
 40
2.5
  1
A2
  7
textstyle1686
100
AcDbText
  0
TEXT
  5
2C21
330
27F3
100
AcDbEntity
  8
PEN2
100
AcDbText
 10
168.0
 20
171.25
 30
0.0
 40
2.5
  1
A1
  7
textstyle1670
100
AcDbText
  0
TEXT
  5
2C22
330
27F3
100
AcDbEntity
  8
PEN2
100
AcDbText
 10
65.5
 20
171.25
 30
0.0
 40
2.5
  1
L3
  7
textstyle1654
100
AcDbText
  0
TEXT
  5
2C23
330
27F3
100
AcDbEntity
  8
PEN2
100
AcDbText
 10
60.5
 20
171.25
 30
0.0
 40
2.5
  1
L2
  7
textstyle1638
100
AcDbText
  0
TEXT
  5
2C24
330
27F3
100
AcDbEntity
  8
PEN2
100
AcDbText
 10
55.5
 20
171.25
 30
0.0
 40
2.5
  1
L1
  7
textstyle1622
100
AcDbText
  0
TEXT
  5
2C25
330
27F3
100
AcDbEntity
  8
PEN2
100
AcDbText
 10
99.25
 20
78.0
 30
0.0
 40
2.5
  1
8
 50
90.0
  7
textstyle1528
100
AcDbText
  0
TEXT
  5
2C26
330
27F3
100
AcDbEntity
  8
PEN2
100
AcDbText
 10
89.25
 20
78.0
 30
0.0
 40
2.5
  1
7
 50
90.0
  7
textstyle1494
100
AcDbText
  0
TEXT
  5
2C27
330
27F3
100
AcDbEntity
  8
PEN2
100
AcDbText
 10
53.75
 20
97.0
 30
0.0
 40
2.5
  1
1
 50
90.0
  7
textstyle1483
100
AcDbText
  0
TEXT
  5
2C28
330
27F3
100
AcDbEntity
  8
PEN2
100
AcDbText
 10
53.75
 20
87.55763983628924
 30
0.0
 40
2.5
  1
2
 50
90.0
  7
textstyle1484
 72
     2
 11
53.75
 21
89.50000000000001
 31
0.0
100
AcDbText
  0
TEXT
  5
2C29
330
27F3
100
AcDbEntity
  8
PEN2
100
AcDbText
 10
58.75
 20
97.0
 30
0.0
 40
2.5
  1
3
 50
90.0
  7
textstyle1485
100
AcDbText
  0
TEXT
  5
2C2A
330
27F3
100
AcDbEntity
  8
PEN2
100
AcDbText
 10
58.75
 20
87.55763983628924
 30
0.0
 40
2.5
  1
4
 50
90.0
  7
textstyle1486
 72
     2
 11
58.75
 21
89.50000000000001
 31
0.0
100
AcDbText
  0
TEXT
  5
2C2B
330
27F3
100
AcDbEntity
  8
PEN2
100
AcDbText
 10
63.75
 20
97.0
 30
0.0
 40
2.5
  1
5
 50
90.0
  7
textstyle1487
100
AcDbText
  0
TEXT
  5
2C2C
330
27F3
100
AcDbEntity
  8
PEN2
100
AcDbText
 10
63.75
 20
87.55763983628924
 30
0.0
 40
2.5
  1
6
 50
90.0
  7
textstyle1488
 72
     2
 11
63.75
 21
89.50000000000001
 31
0.0
100
AcDbText
  0
TEXT
  5
2C2D
330
27F3
100
AcDbEntity
  8
PEN4
100
AcDbText
 10
46.02837653478854
 20
91.5
 30
0.0
 40
2.0
  1
D7
  7
textstyle1489
 72
     2
 11
49.6
 21
91.5
 31
0.0
100
AcDbText
  0
TEXT
  5
2C2E
330
27F3
100
AcDbEntity
  8
PEN2
100
AcDbText
 10
259.25
 20
78.0
 30
0.0
 40
2.5
  1
12
 50
90.0
  7
textstyle1444
100
AcDbText
  0
TEXT
  5
2C2F
330
27F3
100
AcDbEntity
  8
PEN2
100
AcDbText
 10
374.25
 20
253.0
 30
0.0
 40
2.5
  1
3
 50
90.0
  7
textstyle1409
100
AcDbText
  0
TEXT
  5
2C30
330
27F3
100
AcDbEntity
  8
PEN2
100
AcDbText
 10
95.5
 20
229.25
 30
0.0
 40
2.5
  1
PE
  7
textstyle1398
100
AcDbText
  0
TEXT
  5
2C31
330
27F3
100
AcDbEntity
  8
PEN2
100
AcDbText
 10
266.75
 20
78.0
 30
0.0
 40
2.5
  1
13
 50
90.0
  7
textstyle1366
100
AcDbText
  0
TEXT
  5
2C32
330
27F3
100
AcDbEntity
  8
PEN2
100
AcDbText
 10
346.75
 20
253.0
 30
0.0
 40
2.5
  1
5
 50
90.0
  7
textstyle1333
100
AcDbText
  0
TEXT
  5
2C33
330
27F3
100
AcDbEntity
  8
PEN2
100
AcDbText
 10
341.75
 20
253.0
 30
0.0
 40
2.5
  1
6
 50
90.0
  7
textstyle1300
100
AcDbText
  0
TEXT
  5
2C34
330
27F3
100
AcDbEntity
  8
PEN2
100
AcDbText
 10
379.25
 20
253.0
 30
0.0
 40
2.5
  1
4
 50
90.0
  7
textstyle1267
100
AcDbText
  0
TEXT
  5
2C35
330
27F3
100
AcDbEntity
  8
PEN2
100
AcDbText
 10
203.75
 20
109.5
 30
0.0
 40
2.5
  1
83
 50
90.0
  7
textstyle1260
100
AcDbText
  0
TEXT
  5
2C36
330
27F3
100
AcDbEntity
  8
PEN2
100
AcDbText
 10
203.75
 20
98.11527967257845
 30
0.0
 40
2.5
  1
84
 50
90.0
  7
textstyle1261
 72
     2
 11
203.75
 21
102.0
 31
0.0
100
AcDbText
  0
TEXT
  5
2C37
330
27F3
100
AcDbEntity
  8
PEN4
100
AcDbText
 10
193.5283765347885
 20
104.0
 30
0.0
 40
2.0
  1
D7
  7
textstyle1262
 72
     2
 11
197.1
 21
104.0
 31
0.0
100
AcDbText
  0
TEXT
  5
2C38
330
27F3
100
AcDbEntity
  8
PEN2
100
AcDbText
 10
79.25
 20
253.0
 30
0.0
 40
2.5
  1
PE
 50
90.0
  7
textstyle1221
100
AcDbText
  0
TEXT
  5
2C39
330
27F3
100
AcDbEntity
  8
PEN2
100
AcDbText
 10
64.25
 20
253.0
 30
0.0
 40
2.5
  1
1
 50
90.0
  7
textstyle1188
100
AcDbText
  0
TEXT
  5
2C3A
330
27F3
100
AcDbEntity
  8
PEN2
100
AcDbText
 10
59.25
 20
253.0
 30
0.0
 40
2.5
  1
2
 50
90.0
  7
textstyle1155
100
AcDbText
  0
TEXT
  5
2C3B
330
27F3
100
AcDbEntity
  8
PEN2
100
AcDbText
 10
54.25
 20
253.0
 30
0.0
 40
2.5
  1
3
 50
90.0
  7
textstyle1121
100
AcDbText
  0
TEXT
  5
2C3C
330
27F3
100
AcDbEntity
  8
PEN2
100
AcDbText
 10
64.25
 20
78.0
 30
0.0
 40
2.5
  1
4
 50
90.0
  7
textstyle1088
100
AcDbText
  0
TEXT
  5
2C3D
330
27F3
100
AcDbEntity
  8
PEN2
100
AcDbText
 10
59.25
 20
78.0
 30
0.0
 40
2.5
  1
5
 50
90.0
  7
textstyle1055
100
AcDbText
  0
TEXT
  5
2C3E
330
27F3
100
AcDbEntity
  8
PEN2
100
AcDbText
 10
54.25
 20
78.0
 30
0.0
 40
2.5
  1
6
 50
90.0
  7
textstyle1021
100
AcDbText
  0
TEXT
  5
2C3F
330
27F3
100
AcDbEntity
  8
PEN2
100
AcDbText
 10
70.5
 20
188.75
 30
0.0
 40
2.5
  1
k
  7
textstyle1010
100
AcDbText
  0
TEXT
  5
2C40
330
27F3
100
AcDbEntity
  8
PEN2
100
AcDbText
 10
70.5
 20
178.75
 30
0.0
 40
2.5
  1
l
  7
textstyle1011
100
AcDbText
  0
TEXT
  5
2C41
330
27F3
100
AcDbEntity
  8
PEN2
100
AcDbText
 10
30.40723055934515
 20
183.75
 30
0.0
 40
2.5
  1
Stromwandler
  7
textstyle951
 72
     2
 11
52.0
 21
183.75
 31
0.0
100
AcDbText
  0
TEXT
  5
2C42
330
27F3
100
AcDbEntity
  8
PEN2
100
AcDbText
 10
58.75
 20
191.75
 30
0.0
 40
2.5
  1
K
 50
90.0
  7
textstyle974
100
AcDbText
  0
TEXT
  5
2C43
330
27F3
100
AcDbEntity
  8
PEN2
100
AcDbText
 10
58.75
 20
176.3076398362892
 30
0.0
 40
2.5
  1
L
 50
90.0
  7
textstyle975
 72
     2
 11
58.75
 21
178.25
 31
0.0
100
AcDbText
  0
TEXT
  5
2C44
330
27F3
100
AcDbEntity
  8
PEN2
100
AcDbText
 10
25.40381991814461
 20
198.75
 30
0.0
 40
2.5
  1
Hauptschalter
  7
textstyle895
 72
     2
 11
47.0
 21
198.75
 31
0.0
100
AcDbText
  0
TEXT
  5
2C45
330
27F3
100
AcDbEntity
  8
PEN2
100
AcDbText
 10
24.2049795361528
 20
212.5
 30
0.0
 40
2.5
  1
5,5-8A
  7
textstyle901
 72
     2
 11
34.5
 21
212.5
 31
0.0
100
AcDbText
  0
TEXT
  5
2C46
330
27F3
100
AcDbEntity
  8
PEN2
100
AcDbText
 10
53.75
 20
226.75
 30
0.0
 40
2.5
  1
1
 50
90.0
  7
textstyle922
100
AcDbText
  0
TEXT
  5
2C47
330
27F3
100
AcDbEntity
  8
PEN2
100
AcDbText
 10
53.75
 20
198.8076398362892
 30
0.0
 40
2.5
  1
2
 50
90.0
  7
textstyle923
 72
     2
 11
53.75
 21
200.75
 31
0.0
100
AcDbText
  0
TEXT
  5
2C48
330
27F3
100
AcDbEntity
  8
PEN2
100
AcDbText
 10
58.75
 20
226.75
 30
0.0
 40
2.5
  1
3
 50
90.0
  7
textstyle924
100
AcDbText
  0
TEXT
  5
2C49
330
27F3
100
AcDbEntity
  8
PEN2
100
AcDbText
 10
58.75
 20
198.8076398362892
 30
0.0
 40
2.5
  1
4
 50
90.0
  7
textstyle925
 72
     2
 11
58.75
 21
200.75
 31
0.0
100
AcDbText
  0
TEXT
  5
2C4A
330
27F3
100
AcDbEntity
  8
PEN2
100
AcDbText
 10
63.75
 20
226.75
 30
0.0
 40
2.5
  1
5
 50
90.0
  7
textstyle926
100
AcDbText
  0
TEXT
  5
2C4B
330
27F3
100
AcDbEntity
  8
PEN2
100
AcDbText
 10
63.75
 20
198.8076398362892
 30
0.0
 40
2.5
  1
6
 50
90.0
  7
textstyle927
 72
     2
 11
63.75
 21
200.75
 31
0.0
100
AcDbText
  0
LINE
  5
2C4C
330
27F3
100
AcDbEntity
  8
PEN1
  6
LTY1
100
AcDbLine
 10
172.5
 20
140.0
 30
0.0
 11
172.5
 21
145.0
 31
0.0
  0
LINE
  5
2C4D
330
27F3
100
AcDbEntity
  8
PEN1
  6
LTY1
100
AcDbLine
 10
172.5
 20
140.0
 30
0.0
 11
170.0
 21
140.0
 31
0.0
  0
LINE
  5
2C4E
330
27F3
100
AcDbEntity
  8
PEN1
  6
LTY1
100
AcDbLine
 10
170.0
 20
140.0
 30
0.0
 11
175.0
 21
140.0
 31
0.0
  0
LINE
  5
2C4F
330
27F3
100
AcDbEntity
  8
PEN1
  6
LTY1
100
AcDbLine
 10
170.0
 20
140.0
 30
0.0
 11
172.5
 21
135.0
 31
0.0
  0
LINE
  5
2C50
330
27F3
100
AcDbEntity
  8
PEN1
  6
LTY1
100
AcDbLine
 10
172.5
 20
135.0
 30
0.0
 11
175.0
 21
140.0
 31
0.0
  0
LINE
  5
2C51
330
27F3
100
AcDbEntity
  8
PEN1
  6
LTY1
100
AcDbLine
 10
170.0
 20
135.0
 30
0.0
 11
175.0
 21
135.0
 31
0.0
  0
LINE
  5
2C52
330
27F3
100
AcDbEntity
  8
PEN1
  6
LTY1
100
AcDbLine
 10
172.5
 20
135.0
 30
0.0
 11
172.5
 21
130.0
 31
0.0
  0
ENDBLK
  5
27F5
330
27F3
100
AcDbEntity
  8
0
100
AcDbBlockEnd
  0
ENDSEC
  0
SECTION
  2
ENTITIES
  0
INSERT
  5
2C53
330
1287
100
AcDbEntity
  8
SYMBOL
100
AcDbBlockReference
  2
ALLBLOCK201030
 10
0.0
 20
0.0
 30
0.0
  0
VIEWPORT
  5
137B
330
1283
100
AcDbEntity
 67
     1
  8
0
 62
     2
420
 16776960
348
1297
100
AcDbViewport
 10
5.25
 20
4.0
 30
0.0
 40
11.638
 41
8.993
 68
     1
 69
     1
 12
5.25
 22
4.0
 13
0.0
 23
0.0
 14
0.5
 24
0.5
 15
0.5
 25
0.5
 16
0.0
 26
0.0
 36
1.0
 17
0.0
 27
0.0
 37
0.0
 42
50.0
 43
0.0
 44
0.0
 45
8.993
 50
0.0
 51
0.0
 72
   100
 90
   557152
  1

281
     0
 71
     1
 74
     0
110
0.0
120
0.0
130
0.0
111
1.0
121
0.0
131
0.0
112
0.0
122
1.0
132
0.0
 79
     0
146
0.0
170
     0
 61
     5
292
     1
282
     1
141
0.0
142
0.0
 63
   250
421
  3355443
361
137C
  0
ENDSEC
  0
SECTION
  2
OBJECTS
  0
DICTIONARY
  5
1275
330
0
100
AcDbDictionary
281
     1
  3
ACAD_CIP_PREVIOUS_PRODUCT_INFO
350
1DEF
  3
ACAD_COLOR
350
1DEA
  3
ACAD_DETAILVIEWSTYLE
350
1DE3
  3
ACAD_GROUP
350
1276
  3
ACAD_LAYOUT
350
1282
  3
ACAD_MATERIAL
350
12AB
  3
ACAD_MLEADERSTYLE
350
12D3
  3
ACAD_MLINESTYLE
350
127F
  3
ACAD_PLOTSETTINGS
350
1281
  3
ACAD_PLOTSTYLENAME
350
1277
  3
ACAD_SCALELIST
350
12AF
  3
ACAD_SECTIONVIEWSTYLE
350
1DE4
  3
ACAD_TABLESTYLE
350
12D1
  3
ACAD_VISUALSTYLE
350
1292
  3
ACDB_RECOMPOSE_DATA
350
2C5F
  3
AcDbVariableDictionary
350
1DDC
  3
QCAD_OBJECTS
350
12D7
  0
SUN
  5
12D5
330
1291
100
AcDbSun
 90
        1
290
     1
 63
     7
421
 16777215
 40
1.0
291
     1
 91
  2455826
 92
 54000000
292
     0
 70
     0
 71
   256
280
     1
  0
DICTIONARY
  5
2778
330
126C
100
AcDbDictionary
280
     1
281
     1
  3
ACAD_LAYERSTATES
360
2779
  0
DICTIONARY
  5
1E24
330
1287
100
AcDbDictionary
280
     1
281
     1
  3
ACAD_SORTENTS
360
1E25
  0
SUN
  5
137C
330
137B
100
AcDbSun
 90
        1
290
     1
 63
     7
421
 16777215
 40
1.0
291
     1
 91
  2455826
 92
 54000000
292
     0
 70
     0
 71
   256
280
     1
  0
XRECORD
  5
1DEF
102
{ACAD_REACTORS
330
1275
102
}
330
1275
100
AcDbXrecord
280
     1
300
ACD
300
2013
300
ACD_F_S
  0
DICTIONARY
  5
1DEA
102
{ACAD_REACTORS
330
1275
102
}
330
1275
100
AcDbDictionary
281
     1
  0
DICTIONARY
  5
1DE3
102
{ACAD_REACTORS
330
1275
102
}
330
1275
100
AcDbDictionary
281
     1
  3
Imperial24
350
1DEC
  0
DICTIONARY
  5
1276
102
{ACAD_REACTORS
330
1275
102
}
330
1275
100
AcDbDictionary
281
     1
  0
DICTIONARY
  5
1282
102
{ACAD_REACTORS
330
1275
102
}
330
1275
100
AcDbDictionary
281
     1
  3
Layout1
350
1286
  3
Model
350
128A
  0
DICTIONARY
  5
12AB
102
{ACAD_REACTORS
330
1275
102
}
330
1275
100
AcDbDictionary
281
     1
  3
ByBlock
350
12AD
  3
ByLayer
350
12AC
  3
Global
350
12AE
  0
DICTIONARY
  5
12D3
102
{ACAD_REACTORS
330
1275
102
}
330
1275
100
AcDbDictionary
281
     1
  3
Standard
350
12D4
  0
DICTIONARY
  5
127F
102
{ACAD_REACTORS
330
1275
102
}
330
1275
100
AcDbDictionary
281
     1
  3
Standard
350
1280
  0
DICTIONARY
  5
1281
102
{ACAD_REACTORS
330
1275
102
}
330
1275
100
AcDbDictionary
281
     1
  0
ACDBDICTIONARYWDFLT
  5
1277
102
{ACAD_REACTORS
330
1275
102
}
330
1275
100
AcDbDictionary
281
     1
  3
Normal
350
1278
100
AcDbDictionaryWithDefault
340
1278
  0
DICTIONARY
  5
12AF
102
{ACAD_REACTORS
330
1275
102
}
330
1275
100
AcDbDictionary
281
     1
  3
A0
350
12B0
  3
A1
350
12B1
  3
A2
350
12B2
  3
A3
350
12B3
  3
A4
350
12B4
  3
A5
350
12B5
  3
A6
350
12B6
  3
A7
350
12B7
  3
A8
350
12B8
  3
A9
350
12B9
  3
B0
350
12BA
  3
B1
350
12BB
  3
B2
350
12BC
  3
B3
350
12BD
  3
B4
350
12BE
  3
B5
350
12BF
  3
B6
350
12C0
  3
B7
350
12C1
  3
B8
350
12C2
  3
B9
350
12C3
  3
C0
350
12C4
  3
C1
350
12C5
  3
C2
350
12C6
  3
C3
350
12C7
  3
C4
350
12C8
  3
C5
350
12C9
  3
C6
350
12CA
  3
C7
350
12CB
  3
C8
350
12CC
  3
C9
350
12CD
  3
D0
350
12CE
  3
D1
350
12CF
  3
D2
350
12D0
  0
DICTIONARY
  5
1DE4
102
{ACAD_REACTORS
330
1275
102
}
330
1275
100
AcDbDictionary
281
     1
  3
Imperial24
350
1DEB
  0
DICTIONARY
  5
12D1
102
{ACAD_REACTORS
330
1275
102
}
330
1275
100
AcDbDictionary
281
     1
  3
Standard
350
12D2
  0
DICTIONARY
  5
1292
102
{ACAD_REACTORS
330
1275
102
}
330
1275
100
AcDbDictionary
281
     1
  3
2dWireframe
350
1297
  3
Basic
350
129A
  3
Brighten
350
129E
  3
ColorChange
350
12A2
  3
Conceptual
350
129C
  3
Dim
350
129D
  3
EdgeColorOff
350
12A5
  3
Facepattern
350
12A1
  3
Flat
350
1293
  3
FlatWithEdges
350
1294
  3
Gouraud
350
1295
  3
GouraudWithEdges
350
1296
  3
Hidden
350
1299
  3
JitterOff
350
12A3
  3
Linepattern
350
12A0
  3
OverhangOff
350
12A4
  3
Realistic
350
129B
  3
Shaded
350
12AA
  3
Shaded with edges
350
12A9
  3
Shades of Gray
350
12A6
  3
Sketchy
350
12A7
  3
Thicken
350
129F
  3
Wireframe
350
1298
  3
X-Ray
350
12A8
  0
XRECORD
  5
2C5F
102
{ACAD_REACTORS
330
1275
102
}
330
1275
100
AcDbXrecord
280
     1
 90
        1
330
12D2
  0
DICTIONARY
  5
1DDC
102
{ACAD_REACTORS
330
1275
102
}
330
1275
100
AcDbDictionary
281
     1
  3
CANNOSCALE
350
1DDD
  3
CMLEADERSTYLE
350
1DE2
  3
CTABLESTYLE
350
1DE1
  3
CVIEWDETAILSTYLE
350
276C
  3
CVIEWSECTIONSTYLE
350
276D
  0
DICTIONARY
  5
12D7
102
{ACAD_REACTORS
330
1275
102
}
330
1275
100
AcDbDictionary
281
     1
  3
ColorSettings/BackgroundColor
350
12D9
  3
ColorSettings/ColorMode
350
12DA
  3
Grid/DisplayGrid00
350
12DB
  3
Grid/DisplayGrid01
350
12DC
  3
Grid/DisplayGrid02
350
12DD
  3
Grid/DisplayGrid03
350
12DE
  3
Grid/GridSpacingX00
350
12DF
  3
Grid/GridSpacingX01
350
12E0
  3
Grid/GridSpacingX02
350
12E1
  3
Grid/GridSpacingX03
350
12E2
  3
Grid/GridSpacingY00
350
12E3
  3
Grid/GridSpacingY01
350
12E4
  3
Grid/GridSpacingY02
350
12E5
  3
Grid/GridSpacingY03
350
12E6
  3
Grid/IsometricGrid00
350
12E7
  3
Grid/IsometricGrid01
350
12E8
  3
Grid/IsometricGrid02
350
12E9
  3
Grid/IsometricGrid03
350
12EA
  3
Grid/IsometricProjection00
350
12EB
  3
Grid/IsometricProjection01
350
12EC
  3
Grid/IsometricProjection02
350
12ED
  3
Grid/IsometricProjection03
350
12EE
  3
Grid/MetaGridSpacingX00
350
12EF
  3
Grid/MetaGridSpacingX01
350
12F0
  3
Grid/MetaGridSpacingX02
350
12F1
  3
Grid/MetaGridSpacingX03
350
12F2
  3
Grid/MetaGridSpacingY00
350
12F3
  3
Grid/MetaGridSpacingY01
350
12F4
  3
Grid/MetaGridSpacingY02
350
12F5
  3
Grid/MetaGridSpacingY03
350
12F6
  3
MultiPageSettings/Columns
350
12F7
  3
MultiPageSettings/GlueMarginsBottom
350
12F8
  3
MultiPageSettings/GlueMarginsLeft
350
12F9
  3
MultiPageSettings/GlueMarginsRight
350
12FA
  3
MultiPageSettings/GlueMarginsTop
350
12FB
  3
MultiPageSettings/PrintCropMarks
350
12FC
  3
MultiPageSettings/Rows
350
12FD
  3
PageSettings/OffsetX
350
12FE
  3
PageSettings/OffsetY
350
12FF
  3
PageSettings/PageOrientation
350
1300
  3
PageSettings/PaperHeight
350
1301
  3
PageSettings/PaperWidth
350
1302
  3
PageSettings/Scale
350
1303
  3
PageSettings/ShowPaperBorders
350
1304
  3
QCADVersion
350
12D8
  3
UnitSettings/PaperUnit
350
1305
  3
ViewportCenter
350
1306
  3
ViewportHeight
350
1307
  3
ViewportWidth
350
1308
  0
DICTIONARY
  5
2779
102
{ACAD_REACTORS
330
2778
102
}
330
2778
100
AcDbDictionary
281
     1
  0
SORTENTSTABLE
  5
1E25
102
{ACAD_REACTORS
330
1E24
102
}
330
1E24
100
AcDbSortentsTable
330
1287
  0
ACDBDETAILVIEWSTYLE
  5
1DEC
102
{ACAD_REACTORS
330
1DE3
102
}
330
1DE3
100
AcDbModelDocViewStyle
 70
     0
  3
Imperial24
290
     0
100
AcDbDetailViewStyle
 70
     0
 71
     0
 90
        3
 71
     1
340
127A
 62
   256
 40
0.24
340
0
 62
   256
 40
0.24
300

 40
0.36
280
     3
 71
     2
340
127E
 90
       25
 62
   256
 71
     3
340
127A
 62
   256
 40
0.24
 90
        1
 40
0.75
 90
        1
300
%<\AcVar ViewType \f "%tc1">% %<\AcVar ViewDetailId>%\PVARIA %<\AcVar ViewScale \f "%sn">%
 71
     4
340
127E
 90
       25
 62
   256
340
127E
 90
       25
 62
   256
280
     0
  0
LAYOUT
  5
1286
102
{ACAD_REACTORS
330
1282
102
}
330
1282
100
AcDbPlotSettings
  1

  2
none_device
  4
Letter_(8.50_x_11.00_Inches)
  6

 40
6.349999999999998
 41
6.349999999999998
 42
6.35001
 43
6.35001
 44
215.9
 45
279.4
 46
0.0
 47
0.0
 48
0.0
 49
0.0
140
0.0
141
0.0
142
1.0
143
1.0
 70
   688
 72
     0
 73
     1
 74
     5
  7

 75
    16
147
1.0
 76
     0
 77
     2
 78
   300
148
0.0
149
0.0
100
AcDbLayout
  1
Layout1
 70
     1
 71
     1
 10
-0.25
 20
-0.25
 11
10.75
 21
8.25
 12
0.0
 22
0.0
 32
0.0
 14
1.000000000000000E+20
 24
1.000000000000000E+20
 34
1.000000000000000E+20
 15
-1.000000000000000E+20
 25
-1.000000000000000E+20
 35
-1.000000000000000E+20
146
0.0
 13
0.0
 23
0.0
 33
0.0
 16
1.0
 26
0.0
 36
0.0
 17
0.0
 27
1.0
 37
0.0
 76
     0
330
1283
331
137B
  0
LAYOUT
  5
128A
102
{ACAD_REACTORS
330
1282
102
}
330
1282
100
AcDbPlotSettings
  1

  2
none_device
  4
Letter_(8.50_x_11.00_Inches)
  6

 40
6.349999999999998
 41
6.349999999999998
 42
6.350005079999998
 43
6.350005079999998
 44
215.9
 45
279.4
 46
0.0
 47
0.0
 48
0.0
 49
0.0
140
0.0
141
0.0
142
1.0
143
1.0
 70
  1712
 72
     0
 73
     0
 74
     0
  7

 75
     0
147
1.0
 76
     0
 77
     2
 78
   300
148
0.0
149
0.0
100
AcDbLayout
  1
Model
 70
     1
 71
     0
 10
0.0
 20
0.0
 11
420.0
 21
297.0
 12
0.0
 22
0.0
 32
0.0
 14
0.0
 24
0.0
 34
0.0
 15
420.0
 25
297.0
 35
0.0
146
0.0
 13
0.0
 23
0.0
 33
0.0
 16
1.0
 26
0.0
 36
0.0
 17
0.0
 27
1.0
 37
0.0
 76
     0
330
1287
331
1291
  0
MATERIAL
  5
12AD
102
{ACAD_REACTORS
330
12AB
102
}
330
12AB
100
AcDbMaterial
  1
ByBlock
  0
MATERIAL
  5
12AC
102
{ACAD_REACTORS
330
12AB
102
}
330
12AB
100
AcDbMaterial
  1
ByLayer
  0
MATERIAL
  5
12AE
102
{ACAD_REACTORS
330
12AB
102
}
330
12AB
100
AcDbMaterial
  1
Global
  0
MLEADERSTYLE
  5
12D4
102
{ACAD_REACTORS
330
12D3
102
}
330
12D3
100
AcDbMLeaderStyle
179
     2
170
     2
171
     1
172
     0
 90
        2
 40
0.0
 41
0.0
173
     1
 91
-1056964608
340
127C
 92
       -2
290
     1
 42
0.09
291
     1
 43
0.36
  3
Standard
 44
0.18
300

342
127A
174
     1
178
     6
175
     1
176
     0
 93
-1056964608
 45
0.18
292
     0
297
     0
 46
0.18
 94
-1056964608
 47
1.0
 49
1.0
140
1.0
293
     1
141
0.0
294
     1
177
     0
142
1.0
295
     0
296
     0
143
0.125
271
     0
272
     9
273
     9
298
     0
  0
MLINESTYLE
  5
1280
102
{ACAD_REACTORS
330
127F
102
}
330
127F
100
AcDbMlineStyle
  2
STANDARD
 70
     0
  3

 62
   256
 51
90.0
 52
90.0
 71
     2
 49
0.5
 62
   256
  6
BYLAYER
 49
-0.5
 62
   256
  6
BYLAYER
  0
ACDBPLACEHOLDER
  5
1278
102
{ACAD_REACTORS
330
1277
102
}
330
1277
  0
SCALE
  5
12B0
102
{ACAD_REACTORS
330
12AF
102
}
330
12AF
100
AcDbScale
 70
     0
300
1:1
140
1.0
141
1.0
290
     1
  0
SCALE
  5
12B1
102
{ACAD_REACTORS
330
12AF
102
}
330
12AF
100
AcDbScale
 70
     0
300
1:2
140
1.0
141
2.0
290
     0
  0
SCALE
  5
12B2
102
{ACAD_REACTORS
330
12AF
102
}
330
12AF
100
AcDbScale
 70
     0
300
1:4
140
1.0
141
4.0
290
     0
  0
SCALE
  5
12B3
102
{ACAD_REACTORS
330
12AF
102
}
330
12AF
100
AcDbScale
 70
     0
300
1:5
140
1.0
141
5.0
290
     0
  0
SCALE
  5
12B4
102
{ACAD_REACTORS
330
12AF
102
}
330
12AF
100
AcDbScale
 70
     0
300
1:8
140
1.0
141
8.0
290
     0
  0
SCALE
  5
12B5
102
{ACAD_REACTORS
330
12AF
102
}
330
12AF
100
AcDbScale
 70
     0
300
1:10
140
1.0
141
10.0
290
     0
  0
SCALE
  5
12B6
102
{ACAD_REACTORS
330
12AF
102
}
330
12AF
100
AcDbScale
 70
     0
300
1:16
140
1.0
141
16.0
290
     0
  0
SCALE
  5
12B7
102
{ACAD_REACTORS
330
12AF
102
}
330
12AF
100
AcDbScale
 70
     0
300
1:20
140
1.0
141
20.0
290
     0
  0
SCALE
  5
12B8
102
{ACAD_REACTORS
330
12AF
102
}
330
12AF
100
AcDbScale
 70
     0
300
1:30
140
1.0
141
30.0
290
     0
  0
SCALE
  5
12B9
102
{ACAD_REACTORS
330
12AF
102
}
330
12AF
100
AcDbScale
 70
     0
300
1:40
140
1.0
141
40.0
290
     0
  0
SCALE
  5
12BA
102
{ACAD_REACTORS
330
12AF
102
}
330
12AF
100
AcDbScale
 70
     0
300
1:50
140
1.0
141
50.0
290
     0
  0
SCALE
  5
12BB
102
{ACAD_REACTORS
330
12AF
102
}
330
12AF
100
AcDbScale
 70
     0
300
1:100
140
1.0
141
100.0
290
     0
  0
SCALE
  5
12BC
102
{ACAD_REACTORS
330
12AF
102
}
330
12AF
100
AcDbScale
 70
     0
300
2:1
140
2.0
141
1.0
290
     0
  0
SCALE
  5
12BD
102
{ACAD_REACTORS
330
12AF
102
}
330
12AF
100
AcDbScale
 70
     0
300
4:1
140
4.0
141
1.0
290
     0
  0
SCALE
  5
12BE
102
{ACAD_REACTORS
330
12AF
102
}
330
12AF
100
AcDbScale
 70
     0
300
8:1
140
8.0
141
1.0
290
     0
  0
SCALE
  5
12BF
102
{ACAD_REACTORS
330
12AF
102
}
330
12AF
100
AcDbScale
 70
     0
300
10:1
140
10.0
141
1.0
290
     0
  0
SCALE
  5
12C0
102
{ACAD_REACTORS
330
12AF
102
}
330
12AF
100
AcDbScale
 70
     0
300
100:1
140
100.0
141
1.0
290
     0
  0
SCALE
  5
12C1
102
{ACAD_REACTORS
330
12AF
102
}
330
12AF
100
AcDbScale
 70
     0
300
1/128" = 1'-0"
140
0.0078125
141
12.0
290
     0
  0
SCALE
  5
12C2
102
{ACAD_REACTORS
330
12AF
102
}
330
12AF
100
AcDbScale
 70
     0
300
1/64" = 1'-0"
140
0.015625
141
12.0
290
     0
  0
SCALE
  5
12C3
102
{ACAD_REACTORS
330
12AF
102
}
330
12AF
100
AcDbScale
 70
     0
300
1/32" = 1'-0"
140
0.03125
141
12.0
290
     0
  0
SCALE
  5
12C4
102
{ACAD_REACTORS
330
12AF
102
}
330
12AF
100
AcDbScale
 70
     0
300
1/16" = 1'-0"
140
0.0625
141
12.0
290
     0
  0
SCALE
  5
12C5
102
{ACAD_REACTORS
330
12AF
102
}
330
12AF
100
AcDbScale
 70
     0
300
3/32" = 1'-0"
140
0.09375
141
12.0
290
     0
  0
SCALE
  5
12C6
102
{ACAD_REACTORS
330
12AF
102
}
330
12AF
100
AcDbScale
 70
     0
300
1/8" = 1'-0"
140
0.125
141
12.0
290
     0
  0
SCALE
  5
12C7
102
{ACAD_REACTORS
330
12AF
102
}
330
12AF
100
AcDbScale
 70
     0
300
3/16" = 1'-0"
140
0.1875
141
12.0
290
     0
  0
SCALE
  5
12C8
102
{ACAD_REACTORS
330
12AF
102
}
330
12AF
100
AcDbScale
 70
     0
300
1/4" = 1'-0"
140
0.25
141
12.0
290
     0
  0
SCALE
  5
12C9
102
{ACAD_REACTORS
330
12AF
102
}
330
12AF
100
AcDbScale
 70
     0
300
3/8" = 1'-0"
140
0.375
141
12.0
290
     0
  0
SCALE
  5
12CA
102
{ACAD_REACTORS
330
12AF
102
}
330
12AF
100
AcDbScale
 70
     0
300
1/2" = 1'-0"
140
0.5
141
12.0
290
     0
  0
SCALE
  5
12CB
102
{ACAD_REACTORS
330
12AF
102
}
330
12AF
100
AcDbScale
 70
     0
300
3/4" = 1'-0"
140
0.75
141
12.0
290
     0
  0
SCALE
  5
12CC
102
{ACAD_REACTORS
330
12AF
102
}
330
12AF
100
AcDbScale
 70
     0
300
1" = 1'-0"
140
1.0
141
12.0
290
     0
  0
SCALE
  5
12CD
102
{ACAD_REACTORS
330
12AF
102
}
330
12AF
100
AcDbScale
 70
     0
300
1-1/2" = 1'-0"
140
1.5
141
12.0
290
     0
  0
SCALE
  5
12CE
102
{ACAD_REACTORS
330
12AF
102
}
330
12AF
100
AcDbScale
 70
     0
300
3" = 1'-0"
140
3.0
141
12.0
290
     0
  0
SCALE
  5
12CF
102
{ACAD_REACTORS
330
12AF
102
}
330
12AF
100
AcDbScale
 70
     0
300
6" = 1'-0"
140
6.0
141
12.0
290
     0
  0
SCALE
  5
12D0
102
{ACAD_REACTORS
330
12AF
102
}
330
12AF
100
AcDbScale
 70
     0
300
1'-0" = 1'-0"
140
12.0
141
12.0
290
     0
  0
ACDBSECTIONVIEWSTYLE
  5
1DEB
102
{ACAD_REACTORS
330
1DE4
102
}
330
1DE4
100
AcDbModelDocViewStyle
 70
     0
  3
Imperial24
290
     0
100
AcDbSectionViewStyle
 70
     0
 71
     0
 90
       78
 71
     1
340
127A
 62
   256
 40
0.24
340
0
340
0
 62
   256
 40
0.24
300
I, O, Q, S, X, Z
 40
0.48
 90
        3
 40
0.18
 90
        1
 71
     2
340
130F
 90
       25
 62
   256
340
127E
 90
       50
 62
   256
 40
0.24
 40
0.0
 40
0.24
 71
     3
340
127A
 62
   256
 40
0.24
 90
        1
 40
0.75
 90
        1
300
%<\AcVar ViewType \f "%tc1">% %<\AcVar ViewSectionStartId>%-%<\AcVar ViewSectionEndId>%\PVARIA %<\AcVar ViewScale \f "%sn">%
 71
     4
 62
   256
 62
   257
300
ANSI31
 40
1.0
 90
        0
290
     0
290
     0
 90
        6
 40
0.0
 40
1.570796326794896
 40
0.2617993877991494
 40
1.308996938995747
 40
-0.2617993877991494
 40
1.832595714594045
  0
TABLESTYLE
  5
12D2
102
{ACAD_XDICTIONARY
360
1DDE
102
}
102
{ACAD_REACTORS
330
12D1
102
}
330
12D1
100
AcDbTableStyle
280
     0
  3
Standard
 70
     0
 71
     0
 40
0.06
 41
0.06
280
     0
281
     0
  7
Standard
140
0.18
170
     2
 62
     0
 63
     7
283
     0
 90
        4
 91
        0
  1

274
    -2
284
     1
 64
     0
275
    -2
285
     1
 65
     0
276
    -2
286
     1
 66
     0
277
    -2
287
     1
 67
     0
278
    -2
288
     1
 68
     0
279
    -2
289
     1
 69
     0
  7
Standard
140
0.25
170
     5
 62
     0
 63
     7
283
     0
 90
        4
 91
        0
  1

274
    -2
284
     1
 64
     0
275
    -2
285
     1
 65
     0
276
    -2
286
     1
 66
     0
277
    -2
287
     1
 67
     0
278
    -2
288
     1
 68
     0
279
    -2
289
     1
 69
     0
  7
Standard
140
0.18
170
     5
 62
     0
 63
     7
283
     0
 90
        4
 91
        0
  1

274
    -2
284
     1
 64
     0
275
    -2
285
     1
 65
     0
276
    -2
286
     1
 66
     0
277
    -2
287
     1
 67
     0
278
    -2
288
     1
 68
     0
279
    -2
289
     1
 69
     0
  0
VISUALSTYLE
  5
1297
102
{ACAD_REACTORS
330
1292
102
}
330
1292
100
AcDbVisualStyle
  2
2dWireframe
 70
     4
177
     3
291
     0
 70
    58
 90
        0
176
     1
 90
        2
176
     1
 90
        0
176
     1
 90
        0
176
     1
 40
0.6
176
     1
 40
30.0
176
     1
 62
     7
420
 16777215
176
     1
 90
        1
176
     1
 90
        4
176
     1
 62
     7
176
     1
 62
   257
176
     1
 90
        1
176
     1
 90
        1
176
     1
 40
1.0
176
     1
 90
        0
176
     1
 62
   257
176
     1
 40
1.0
176
     1
 90
        1
176
     1
 90
        6
176
     1
 90
        2
176
     1
 62
     7
176
     1
 90
        5
176
     1
 90
        0
176
     1
 90
        0
176
     1
290
     0
176
     1
 90
        1
176
     1
 40
0.0
176
     1
 90
        0
176
     1
290
     1
176
     1
290
     1
176
     1
290
     0
176
     1
290
     0
176
     1
290
     0
176
     1
290
     0
176
     1
290
     0
176
     1
290
     0
176
     1
290
     0
176
     1
 90
       50
176
     1
 40
0.0
176
     1
 40
1.0
176
     1
 90
        0
176
     1
 62
    18
176
     1
 90
       50
176
     1
 90
        3
176
     1
 62
     5
420
      255
176
     1
290
     0
176
     1
 90
       50
176
     1
 90
       50
176
     1
 90
       50
176
     1
290
     0
176
     1
 90
       50
176
     1
 62
   256
176
     0
 40
1.0
176
     0
 90
        2
176
     1
  1
strokes_ogs.tif
176
     1
290
     0
176
     1
 40
1.0
176
     1
 40
1.0
176
     1
  0
VISUALSTYLE
  5
129A
102
{ACAD_REACTORS
330
1292
102
}
330
1292
100
AcDbVisualStyle
  2
Basic
 70
     7
177
     3
291
     1
 70
    58
 90
        1
176
     1
 90
        0
176
     1
 90
        1
176
     1
 90
        0
176
     1
 40
0.6
176
     1
 40
30.0
176
     1
 62
     7
420
 16777215
176
     1
 90
        0
176
     1
 90
        4
176
     1
 62
     7
176
     1
 62
   257
176
     1
 90
        1
176
     1
 90
        1
176
     1
 40
1.0
176
     1
 90
        8
176
     1
 62
     7
176
     1
 40
1.0
176
     1
 90
        1
176
     1
 90
        6
176
     1
 90
        2
176
     1
 62
     7
176
     1
 90
        5
176
     1
 90
        0
176
     1
 90
        0
176
     1
290
     0
176
     1
 90
        1
176
     1
 40
0.0
176
     1
 90
        0
176
     1
290
     0
176
     1
290
     1
176
     1
290
     1
176
     1
290
     0
176
     1
290
     0
176
     1
290
     0
176
     1
290
     0
176
     1
290
     0
176
     1
290
     0
176
     1
 90
       50
176
     1
 40
0.0
176
     1
 40
1.0
176
     1
 90
        0
176
     1
 62
    18
176
     1
 90
       50
176
     1
 90
        3
176
     1
 62
     5
420
      255
176
     1
290
     0
176
     1
 90
       50
176
     1
 90
       50
176
     1
 90
       50
176
     1
290
     0
176
     1
 90
       50
176
     1
 62
   256
176
     0
 40
1.0
176
     0
 90
        2
176
     1
  1
strokes_ogs.tif
176
     1
290
     0
176
     1
 40
1.0
176
     1
 40
1.0
176
     1
  0
VISUALSTYLE
  5
129E
102
{ACAD_REACTORS
330
1292
102
}
330
1292
100
AcDbVisualStyle
  2
Brighten
 70
    12
177
     3
291
     1
 70
    58
 90
        2
176
     1
 90
        2
176
     1
 90
        0
176
     1
 90
        0
176
     1
 40
0.6
176
     1
 40
30.0
176
     1
 62
     7
420
 16777215
176
     1
 90
        1
176
     1
 90
        4
176
     1
 62
     7
176
     1
 62
   257
176
     1
 90
        1
176
     1
 90
        1
176
     1
 40
1.0
176
     1
 90
        8
176
     1
 62
     7
176
     1
 40
1.0
176
     1
 90
        1
176
     1
 90
        6
176
     1
 90
        2
176
     1
 62
     7
176
     1
 90
        5
176
     1
 90
        0
176
     1
 90
        0
176
     1
290
     0
176
     1
 90
        1
176
     1
 40
50.0
176
     1
 90
        0
176
     1
290
     0
176
     1
290
     1
176
     1
290
     1
176
     1
290
     0
176
     1
290
     0
176
     1
290
     0
176
     1
290
     0
176
     1
290
     0
176
     1
290
     0
176
     1
 90
       50
176
     1
 40
0.0
176
     1
 40
1.0
176
     1
 90
        0
176
     1
 62
    18
176
     1
 90
       50
176
     1
 90
        3
176
     1
 62
     5
420
      255
176
     1
290
     0
176
     1
 90
       50
176
     1
 90
       50
176
     1
 90
       50
176
     1
290
     0
176
     1
 90
       50
176
     1
 62
   256
176
     0
 40
1.0
176
     0
 90
        2
176
     1
  1
strokes_ogs.tif
176
     1
290
     0
176
     1
 40
1.0
176
     1
 40
1.0
176
     1
  0
VISUALSTYLE
  5
12A2
102
{ACAD_REACTORS
330
1292
102
}
330
1292
100
AcDbVisualStyle
  2
ColorChange
 70
    16
177
     3
291
     1
 70
    58
 90
        2
176
     1
 90
        2
176
     1
 90
        3
176
     1
 90
        0
176
     1
 40
0.6
176
     1
 40
30.0
176
     1
 62
     8
420
  8421504
176
     1
 90
        1
176
     1
 90
        4
176
     1
 62
     7
176
     1
 62
   257
176
     1
 90
        1
176
     1
 90
        1
176
     1
 40
1.0
176
     1
 90
        8
176
     1
 62
     8
420
  8421504
176
     1
 40
1.0
176
     1
 90
        1
176
     1
 90
        6
176
     1
 90
        2
176
     1
 62
     7
176
     1
 90
        5
176
     1
 90
        0
176
     1
 90
        0
176
     1
290
     0
176
     1
 90
        1
176
     1
 40
0.0
176
     1
 90
        0
176
     1
290
     0
176
     1
290
     1
176
     1
290
     1
176
     1
290
     0
176
     1
290
     0
176
     1
290
     0
176
     1
290
     0
176
     1
290
     0
176
     1
290
     0
176
     1
 90
       50
176
     1
 40
0.0
176
     1
 40
1.0
176
     1
 90
        0
176
     1
 62
    18
176
     1
 90
       50
176
     1
 90
        3
176
     1
 62
     5
420
      255
176
     1
290
     0
176
     1
 90
       50
176
     1
 90
       50
176
     1
 90
       50
176
     1
290
     0
176
     1
 90
       50
176
     1
 62
   256
176
     0
 40
1.0
176
     0
 90
        2
176
     1
  1
strokes_ogs.tif
176
     1
290
     0
176
     1
 40
1.0
176
     1
 40
1.0
176
     1
  0
VISUALSTYLE
  5
129C
102
{ACAD_REACTORS
330
1292
102
}
330
1292
100
AcDbVisualStyle
  2
Conceptual
 70
     9
177
     3
291
     0
 70
    58
 90
        3
176
     1
 90
        2
176
     1
 90
        0
176
     1
 90
        0
176
     1
 40
0.6
176
     1
 40
30.0
176
     1
 62
     7
420
 16777215
176
     1
 90
        2
176
     1
 90
        2
176
     1
 62
     7
176
     1
 62
   257
176
     1
 90
        1
176
     1
 90
        1
176
     1
 40
179.0
176
     1
 90
        8
176
     1
 62
     7
176
     1
 40
1.0
176
     1
 90
        1
176
     1
 90
        6
176
     1
 90
        2
176
     1
 62
     7
176
     1
 90
        3
176
     1
 90
        0
176
     1
 90
        0
176
     1
290
     0
176
     1
 90
        1
176
     1
 40
0.0
176
     1
 90
        0
176
     1
290
     0
176
     1
290
     1
176
     1
290
     1
176
     1
290
     0
176
     1
290
     0
176
     1
290
     0
176
     1
290
     0
176
     1
290
     0
176
     1
290
     0
176
     1
 90
       50
176
     1
 40
0.0
176
     1
 40
1.0
176
     1
 90
        0
176
     1
 62
    18
176
     1
 90
       50
176
     1
 90
        3
176
     1
 62
     5
420
      255
176
     1
290
     0
176
     1
 90
       50
176
     1
 90
       50
176
     1
 90
       50
176
     1
290
     0
176
     1
 90
       50
176
     1
 62
   256
176
     0
 40
1.0
176
     0
 90
        2
176
     1
  1
strokes_ogs.tif
176
     1
290
     0
176
     1
 40
1.0
176
     1
 40
1.0
176
     1
  0
VISUALSTYLE
  5
129D
102
{ACAD_REACTORS
330
1292
102
}
330
1292
100
AcDbVisualStyle
  2
Dim
 70
    11
177
     3
291
     1
 70
    58
 90
        2
176
     1
 90
        2
176
     1
 90
        0
176
     1
 90
        0
176
     1
 40
0.6
176
     1
 40
30.0
176
     1
 62
     7
420
 16777215
176
     1
 90
        1
176
     1
 90
        4
176
     1
 62
     7
176
     1
 62
   257
176
     1
 90
        1
176
     1
 90
        1
176
     1
 40
1.0
176
     1
 90
        8
176
     1
 62
     7
176
     1
 40
1.0
176
     1
 90
        1
176
     1
 90
        6
176
     1
 90
        2
176
     1
 62
     7
176
     1
 90
        5
176
     1
 90
        0
176
     1
 90
        0
176
     1
290
     0
176
     1
 90
        1
176
     1
 40
-50.0
176
     1
 90
        0
176
     1
290
     0
176
     1
290
     1
176
     1
290
     1
176
     1
290
     0
176
     1
290
     0
176
     1
290
     0
176
     1
290
     0
176
     1
290
     0
176
     1
290
     0
176
     1
 90
       50
176
     1
 40
0.0
176
     1
 40
1.0
176
     1
 90
        0
176
     1
 62
    18
176
     1
 90
       50
176
     1
 90
        3
176
     1
 62
     5
420
      255
176
     1
290
     0
176
     1
 90
       50
176
     1
 90
       50
176
     1
 90
       50
176
     1
290
     0
176
     1
 90
       50
176
     1
 62
   256
176
     0
 40
1.0
176
     0
 90
        2
176
     1
  1
strokes_ogs.tif
176
     1
290
     0
176
     1
 40
1.0
176
     1
 40
1.0
176
     1
  0
VISUALSTYLE
  5
12A5
102
{ACAD_REACTORS
330
1292
102
}
330
1292
100
AcDbVisualStyle
  2
EdgeColorOff
 70
    22
177
     3
291
     1
 70
    58
 90
        2
176
     0
 90
        2
176
     0
 90
        0
176
     0
 90
        0
176
     0
 40
0.6
176
     0
 40
30.0
176
     0
 62
     7
420
 16777215
176
     0
 90
        1
176
     0
 90
        4
176
     0
 62
     7
176
     0
 62
   257
176
     0
 90
        1
176
     0
 90
        1
176
     0
 40
1.0
176
     0
 90
        8
176
     2
 62
     7
176
     0
 40
1.0
176
     0
 90
        1
176
     0
 90
        6
176
     0
 90
        2
176
     0
 62
     7
176
     0
 90
        5
176
     0
 90
        0
176
     0
 90
        0
176
     0
290
     0
176
     0
 90
        1
176
     0
 40
0.0
176
     0
 90
        0
176
     0
290
     0
176
     0
290
     1
176
     0
290
     1
176
     0
290
     0
176
     0
290
     0
176
     0
290
     0
176
     0
290
     0
176
     0
290
     0
176
     0
290
     0
176
     0
 90
       50
176
     0
 40
0.0
176
     0
 40
1.0
176
     0
 90
        0
176
     0
 62
    18
176
     0
 90
       50
176
     0
 90
        3
176
     0
 62
     5
420
      255
176
     0
290
     0
176
     0
 90
       50
176
     0
 90
       50
176
     0
 90
       50
176
     0
290
     0
176
     0
 90
       50
176
     0
 62
   256
176
     0
 40
1.0
176
     0
 90
        2
176
     0
  1
strokes_ogs.tif
176
     0
290
     0
176
     0
 40
1.0
176
     0
 40
1.0
176
     0
  0
VISUALSTYLE
  5
12A1
102
{ACAD_REACTORS
330
1292
102
}
330
1292
100
AcDbVisualStyle
  2
Facepattern
 70
    15
177
     3
291
     1
 70
    58
 90
        2
176
     1
 90
        2
176
     1
 90
        0
176
     1
 90
        0
176
     1
 40
0.6
176
     1
 40
30.0
176
     1
 62
     7
420
 16777215
176
     1
 90
        1
176
     1
 90
        4
176
     1
 62
     7
176
     1
 62
   257
176
     1
 90
        1
176
     1
 90
        1
176
     1
 40
1.0
176
     1
 90
        8
176
     1
 62
     7
176
     1
 40
1.0
176
     1
 90
        1
176
     1
 90
        6
176
     1
 90
        2
176
     1
 62
     7
176
     1
 90
        5
176
     1
 90
        0
176
     1
 90
        0
176
     1
290
     0
176
     1
 90
        1
176
     1
 40
0.0
176
     1
 90
        0
176
     1
290
     0
176
     1
290
     1
176
     1
290
     1
176
     1
290
     0
176
     1
290
     0
176
     1
290
     0
176
     1
290
     0
176
     1
290
     0
176
     1
290
     0
176
     1
 90
       50
176
     1
 40
0.0
176
     1
 40
1.0
176
     1
 90
        0
176
     1
 62
    18
176
     1
 90
       50
176
     1
 90
        3
176
     1
 62
     5
420
      255
176
     1
290
     0
176
     1
 90
       50
176
     1
 90
       50
176
     1
 90
       50
176
     1
290
     0
176
     1
 90
       50
176
     1
 62
   256
176
     0
 40
1.0
176
     0
 90
        2
176
     1
  1
strokes_ogs.tif
176
     1
290
     0
176
     1
 40
1.0
176
     1
 40
1.0
176
     1
  0
VISUALSTYLE
  5
1293
102
{ACAD_REACTORS
330
1292
102
}
330
1292
100
AcDbVisualStyle
  2
Flat
 70
     0
177
     3
291
     1
 70
    58
 90
        2
176
     1
 90
        1
176
     1
 90
        1
176
     1
 90
        2
176
     1
 40
0.6
176
     1
 40
30.0
176
     1
 62
     7
420
 16777215
176
     1
 90
        0
176
     1
 90
        0
176
     1
 62
     7
176
     1
 62
   257
176
     1
 90
        1
176
     1
 90
        1
176
     1
 40
1.0
176
     1
 90
        8
176
     1
 62
     7
176
     1
 40
1.0
176
     1
 90
        1
176
     1
 90
        6
176
     1
 90
        2
176
     1
 62
     7
176
     1
 90
        5
176
     1
 90
        0
176
     1
 90
        0
176
     1
290
     0
176
     1
 90
       13
176
     1
 40
0.0
176
     1
 90
        0
176
     1
290
     0
176
     1
290
     1
176
     1
290
     1
176
     1
290
     0
176
     1
290
     0
176
     1
290
     0
176
     1
290
     0
176
     1
290
     0
176
     1
290
     0
176
     1
 90
       50
176
     1
 40
0.0
176
     1
 40
1.0
176
     1
 90
        0
176
     1
 62
    18
176
     1
 90
       50
176
     1
 90
        3
176
     1
 62
     5
420
      255
176
     1
290
     0
176
     1
 90
       50
176
     1
 90
       50
176
     1
 90
       50
176
     1
290
     0
176
     1
 90
       50
176
     1
 62
   256
176
     0
 40
1.0
176
     0
 90
        2
176
     1
  1
strokes_ogs.tif
176
     1
290
     0
176
     1
 40
1.0
176
     1
 40
1.0
176
     1
  0
VISUALSTYLE
  5
1294
102
{ACAD_REACTORS
330
1292
102
}
330
1292
100
AcDbVisualStyle
  2
FlatWithEdges
 70
     1
177
     3
291
     1
 70
    58
 90
        2
176
     1
 90
        1
176
     1
 90
        1
176
     1
 90
        2
176
     1
 40
0.6
176
     1
 40
30.0
176
     1
 62
     7
420
 16777215
176
     1
 90
        1
176
     1
 90
        0
176
     1
 62
     7
176
     1
 62
   257
176
     1
 90
        1
176
     1
 90
        1
176
     1
 40
1.0
176
     1
 90
        0
176
     1
 62
   257
176
     1
 40
1.0
176
     1
 90
        1
176
     1
 90
        6
176
     1
 90
        2
176
     1
 62
     7
176
     1
 90
        5
176
     1
 90
        0
176
     1
 90
        0
176
     1
290
     0
176
     1
 90
       13
176
     1
 40
0.0
176
     1
 90
        0
176
     1
290
     0
176
     1
290
     1
176
     1
290
     1
176
     1
290
     0
176
     1
290
     0
176
     1
290
     0
176
     1
290
     0
176
     1
290
     0
176
     1
290
     0
176
     1
 90
       50
176
     1
 40
0.0
176
     1
 40
1.0
176
     1
 90
        0
176
     1
 62
    18
176
     1
 90
       50
176
     1
 90
        3
176
     1
 62
     5
420
      255
176
     1
290
     0
176
     1
 90
       50
176
     1
 90
       50
176
     1
 90
       50
176
     1
290
     0
176
     1
 90
       50
176
     1
 62
   256
176
     0
 40
1.0
176
     0
 90
        2
176
     1
  1
strokes_ogs.tif
176
     1
290
     0
176
     1
 40
1.0
176
     1
 40
1.0
176
     1
  0
VISUALSTYLE
  5
1295
102
{ACAD_REACTORS
330
1292
102
}
330
1292
100
AcDbVisualStyle
  2
Gouraud
 70
     2
177
     3
291
     1
 70
    58
 90
        2
176
     1
 90
        2
176
     1
 90
        1
176
     1
 90
        2
176
     1
 40
0.6
176
     1
 40
30.0
176
     1
 62
     7
420
 16777215
176
     1
 90
        0
176
     1
 90
        0
176
     1
 62
     7
176
     1
 62
   257
176
     1
 90
        1
176
     1
 90
        1
176
     1
 40
1.0
176
     1
 90
        0
176
     1
 62
     7
176
     1
 40
1.0
176
     1
 90
        1
176
     1
 90
        6
176
     1
 90
        2
176
     1
 62
     7
176
     1
 90
        5
176
     1
 90
        0
176
     1
 90
        0
176
     1
290
     0
176
     1
 90
       13
176
     1
 40
0.0
176
     1
 90
        0
176
     1
290
     0
176
     1
290
     1
176
     1
290
     1
176
     1
290
     0
176
     1
290
     0
176
     1
290
     0
176
     1
290
     0
176
     1
290
     0
176
     1
290
     0
176
     1
 90
       50
176
     1
 40
0.0
176
     1
 40
1.0
176
     1
 90
        0
176
     1
 62
    18
176
     1
 90
       50
176
     1
 90
        3
176
     1
 62
     5
420
      255
176
     1
290
     0
176
     1
 90
       50
176
     1
 90
       50
176
     1
 90
       50
176
     1
290
     0
176
     1
 90
       50
176
     1
 62
   256
176
     0
 40
1.0
176
     0
 90
        2
176
     1
  1
strokes_ogs.tif
176
     1
290
     0
176
     1
 40
1.0
176
     1
 40
1.0
176
     1
  0
VISUALSTYLE
  5
1296
102
{ACAD_REACTORS
330
1292
102
}
330
1292
100
AcDbVisualStyle
  2
GouraudWithEdges
 70
     3
177
     3
291
     1
 70
    58
 90
        2
176
     1
 90
        2
176
     1
 90
        1
176
     1
 90
        2
176
     1
 40
0.6
176
     1
 40
30.0
176
     1
 62
     7
420
 16777215
176
     1
 90
        1
176
     1
 90
        0
176
     1
 62
     7
176
     1
 62
   257
176
     1
 90
        1
176
     1
 90
        1
176
     1
 40
1.0
176
     1
 90
        0
176
     1
 62
   257
176
     1
 40
1.0
176
     1
 90
        1
176
     1
 90
        6
176
     1
 90
        2
176
     1
 62
     7
176
     1
 90
        5
176
     1
 90
        0
176
     1
 90
        0
176
     1
290
     0
176
     1
 90
       13
176
     1
 40
0.0
176
     1
 90
        0
176
     1
290
     0
176
     1
290
     1
176
     1
290
     1
176
     1
290
     0
176
     1
290
     0
176
     1
290
     0
176
     1
290
     0
176
     1
290
     0
176
     1
290
     0
176
     1
 90
       50
176
     1
 40
0.0
176
     1
 40
1.0
176
     1
 90
        0
176
     1
 62
    18
176
     1
 90
       50
176
     1
 90
        3
176
     1
 62
     5
420
      255
176
     1
290
     0
176
     1
 90
       50
176
     1
 90
       50
176
     1
 90
       50
176
     1
290
     0
176
     1
 90
       50
176
     1
 62
   256
176
     0
 40
1.0
176
     0
 90
        2
176
     1
  1
strokes_ogs.tif
176
     1
290
     0
176
     1
 40
1.0
176
     1
 40
1.0
176
     1
  0
VISUALSTYLE
  5
1299
102
{ACAD_REACTORS
330
1292
102
}
330
1292
100
AcDbVisualStyle
  2
Hidden
 70
     6
177
     3
291
     0
 70
    58
 90
        1
176
     1
 90
        2
176
     1
 90
        2
176
     1
 90
        0
176
     1
 40
0.6
176
     1
 40
30.0
176
     1
 62
     7
420
 16777215
176
     1
 90
        2
176
     1
 90
        2
176
     1
 62
     7
176
     1
 62
   257
176
     1
 90
        2
176
     1
 90
        1
176
     1
 40
40.0
176
     1
 90
        0
176
     1
 62
   257
176
     1
 40
1.0
176
     1
 90
        1
176
     1
 90
        6
176
     1
 90
        2
176
     1
 62
     7
176
     1
 90
        3
176
     1
 90
        0
176
     1
 90
        0
176
     1
290
     0
176
     1
 90
        1
176
     1
 40
0.0
176
     1
 90
        0
176
     1
290
     0
176
     1
290
     1
176
     1
290
     1
176
     1
290
     0
176
     1
290
     0
176
     1
290
     0
176
     1
290
     0
176
     1
290
     0
176
     1
290
     0
176
     1
 90
       50
176
     1
 40
0.0
176
     1
 40
1.0
176
     1
 90
        0
176
     1
 62
    18
176
     1
 90
       50
176
     1
 90
        3
176
     1
 62
     5
420
      255
176
     1
290
     0
176
     1
 90
       50
176
     1
 90
       50
176
     1
 90
       50
176
     1
290
     0
176
     1
 90
       50
176
     1
 62
   256
176
     0
 40
1.0
176
     0
 90
        2
176
     1
  1
strokes_ogs.tif
176
     1
290
     0
176
     1
 40
1.0
176
     1
 40
1.0
176
     1
  0
VISUALSTYLE
  5
12A3
102
{ACAD_REACTORS
330
1292
102
}
330
1292
100
AcDbVisualStyle
  2
JitterOff
 70
    20
177
     3
291
     1
 70
    58
 90
        2
176
     0
 90
        2
176
     0
 90
        0
176
     0
 90
        0
176
     0
 40
0.6
176
     0
 40
30.0
176
     0
 62
     7
420
 16777215
176
     0
 90
        1
176
     0
 90
        4
176
     0
 62
     7
176
     0
 62
   257
176
     0
 90
        1
176
     0
 90
        1
176
     0
 40
1.0
176
     0
 90
       10
176
     2
 62
     7
176
     0
 40
1.0
176
     0
 90
        1
176
     0
 90
        6
176
     0
 90
        2
176
     0
 62
     7
176
     0
 90
        5
176
     0
 90
        0
176
     0
 90
        0
176
     0
290
     0
176
     0
 90
        1
176
     0
 40
0.0
176
     0
 90
        0
176
     0
290
     0
176
     0
290
     1
176
     0
290
     1
176
     0
290
     0
176
     0
290
     0
176
     0
290
     0
176
     0
290
     0
176
     0
290
     0
176
     0
290
     0
176
     0
 90
       50
176
     0
 40
0.0
176
     0
 40
1.0
176
     0
 90
        0
176
     0
 62
    18
176
     0
 90
       50
176
     0
 90
        3
176
     0
 62
     5
420
      255
176
     0
290
     0
176
     0
 90
       50
176
     0
 90
       50
176
     0
 90
       50
176
     0
290
     0
176
     0
 90
       50
176
     0
 62
   256
176
     0
 40
1.0
176
     0
 90
        2
176
     0
  1
strokes_ogs.tif
176
     0
290
     0
176
     0
 40
1.0
176
     0
 40
1.0
176
     0
  0
VISUALSTYLE
  5
12A0
102
{ACAD_REACTORS
330
1292
102
}
330
1292
100
AcDbVisualStyle
  2
Linepattern
 70
    14
177
     3
291
     1
 70
    58
 90
        2
176
     1
 90
        2
176
     1
 90
        0
176
     1
 90
        0
176
     1
 40
0.6
176
     1
 40
30.0
176
     1
 62
     7
420
 16777215
176
     1
 90
        1
176
     1
 90
        4
176
     1
 62
     7
176
     1
 62
   257
176
     1
 90
        7
176
     1
 90
        7
176
     1
 40
1.0
176
     1
 90
        8
176
     1
 62
     7
176
     1
 40
1.0
176
     1
 90
        1
176
     1
 90
        6
176
     1
 90
        2
176
     1
 62
     7
176
     1
 90
        5
176
     1
 90
        0
176
     1
 90
        0
176
     1
290
     0
176
     1
 90
        1
176
     1
 40
0.0
176
     1
 90
        0
176
     1
290
     0
176
     1
290
     1
176
     1
290
     1
176
     1
290
     0
176
     1
290
     0
176
     1
290
     0
176
     1
290
     0
176
     1
290
     0
176
     1
290
     0
176
     1
 90
       50
176
     1
 40
0.0
176
     1
 40
1.0
176
     1
 90
        0
176
     1
 62
    18
176
     1
 90
       50
176
     1
 90
        3
176
     1
 62
     5
420
      255
176
     1
290
     0
176
     1
 90
       50
176
     1
 90
       50
176
     1
 90
       50
176
     1
290
     0
176
     1
 90
       50
176
     1
 62
   256
176
     0
 40
1.0
176
     0
 90
        2
176
     1
  1
strokes_ogs.tif
176
     1
290
     0
176
     1
 40
1.0
176
     1
 40
1.0
176
     1
  0
VISUALSTYLE
  5
12A4
102
{ACAD_REACTORS
330
1292
102
}
330
1292
100
AcDbVisualStyle
  2
OverhangOff
 70
    21
177
     3
291
     1
 70
    58
 90
        2
176
     0
 90
        2
176
     0
 90
        0
176
     0
 90
        0
176
     0
 40
0.6
176
     0
 40
30.0
176
     0
 62
     7
420
 16777215
176
     0
 90
        1
176
     0
 90
        4
176
     0
 62
     7
176
     0
 62
   257
176
     0
 90
        1
176
     0
 90
        1
176
     0
 40
1.0
176
     0
 90
        9
176
     2
 62
     7
176
     0
 40
1.0
176
     0
 90
        1
176
     0
 90
        6
176
     0
 90
        2
176
     0
 62
     7
176
     0
 90
        5
176
     0
 90
        0
176
     0
 90
        0
176
     0
290
     0
176
     0
 90
        1
176
     0
 40
0.0
176
     0
 90
        0
176
     0
290
     0
176
     0
290
     1
176
     0
290
     1
176
     0
290
     0
176
     0
290
     0
176
     0
290
     0
176
     0
290
     0
176
     0
290
     0
176
     0
290
     0
176
     0
 90
       50
176
     0
 40
0.0
176
     0
 40
1.0
176
     0
 90
        0
176
     0
 62
    18
176
     0
 90
       50
176
     0
 90
        3
176
     0
 62
     5
420
      255
176
     0
290
     0
176
     0
 90
       50
176
     0
 90
       50
176
     0
 90
       50
176
     0
290
     0
176
     0
 90
       50
176
     0
 62
   256
176
     0
 40
1.0
176
     0
 90
        2
176
     0
  1
strokes_ogs.tif
176
     0
290
     0
176
     0
 40
1.0
176
     0
 40
1.0
176
     0
  0
VISUALSTYLE
  5
129B
102
{ACAD_REACTORS
330
1292
102
}
330
1292
100
AcDbVisualStyle
  2
Realistic
 70
     8
177
     3
291
     0
 70
    58
 90
        2
176
     1
 90
        3
176
     1
 90
        0
176
     1
 90
        2
176
     1
 40
0.6
176
     1
 40
30.0
176
     1
 62
     7
420
 16777215
176
     1
 90
        0
176
     1
 90
        0
176
     1
 62
     7
176
     1
 62
   257
176
     1
 90
        1
176
     1
 90
        1
176
     1
 40
1.0
176
     1
 90
        8
176
     1
 62
   257
176
     1
 40
1.0
176
     1
 90
        1
176
     1
 90
        6
176
     1
 90
        2
176
     1
 62
     7
176
     1
 90
        3
176
     1
 90
        0
176
     1
 90
        0
176
     1
290
     0
176
     1
 90
       13
176
     1
 40
0.0
176
     1
 90
        0
176
     1
290
     0
176
     1
290
     1
176
     1
290
     1
176
     1
290
     0
176
     1
290
     0
176
     1
290
     0
176
     1
290
     0
176
     1
290
     0
176
     1
290
     0
176
     1
 90
       50
176
     1
 40
0.0
176
     1
 40
1.0
176
     1
 90
        0
176
     1
 62
    18
176
     1
 90
       50
176
     1
 90
        3
176
     1
 62
     5
420
      255
176
     1
290
     0
176
     1
 90
       50
176
     1
 90
       50
176
     1
 90
       50
176
     1
290
     0
176
     1
 90
       50
176
     1
 62
   256
176
     0
 40
1.0
176
     0
 90
        2
176
     1
  1
strokes_ogs.tif
176
     1
290
     0
176
     1
 40
1.0
176
     1
 40
1.0
176
     1
  0
VISUALSTYLE
  5
12AA
102
{ACAD_REACTORS
330
1292
102
}
330
1292
100
AcDbVisualStyle
  2
Shaded
 70
    27
177
     3
291
     0
 70
    58
 90
        2
176
     1
 90
        2
176
     1
 90
        1
176
     1
 90
        2
176
     1
 40
0.6
176
     1
 40
30.0
176
     1
 62
     7
420
 16777215
176
     1
 90
        0
176
     1
 90
        4
176
     1
 62
     7
176
     1
 62
   257
176
     1
 90
        1
176
     1
 90
        1
176
     1
 40
1.0
176
     1
 90
        8
176
     1
 62
   257
176
     1
 40
1.0
176
     1
 90
        1
176
     1
 90
        6
176
     1
 90
        2
176
     1
 62
     8
420
  7895160
176
     1
 90
        3
176
     1
 90
        0
176
     1
 90
        0
176
     1
290
     0
176
     1
 90
        5
176
     1
 40
0.0
176
     1
 90
        0
176
     1
290
     0
176
     1
290
     1
176
     1
290
     1
176
     1
290
     0
176
     1
290
     0
176
     1
290
     0
176
     1
290
     0
176
     1
290
     0
176
     1
290
     0
176
     1
 90
       50
176
     1
 40
0.0
176
     1
 40
1.0
176
     1
 90
        0
176
     1
 62
    18
176
     1
 90
       50
176
     1
 90
        3
176
     1
 62
     5
420
      255
176
     1
290
     0
176
     1
 90
       50
176
     1
 90
       50
176
     1
 90
       50
176
     1
290
     0
176
     1
 90
       50
176
     1
 62
   256
176
     0
 40
1.0
176
     0
 90
        2
176
     1
  1
strokes_ogs.tif
176
     1
290
     0
176
     1
 40
1.0
176
     1
 40
1.0
176
     1
  0
VISUALSTYLE
  5
12A9
102
{ACAD_REACTORS
330
1292
102
}
330
1292
100
AcDbVisualStyle
  2
Shaded with edges
 70
    26
177
     3
291
     0
 70
    58
 90
        2
176
     1
 90
        2
176
     1
 90
        1
176
     1
 90
        2
176
     1
 40
0.6
176
     1
 40
30.0
176
     1
 62
     7
420
 16777215
176
     1
 90
        1
176
     1
 90
       10
176
     1
 62
     7
176
     1
 62
   257
176
     1
 90
        2
176
     1
 90
        1
176
     1
 40
1.0
176
     1
 90
        8
176
     1
 62
   257
176
     1
 40
1.0
176
     1
 90
        1
176
     1
 90
        6
176
     1
 90
        2
176
     1
 62
     7
176
     1
 90
        3
176
     1
 90
        0
176
     1
 90
        0
176
     1
290
     0
176
     1
 90
        5
176
     1
 40
0.0
176
     1
 90
        0
176
     1
290
     0
176
     1
290
     1
176
     1
290
     1
176
     1
290
     0
176
     1
290
     0
176
     1
290
     0
176
     1
290
     0
176
     1
290
     0
176
     1
290
     0
176
     1
 90
       50
176
     1
 40
0.0
176
     1
 40
1.0
176
     1
 90
        0
176
     1
 62
    18
176
     1
 90
       50
176
     1
 90
        3
176
     1
 62
     5
420
      255
176
     1
290
     0
176
     1
 90
       50
176
     1
 90
       50
176
     1
 90
       50
176
     1
290
     0
176
     1
 90
       50
176
     1
 62
   256
176
     0
 40
1.0
176
     0
 90
        2
176
     1
  1
strokes_ogs.tif
176
     1
290
     0
176
     1
 40
1.0
176
     1
 40
1.0
176
     1
  0
VISUALSTYLE
  5
12A6
102
{ACAD_REACTORS
330
1292
102
}
330
1292
100
AcDbVisualStyle
  2
Shades of Gray
 70
    23
177
     3
291
     0
 70
    58
 90
        2
176
     1
 90
        2
176
     1
 90
        3
176
     1
 90
        0
176
     1
 40
0.6
176
     1
 40
30.0
176
     1
 62
     7
420
 16777215
176
     1
 90
        2
176
     1
 90
        2
176
     1
 62
     7
176
     1
 62
     7
176
     1
 90
        1
176
     1
 90
        1
176
     1
 40
40.0
176
     1
 90
        8
176
     1
 62
     7
176
     1
 40
1.0
176
     1
 90
        1
176
     1
 90
        6
176
     1
 90
        2
176
     1
 62
     7
176
     1
 90
        3
176
     1
 90
        0
176
     1
 90
        0
176
     1
290
     0
176
     1
 90
        1
176
     1
 40
0.0
176
     1
 90
        0
176
     1
290
     0
176
     1
290
     1
176
     1
290
     1
176
     1
290
     0
176
     1
290
     0
176
     1
290
     0
176
     1
290
     0
176
     1
290
     0
176
     1
290
     0
176
     1
 90
       50
176
     1
 40
0.0
176
     1
 40
1.0
176
     1
 90
        0
176
     1
 62
    18
176
     1
 90
       50
176
     1
 90
        3
176
     1
 62
     5
420
      255
176
     1
290
     0
176
     1
 90
       50
176
     1
 90
       50
176
     1
 90
       50
176
     1
290
     0
176
     1
 90
       50
176
     1
 62
   256
176
     0
 40
1.0
176
     0
 90
        2
176
     1
  1
strokes_ogs.tif
176
     1
290
     0
176
     1
 40
1.0
176
     1
 40
1.0
176
     1
  0
VISUALSTYLE
  5
12A7
102
{ACAD_REACTORS
330
1292
102
}
330
1292
100
AcDbVisualStyle
  2
Sketchy
 70
    24
177
     3
291
     0
 70
    58
 90
        1
176
     1
 90
        2
176
     1
 90
        2
176
     1
 90
        0
176
     1
 40
0.6
176
     1
 40
30.0
176
     1
 62
     7
420
 16777215
176
     1
 90
        2
176
     1
 90
        2
176
     1
 62
     7
176
     1
 62
     7
176
     1
 90
        1
176
     1
 90
        1
176
     1
 40
40.0
176
     1
 90
       11
176
     1
 62
     7
176
     1
 40
1.0
176
     1
 90
        1
176
     1
 90
        6
176
     1
 90
        2
176
     1
 62
     7
176
     1
 90
        6
176
     1
 90
        0
176
     1
 90
        0
176
     1
290
     0
176
     1
 90
        1
176
     1
 40
0.0
176
     1
 90
        0
176
     1
290
     0
176
     1
290
     1
176
     1
290
     1
176
     1
290
     0
176
     1
290
     0
176
     1
290
     0
176
     1
290
     0
176
     1
290
     0
176
     1
290
     0
176
     1
 90
       50
176
     1
 40
0.0
176
     1
 40
1.0
176
     1
 90
        0
176
     1
 62
    18
176
     1
 90
       50
176
     1
 90
        3
176
     1
 62
     5
420
      255
176
     1
290
     0
176
     1
 90
       50
176
     1
 90
       50
176
     1
 90
       50
176
     1
290
     0
176
     1
 90
       50
176
     1
 62
   256
176
     0
 40
1.0
176
     0
 90
        2
176
     1
  1
strokes_ogs.tif
176
     1
290
     0
176
     1
 40
1.0
176
     1
 40
1.0
176
     1
  0
VISUALSTYLE
  5
129F
102
{ACAD_REACTORS
330
1292
102
}
330
1292
100
AcDbVisualStyle
  2
Thicken
 70
    13
177
     3
291
     1
 70
    58
 90
        2
176
     1
 90
        2
176
     1
 90
        0
176
     1
 90
        0
176
     1
 40
0.6
176
     1
 40
30.0
176
     1
 62
     7
420
 16777215
176
     1
 90
        1
176
     1
 90
        4
176
     1
 62
     7
176
     1
 62
   257
176
     1
 90
        1
176
     1
 90
        1
176
     1
 40
1.0
176
     1
 90
       12
176
     1
 62
     7
176
     1
 40
1.0
176
     1
 90
        1
176
     1
 90
        6
176
     1
 90
        2
176
     1
 62
     7
176
     1
 90
        5
176
     1
 90
        0
176
     1
 90
        0
176
     1
290
     0
176
     1
 90
        1
176
     1
 40
0.0
176
     1
 90
        0
176
     1
290
     0
176
     1
290
     1
176
     1
290
     1
176
     1
290
     0
176
     1
290
     0
176
     1
290
     0
176
     1
290
     0
176
     1
290
     0
176
     1
290
     0
176
     1
 90
       50
176
     1
 40
0.0
176
     1
 40
1.0
176
     1
 90
        0
176
     1
 62
    18
176
     1
 90
       50
176
     1
 90
        3
176
     1
 62
     5
420
      255
176
     1
290
     0
176
     1
 90
       50
176
     1
 90
       50
176
     1
 90
       50
176
     1
290
     0
176
     1
 90
       50
176
     1
 62
   256
176
     0
 40
1.0
176
     0
 90
        2
176
     1
  1
strokes_ogs.tif
176
     1
290
     0
176
     1
 40
1.0
176
     1
 40
1.0
176
     1
  0
VISUALSTYLE
  5
1298
102
{ACAD_REACTORS
330
1292
102
}
330
1292
100
AcDbVisualStyle
  2
Wireframe
 70
     5
177
     3
291
     0
 70
    58
 90
        0
176
     1
 90
        2
176
     1
 90
        0
176
     1
 90
        0
176
     1
 40
0.6
176
     1
 40
30.0
176
     1
 62
     7
420
 16777215
176
     1
 90
        1
176
     1
 90
        4
176
     1
 62
     7
176
     1
 62
   257
176
     1
 90
        1
176
     1
 90
        1
176
     1
 40
1.0
176
     1
 90
        0
176
     1
 62
   257
176
     1
 40
1.0
176
     1
 90
        1
176
     1
 90
        6
176
     1
 90
        2
176
     1
 62
     7
176
     1
 90
        3
176
     1
 90
        0
176
     1
 90
        0
176
     1
290
     0
176
     1
 90
        1
176
     1
 40
0.0
176
     1
 90
        0
176
     1
290
     0
176
     1
290
     1
176
     1
290
     1
176
     1
290
     0
176
     1
290
     0
176
     1
290
     0
176
     1
290
     0
176
     1
290
     0
176
     1
290
     0
176
     1
 90
       50
176
     1
 40
0.0
176
     1
 40
1.0
176
     1
 90
        0
176
     1
 62
    18
176
     1
 90
       50
176
     1
 90
        3
176
     1
 62
     5
420
      255
176
     1
290
     0
176
     1
 90
       50
176
     1
 90
       50
176
     1
 90
       50
176
     1
290
     0
176
     1
 90
       50
176
     1
 62
   256
176
     0
 40
1.0
176
     0
 90
        2
176
     1
  1
strokes_ogs.tif
176
     1
290
     0
176
     1
 40
1.0
176
     1
 40
1.0
176
     1
  0
VISUALSTYLE
  5
12A8
102
{ACAD_REACTORS
330
1292
102
}
330
1292
100
AcDbVisualStyle
  2
X-Ray
 70
    25
177
     3
291
     0
 70
    58
 90
        2
176
     1
 90
        2
176
     1
 90
        1
176
     1
 90
        1
176
     1
 40
0.5
176
     1
 40
30.0
176
     1
 62
     7
420
 16777215
176
     1
 90
        1
176
     1
 90
        0
176
     1
 62
     7
176
     1
 62
   257
176
     1
 90
        1
176
     1
 90
        1
176
     1
 40
1.0
176
     1
 90
        8
176
     1
 62
     7
176
     1
 40
1.0
176
     1
 90
        1
176
     1
 90
        6
176
     1
 90
        2
176
     1
 62
     7
176
     1
 90
        3
176
     1
 90
        0
176
     1
 90
        0
176
     1
290
     0
176
     1
 90
       13
176
     1
 40
0.0
176
     1
 90
        0
176
     1
290
     0
176
     1
290
     1
176
     1
290
     1
176
     1
290
     0
176
     1
290
     0
176
     1
290
     0
176
     1
290
     0
176
     1
290
     0
176
     1
290
     0
176
     1
 90
       50
176
     1
 40
0.0
176
     1
 40
1.0
176
     1
 90
        0
176
     1
 62
    18
176
     1
 90
       50
176
     1
 90
        3
176
     1
 62
     5
420
      255
176
     1
290
     0
176
     1
 90
       50
176
     1
 90
       50
176
     1
 90
       50
176
     1
290
     0
176
     1
 90
       50
176
     1
 62
   256
176
     0
 40
1.0
176
     0
 90
        2
176
     1
  1
strokes_ogs.tif
176
     1
290
     0
176
     1
 40
1.0
176
     1
 40
1.0
176
     1
  0
DICTIONARYVAR
  5
1DDD
102
{ACAD_REACTORS
330
1DDC
102
}
330
1DDC
100
DictionaryVariables
280
     0
  1
1:1
  0
DICTIONARYVAR
  5
1DE2
102
{ACAD_REACTORS
330
1DDC
102
}
330
1DDC
100
DictionaryVariables
280
     0
  1
STANDARD
  0
DICTIONARYVAR
  5
1DE1
102
{ACAD_REACTORS
330
1DDC
102
}
330
1DDC
100
DictionaryVariables
280
     0
  1
STANDARD
  0
DICTIONARYVAR
  5
276C
102
{ACAD_REACTORS
330
1DDC
102
}
330
1DDC
100
DictionaryVariables
280
     0
  1
Imperial24
  0
DICTIONARYVAR
  5
276D
102
{ACAD_REACTORS
330
1DDC
102
}
330
1DDC
100
DictionaryVariables
280
     0
  1
Imperial24
  0
XRECORD
  5
12D9
102
{ACAD_REACTORS
330
12D7
102
}
330
12D7
100
AcDbXrecord
280
     1
1000
#ffffff
  0
XRECORD
  5
12DA
102
{ACAD_REACTORS
330
12D7
102
}
330
12D7
100
AcDbXrecord
280
     1
1000
FullColor
  0
XRECORD
  5
12DB
102
{ACAD_REACTORS
330
12D7
102
}
330
12D7
100
AcDbXrecord
280
     1
290
     1
  0
XRECORD
  5
12DC
102
{ACAD_REACTORS
330
12D7
102
}
330
12D7
100
AcDbXrecord
280
     1
290
     1
  0
XRECORD
  5
12DD
102
{ACAD_REACTORS
330
12D7
102
}
330
12D7
100
AcDbXrecord
280
     1
290
     1
  0
XRECORD
  5
12DE
102
{ACAD_REACTORS
330
12D7
102
}
330
12D7
100
AcDbXrecord
280
     1
290
     1
  0
XRECORD
  5
12DF
102
{ACAD_REACTORS
330
12D7
102
}
330
12D7
100
AcDbXrecord
280
     1
1000
auto
  0
XRECORD
  5
12E0
102
{ACAD_REACTORS
330
12D7
102
}
330
12D7
100
AcDbXrecord
280
     1
1000
auto
  0
XRECORD
  5
12E1
102
{ACAD_REACTORS
330
12D7
102
}
330
12D7
100
AcDbXrecord
280
     1
1000
auto
  0
XRECORD
  5
12E2
102
{ACAD_REACTORS
330
12D7
102
}
330
12D7
100
AcDbXrecord
280
     1
1000
auto
  0
XRECORD
  5
12E3
102
{ACAD_REACTORS
330
12D7
102
}
330
12D7
100
AcDbXrecord
280
     1
1000
auto
  0
XRECORD
  5
12E4
102
{ACAD_REACTORS
330
12D7
102
}
330
12D7
100
AcDbXrecord
280
     1
1000
auto
  0
XRECORD
  5
12E5
102
{ACAD_REACTORS
330
12D7
102
}
330
12D7
100
AcDbXrecord
280
     1
1000
auto
  0
XRECORD
  5
12E6
102
{ACAD_REACTORS
330
12D7
102
}
330
12D7
100
AcDbXrecord
280
     1
1000
auto
  0
XRECORD
  5
12E7
102
{ACAD_REACTORS
330
12D7
102
}
330
12D7
100
AcDbXrecord
280
     1
290
     0
  0
XRECORD
  5
12E8
102
{ACAD_REACTORS
330
12D7
102
}
330
12D7
100
AcDbXrecord
280
     1
290
     0
  0
XRECORD
  5
12E9
102
{ACAD_REACTORS
330
12D7
102
}
330
12D7
100
AcDbXrecord
280
     1
290
     0
  0
XRECORD
  5
12EA
102
{ACAD_REACTORS
330
12D7
102
}
330
12D7
100
AcDbXrecord
280
     1
290
     0
  0
XRECORD
  5
12EB
102
{ACAD_REACTORS
330
12D7
102
}
330
12D7
100
AcDbXrecord
280
     1
 90
     4097
  0
XRECORD
  5
12EC
102
{ACAD_REACTORS
330
12D7
102
}
330
12D7
100
AcDbXrecord
280
     1
 90
     4097
  0
XRECORD
  5
12ED
102
{ACAD_REACTORS
330
12D7
102
}
330
12D7
100
AcDbXrecord
280
     1
 90
     4097
  0
XRECORD
  5
12EE
102
{ACAD_REACTORS
330
12D7
102
}
330
12D7
100
AcDbXrecord
280
     1
 90
     4097
  0
XRECORD
  5
12EF
102
{ACAD_REACTORS
330
12D7
102
}
330
12D7
100
AcDbXrecord
280
     1
1000
auto
  0
XRECORD
  5
12F0
102
{ACAD_REACTORS
330
12D7
102
}
330
12D7
100
AcDbXrecord
280
     1
1000
auto
  0
XRECORD
  5
12F1
102
{ACAD_REACTORS
330
12D7
102
}
330
12D7
100
AcDbXrecord
280
     1
1000
auto
  0
XRECORD
  5
12F2
102
{ACAD_REACTORS
330
12D7
102
}
330
12D7
100
AcDbXrecord
280
     1
1000
auto
  0
XRECORD
  5
12F3
102
{ACAD_REACTORS
330
12D7
102
}
330
12D7
100
AcDbXrecord
280
     1
1000
auto
  0
XRECORD
  5
12F4
102
{ACAD_REACTORS
330
12D7
102
}
330
12D7
100
AcDbXrecord
280
     1
1000
auto
  0
XRECORD
  5
12F5
102
{ACAD_REACTORS
330
12D7
102
}
330
12D7
100
AcDbXrecord
280
     1
1000
auto
  0
XRECORD
  5
12F6
102
{ACAD_REACTORS
330
12D7
102
}
330
12D7
100
AcDbXrecord
280
     1
1000
auto
  0
XRECORD
  5
12F7
102
{ACAD_REACTORS
330
12D7
102
}
330
12D7
100
AcDbXrecord
280
     1
 90
        1
  0
XRECORD
  5
12F8
102
{ACAD_REACTORS
330
12D7
102
}
330
12D7
100
AcDbXrecord
280
     1
 40
10.0
  0
XRECORD
  5
12F9
102
{ACAD_REACTORS
330
12D7
102
}
330
12D7
100
AcDbXrecord
280
     1
 40
10.0
  0
XRECORD
  5
12FA
102
{ACAD_REACTORS
330
12D7
102
}
330
12D7
100
AcDbXrecord
280
     1
 40
10.0
  0
XRECORD
  5
12FB
102
{ACAD_REACTORS
330
12D7
102
}
330
12D7
100
AcDbXrecord
280
     1
 40
10.0
  0
XRECORD
  5
12FC
102
{ACAD_REACTORS
330
12D7
102
}
330
12D7
100
AcDbXrecord
280
     1
290
     0
  0
XRECORD
  5
12FD
102
{ACAD_REACTORS
330
12D7
102
}
330
12D7
100
AcDbXrecord
280
     1
 90
        1
  0
XRECORD
  5
12FE
102
{ACAD_REACTORS
330
12D7
102
}
330
12D7
100
AcDbXrecord
280
     1
 40
0.0
  0
XRECORD
  5
12FF
102
{ACAD_REACTORS
330
12D7
102
}
330
12D7
100
AcDbXrecord
280
     1
 40
0.0
  0
XRECORD
  5
1300
102
{ACAD_REACTORS
330
12D7
102
}
330
12D7
100
AcDbXrecord
280
     1
1000
Portrait
  0
XRECORD
  5
1301
102
{ACAD_REACTORS
330
12D7
102
}
330
12D7
100
AcDbXrecord
280
     1
 40
297.0
  0
XRECORD
  5
1302
102
{ACAD_REACTORS
330
12D7
102
}
330
12D7
100
AcDbXrecord
280
     1
 40
210.0
  0
XRECORD
  5
1303
102
{ACAD_REACTORS
330
12D7
102
}
330
12D7
100
AcDbXrecord
280
     1
1000
1:1
  0
XRECORD
  5
1304
102
{ACAD_REACTORS
330
12D7
102
}
330
12D7
100
AcDbXrecord
280
     1
290
     1
  0
XRECORD
  5
12D8
102
{ACAD_REACTORS
330
12D7
102
}
330
12D7
100
AcDbXrecord
280
     1
1000
3.17.1
  0
XRECORD
  5
1305
102
{ACAD_REACTORS
330
12D7
102
}
330
12D7
100
AcDbXrecord
280
     1
 90
        4
  0
XRECORD
  5
1306
102
{ACAD_REACTORS
330
12D7
102
}
330
12D7
100
AcDbXrecord
280
     1
  0
XRECORD
  5
1307
102
{ACAD_REACTORS
330
12D7
102
}
330
12D7
100
AcDbXrecord
280
     1
 40
315.1942572964401
  0
XRECORD
  5
1308
102
{ACAD_REACTORS
330
12D7
102
}
330
12D7
100
AcDbXrecord
280
     1
 40
545.5145718916521
  0
DICTIONARY
  5
1DDE
330
12D2
100
AcDbDictionary
280
     1
281
     1
  3
ACAD_ROUNDTRIP_2008_TABLESTYLE_CELLSTYLEMAP
360
2C5E
  0
CELLSTYLEMAP
  5
2C5E
102
{ACAD_REACTORS
330
1DDE
102
}
330
1DDE
100
AcDbCellStyleMap
 90
        3
300
CELLSTYLE
  1
TABLEFORMAT_BEGIN
 90
        5
170
     1
 91
        0
 92
    32768
 62
   257
 93
        1
300
CONTENTFORMAT
  1
CONTENTFORMAT_BEGIN
 90
        0
 91
        0
 92
        4
 93
        0
300

 40
0.0
140
1.0
 94
        5
 62
     0
340
127A
144
0.25
309
CONTENTFORMAT_END
171
     1
301
MARGIN
  1
CELLMARGIN_BEGIN
 40
0.06
 40
0.06
 40
0.06
 40
0.06
 40
0.18
 40
0.18
309
CELLMARGIN_END
 94
        6
 95
        1
302
GRIDFORMAT
  1
GRIDFORMAT_BEGIN
 90
        0
 91
        1
 62
     0
 92
       -2
340
127C
 93
        0
 40
0.045
309
GRIDFORMAT_END
 95
        2
302
GRIDFORMAT
  1
GRIDFORMAT_BEGIN
 90
        0
 91
        1
 62
     0
 92
       -2
340
127C
 93
        0
 40
0.045
309
GRIDFORMAT_END
 95
        4
302
GRIDFORMAT
  1
GRIDFORMAT_BEGIN
 90
        0
 91
        1
 62
     0
 92
       -2
340
127C
 93
        0
 40
0.045
309
GRIDFORMAT_END
 95
        8
302
GRIDFORMAT
  1
GRIDFORMAT_BEGIN
 90
        0
 91
        1
 62
     0
 92
       -2
340
127C
 93
        0
 40
0.045
309
GRIDFORMAT_END
 95
       16
302
GRIDFORMAT
  1
GRIDFORMAT_BEGIN
 90
        0
 91
        1
 62
     0
 92
       -2
340
127C
 93
        0
 40
0.045
309
GRIDFORMAT_END
 95
       32
302
GRIDFORMAT
  1
GRIDFORMAT_BEGIN
 90
        0
 91
        1
 62
     0
 92
       -2
340
127C
 93
        0
 40
0.045
309
GRIDFORMAT_END
309
TABLEFORMAT_END
  1
CELLSTYLE_BEGIN
 90
        1
 91
        1
300
_TITLE
309
CELLSTYLE_END
300
CELLSTYLE
  1
TABLEFORMAT_BEGIN
 90
        5
170
     1
 91
        0
 92
        0
 62
   257
 93
        1
300
CONTENTFORMAT
  1
CONTENTFORMAT_BEGIN
 90
        0
 91
        0
 92
        4
 93
        0
300

 40
0.0
140
1.0
 94
        5
 62
     0
340
127A
144
0.18
309
CONTENTFORMAT_END
171
     1
301
MARGIN
  1
CELLMARGIN_BEGIN
 40
0.06
 40
0.06
 40
0.06
 40
0.06
 40
0.18
 40
0.18
309
CELLMARGIN_END
 94
        6
 95
        1
302
GRIDFORMAT
  1
GRIDFORMAT_BEGIN
 90
        0
 91
        1
 62
     0
 92
       -2
340
127C
 93
        0
 40
0.045
309
GRIDFORMAT_END
 95
        2
302
GRIDFORMAT
  1
GRIDFORMAT_BEGIN
 90
        0
 91
        1
 62
     0
 92
       -2
340
127C
 93
        0
 40
0.045
309
GRIDFORMAT_END
 95
        4
302
GRIDFORMAT
  1
GRIDFORMAT_BEGIN
 90
        0
 91
        1
 62
     0
 92
       -2
340
127C
 93
        0
 40
0.045
309
GRIDFORMAT_END
 95
        8
302
GRIDFORMAT
  1
GRIDFORMAT_BEGIN
 90
        0
 91
        1
 62
     0
 92
       -2
340
127C
 93
        0
 40
0.045
309
GRIDFORMAT_END
 95
       16
302
GRIDFORMAT
  1
GRIDFORMAT_BEGIN
 90
        0
 91
        1
 62
     0
 92
       -2
340
127C
 93
        0
 40
0.045
309
GRIDFORMAT_END
 95
       32
302
GRIDFORMAT
  1
GRIDFORMAT_BEGIN
 90
        0
 91
        1
 62
     0
 92
       -2
340
127C
 93
        0
 40
0.045
309
GRIDFORMAT_END
309
TABLEFORMAT_END
  1
CELLSTYLE_BEGIN
 90
        2
 91
        1
300
_HEADER
309
CELLSTYLE_END
300
CELLSTYLE
  1
TABLEFORMAT_BEGIN
 90
        5
170
     1
 91
        0
 92
        0
 62
   257
 93
        1
300
CONTENTFORMAT
  1
CONTENTFORMAT_BEGIN
 90
        0
 91
        0
 92
        4
 93
        0
300

 40
0.0
140
1.0
 94
        2
 62
     0
340
127A
144
0.18
309
CONTENTFORMAT_END
171
     1
301
MARGIN
  1
CELLMARGIN_BEGIN
 40
0.06
 40
0.06
 40
0.06
 40
0.06
 40
0.18
 40
0.18
309
CELLMARGIN_END
 94
        6
 95
        1
302
GRIDFORMAT
  1
GRIDFORMAT_BEGIN
 90
        0
 91
        1
 62
     0
 92
       -2
340
127C
 93
        0
 40
0.045
309
GRIDFORMAT_END
 95
        2
302
GRIDFORMAT
  1
GRIDFORMAT_BEGIN
 90
        0
 91
        1
 62
     0
 92
       -2
340
127C
 93
        0
 40
0.045
309
GRIDFORMAT_END
 95
        4
302
GRIDFORMAT
  1
GRIDFORMAT_BEGIN
 90
        0
 91
        1
 62
     0
 92
       -2
340
127C
 93
        0
 40
0.045
309
GRIDFORMAT_END
 95
        8
302
GRIDFORMAT
  1
GRIDFORMAT_BEGIN
 90
        0
 91
        1
 62
     0
 92
       -2
340
127C
 93
        0
 40
0.045
309
GRIDFORMAT_END
 95
       16
302
GRIDFORMAT
  1
GRIDFORMAT_BEGIN
 90
        0
 91
        1
 62
     0
 92
       -2
340
127C
 93
        0
 40
0.045
309
GRIDFORMAT_END
 95
       32
302
GRIDFORMAT
  1
GRIDFORMAT_BEGIN
 90
        0
 91
        1
 62
     0
 92
       -2
340
127C
 93
        0
 40
0.045
309
GRIDFORMAT_END
309
TABLEFORMAT_END
  1
CELLSTYLE_BEGIN
 90
        3
 91
        2
300
_DATA
309
CELLSTYLE_END
  0
ENDSEC
  0
SECTION
  2
ACDSDATA
 70
     2
 71
     7
  0
ACDSSCHEMA
 90
        0
  1
AcDb_Thumbnail_Schema
  2
AcDbDs::ID
280
    10
 91
        8
  2
Thumbnail_Data
280
    15
 91
        0
101
ACDSRECORD
 95
        0
 90
        1
  2
AcDbDs::TreatedAsObjectData
280
     1
291
     1
101
ACDSRECORD
 95
        0
 90
        2
  2
AcDbDs::Legacy
280
     1
291
     1
101
ACDSRECORD
  1
AcDbDs::ID
 90
        3
  2
AcDs:Indexable
280
     1
291
     1
101
ACDSRECORD
  1
AcDbDs::ID
 90
        4
  2
AcDbDs::HandleAttribute
280
     7
282
     1
  0
ACDSSCHEMA
 90
        1
  1
AcDbDs::TreatedAsObjectDataSchema
  2
AcDbDs::TreatedAsObjectData
280
     1
 91
        0
  0
ACDSSCHEMA
 90
        2
  1
AcDbDs::LegacySchema
  2
AcDbDs::Legacy
280
     1
 91
        0
  0
ACDSSCHEMA
 90
        3
  1
AcDbDs::IndexedPropertySchema
  2
AcDs:Indexable
280
     1
 91
        0
  0
ACDSSCHEMA
 90
        4
  1
AcDbDs::HandleAttributeSchema
  2
AcDbDs::HandleAttribute
280
     7
 91
        1
284
     1
  0
ACDSRECORD
 90
        0
  2
AcDbDs::ID
280
    10
320
128A
  2
Thumbnail_Data
280
    15
 94
     1903
310
89504E470D0A1A0A0000000D49484452000001000000006D080300000079B14F6400000300504C5445000000000000C8C8C80000000000000000000000000000000000000000000000000000330000660000990000CC0000FF0033000033330033660033990033CC0033FF0066000066330066660066990066CC0066FF0099
310
000099330099660099990099CC0099FF00CC0000CC3300CC6600CC9900CCCC00CCFF00FF0000FF3300FF6600FF9900FFCC00FFFF3300003300333300663300993300CC3300FF3333003333333333663333993333CC3333FF3366003366333366663366993366CC3366FF3399003399333399663399993399CC3399FF33CC00
310
33CC3333CC6633CC9933CCCC33CCFF33FF0033FF3333FF6633FF9933FFCC33FFFF6600006600336600666600996600CC6600FF6633006633336633666633996633CC6633FF6666006666336666666666996666CC6666FF6699006699336699666699996699CC6699FF66CC0066CC3366CC6666CC9966CCCC66CCFF66FF0066
310
FF3366FF6666FF9966FFCC66FFFF9900009900339900669900999900CC9900FF9933009933339933669933999933CC9933FF9966009966339966669966999966CC9966FF9999009999339999669999999999CC9999FF99CC0099CC3399CC6699CC9999CCCC99CCFF99FF0099FF3399FF6699FF9999FFCC99FFFFCC0000CC00
310
33CC0066CC0099CC00CCCC00FFCC3300CC3333CC3366CC3399CC33CCCC33FFCC6600CC6633CC6666CC6699CC66CCCC66FFCC9900CC9933CC9966CC9999CC99CCCC99FFCCCC00CCCC33CCCC66CCCC99CCCCCCCCCCFFCCFF00CCFF33CCFF66CCFF99CCFFCCCCFFFFFF0000FF0033FF0066FF0099FF00CCFF00FFFF3300FF3333
310
FF3366FF3399FF33CCFF33FFFF6600FF6633FF6666FF6699FF66CCFF66FFFF9900FF9933FF9966FF9999FF99CCFF99FFFFCC00FFCC33FFCC66FFCC99FFCCCCFFCCFFFFFF00FFFF33FFFF66FFFF99FFFFCCFFFFFF0000000D0D0D1A1A1A2828283535354343435050505D5D5D6B6B6B787878868686939393A1A1A1AEAEAEBB
310
BBBBC9C9C9D6D6D6E4E4E4F1F1F1FFFFFF00000000000000000000000000000000000000000000000000000000000008F1915C000000F84944415478DAEDD7CB95C3200C0550CA71FF05A812153336D8C44EE6B39D83EE3D59D861A56710D01A00000000000000004079112DE6639CFFBCC6E6E0B2328FC29F5ADBB66D8CED
310
BF0233E056F99C076370F519B0179F394A3F1E3F0398B1AC1BC11140FB3180CC8CD55740EF743D806F9640ACDF03AE25D05AC51EB0973F02C8A24DB0CFF1F8CDF2019C1FBC173A6740B5008EF3CEA3D0FB6AA81240C6DBB77F3F27AF1CC055715CBB61A500FEB2FE652866F7BB66403F1B56D9069F01E45802E7FB08A2C275
310
7806303AE2EBFE532F807B5FB8EF878BDF06F3BCF17C06505C564FA17C004D001A010000000000000000000000C0BFF205638927F6D2B273E50000000049454E44AE426082EB3400124E301637730064DB9FFCF03DFE3F0A80D6036DD9C701542A40F92010126801407F257177BBDE19BD666D0136808413AC5500DD1B0640
310
542F4F8541E104691D1ABB417EE0F79209BC10000084458B9683860600BAA4C2FCCA79B86398AE5A2B000CA00B8480027C473613806DD3193019161F00000C04009A00B0B3D141BAC30D1590DE6F2707BB2D6212981180EC870192092D5C4901286705783F9F8CFCCC0F80B8C1080026B75500203A263039002F0A882E7949
310
35A60580EEB440706C78DA30681490ABD4A40062B17F4E00D620DCB6E941397F5ED43FCC8D45C40CBBA072ABF2DDD8E7C96153AE0B80542A5CEF0445FFA2B41A76D377069099F87ED204B0870F406F5C2CDA219C1D8052C0313F68321F3235525531A4336A1965B506600D005000119F8C95803125989E5160B37D80690F66
310
B6B8093C00A0AB09806B020A0098C9C1C9010414A07DC015007AF563647005C701E0292015054E7431D251C17332BD3A432905F0FF2F0038E30347F201090045CB058D0F2892C0004ED08D027113F09631A03F5EF2BA28805E14200AB057EDA856363D186718F9D5006CA90701805E318FB633A72BDF5F0100022650D06F4F
310
2BC05E56386C2618718265BDC1297D0060BEB3E77572960590A9FD07E0350072837FE70E5FFB7CFF28F09C024A44085D01382B2472A39AEA3D5D46FEE31EE7F717A6CFE71E7E87024A0128054C07603E13A8C803F8DC875C5E01667F7100B80A00673C0B9D034B0010EB2AE40DF768F6CB00E8B5191F80179B80767A5B7514
310
F01F17D00580B752B40EC0C928A0FC26BE16C0C53CC0DC2AD7118035797909C046D69C959B4078E2BD3180ED964CB00EC02061B08F09BCDF092686105F06A0DA0400821920AE920A9798C88A000E5D8B1180FD2F77B26260243822905E8CD5C707A49F9405907DDE950EEFF23650B54CA057F3E623A1798E50C183A2F237B7
310
BF11005D212DAAFB87970098D382FAE925F03208F67DB2007F1715A0264FE90F0C0BE0DB7A6DC72204C696BD7AC0A11D430300C0C4430B3E057C0AF814B0A802706905C0EA0A28492AE7CF8370650BF84C8031FC14F02960650508004B2B60E528C0564F85EF6DFA7F78651FA1DC6C94FC0000000049454E44AE426082
  0
ENDSEC
  0
EOF
