   0
SECTION
   2
HEADER
   9
$ACADVER
   1
AC1015
   9
$ACADMAINTVER
   70
0
   9
$DWGCODEPAGE
   3
ANSI_1250
   9
$INSBASE
   10
0.0
   20
0.0
   30
0.0
   9
$EXTMIN
   10
-86.977752685546875
   20
0.0
   30
0.0
   9
$EXTMAX
   10
12000.0
   20
3000.0
   30
0.0
   9
$LIMMIN
   10
0.0
   20
0.0
   9
$LIMMAX
   10
12.0
   20
9.0
   9
$ORTHOMODE
   70
0
   9
$REGENMODE
   70
1
   9
$FILLMODE
   70
1
   9
$QTEXTMODE
   70
0
   9
$MIRRTEXT
   70
1
   9
$LTSCALE
   40
1.0
   9
$ATTMODE
   70
1
   9
$TEXTSIZE
   40
0.20000000000000001
   9
$TRACEWID
   40
0.050000000000000003
   9
$TEXTSTYLE
   7
STANDARD
   9
$CLAYER
   8
0
   9
$CELTYPE
   6
BYLAYER
   9
$CECOLOR
   62
256
   9
$CELTSCALE
   40
1.0
   9
$DISPSILH
   70
0
   9
$DIMSCALE
   40
1.0
   9
$DIMASZ
   40
0.17999999999999999
   9
$DIMEXO
   40
0.625
   9
$DIMDLI
   40
0.38
   9
$DIMRND
   40
0.0
   9
$DIMDLE
   40
0.38
   9
$DIMEXE
   40
0.17999999999999999
   9
$DIMTP
   40
0.0
   9
$DIMTM
   40
0.0
   9
$DIMTXT
   40
0.17999999999999999
   9
$DIMCEN
   40
0.089999999999999997
   9
$DIMTSZ
   40
0.0
   9
$DIMTOL
   70
0
   9
$DIMLIM
   70
0
   9
$DIMTIH
   70
1
   9
$DIMTOH
   70
1
   9
$DIMSE1
   70
0
   9
$DIMSE2
   70
0
   9
$DIMTAD
   70
0
   9
$DIMZIN
   70
0
   9
$DIMBLK
   1

   9
$DIMASO
   70
1
   9
$DIMSHO
   70
1
   9
$DIMPOST
   1

   9
$DIMAPOST
   1

   9
$DIMALT
   70
0
   9
$DIMALTD
   70
2
   9
$DIMALTF
   40
25.399999999999999
   9
$DIMLFAC
   40
1.0
   9
$DIMTOFL
   70
0
   9
$DIMTVP
   40
0.0
   9
$DIMTIX
   70
0
   9
$DIMSOXD
   70
0
   9
$DIMSAH
   70
0
   9
$DIMBLK1
   1

   9
$DIMBLK2
   1

   9
$DIMSTYLE
   2
ISO-25
   9
$DIMCLRD
   70
0
   9
$DIMCLRE
   70
0
   9
$DIMCLRT
   70
0
   9
$DIMTFAC
   40
1.0
   9
$DIMGAP
   40
0.089999999999999997
   9
$DIMJUST
   70
0
   9
$DIMSD1
   70
0
   9
$DIMSD2
   70
0
   9
$DIMTOLJ
   70
1
   9
$DIMTZIN
   70
0
   9
$DIMALTZ
   70
0
   9
$DIMALTTZ
   70
0
   9
$DIMUPT
   70
0
   9
$DIMDEC
   70
4
   9
$DIMTDEC
   70
4
   9
$DIMALTU
   70
2
   9
$DIMALTTD
   70
2
   9
$DIMTXSTY
   7
STANDARD
   9
$DIMAUNIT
   70
0
   9
$DIMADEC
   70
0
   9
$DIMALTRND
   40
0.0
   9
$DIMAZIN
   70
0
   9
$DIMDSEP
   70
46
   9
$DIMATFIT
   70
3
   9
$DIMFRAC
   70
0
   9
$DIMLDRBLK
   1

   9
$DIMLUNIT
   70
2
   9
$DIMLWD
   70
-2
   9
$DIMLWE
   70
-2
   9
$DIMTMOVE
   70
0
   9
$LUNITS
   70
2
   9
$LUPREC
   70
4
   9
$SKETCHINC
   40
0.10000000000000001
   9
$FILLETRAD
   40
0.5
   9
$AUNITS
   70
0
   9
$AUPREC
   70
0
   9
$MENU
   1

   9
$ELEVATION
   40
0.0
   9
$PELEVATION
   40
0.0
   9
$THICKNESS
   40
0.0
   9
$LIMCHECK
   70
0
   9
$CHAMFERA
   40
0.5
   9
$CHAMFERB
   40
0.5
   9
$CHAMFERC
   40
1.0
   9
$CHAMFERD
   40
0.0
   9
$SKPOLY
   70
0
   9
$TDCREATE
   40
0.0
   9
$TDUCREATE
   40
0.0
   9
$TDUPDATE
   40
0.0
   9
$TDUUPDATE
   40
0.0
   9
$TDINDWG
   40
0.0
   9
$TDUSRTIMER
   40
0.0
   9
$USRTIMER
   70
0
   9
$ANGBASE
   50
0.0
   9
$ANGDIR
   70
0
   9
$PDMODE
   70
0
   9
$PDSIZE
   40
0.0
   9
$PLINEWID
   40
0.0
   9
$SPLFRAME
   70
0
   9
$SPLINETYPE
   70
6
   9
$SPLINESEGS
   70
8
   9
$HANDSEED
   5
55
   9
$SURFTAB1
   70
6
   9
$SURFTAB2
   70
6
   9
$SURFTYPE
   70
6
   9
$SURFU
   70
6
   9
$SURFV
   70
6
   9
$UCSBASE
   2

   9
$UCSNAME
   2

   9
$UCSORG
   10
0.0
   20
0.0
   30
0.0
   9
$UCSXDIR
   10
1.0
   20
0.0
   30
0.0
   9
$UCSYDIR
   10
0.0
   20
1.0
   30
0.0
   9
$UCSORTHOREF
   2

   9
$UCSORTHOVIEW
   70
0
   9
$UCSORGTOP
   10
0.0
   20
0.0
   30
0.0
   9
$UCSORGBOTTOM
   10
0.0
   20
0.0
   30
0.0
   9
$UCSORGLEFT
   10
0.0
   20
0.0
   30
0.0
   9
$UCSORGRIGHT
   10
0.0
   20
0.0
   30
0.0
   9
$UCSORGFRONT
   10
0.0
   20
0.0
   30
0.0
   9
$UCSORGBACK
   10
0.0
   20
0.0
   30
0.0
   9
$PUCSBASE
   2

   9
$PUCSNAME
   2

   9
$PUCSORG
   10
0.0
   20
0.0
   30
0.0
   9
$PUCSXDIR
   10
1.0
   20
0.0
   30
0.0
   9
$PUCSYDIR
   10
0.0
   20
1.0
   30
0.0
   9
$PUCSORTHOREF
   2

   9
$PUCSORTHOVIEW
   70
0
   9
$PUCSORGTOP
   10
0.0
   20
0.0
   30
0.0
   9
$PUCSORGBOTTOM
   10
0.0
   20
0.0
   30
0.0
   9
$PUCSORGLEFT
   10
0.0
   20
0.0
   30
0.0
   9
$PUCSORGRIGHT
   10
0.0
   20
0.0
   30
0.0
   9
$PUCSORGFRONT
   10
0.0
   20
0.0
   30
0.0
   9
$PUCSORGBACK
   10
0.0
   20
0.0
   30
0.0
   9
$USERI1
   70
0
   9
$USERI2
   70
0
   9
$USERI3
   70
0
   9
$USERI4
   70
0
   9
$USERI5
   70
0
   9
$USERR1
   40
0.0
   9
$USERR2
   40
0.0
   9
$USERR3
   40
0.0
   9
$USERR4
   40
0.0
   9
$USERR5
   40
0.0
   9
$WORLDVIEW
   70
1
   9
$SHADEDGE
   70
3
   9
$SHADEDIF
   70
70
   9
$TILEMODE
   70
1
   9
$MAXACTVP
   70
64
   9
$PINSBASE
   10
0.0
   20
0.0
   30
0.0
   9
$PLIMCHECK
   70
0
   9
$PEXTMIN
   10
0.0
   20
0.0
   30
0.0
   9
$PEXTMAX
   10
0.0
   20
0.0
   30
0.0
   9
$PLIMMIN
   10
-6.9000000953674316
   20
-6.9000000953674316
   9
$PLIMMAX
   10
294.0
   20
226.0
   9
$UNITMODE
   70
0
   9
$VISRETAIN
   70
1
   9
$PLINEGEN
   70
0
   9
$PSLTSCALE
   70
1
   9
$TREEDEPTH
   70
3020
   9
$CMLSTYLE
   2
STANDARD
   9
$CMLJUST
   70
0
   9
$CMLSCALE
   40
20.0
   9
$PROXYGRAPHICS
   70
1
   9
$MEASUREMENT
   70
0
   9
$CELWEIGHT
   370
-1
   9
$ENDCAPS
   280
0
   9
$JOINSTYLE
   280
0
   9
$LWDISPLAY
   290
0
   9
$INSUNITS
   70
1
   9
$HYPERLINKBASE
   1

   9
$STYLESHEET
   1

   9
$XEDIT
   290
1
   9
$CEPSNTYPE
   380
0
   9
$PSTYLEMODE
   290
1
   9
$FINGERPRINTGUID
   2

   9
$VERSIONGUID
   2

   9
$EXTNAMES
   290
1
   9
$PSVPSCALE
   40
0.0
   9
$OLESTARTUP
   290
0
   0
ENDSEC
   0
SECTION
   2
CLASSES
   0
CLASS
   1
ACDBDICTIONARYWDFLT
   2
AcDbDictionaryWithDefault
   3
AutoCAD 2000
   90
0
   280
0
   281
0
   0
CLASS
   1
ACDBPLACEHOLDER
   2
AcDbPlaceHolder
   3
AutoCAD 2000
   90
0
   280
0
   281
0
   0
CLASS
   1
ARCALIGNEDTEXT
   2
AcDbArcAlignedText
   3
AutoCAD 2000
   90
0
   280
0
   281
1
   0
CLASS
   1
DICTIONARYVAR
   2
AcDbDictionaryVar
   3
AutoCAD 2000
   90
0
   280
0
   281
0
   0
CLASS
   1
HATCH
   2
AcDbHatch
   3
AutoCAD 2000
   90
0
   280
0
   281
1
   0
CLASS
   1
IDBUFFER
   2
AcDbIdBuffer
   3
AutoCAD 2000
   90
0
   280
0
   281
0
   0
CLASS
   1
IMAGE
   2
AcDbRasterImage
   3
AutoCAD 2000
   90
127
   280
0
   281
0
   0
CLASS
   1
IMAGEDEF
   2
AcDbRasterImageDef
   3
AutoCAD 2000
   90
0
   280
0
   281
0
   0
CLASS
   1
IMAGEDEF_REACTOR
   2
AcDbRasterImageDefReactor
   3
AutoCAD 2000
   90
1
   280
0
   281
0
   0
CLASS
   1
LAYER_INDEX
   2
AcDbLayerIndex
   3
AutoCAD 2000
   90
0
   280
0
   281
0
   0
CLASS
   1
LAYOUT
   2
AcDbLayout
   3
AutoCAD 2000
   90
0
   280
0
   281
0
   0
CLASS
   1
LWPOLYLINE
   2
AcDbPolyline
   3
AutoCAD 2000
   90
0
   280
0
   281
1
   0
CLASS
   1
OBJECT_PTR
   2
CAseDLPNTableRecord
   3
AutoCAD 2000
   90
1
   280
0
   281
0
   0
CLASS
   1
OLE2FRAME
   2
AcDbOle2Frame
   3
AutoCAD 2000
   90
0
   280
0
   281
1
   0
CLASS
   1
RASTERVARIABLES
   2
AcDbRasterVariables
   3
AutoCAD 2000
   90
0
   280
0
   281
0
   0
CLASS
   1
RTEXT
   2
RText
   3
AutoCAD 2000
   90
0
   280
0
   281
1
   0
CLASS
   1
SORTENTSTABLE
   2
AcDbSortentsTable
   3
AutoCAD 2000
   90
0
   280
0
   281
0
   0
CLASS
   1
SPATIAL_INDEX
   2
AcDbSpatialIndex
   3
AutoCAD 2000
   90
0
   280
0
   281
0
   0
CLASS
   1
SPATIAL_FILTER
   2
AcDbSpatialFilter
   3
AutoCAD 2000
   90
0
   280
0
   281
0
   0
CLASS
   1
WIPEOUT
   2
AcDbWipeout
   3
AutoCAD 2000
   90
127
   280
0
   281
0
   0
CLASS
   1
WIPEOUTVARIABLES
   2
AcDbWipeoutVariables
   3
AutoCAD 2000
   90
0
   280
0
   281
0
   0
ENDSEC
   0
SECTION
   2
TABLES
   0
TABLE
   2
VPORT
   5
F
   330
0
   100
AcDbSymbolTable
   70
1
   0
VPORT
   5
E
   330
F
   100
AcDbSymbolTableRecord
   100
AcDbViewportTableRecord
   2
*Active
   70
0
   10
0.0
   20
0.0
   11
1.0
   21
1.0
   12
0.0
   22
0.0
   13
0.0
   23
0.0
   14
0.0
   24
0.0
   15
0.0
   25
0.0
   16
0.0
   26
0.0
   36
1.0
   17
5956.51123046875
   27
1500.0
   37
0.0
   40
12086.9775390625
   41
1.8285163640975952
   42
0.0
   43
0.0
   44
0.0
   50
0.0
   51
0.0
   71
0
   72
0
   73
0
   74
1
   75
0
   76
0
   77
0
   78
0
   281
0
   65
0
   110
0.0
   120
0.0
   130
0.0
   111
1.0
   121
0.0
   131
0.0
   112
0.0
   122
1.0
   132
0.0
   79
0
   146
0.0
   0
ENDTAB
   0
TABLE
   2
LTYPE
   5
10
   330
0
   100
AcDbSymbolTable
   70
3
   0
LTYPE
   5
11
   330
10
   100
AcDbSymbolTableRecord
   100
AcDbLinetypeTableRecord
   2
BYBLOCK
   70
0
   3

   72
65
   73
0
   40
0.0
   0
LTYPE
   5
1
   330
10
   100
AcDbSymbolTableRecord
   100
AcDbLinetypeTableRecord
   2
BYLAYER
   70
0
   3

   72
65
   73
0
   40
0.0
   0
LTYPE
   5
2
   330
10
   100
AcDbSymbolTableRecord
   100
AcDbLinetypeTableRecord
   2
CONTINUOUS
   70
0
   3
Solid line
   72
65
   73
0
   40
0.0
   0
ENDTAB
   0
TABLE
   2
LAYER
   5
12
   330
0
   100
AcDbSymbolTable
   70
3
   0
LAYER
   5
3
   330
12
   100
AcDbSymbolTableRecord
   100
AcDbLayerTableRecord
   2
0
   70
0
   62
7
   6
CONTINUOUS
   290
1
   370
-3
   390
D
   0
LAYER
   5
28
   330
12
   100
AcDbSymbolTableRecord
   100
AcDbLayerTableRecord
   2
MEASURES
   70
0
   62
7
   6
CONTINUOUS
   290
1
   370
-3
   390
D
   0
LAYER
   5
32
   330
12
   100
AcDbSymbolTableRecord
   100
AcDbLayerTableRecord
   2
DEFAULT
   70
0
   62
7
   6
CONTINUOUS
   290
1
   370
-3
   390
D
   0
ENDTAB
   0
TABLE
   2
STYLE
   5
13
   330
0
   100
AcDbSymbolTable
   70
1
   0
STYLE
   5
4
   330
13
   100
AcDbSymbolTableRecord
   100
AcDbTextStyleTableRecord
   2
STANDARD
   70
0
   40
0.0
   41
1.0
   50
0.0
   71
0
   42
2.5
   3
txt
   4

   1000

   0
ENDTAB
   0
TABLE
   2
VIEW
   5
14
   330
0
   100
AcDbSymbolTable
   70
0
   0
ENDTAB
   0
TABLE
   2
UCS
   5
15
   330
0
   100
AcDbSymbolTable
   70
0
   0
ENDTAB
   0
TABLE
   2
APPID
   5
16
   330
0
   100
AcDbSymbolTable
   70
1
   0
APPID
   5
17
   330
16
   100
AcDbSymbolTableRecord
   100
AcDbRegAppTableRecord
   2
ACAD
   70
0
   0
ENDTAB
   0
TABLE
   2
DIMSTYLE
   5
18
   330
0
   100
AcDbSymbolTable
   70
1
   100
AcDbDimStyleTable
   0
DIMSTYLE
   105
5
   330
18
   100
AcDbSymbolTableRecord
   100
AcDbDimStyleTableRecord
   2
ISO-25
   70
0
   3

   4

   5

   6

   7

   40
1.0
   41
2.5
   42
0.625
   43
0.37999999523162842
   44
0.18000000715255737
   45
0.0
   46
0.37999999523162842
   47
0.0
   48
0.0
   140
2.5
   141
0.090000003576278687
   142
0.0
   143
25.399999618530273
   144
1.0
   145
0.0
   146
1.0
   147
0.090000003576278687
   148
0.0
   71
0
   72
0
   73
1
   74
1
   75
0
   76
0
   77
1
   78
0
   79
0
   170
0
   171
3
   172
0
   173
0
   174
0
   175
0
   176
0
   177
0
   178
0
   179
0
   271
4
   272
4
   273
2
   274
2
   340
4
   275
0
   276
0
   277
2
   278
46
   279
0
   280
0
   281
0
   282
0
   283
1
   284
0
   285
0
   286
0
   288
0
   289
3
   0
ENDTAB
   0
TABLE
   2
BLOCK_RECORD
   5
19
   330
0
   100
AcDbSymbolTable
   70
4
   0
BLOCK_RECORD
   5
1A
   330
19
   100
AcDbSymbolTableRecord
   100
AcDbBlockTableRecord
   2
*MODEL_SPACE
   0
BLOCK_RECORD
   5
1B
   330
19
   100
AcDbSymbolTableRecord
   100
AcDbBlockTableRecord
   2
*PAPER_SPACE
   0
ENDTAB
   0
ENDSEC
   0
SECTION
   2
BLOCKS
   0
BLOCK
   5
1E
   330
1A
   100
AcDbEntity
   8
0
   100
AcDbBlockBegin
   2
*MODEL_SPACE
   70
0
   10
0.0
   20
0.0
   30
0.0
   3
*MODEL_SPACE
   1

   0
ENDBLK
   5
1F
   330
1A
   100
AcDbEntity
   8
0
   100
AcDbBlockEnd
   0
BLOCK
   5
20
   330
1B
   100
AcDbEntity
   67
1
   8
0
   100
AcDbBlockBegin
   2
*PAPER_SPACE
   70
0
   10
0.0
   20
0.0
   30
0.0
   3
*PAPER_SPACE
   1

   0
ENDBLK
   5
21
   330
1B
   100
AcDbEntity
   67
1
   8
0
   100
AcDbBlockEnd
   0
ENDSEC
   0
SECTION
   2
ENTITIES
   0
LWPOLYLINE
   5
29
   330
1A
   100
AcDbEntity
   8
MEASURES
   62
3
   370
0
   100
AcDbPolyline
   90
5
   70
0
   10
0.0
   20
0.0
   40
0.0
   41
0.0
   10
0.0
   20
3000.0
   40
0.0
   41
0.0
   10
12000.0
   20
3000.0
   40
0.0
   41
0.0
   10
12000.0
   20
0.0
   40
0.0
   41
0.0
   10
0.0
   20
0.0
   40
0.0
   41
0.0
   0
LINE
   5
2A
   330
1A
   100
AcDbEntity
   8
MEASURES
   62
3
   370
0
   100
AcDbLine
   10
0.0
   20
250.0
   30
0.0
   11
0.0
   21
0.0
   31
0.0
   0
LINE
   5
2B
   330
1A
   100
AcDbEntity
   8
MEASURES
   62
3
   370
0
   100
AcDbLine
   10
0.0
   20
0.0
   30
0.0
   11
250.0
   21
0.0
   31
0.0
   0
LINE
   5
2C
   330
1A
   100
AcDbEntity
   8
MEASURES
   62
3
   370
0
   100
AcDbLine
   10
11750.0
   20
0.0
   30
0.0
   11
12000.0
   21
0.0
   31
0.0
   0
LINE
   5
2D
   330
1A
   100
AcDbEntity
   8
MEASURES
   62
3
   370
0
   100
AcDbLine
   10
12000.0
   20
0.0
   30
0.0
   11
12000.0
   21
250.0
   31
0.0
   0
LINE
   5
2E
   330
1A
   100
AcDbEntity
   8
MEASURES
   62
3
   370
0
   100
AcDbLine
   10
12000.0
   20
2750.0
   30
0.0
   11
12000.0
   21
3000.0
   31
0.0
   0
LINE
   5
2F
   330
1A
   100
AcDbEntity
   8
MEASURES
   62
3
   370
0
   100
AcDbLine
   10
12000.0
   20
3000.0
   30
0.0
   11
11750.0
   21
3000.0
   31
0.0
   0
LINE
   5
30
   330
1A
   100
AcDbEntity
   8
MEASURES
   62
3
   370
0
   100
AcDbLine
   10
250.0
   20
3000.0
   30
0.0
   11
0.0
   21
3000.0
   31
0.0
   0
LINE
   5
31
   330
1A
   100
AcDbEntity
   8
MEASURES
   62
3
   370
0
   100
AcDbLine
   10
0.0
   20
3000.0
   30
0.0
   11
0.0
   21
2750.0
   31
0.0
   0
LINE
   5
33
   330
1A
   100
AcDbEntity
   8
DEFAULT
   62
7
   370
0
   100
AcDbLine
   10
15.000046730041504
   20
15.000000953674316
   30
0.0
   11
994.29376220703125
   21
15.000043869018555
   31
0.0
   0
LWPOLYLINE
   5
34
   330
1A
   100
AcDbEntity
   8
DEFAULT
   62
3
   370
0
   100
AcDbPolyline
   90
6
   70
0
   10
994.29376220703125
   20
15.000043869018555
   40
0.0
   41
0.0
   10
994.293701171875
   20
364.800048828125
   40
0.0
   41
0.0
   42
-0.41415137052536011
   10
1144.3387451171875
   20
514.800048828125
   40
0.0
   41
0.0
   10
2444.728759765625
   20
514.80010986328125
   40
0.0
   41
0.0
   42
-0.41415154933929443
   10
2594.773681640625
   20
364.80010986328125
   40
0.0
   41
0.0
   10
2594.773681640625
   20
15.000113487243652
   40
0.0
   41
0.0
   0
LINE
   5
35
   330
1A
   100
AcDbEntity
   8
DEFAULT
   62
7
   370
0
   100
AcDbLine
   10
2594.773681640625
   20
15.000113487243652
   30
0.0
   11
3650.59033203125
   21
15.000160217285156
   31
0.0
   0
LWPOLYLINE
   5
36
   330
1A
   100
AcDbEntity
   8
DEFAULT
   62
3
   370
0
   100
AcDbPolyline
   90
9
   70
0
   10
3650.59033203125
   20
15.000160217285156
   40
0.0
   41
0.0
   10
3650.59033203125
   20
2362.550048828125
   40
0.0
   41
0.0
   10
3620.581298828125
   20
2362.550048828125
   40
0.0
   41
0.0
   42
-0.4141518771648407
   10
3570.56640625
   20
2412.550048828125
   40
0.0
   41
0.0
   10
95.023941040039063
   20
2412.550048828125
   40
0.0
   41
0.0
   42
-0.19888462126255035
   10
80.370231628417969
   20
2377.193115234375
   40
0.0
   41
0.0
   42
-0.19888488948345184
   10
45.008945465087891
   20
2362.550048828125
   40
0.0
   41
0.0
   10
14.999943733215332
   20
2362.550048828125
   40
0.0
   41
0.0
   10
15.000046730041504
   20
15.000000953674316
   40
0.0
   41
0.0
   0
LWPOLYLINE
   5
37
   330
1A
   100
AcDbEntity
   8
DEFAULT
   62
202
   370
0
   100
AcDbPolyline
   90
6
   70
0
   10
65.015022277832031
   20
612.49993896484375
   40
0.0
   41
0.0
   10
3550.54541015625
   20
612.5001220703125
   40
0.0
   41
0.0
   10
3550.54541015625
   20
562.5001220703125
   40
0.0
   41
0.0
   10
3500.54541015625
   20
562.5001220703125
   40
0.0
   41
0.0
   10
3550.54541015625
   20
612.5001220703125
   40
0.0
   41
0.0
   10
3600.575439453125
   20
612.5001220703125
   40
0.0
   41
0.0
   0
LWPOLYLINE
   5
38
   330
1A
   100
AcDbEntity
   8
DEFAULT
   62
202
   370
0
   100
AcDbPolyline
   90
6
   70
0
   10
65.014999389648438
   20
1062.5
   40
0.0
   41
0.0
   10
3550.54541015625
   20
1062.5001220703125
   40
0.0
   41
0.0
   10
3550.54541015625
   20
1012.5001220703125
   40
0.0
   41
0.0
   10
3500.54541015625
   20
1012.5001220703125
   40
0.0
   41
0.0
   10
3550.54541015625
   20
1062.5001220703125
   40
0.0
   41
0.0
   10
3600.575439453125
   20
1062.5001220703125
   40
0.0
   41
0.0
   0
LWPOLYLINE
   5
39
   330
1A
   100
AcDbEntity
   8
DEFAULT
   62
202
   370
0
   100
AcDbPolyline
   90
6
   70
0
   10
65.014984130859375
   20
1512.5
   40
0.0
   41
0.0
   10
3550.54541015625
   20
1512.5001220703125
   40
0.0
   41
0.0
   10
3550.54541015625
   20
1462.5001220703125
   40
0.0
   41
0.0
   10
3500.54541015625
   20
1462.5001220703125
   40
0.0
   41
0.0
   10
3550.54541015625
   20
1512.5001220703125
   40
0.0
   41
0.0
   10
3600.575439453125
   20
1512.5001220703125
   40
0.0
   41
0.0
   0
LWPOLYLINE
   5
3A
   330
1A
   100
AcDbEntity
   8
DEFAULT
   62
202
   370
0
   100
AcDbPolyline
   90
6
   70
0
   10
65.014961242675781
   20
1962.5
   40
0.0
   41
0.0
   10
3550.54541015625
   20
1962.5001220703125
   40
0.0
   41
0.0
   10
3550.54541015625
   20
1912.5001220703125
   40
0.0
   41
0.0
   10
3500.54541015625
   20
1912.5001220703125
   40
0.0
   41
0.0
   10
3550.54541015625
   20
1962.5001220703125
   40
0.0
   41
0.0
   10
3600.5751953125
   20
1962.5001220703125
   40
0.0
   41
0.0
   0
LINE
   5
3B
   330
1A
   100
AcDbEntity
   8
DEFAULT
   62
202
   370
0
   100
AcDbLine
   10
894.26373291015625
   20
605.5
   30
0.0
   11
894.26373291015625
   21
45.000038146972656
   31
0.0
   0
LINE
   5
3C
   330
1A
   100
AcDbEntity
   8
DEFAULT
   62
202
   370
0
   100
AcDbLine
   10
2694.8037109375
   20
45.000118255615234
   30
0.0
   11
2694.8037109375
   21
605.50006103515625
   31
0.0
   0
LWPOLYLINE
   5
3D
   330
1A
   100
AcDbEntity
   8
DEFAULT
   62
202
   370
0
   100
AcDbPolyline
   90
6
   70
0
   10
65.015045166015625
   20
114.80000305175781
   40
0.0
   41
0.0
   10
837.23162841796875
   20
114.80003356933594
   40
0.0
   41
0.0
   10
837.23162841796875
   20
64.800033569335938
   40
0.0
   41
0.0
   10
787.23162841796875
   20
64.800033569335938
   40
0.0
   41
0.0
   10
837.23162841796875
   20
114.80003356933594
   40
0.0
   41
0.0
   10
887.26165771484375
   20
114.80004119873047
   40
0.0
   41
0.0
   0
LWPOLYLINE
   5
3E
   330
1A
   100
AcDbEntity
   8
DEFAULT
   62
202
   370
0
   100
AcDbPolyline
   90
6
   70
0
   10
2701.805908203125
   20
114.80011749267578
   40
0.0
   41
0.0
   10
3550.54541015625
   20
114.80015563964844
   40
0.0
   41
0.0
   10
3550.54541015625
   20
64.800155639648438
   40
0.0
   41
0.0
   10
3500.54541015625
   20
64.800155639648438
   40
0.0
   41
0.0
   10
3550.54541015625
   20
114.80015563964844
   40
0.0
   41
0.0
   10
3600.575439453125
   20
114.80015563964844
   40
0.0
   41
0.0
   0
LWPOLYLINE
   5
3F
   330
1A
   100
AcDbEntity
   8
DEFAULT
   62
202
   370
0
   100
AcDbPolyline
   90
4
   70
0
   10
3570.56640625
   20
2262.550048828125
   40
0.0
   41
0.0
   10
3570.56640625
   20
2312.550048828125
   40
0.0
   41
0.0
   10
3620.56640625
   20
2312.550048828125
   40
0.0
   41
0.0
   10
3570.56640625
   20
2262.550048828125
   40
0.0
   41
0.0
   0
LWPOLYLINE
   5
40
   330
1A
   100
AcDbEntity
   8
DEFAULT
   62
202
   370
0
   100
AcDbPolyline
   90
4
   70
0
   10
3470.536376953125
   20
2362.550048828125
   40
0.0
   41
0.0
   10
3520.536376953125
   20
2362.550048828125
   40
0.0
   41
0.0
   10
3520.536376953125
   20
2412.550048828125
   40
0.0
   41
0.0
   10
3470.536376953125
   20
2362.550048828125
   40
0.0
   41
0.0
   0
LWPOLYLINE
   5
41
   330
1A
   100
AcDbEntity
   8
DEFAULT
   62
202
   370
0
   100
AcDbPolyline
   90
4
   70
0
   10
195.05393981933594
   20
2362.550048828125
   40
0.0
   41
0.0
   10
145.05393981933594
   20
2362.550048828125
   40
0.0
   41
0.0
   10
145.05393981933594
   20
2412.550048828125
   40
0.0
   41
0.0
   10
195.05393981933594
   20
2362.550048828125
   40
0.0
   41
0.0
   0
LWPOLYLINE
   5
42
   330
1A
   100
AcDbEntity
   8
DEFAULT
   62
202
   370
0
   100
AcDbPolyline
   90
4
   70
0
   10
95.023948669433594
   20
2262.550048828125
   40
0.0
   41
0.0
   10
95.023948669433594
   20
2312.550048828125
   40
0.0
   41
0.0
   10
45.023944854736328
   20
2312.550048828125
   40
0.0
   41
0.0
   10
95.023948669433594
   20
2262.550048828125
   40
0.0
   41
0.0
   0
LWPOLYLINE
   5
43
   330
1A
   100
AcDbEntity
   8
DEFAULT
   62
202
   370
0
   100
AcDbPolyline
   90
4
   70
0
   10
145.03904724121094
   20
62.500007629394531
   40
0.0
   41
0.0
   10
95.039047241210938
   20
62.500003814697266
   40
0.0
   41
0.0
   10
95.039047241210938
   20
12.500004768371582
   40
0.0
   41
0.0
   10
145.03904724121094
   20
62.500007629394531
   40
0.0
   41
0.0
   0
LWPOLYLINE
   5
44
   330
1A
   100
AcDbEntity
   8
DEFAULT
   62
202
   370
0
   100
AcDbPolyline
   90
4
   70
0
   10
3520.551513671875
   20
62.500152587890625
   40
0.0
   41
0.0
   10
3570.551513671875
   20
62.500156402587891
   40
0.0
   41
0.0
   10
3570.551513671875
   20
12.500156402587891
   40
0.0
   41
0.0
   10
3520.551513671875
   20
62.500152587890625
   40
0.0
   41
0.0
   0
LINE
   5
45
   330
1A
   100
AcDbEntity
   8
DEFAULT
   62
7
   370
0
   100
AcDbLine
   10
3665.59033203125
   20
15.000004768371582
   30
0.0
   11
4615.39697265625
   21
15.000046730041504
   31
0.0
   0
LWPOLYLINE
   5
46
   330
1A
   100
AcDbEntity
   8
DEFAULT
   62
3
   370
0
   100
AcDbPolyline
   90
6
   70
0
   10
4615.39697265625
   20
15.000046730041504
   40
0.0
   41
0.0
   10
4615.39697265625
   20
362.25283813476562
   40
0.0
   41
0.0
   42
-0.41379746794700623
   10
4765.5244140625
   20
512.42706298828125
   40
0.0
   41
0.0
   10
6066.62939453125
   20
512.4271240234375
   40
0.0
   41
0.0
   42
-0.41379746794700623
   10
6216.7568359375
   20
362.25289916992187
   40
0.0
   41
0.0
   10
6216.7568359375
   20
15.000116348266602
   40
0.0
   41
0.0
   0
LINE
   5
47
   330
1A
   100
AcDbEntity
   8
DEFAULT
   62
7
   370
0
   100
AcDbLine
   10
6216.7568359375
   20
15.000116348266602
   30
0.0
   11
7812.11181640625
   21
15.000185966491699
   31
0.0
   0
LWPOLYLINE
   5
48
   330
1A
   100
AcDbEntity
   8
DEFAULT
   62
3
   370
0
   100
AcDbPolyline
   90
17
   70
0
   10
7812.11181640625
   20
15.000185966491699
   40
0.0
   41
0.0
   10
7812.11181640625
   20
2362.322998046875
   40
0.0
   41
0.0
   10
7782.08642578125
   20
2362.322998046875
   40
0.0
   41
0.0
   42
-0.41379734873771667
   10
7732.0439453125
   20
2412.381103515625
   40
0.0
   41
0.0
   10
7431.78857421875
   20
2412.381103515625
   40
0.0
   41
0.0
   10
7431.78857421875
   20
2292.231689453125
   40
0.0
   41
0.0
   42
-0.29462790489196777
   10
7419.99853515625
   20
2273.977783203125
   40
0.0
   41
0.0
   42
-0.21481671929359436
   10
7362.40966796875
   20
2273.977783203125
   40
0.0
   41
0.0
   42
-0.80692595243453979
   10
7370.63671875
   20
2312.2548828125
   40
0.0
   41
0.0
   10
7370.73681640625
   20
2312.2548828125
   40
0.0
   41
0.0
   10
7370.73681640625
   20
2405.372802734375
   40
0.0
   41
0.0
   10
7363.73095703125
   20
2412.381103515625
   40
0.0
   41
0.0
   10
3715.6328125
   20
2412.380859375
   40
0.0
   41
0.0
   10
3715.6328125
   20
2362.32275390625
   40
0.0
   41
0.0
   10
3715.6328125
   20
2312.2646484375
   40
0.0
   41
0.0
   42
-0.41379734873771667
   10
3665.59033203125
   20
2262.20654296875
   40
0.0
   41
0.0
   10
3665.59033203125
   20
15.000004768371582
   40
0.0
   41
0.0
   0
LWPOLYLINE
   5
49
   330
1A
   100
AcDbEntity
   8
DEFAULT
   62
202
   370
0
   100
AcDbPolyline
   90
10
   70
0
   10
3695.61572265625
   20
654.5919189453125
   40
0.0
   41
0.0
   10
3745.70068359375
   20
654.5338134765625
   40
0.0
   41
0.0
   10
3745.70068359375
   20
604.5338134765625
   40
0.0
   41
0.0
   10
3795.70068359375
   20
604.5338134765625
   40
0.0
   41
0.0
   10
3745.70068359375
   20
654.5338134765625
   40
0.0
   41
0.0
   10
7701.97607421875
   20
654.53399658203125
   40
0.0
   41
0.0
   10
7701.97607421875
   20
604.53399658203125
   40
0.0
   41
0.0
   10
7651.97607421875
   20
604.53399658203125
   40
0.0
   41
0.0
   10
7701.97607421875
   20
654.53399658203125
   40
0.0
   41
0.0
   10
7752.06103515625
   20
654.59210205078125
   40
0.0
   41
0.0
   0
LWPOLYLINE
   5
4A
   330
1A
   100
AcDbEntity
   8
DEFAULT
   62
202
   370
0
   100
AcDbPolyline
   90
10
   70
0
   10
3695.61572265625
   20
1240.271240234375
   40
0.0
   41
0.0
   10
3745.70068359375
   20
1240.213134765625
   40
0.0
   41
0.0
   10
3745.70068359375
   20
1190.213134765625
   40
0.0
   41
0.0
   10
3795.70068359375
   20
1190.213134765625
   40
0.0
   41
0.0
   10
3745.70068359375
   20
1240.213134765625
   40
0.0
   41
0.0
   10
7701.9755859375
   20
1240.21337890625
   40
0.0
   41
0.0
   10
7701.9755859375
   20
1190.21337890625
   40
0.0
   41
0.0
   10
7651.9755859375
   20
1190.21337890625
   40
0.0
   41
0.0
   10
7701.9755859375
   20
1240.21337890625
   40
0.0
   41
0.0
   10
7752.06103515625
   20
1240.271484375
   40
0.0
   41
0.0
   0
LWPOLYLINE
   5
4B
   330
1A
   100
AcDbEntity
   8
DEFAULT
   62
202
   370
0
   100
AcDbPolyline
   90
10
   70
0
   10
3695.61572265625
   20
1825.9505615234375
   40
0.0
   41
0.0
   10
3745.70068359375
   20
1825.892578125
   40
0.0
   41
0.0
   10
3745.70068359375
   20
1775.892578125
   40
0.0
   41
0.0
   10
3795.70068359375
   20
1775.892578125
   40
0.0
   41
0.0
   10
3745.70068359375
   20
1825.892578125
   40
0.0
   41
0.0
   10
7701.9755859375
   20
1825.8927001953125
   40
0.0
   41
0.0
   10
7701.9755859375
   20
1775.8927001953125
   40
0.0
   41
0.0
   10
7651.9755859375
   20
1775.8927001953125
   40
0.0
   41
0.0
   10
7701.9755859375
   20
1825.8927001953125
   40
0.0
   41
0.0
   10
7752.06103515625
   20
1825.9508056640625
   40
0.0
   41
0.0
   0
LINE
   5
4C
   330
1A
   100
AcDbEntity
   8
DEFAULT
   62
202
   370
0
   100
AcDbLine
   10
4415.22705078125
   20
647.58380126953125
   30
0.0
   11
4415.22705078125
   21
45.034877777099609
   31
0.0
   0
LINE
   5
4D
   330
1A
   100
AcDbEntity
   8
DEFAULT
   62
202
   370
0
   100
AcDbLine
   10
6416.9267578125
   20
45.034965515136719
   30
0.0
   11
6416.9267578125
   21
647.5838623046875
   31
0.0
   0
LWPOLYLINE
   5
4E
   330
1A
   100
AcDbEntity
   8
DEFAULT
   62
202
   370
0
   100
AcDbPolyline
   90
6
   70
0
   10
3695.61572265625
   20
111.96247863769531
   40
0.0
   41
0.0
   10
4358.13623046875
   20
111.90444183349609
   40
0.0
   41
0.0
   10
4358.13623046875
   20
61.904441833496094
   40
0.0
   41
0.0
   10
4308.13623046875
   20
61.904438018798828
   40
0.0
   41
0.0
   10
4358.13623046875
   20
111.90444183349609
   40
0.0
   41
0.0
   10
4408.22119140625
   20
111.96250915527344
   40
0.0
   41
0.0
   0
LWPOLYLINE
   5
4F
   330
1A
   100
AcDbEntity
   8
DEFAULT
   62
202
   370
0
   100
AcDbPolyline
   90
6
   70
0
   10
6423.93310546875
   20
111.96259307861328
   40
0.0
   41
0.0
   10
7701.97607421875
   20
111.90458679199219
   40
0.0
   41
0.0
   10
7701.97607421875
   20
61.904586791992188
   40
0.0
   41
0.0
   10
7651.97607421875
   20
61.904586791992188
   40
0.0
   41
0.0
   10
7701.97607421875
   20
111.90458679199219
   40
0.0
   41
0.0
   10
7752.06103515625
   20
111.96265411376953
   40
0.0
   41
0.0
   0
LWPOLYLINE
   5
50
   330
1A
   100
AcDbEntity
   8
DEFAULT
   62
202
   370
0
   100
AcDbPolyline
   90
4
   70
0
   10
7732.0439453125
   20
2262.206787109375
   40
0.0
   41
0.0
   10
7732.0439453125
   20
2312.206787109375
   40
0.0
   41
0.0
   10
7782.0439453125
   20
2312.206787109375
   40
0.0
   41
0.0
   10
7732.0439453125
   20
2262.206787109375
   40
0.0
   41
0.0
   0
LWPOLYLINE
   5
51
   330
1A
   100
AcDbEntity
   8
DEFAULT
   62
202
   370
0
   100
AcDbPolyline
   90
4
   70
0
   10
7631.958984375
   20
2362.322998046875
   40
0.0
   41
0.0
   10
7681.958984375
   20
2362.322998046875
   40
0.0
   41
0.0
   10
7681.958984375
   20
2412.322998046875
   40
0.0
   41
0.0
   10
7631.958984375
   20
2362.322998046875
   40
0.0
   41
0.0
   0
LWPOLYLINE
   5
52
   330
1A
   100
AcDbEntity
   8
DEFAULT
   62
202
   370
0
   100
AcDbPolyline
   90
4
   70
0
   10
3815.7177734375
   20
2362.32275390625
   40
0.0
   41
0.0
   10
3765.7177734375
   20
2362.32275390625
   40
0.0
   41
0.0
   10
3765.7177734375
   20
2412.32275390625
   40
0.0
   41
0.0
   10
3815.7177734375
   20
2362.32275390625
   40
0.0
   41
0.0
   0
LWPOLYLINE
   5
53
   330
1A
   100
AcDbEntity
   8
DEFAULT
   62
202
   370
0
   100
AcDbPolyline
   90
4
   70
0
   10
3765.67529296875
   20
62.555171966552734
   40
0.0
   41
0.0
   10
3715.67529296875
   20
62.555168151855469
   40
0.0
   41
0.0
   10
3715.67529296875
   20
12.555168151855469
   40
0.0
   41
0.0
   10
3765.67529296875
   20
62.555171966552734
   40
0.0
   41
0.0
   0
LWPOLYLINE
   5
54
   330
1A
   100
AcDbEntity
   8
DEFAULT
   62
202
   370
0
   100
AcDbPolyline
   90
4
   70
0
   10
7682.00146484375
   20
62.555343627929688
   40
0.0
   41
0.0
   10
7732.00146484375
   20
62.555343627929688
   40
0.0
   41
0.0
   10
7732.00146484375
   20
12.555343627929687
   40
0.0
   41
0.0
   10
7682.00146484375
   20
62.555343627929688
   40
0.0
   41
0.0
   0
ENDSEC
   0
SECTION
   2
OBJECTS
   0
DICTIONARY
   5
6
   330
0
   100
AcDbDictionary
   3
ACAD_GROUP
   350
7
   3
ACAD_MLINESTYLE
   350
8
   3
ACAD_PLOTSETTINGS
   350
A
   3
ACAD_LAYOUT
   350
B
   3
ACAD_PLOTSTYLENAME
   350
C
   0
DICTIONARY
   5
7
   330
6
   100
AcDbDictionary
   0
DICTIONARY
   5
8
   330
6
   100
AcDbDictionary
   3
ACAD_MLINESTYLE
   350
9
   0
MLINESTYLE
   5
9
   330
8
   100
AcDbMlineStyle
   2

   70
0
   3

   62
256
   51
90.0
   52
90.0
   71
0
   0
DICTIONARY
   5
A
   330
6
   100
AcDbDictionary
   0
DICTIONARY
   5
B
   330
6
   100
AcDbDictionary
   3
Model
   350
26
   3
Layout1
   350
27
   0
LAYOUT
   5
26
   330
B
   100
AcDbPlotSettings
   1

   2

   4

   6

   40
0.0
   41
0.0
   42
0.0
   43
0.0
   44
0.0
   45
0.0
   46
0.0
   47
0.0
   48
0.0
   49
0.0
   140
0.0
   141
0.0
   142
0.0
   143
0.0
   70
1712
   72
0
   73
0
   74
5
   7

   147
1.0
   148
0.0
   149
0.0
   100
AcDbLayout
   1
Model
   70
1
   71
0
   10
0.0
   20
0.0
   11
12.0
   21
9.0
   12
0.0
   22
0.0
   32
0.0
   14
0.0
   24
0.0
   34
0.0
   15
0.0
   25
0.0
   35
0.0
   146
0.0
   13
0.0
   23
0.0
   33
0.0
   16
1.0
   26
0.0
   36
0.0
   17
0.0
   27
1.0
   37
0.0
   76
0
   330
1A
   0
LAYOUT
   5
27
   330
B
   100
AcDbPlotSettings
   1

   2

   4

   6

   40
0.0
   41
0.0
   42
0.0
   43
0.0
   44
0.0
   45
0.0
   46
0.0
   47
0.0
   48
0.0
   49
0.0
   140
0.0
   141
0.0
   142
1.0
   143
1.0
   70
688
   72
0
   73
0
   74
5
   7

   147
1.0
   148
0.0
   149
0.0
   100
AcDbLayout
   1
Layout1
   70
1
   71
1
   10
0.0
   20
0.0
   11
420.0
   21
297.0
   12
0.0
   22
0.0
   32
0.0
   14
100000002004087730000.0
   24
100000002004087730000.0
   34
100000002004087730000.0
   15
-100000002004087730000.0
   25
-100000002004087730000.0
   35
-100000002004087730000.0
   146
0.0
   13
0.0
   23
0.0
   33
0.0
   16
1.0
   26
0.0
   36
0.0
   17
0.0
   27
1.0
   37
0.0
   76
0
   330
1B
   0
ACDBDICTIONARYWDFLT
   5
C
   330
6
   100
AcDbDictionary
   3
Normal
   350
D
   100
AcDbDictionaryWithDefault
   340
0
   0
ACDBPLACEHOLDER
   5
D
   330
C
   0
ENDSEC
   0
EOF
