ISO-10303-21;
HEADER;
/* Generated by software containing ST-Developer
 * from STEP Tools, Inc. (www.steptools.com) 
 */

FILE_DESCRIPTION(
/* description */ ('',
'CAx-IF Rec.Pracs.---Representation and Presentation of Product Manufa
cturing Information (PMI)---3.8---2014-02-18'),
/* implementation_level */ '2;1');

FILE_NAME(
/* name */ 'F:\\Downloads\\Windschiefe Rohre.stp',
/* time_stamp */ '2016-04-09T14:22:10+02:00',
/* author */ ('Walter'),
/* organization */ (''),
/* preprocessor_version */ 'ST-DEVELOPER v16.1',
/* originating_system */ 'Autodesk Inventor 2016',
/* authorisation */ '');

FILE_SCHEMA (('AP242_MANAGED_MODEL_BASED_3D_ENGINEERING_MIM_LF { 1 0 10303 442 1 1 4 }'));
ENDSEC;

DATA;
#10=MECHANICAL_DESIGN_GEOMETRIC_PRESENTATION_REPRESENTATION('',(#31,#32,
#33,#34,#35,#36),#294);
#11=GEOMETRICALLY_BOUNDED_SURFACE_SHAPE_REPRESENTATION('',(#12),#293);
#12=GEOMETRIC_SET('GEOSET',(#13,#14,#15));
#13=TRIMMED_CURVE('',#16,(#283),(#284),.T.,.CARTESIAN.);
#14=TRIMMED_CURVE('',#17,(#286),(#287),.T.,.CARTESIAN.);
#15=TRIMMED_CURVE('',#18,(#289),(#290),.T.,.CARTESIAN.);
#16=LINE('',#282,#19);
#17=LINE('',#285,#20);
#18=LINE('',#288,#21);
#19=VECTOR('',#242,41.6205003650703);
#20=VECTOR('',#243,30.);
#21=VECTOR('',#244,30.);
#22=SHAPE_REPRESENTATION_RELATIONSHIP('SRR','None',#303,#24);
#23=SHAPE_REPRESENTATION_RELATIONSHIP('SRR','None',#303,#11);
#24=ADVANCED_BREP_SHAPE_REPRESENTATION('',(#25,#26),#293);
#25=MANIFOLD_SOLID_BREP('Volumenk\X\F6rper1',#165);
#26=MANIFOLD_SOLID_BREP('Volumenk\X\F6rper2',#166);
#27=PLANE('',#178);
#28=PLANE('',#179);
#29=PLANE('',#190);
#30=PLANE('',#191);
#31=STYLED_ITEM('',(#313),#155);
#32=STYLED_ITEM('',(#314),#156);
#33=STYLED_ITEM('',(#312),#25);
#34=STYLED_ITEM('',(#314),#161);
#35=STYLED_ITEM('',(#315),#162);
#36=STYLED_ITEM('',(#312),#26);
#37=CYLINDRICAL_SURFACE('',#171,4.);
#38=CYLINDRICAL_SURFACE('',#176,5.);
#39=CYLINDRICAL_SURFACE('',#180,4.);
#40=CYLINDRICAL_SURFACE('',#185,5.);
#41=FACE_BOUND('',#66,.T.);
#42=FACE_BOUND('',#68,.T.);
#43=FACE_BOUND('',#70,.T.);
#44=FACE_BOUND('',#72,.T.);
#45=FACE_BOUND('',#74,.T.);
#46=FACE_BOUND('',#76,.T.);
#47=FACE_BOUND('',#78,.T.);
#48=FACE_BOUND('',#80,.T.);
#49=FACE_BOUND('',#82,.T.);
#50=FACE_BOUND('',#84,.T.);
#51=FACE_BOUND('',#86,.T.);
#52=FACE_BOUND('',#88,.T.);
#53=FACE_OUTER_BOUND('',#65,.T.);
#54=FACE_OUTER_BOUND('',#67,.T.);
#55=FACE_OUTER_BOUND('',#69,.T.);
#56=FACE_OUTER_BOUND('',#71,.T.);
#57=FACE_OUTER_BOUND('',#73,.T.);
#58=FACE_OUTER_BOUND('',#75,.T.);
#59=FACE_OUTER_BOUND('',#77,.T.);
#60=FACE_OUTER_BOUND('',#79,.T.);
#61=FACE_OUTER_BOUND('',#81,.T.);
#62=FACE_OUTER_BOUND('',#83,.T.);
#63=FACE_OUTER_BOUND('',#85,.T.);
#64=FACE_OUTER_BOUND('',#87,.T.);
#65=EDGE_LOOP('',(#125));
#66=EDGE_LOOP('',(#126));
#67=EDGE_LOOP('',(#127));
#68=EDGE_LOOP('',(#128));
#69=EDGE_LOOP('',(#129));
#70=EDGE_LOOP('',(#130));
#71=EDGE_LOOP('',(#131));
#72=EDGE_LOOP('',(#132));
#73=EDGE_LOOP('',(#133));
#74=EDGE_LOOP('',(#134));
#75=EDGE_LOOP('',(#135));
#76=EDGE_LOOP('',(#136));
#77=EDGE_LOOP('',(#137));
#78=EDGE_LOOP('',(#138));
#79=EDGE_LOOP('',(#139));
#80=EDGE_LOOP('',(#140));
#81=EDGE_LOOP('',(#141));
#82=EDGE_LOOP('',(#142));
#83=EDGE_LOOP('',(#143));
#84=EDGE_LOOP('',(#144));
#85=EDGE_LOOP('',(#145));
#86=EDGE_LOOP('',(#146));
#87=EDGE_LOOP('',(#147));
#88=EDGE_LOOP('',(#148));
#89=CIRCLE('',#169,4.);
#90=CIRCLE('',#170,4.);
#91=CIRCLE('',#172,4.);
#92=CIRCLE('',#174,5.);
#93=CIRCLE('',#175,5.);
#94=CIRCLE('',#177,5.);
#95=CIRCLE('',#181,4.);
#96=CIRCLE('',#182,4.);
#97=CIRCLE('',#184,4.);
#98=CIRCLE('',#186,5.);
#99=CIRCLE('',#187,5.);
#100=CIRCLE('',#189,5.);
#101=VERTEX_POINT('',#247);
#102=VERTEX_POINT('',#249);
#103=VERTEX_POINT('',#252);
#104=VERTEX_POINT('',#255);
#105=VERTEX_POINT('',#257);
#106=VERTEX_POINT('',#260);
#107=VERTEX_POINT('',#265);
#108=VERTEX_POINT('',#267);
#109=VERTEX_POINT('',#270);
#110=VERTEX_POINT('',#273);
#111=VERTEX_POINT('',#275);
#112=VERTEX_POINT('',#278);
#113=EDGE_CURVE('',#101,#101,#89,.T.);
#114=EDGE_CURVE('',#102,#102,#90,.T.);
#115=EDGE_CURVE('',#103,#103,#91,.T.);
#116=EDGE_CURVE('',#104,#104,#92,.T.);
#117=EDGE_CURVE('',#105,#105,#93,.T.);
#118=EDGE_CURVE('',#106,#106,#94,.T.);
#119=EDGE_CURVE('',#107,#107,#95,.T.);
#120=EDGE_CURVE('',#108,#108,#96,.T.);
#121=EDGE_CURVE('',#109,#109,#97,.T.);
#122=EDGE_CURVE('',#110,#110,#98,.T.);
#123=EDGE_CURVE('',#111,#111,#99,.T.);
#124=EDGE_CURVE('',#112,#112,#100,.T.);
#125=ORIENTED_EDGE('',*,*,#113,.F.);
#126=ORIENTED_EDGE('',*,*,#114,.F.);
#127=ORIENTED_EDGE('',*,*,#114,.T.);
#128=ORIENTED_EDGE('',*,*,#115,.F.);
#129=ORIENTED_EDGE('',*,*,#116,.F.);
#130=ORIENTED_EDGE('',*,*,#117,.T.);
#131=ORIENTED_EDGE('',*,*,#117,.F.);
#132=ORIENTED_EDGE('',*,*,#118,.T.);
#133=ORIENTED_EDGE('',*,*,#116,.T.);
#134=ORIENTED_EDGE('',*,*,#113,.T.);
#135=ORIENTED_EDGE('',*,*,#118,.F.);
#136=ORIENTED_EDGE('',*,*,#115,.T.);
#137=ORIENTED_EDGE('',*,*,#119,.F.);
#138=ORIENTED_EDGE('',*,*,#120,.F.);
#139=ORIENTED_EDGE('',*,*,#120,.T.);
#140=ORIENTED_EDGE('',*,*,#121,.F.);
#141=ORIENTED_EDGE('',*,*,#122,.F.);
#142=ORIENTED_EDGE('',*,*,#123,.T.);
#143=ORIENTED_EDGE('',*,*,#123,.F.);
#144=ORIENTED_EDGE('',*,*,#124,.F.);
#145=ORIENTED_EDGE('',*,*,#122,.T.);
#146=ORIENTED_EDGE('',*,*,#119,.T.);
#147=ORIENTED_EDGE('',*,*,#124,.T.);
#148=ORIENTED_EDGE('',*,*,#121,.T.);
#149=TOROIDAL_SURFACE('',#168,40.,4.);
#150=TOROIDAL_SURFACE('',#173,40.,5.);
#151=TOROIDAL_SURFACE('',#183,70.,4.);
#152=TOROIDAL_SURFACE('',#188,70.,5.);
#153=ADVANCED_FACE('',(#53,#41),#149,.F.);
#154=ADVANCED_FACE('',(#54,#42),#37,.F.);
#155=ADVANCED_FACE('',(#55,#43),#150,.T.);
#156=ADVANCED_FACE('',(#56,#44),#38,.T.);
#157=ADVANCED_FACE('',(#57,#45),#27,.T.);
#158=ADVANCED_FACE('',(#58,#46),#28,.F.);
#159=ADVANCED_FACE('',(#59,#47),#39,.F.);
#160=ADVANCED_FACE('',(#60,#48),#151,.F.);
#161=ADVANCED_FACE('',(#61,#49),#40,.T.);
#162=ADVANCED_FACE('',(#62,#50),#152,.T.);
#163=ADVANCED_FACE('',(#63,#51),#29,.F.);
#164=ADVANCED_FACE('',(#64,#52),#30,.T.);
#165=CLOSED_SHELL('',(#153,#154,#155,#156,#157,#158));
#166=CLOSED_SHELL('',(#159,#160,#161,#162,#163,#164));
#167=AXIS2_PLACEMENT_3D('placement',#245,#192,#193);
#168=AXIS2_PLACEMENT_3D('',#246,#194,#195);
#169=AXIS2_PLACEMENT_3D('',#248,#196,#197);
#170=AXIS2_PLACEMENT_3D('',#250,#198,#199);
#171=AXIS2_PLACEMENT_3D('',#251,#200,#201);
#172=AXIS2_PLACEMENT_3D('',#253,#202,#203);
#173=AXIS2_PLACEMENT_3D('',#254,#204,#205);
#174=AXIS2_PLACEMENT_3D('',#256,#206,#207);
#175=AXIS2_PLACEMENT_3D('',#258,#208,#209);
#176=AXIS2_PLACEMENT_3D('',#259,#210,#211);
#177=AXIS2_PLACEMENT_3D('',#261,#212,#213);
#178=AXIS2_PLACEMENT_3D('',#262,#214,#215);
#179=AXIS2_PLACEMENT_3D('',#263,#216,#217);
#180=AXIS2_PLACEMENT_3D('',#264,#218,#219);
#181=AXIS2_PLACEMENT_3D('',#266,#220,#221);
#182=AXIS2_PLACEMENT_3D('',#268,#222,#223);
#183=AXIS2_PLACEMENT_3D('',#269,#224,#225);
#184=AXIS2_PLACEMENT_3D('',#271,#226,#227);
#185=AXIS2_PLACEMENT_3D('',#272,#228,#229);
#186=AXIS2_PLACEMENT_3D('',#274,#230,#231);
#187=AXIS2_PLACEMENT_3D('',#276,#232,#233);
#188=AXIS2_PLACEMENT_3D('',#277,#234,#235);
#189=AXIS2_PLACEMENT_3D('',#279,#236,#237);
#190=AXIS2_PLACEMENT_3D('',#280,#238,#239);
#191=AXIS2_PLACEMENT_3D('',#281,#240,#241);
#192=DIRECTION('axis',(0.,0.,1.));
#193=DIRECTION('refdir',(1.,0.,0.));
#194=DIRECTION('center_axis',(0.,-1.,0.));
#195=DIRECTION('ref_axis',(0.,0.,-1.));
#196=DIRECTION('center_axis',(-0.5,0.,-0.866025403784439));
#197=DIRECTION('ref_axis',(0.866025403784439,0.,-0.5));
#198=DIRECTION('center_axis',(1.,0.,0.));
#199=DIRECTION('ref_axis',(0.,1.,0.));
#200=DIRECTION('center_axis',(1.,0.,0.));
#201=DIRECTION('ref_axis',(0.,1.,0.));
#202=DIRECTION('center_axis',(1.,0.,0.));
#203=DIRECTION('ref_axis',(0.,1.,0.));
#204=DIRECTION('center_axis',(0.,-1.,0.));
#205=DIRECTION('ref_axis',(0.,0.,-1.));
#206=DIRECTION('center_axis',(0.5,0.,0.866025403784439));
#207=DIRECTION('ref_axis',(0.,1.,0.));
#208=DIRECTION('center_axis',(1.,0.,0.));
#209=DIRECTION('ref_axis',(0.,1.,0.));
#210=DIRECTION('center_axis',(1.,0.,0.));
#211=DIRECTION('ref_axis',(0.,1.,0.));
#212=DIRECTION('center_axis',(1.,0.,0.));
#213=DIRECTION('ref_axis',(0.,1.,0.));
#214=DIRECTION('center_axis',(0.5,0.,0.866025403784439));
#215=DIRECTION('ref_axis',(0.866025403784438,0.,-0.5));
#216=DIRECTION('center_axis',(1.,0.,0.));
#217=DIRECTION('ref_axis',(0.,0.,-1.));
#218=DIRECTION('center_axis',(0.895927137182503,0.383022221559489,0.224963425141951));
#219=DIRECTION('ref_axis',(-0.302302176281456,0.15467750227901,0.940578685971686));
#220=DIRECTION('center_axis',(-0.895927137182503,-0.383022221559489,-0.22496342514195));
#221=DIRECTION('ref_axis',(-0.302302176281456,0.15467750227901,0.940578685971686));
#222=DIRECTION('center_axis',(0.895927137182503,0.383022221559489,0.22496342514195));
#223=DIRECTION('ref_axis',(-0.302302176281455,0.15467750227901,0.940578685971686));
#224=DIRECTION('center_axis',(-0.43301270189222,0.866025403784438,0.25));
#225=DIRECTION('ref_axis',(0.5,0.,0.866025403784439));
#226=DIRECTION('center_axis',(0.5,0.,0.866025403784439));
#227=DIRECTION('ref_axis',(-0.75,-0.5,0.43301270189222));
#228=DIRECTION('center_axis',(0.895927137182503,0.383022221559489,0.224963425141951));
#229=DIRECTION('ref_axis',(-0.302302176281455,0.15467750227901,0.940578685971685));
#230=DIRECTION('center_axis',(0.895927137182503,0.383022221559489,0.22496342514195));
#231=DIRECTION('ref_axis',(-0.302302176281455,0.15467750227901,0.940578685971686));
#232=DIRECTION('center_axis',(0.895927137182503,0.383022221559489,0.22496342514195));
#233=DIRECTION('ref_axis',(-0.302302176281455,0.15467750227901,0.940578685971686));
#234=DIRECTION('center_axis',(-0.43301270189222,0.866025403784438,0.25));
#235=DIRECTION('ref_axis',(0.5,0.,0.866025403784438));
#236=DIRECTION('center_axis',(-0.5,0.,-0.866025403784439));
#237=DIRECTION('ref_axis',(-0.866025403784438,0.,0.5));
#238=DIRECTION('center_axis',(-0.895927137182503,-0.383022221559489,-0.22496342514195));
#239=DIRECTION('ref_axis',(-0.302302176281455,0.15467750227901,0.940578685971686));
#240=DIRECTION('center_axis',(-0.5,0.,-0.866025403784439));
#241=DIRECTION('ref_axis',(-0.866025403784438,0.,0.5));
#242=DIRECTION('',(0.,0.506445065090008,-0.8622722285021));
#243=DIRECTION('',(-0.895927137182503,-0.383022221559489,-0.224963425141951));
#244=DIRECTION('',(1.,0.,0.));
#245=CARTESIAN_POINT('',(0.,0.,0.));
#246=CARTESIAN_POINT('Origin',(0.,0.,40.));
#247=CARTESIAN_POINT('',(31.1769145362398,4.89858719658941E-16,22.));
#248=CARTESIAN_POINT('Origin',(34.6410161513775,0.,20.));
#249=CARTESIAN_POINT('',(0.,-4.,6.12323399573677E-16));
#250=CARTESIAN_POINT('Origin',(0.,0.,0.));
#251=CARTESIAN_POINT('Origin',(-30.,0.,0.));
#252=CARTESIAN_POINT('',(-30.,-4.,4.89858719658941E-16));
#253=CARTESIAN_POINT('Origin',(-30.,0.,0.));
#254=CARTESIAN_POINT('Origin',(0.,0.,40.));
#255=CARTESIAN_POINT('',(34.6410161513775,-5.,20.));
#256=CARTESIAN_POINT('Origin',(34.6410161513775,0.,20.));
#257=CARTESIAN_POINT('',(0.,-5.,6.12323399573677E-16));
#258=CARTESIAN_POINT('Origin',(0.,0.,0.));
#259=CARTESIAN_POINT('Origin',(-30.,0.,0.));
#260=CARTESIAN_POINT('',(-30.,-5.,6.12323399573677E-16));
#261=CARTESIAN_POINT('Origin',(-30.,0.,0.));
#262=CARTESIAN_POINT('Origin',(34.6410161513775,2.36064120735332E-16,20.));
#263=CARTESIAN_POINT('Origin',(-30.,2.36064120735332E-16,9.25185853854297E-17));
#264=CARTESIAN_POINT('Origin',(80.2062221519985,12.5024336609711,55.611551212295));
#265=CARTESIAN_POINT('',(108.293244972599,23.3743902986398,58.5981392226668));
#266=CARTESIAN_POINT('Origin',(107.084036267474,23.9931003077558,62.3604539665535));
#267=CARTESIAN_POINT('',(81.4154308571243,11.8837236518551,51.8492364684083));
#268=CARTESIAN_POINT('Origin',(80.2062221519985,12.5024336609711,55.611551212295));
#269=CARTESIAN_POINT('Origin',(87.1410161513775,35.,-10.3108891324554));
#270=CARTESIAN_POINT('',(37.6410161513775,1.99999999999999,18.2679491924311));
#271=CARTESIAN_POINT('Origin',(34.6410161513775,-8.88178419700125E-15,20.));
#272=CARTESIAN_POINT('Origin',(80.2062221519985,12.5024336609711,55.611551212295));
#273=CARTESIAN_POINT('',(108.595547148881,23.2197127963607,57.6575605366951));
#274=CARTESIAN_POINT('Origin',(107.084036267474,23.9931003077558,62.3604539665535));
#275=CARTESIAN_POINT('',(81.7177330334057,11.7290461495761,50.9086577824366));
#276=CARTESIAN_POINT('Origin',(80.2062221519985,12.5024336609711,55.611551212295));
#277=CARTESIAN_POINT('Origin',(87.1410161513775,35.,-10.3108891324554));
#278=CARTESIAN_POINT('',(38.9711431702997,6.12323399573677E-16,17.5));
#279=CARTESIAN_POINT('Origin',(34.6410161513775,0.,20.));
#280=CARTESIAN_POINT('Origin',(107.084036267474,23.9931003077558,62.3604539665535));
#281=CARTESIAN_POINT('Origin',(34.6410161513775,9.25185853854297E-17,20.));
#282=CARTESIAN_POINT('',(1.65707958981387,-21.0784970164667,35.8882016011616));
#283=CARTESIAN_POINT('',(1.65707958981387,-21.0784970164667,35.8882016011616));
#284=CARTESIAN_POINT('',(1.65707958981387,7.105427357601E-15,-7.105427357601E-15));
#285=CARTESIAN_POINT('',(107.084036267474,23.9931003077558,62.3604539665535));
#286=CARTESIAN_POINT('',(107.084036267474,23.9931003077558,62.3604539665535));
#287=CARTESIAN_POINT('',(80.2062221519985,12.5024336609711,55.611551212295));
#288=CARTESIAN_POINT('',(-30.,0.,0.));
#289=CARTESIAN_POINT('',(-30.,0.,0.));
#290=CARTESIAN_POINT('',(0.,0.,0.));
#291=UNCERTAINTY_MEASURE_WITH_UNIT(LENGTH_MEASURE(0.01),#295,
'DISTANCE_ACCURACY_VALUE',
'Maximum model space distance between geometric entities at asserted c
onnectivities');
#292=UNCERTAINTY_MEASURE_WITH_UNIT(LENGTH_MEASURE(1.E-6),#295,
'DISTANCE_ACCURACY_VALUE',
'Maximum model space distance between geometric entities at asserted c
onnectivities');
#293=(
GEOMETRIC_REPRESENTATION_CONTEXT(3)
GLOBAL_UNCERTAINTY_ASSIGNED_CONTEXT((#291))
GLOBAL_UNIT_ASSIGNED_CONTEXT((#295,#298,#296))
REPRESENTATION_CONTEXT('','3D')
);
#294=(
GEOMETRIC_REPRESENTATION_CONTEXT(3)
GLOBAL_UNCERTAINTY_ASSIGNED_CONTEXT((#292))
GLOBAL_UNIT_ASSIGNED_CONTEXT((#295,#298,#296))
REPRESENTATION_CONTEXT('','3D')
);
#295=(
LENGTH_UNIT()
NAMED_UNIT(*)
SI_UNIT(.MILLI.,.METRE.)
);
#296=(
NAMED_UNIT(*)
SI_UNIT($,.STERADIAN.)
SOLID_ANGLE_UNIT()
);
#297=DIMENSIONAL_EXPONENTS(0.,0.,0.,0.,0.,0.,0.);
#298=(
CONVERSION_BASED_UNIT('degree',#300)
NAMED_UNIT(#297)
PLANE_ANGLE_UNIT()
);
#299=(
NAMED_UNIT(*)
PLANE_ANGLE_UNIT()
SI_UNIT($,.RADIAN.)
);
#300=PLANE_ANGLE_MEASURE_WITH_UNIT(PLANE_ANGLE_MEASURE(0.01745329252),#299);
#301=SHAPE_DEFINITION_REPRESENTATION(#302,#303);
#302=PRODUCT_DEFINITION_SHAPE('',$,#305);
#303=SHAPE_REPRESENTATION('',(#167),#293);
#304=PRODUCT_DEFINITION_CONTEXT('part definition',#309,'design');
#305=PRODUCT_DEFINITION('Windschiefe Rohre','Windschiefe Rohre',#306,#304);
#306=PRODUCT_DEFINITION_FORMATION('',$,#311);
#307=PRODUCT_RELATED_PRODUCT_CATEGORY('Windschiefe Rohre',
'Windschiefe Rohre',(#311));
#308=APPLICATION_PROTOCOL_DEFINITION('international standard',
'ap242_managed_model_based_3d_engineering',2011,#309);
#309=APPLICATION_CONTEXT('Managed model based 3d engineering');
#310=PRODUCT_CONTEXT('part definition',#309,'mechanical');
#311=PRODUCT('Windschiefe Rohre','Windschiefe Rohre',$,(#310));
#312=PRESENTATION_STYLE_ASSIGNMENT((#317));
#313=PRESENTATION_STYLE_ASSIGNMENT((#318));
#314=PRESENTATION_STYLE_ASSIGNMENT((#319));
#315=PRESENTATION_STYLE_ASSIGNMENT((#320));
#316=PRESENTATION_STYLE_ASSIGNMENT((#321));
#317=SURFACE_STYLE_USAGE(.BOTH.,#322);
#318=SURFACE_STYLE_USAGE(.BOTH.,#323);
#319=SURFACE_STYLE_USAGE(.BOTH.,#324);
#320=SURFACE_STYLE_USAGE(.BOTH.,#325);
#321=SURFACE_STYLE_USAGE(.BOTH.,#326);
#322=SURFACE_SIDE_STYLE('',(#327));
#323=SURFACE_SIDE_STYLE('',(#328));
#324=SURFACE_SIDE_STYLE('',(#329));
#325=SURFACE_SIDE_STYLE('',(#330));
#326=SURFACE_SIDE_STYLE('',(#331));
#327=SURFACE_STYLE_FILL_AREA(#332);
#328=SURFACE_STYLE_FILL_AREA(#333);
#329=SURFACE_STYLE_FILL_AREA(#334);
#330=SURFACE_STYLE_FILL_AREA(#335);
#331=SURFACE_STYLE_FILL_AREA(#336);
#332=FILL_AREA_STYLE('',(#337));
#333=FILL_AREA_STYLE('',(#338));
#334=FILL_AREA_STYLE('',(#339));
#335=FILL_AREA_STYLE('',(#340));
#336=FILL_AREA_STYLE('',(#341));
#337=FILL_AREA_STYLE_COLOUR('',#342);
#338=FILL_AREA_STYLE_COLOUR('',#343);
#339=FILL_AREA_STYLE_COLOUR('',#344);
#340=FILL_AREA_STYLE_COLOUR('',#345);
#341=FILL_AREA_STYLE_COLOUR('',#346);
#342=COLOUR_RGB('',0.749019607843137,0.749019607843137,0.749019607843137);
#343=COLOUR_RGB('',0.,0.333333333333333,0.749019607843137);
#344=COLOUR_RGB('',0.949019607843137,0.803921568627451,0.215686274509804);
#345=COLOUR_RGB('',0.788235294117647,0.101960784313725,0.0352941176470588);
#346=COLOUR_RGB('',0.250980392156863,0.,0.250980392156863);
ENDSEC;
END-ISO-10303-21;
