  0
SECTION
  2
HEADER
  9
$ACADVER
  1
AC1015
  9
$ACADMAINTVER
 70
     6
  9
$DWGCODEPAGE
  3
ANSI_1252
  9
$INSBASE
 10
0.0
 20
0.0
 30
0.0
  9
$EXTMIN
 10
1.8580228064
 20
46.0376762037
 30
0.0
  9
$EXTMAX
 10
283.2452544907
 20
133.9840890412
 30
0.0
  9
$LIMMIN
 10
0.0
 20
0.0
  9
$LIMMAX
 10
420.0
 20
297.0
  9
$ORTHOMODE
 70
     0
  9
$REGENMODE
 70
     1
  9
$FILLMODE
 70
     1
  9
$QTEXTMODE
 70
     0
  9
$MIRRTEXT
 70
     1
  9
$LTSCALE
 40
1.0
  9
$ATTMODE
 70
     1
  9
$TEXTSIZE
 40
3.5
  9
$TRACEWID
 40
1.0
  9
$TEXTSTYLE
  7
Standard
  9
$CLAYER
  8
0
  9
$CELTYPE
  6
ByLayer
  9
$CECOLOR
 62
   256
  9
$CELTSCALE
 40
1.0
  9
$DISPSILH
 70
     0
  9
$DIMSCALE
 40
1.0
  9
$DIMASZ
 40
3.302
  9
$DIMEXO
 40
1.0
  9
$DIMDLI
 40
3.75
  9
$DIMRND
 40
0.0
  9
$DIMDLE
 40
0.0
  9
$DIMEXE
 40
1.0
  9
$DIMTP
 40
0.0
  9
$DIMTM
 40
0.0
  9
$DIMTXT
 40
3.5
  9
$DIMCEN
 40
2.5
  9
$DIMTSZ
 40
0.0
  9
$DIMTOL
 70
     0
  9
$DIMLIM
 70
     0
  9
$DIMTIH
 70
     1
  9
$DIMTOH
 70
     1
  9
$DIMSE1
 70
     0
  9
$DIMSE2
 70
     0
  9
$DIMTAD
 70
     1
  9
$DIMZIN
 70
     0
  9
$DIMBLK
  1

  9
$DIMASO
 70
     1
  9
$DIMSHO
 70
     1
  9
$DIMPOST
  1

  9
$DIMAPOST
  1

  9
$DIMALT
 70
     0
  9
$DIMALTD
 70
     3
  9
$DIMALTF
 40
0.0393700787
  9
$DIMLFAC
 40
1.0
  9
$DIMTOFL
 70
     1
  9
$DIMTVP
 40
0.0
  9
$DIMTIX
 70
     0
  9
$DIMSOXD
 70
     0
  9
$DIMSAH
 70
     0
  9
$DIMBLK1
  1

  9
$DIMBLK2
  1

  9
$DIMSTYLE
  2
ISO-25
  9
$DIMCLRD
 70
     0
  9
$DIMCLRE
 70
     0
  9
$DIMCLRT
 70
     0
  9
$DIMTFAC
 40
1.0
  9
$DIMGAP
 40
2.5
  9
$DIMJUST
 70
     0
  9
$DIMSD1
 70
     0
  9
$DIMSD2
 70
     0
  9
$DIMTOLJ
 70
     0
  9
$DIMTZIN
 70
     0
  9
$DIMALTZ
 70
     0
  9
$DIMALTTZ
 70
     0
  9
$DIMUPT
 70
     0
  9
$DIMDEC
 70
     2
  9
$DIMTDEC
 70
     2
  9
$DIMALTU
 70
     2
  9
$DIMALTTD
 70
     3
  9
$DIMTXSTY
  7
Standard
  9
$DIMAUNIT
 70
     0
  9
$DIMADEC
 70
     2
  9
$DIMALTRND
 40
0.0
  9
$DIMAZIN
 70
     0
  9
$DIMDSEP
 70
    44
  9
$DIMATFIT
 70
     3
  9
$DIMFRAC
 70
     0
  9
$DIMLDRBLK
  1

  9
$DIMLUNIT
 70
     2
  9
$DIMLWD
 70
    -2
  9
$DIMLWE
 70
    -2
  9
$DIMTMOVE
 70
     0
  9
$LUNITS
 70
     2
  9
$LUPREC
 70
     3
  9
$SKETCHINC
 40
1.0
  9
$FILLETRAD
 40
10.0
  9
$AUNITS
 70
     0
  9
$AUPREC
 70
     3
  9
$MENU
  1
.
  9
$ELEVATION
 40
0.0
  9
$PELEVATION
 40
0.0
  9
$THICKNESS
 40
0.0
  9
$LIMCHECK
 70
     0
  9
$CHAMFERA
 40
10.0
  9
$CHAMFERB
 40
10.0
  9
$CHAMFERC
 40
20.0
  9
$CHAMFERD
 40
0.0
  9
$SKPOLY
 70
     0
  9
$TDCREATE
 40
2456555.828468322
  9
$TDUCREATE
 40
2456555.745134988
  9
$TDUPDATE
 40
2456555.828533148
  9
$TDUUPDATE
 40
2456555.745199815
  9
$TDINDWG
 40
0.0000000116
  9
$TDUSRTIMER
 40
0.0000000116
  9
$USRTIMER
 70
     1
  9
$ANGBASE
 50
0.0
  9
$ANGDIR
 70
     0
  9
$PDMODE
 70
     0
  9
$PDSIZE
 40
-1.0
  9
$PLINEWID
 40
0.0
  9
$SPLFRAME
 70
     0
  9
$SPLINETYPE
 70
     6
  9
$SPLINESEGS
 70
     8
  9
$HANDSEED
  5
309
  9
$SURFTAB1
 70
     6
  9
$SURFTAB2
 70
     6
  9
$SURFTYPE
 70
     6
  9
$SURFU
 70
     6
  9
$SURFV
 70
     6
  9
$UCSBASE
  2

  9
$UCSNAME
  2

  9
$UCSORG
 10
0.0
 20
0.0
 30
0.0
  9
$UCSXDIR
 10
1.0
 20
0.0
 30
0.0
  9
$UCSYDIR
 10
0.0
 20
1.0
 30
0.0
  9
$UCSORTHOREF
  2

  9
$UCSORTHOVIEW
 70
     0
  9
$UCSORGTOP
 10
0.0
 20
0.0
 30
0.0
  9
$UCSORGBOTTOM
 10
0.0
 20
0.0
 30
0.0
  9
$UCSORGLEFT
 10
0.0
 20
0.0
 30
0.0
  9
$UCSORGRIGHT
 10
0.0
 20
0.0
 30
0.0
  9
$UCSORGFRONT
 10
0.0
 20
0.0
 30
0.0
  9
$UCSORGBACK
 10
0.0
 20
0.0
 30
0.0
  9
$PUCSBASE
  2

  9
$PUCSNAME
  2

  9
$PUCSORG
 10
0.0
 20
0.0
 30
0.0
  9
$PUCSXDIR
 10
1.0
 20
0.0
 30
0.0
  9
$PUCSYDIR
 10
0.0
 20
1.0
 30
0.0
  9
$PUCSORTHOREF
  2

  9
$PUCSORTHOVIEW
 70
     0
  9
$PUCSORGTOP
 10
0.0
 20
0.0
 30
0.0
  9
$PUCSORGBOTTOM
 10
0.0
 20
0.0
 30
0.0
  9
$PUCSORGLEFT
 10
0.0
 20
0.0
 30
0.0
  9
$PUCSORGRIGHT
 10
0.0
 20
0.0
 30
0.0
  9
$PUCSORGFRONT
 10
0.0
 20
0.0
 30
0.0
  9
$PUCSORGBACK
 10
0.0
 20
0.0
 30
0.0
  9
$USERI1
 70
     0
  9
$USERI2
 70
     0
  9
$USERI3
 70
     0
  9
$USERI4
 70
     0
  9
$USERI5
 70
     0
  9
$USERR1
 40
0.0
  9
$USERR2
 40
0.0
  9
$USERR3
 40
0.0
  9
$USERR4
 40
0.0
  9
$USERR5
 40
0.0
  9
$WORLDVIEW
 70
     1
  9
$SHADEDGE
 70
     3
  9
$SHADEDIF
 70
    70
  9
$TILEMODE
 70
     1
  9
$MAXACTVP
 70
    64
  9
$PINSBASE
 10
0.0
 20
0.0
 30
0.0
  9
$PLIMCHECK
 70
     0
  9
$PEXTMIN
 10
1.0000000000E+20
 20
1.0000000000E+20
 30
1.0000000000E+20
  9
$PEXTMAX
 10
-1.0000000000E+20
 20
-1.0000000000E+20
 30
-1.0000000000E+20
  9
$PLIMMIN
 10
0.0
 20
0.0
  9
$PLIMMAX
 10
420.0
 20
297.0
  9
$UNITMODE
 70
     0
  9
$VISRETAIN
 70
     1
  9
$PLINEGEN
 70
     0
  9
$PSLTSCALE
 70
     1
  9
$TREEDEPTH
 70
  3020
  9
$CMLSTYLE
  2
Standard
  9
$CMLJUST
 70
     0
  9
$CMLSCALE
 40
20.0
  9
$PROXYGRAPHICS
 70
     1
  9
$MEASUREMENT
 70
     1
  9
$CELWEIGHT
370
    -1
  9
$ENDCAPS
280
     0
  9
$JOINSTYLE
280
     0
  9
$LWDISPLAY
290
     1
  9
$INSUNITS
 70
     4
  9
$HYPERLINKBASE
  1

  9
$STYLESHEET
  1

  9
$XEDIT
290
     1
  9
$CEPSNTYPE
380
     0
  9
$PSTYLEMODE
290
     1
  9
$FINGERPRINTGUID
  2
{C4FB786B-1B45-4F6A-8B07-95D2F017F6ED}
  9
$VERSIONGUID
  2
{FAEB1C32-E019-11D5-929B-00C0DF256EC4}
  9
$EXTNAMES
290
     1
  9
$PSVPSCALE
 40
0.0
  9
$OLESTARTUP
290
     0
  0
ENDSEC
  0
SECTION
  2
CLASSES
  0
CLASS
  1
ACDBDICTIONARYWDFLT
  2
AcDbDictionaryWithDefault
  3
ObjectDBX Classes
 90
        0
280
     0
281
     0
  0
CLASS
  1
VISUALSTYLE
  2
AcDbVisualStyle
  3
ObjectDBX Classes
 90
     4095
280
     0
281
     0
  0
CLASS
  1
MATERIAL
  2
AcDbMaterial
  3
ObjectDBX Classes
 90
     1153
280
     0
281
     0
  0
CLASS
  1
ACDBPLACEHOLDER
  2
AcDbPlaceHolder
  3
ObjectDBX Classes
 90
        0
280
     0
281
     0
  0
CLASS
  1
LAYOUT
  2
AcDbLayout
  3
ObjectDBX Classes
 90
        0
280
     0
281
     0
  0
ENDSEC
  0
SECTION
  2
TABLES
  0
TABLE
  2
VPORT
  5
8
330
0
100
AcDbSymbolTable
 70
     1
  0
VPORT
  5
29
330
8
100
AcDbSymbolTableRecord
100
AcDbViewportTableRecord
  2
*Active
 70
     0
 10
0.0
 20
0.0
 11
1.0
 21
1.0
 12
142.5516386486
 22
90.0108826224
 13
0.0
 23
0.0
 14
10.0
 24
10.0
 15
10.0
 25
10.0
 16
0.0
 26
0.0
 36
1.0
 17
0.0
 27
0.0
 37
0.0
 40
89.7053410942
 41
3.1995305164
 42
50.0
 43
0.0
 44
0.0
 50
0.0
 51
0.0
 71
     0
 72
   100
 73
     1
 74
     3
 75
     0
 76
     0
 77
     0
 78
     0
281
     0
 65
     1
110
0.0
120
0.0
130
0.0
111
1.0
121
0.0
131
0.0
112
0.0
122
1.0
132
0.0
 79
     0
146
0.0
  0
ENDTAB
  0
TABLE
  2
LTYPE
  5
5
330
0
100
AcDbSymbolTable
 70
     6
  0
LTYPE
  5
14
330
5
100
AcDbSymbolTableRecord
100
AcDbLinetypeTableRecord
  2
ByBlock
 70
     0
  3

 72
    65
 73
     0
 40
0.0
  0
LTYPE
  5
15
330
5
100
AcDbSymbolTableRecord
100
AcDbLinetypeTableRecord
  2
ByLayer
 70
     0
  3

 72
    65
 73
     0
 40
0.0
  0
LTYPE
  5
16
330
5
100
AcDbSymbolTableRecord
100
AcDbLinetypeTableRecord
  2
Continuous
 70
     0
  3
Solid line
 72
    65
 73
     0
 40
0.0
  0
LTYPE
  5
3F
330
5
100
AcDbSymbolTableRecord
100
AcDbLinetypeTableRecord
  2
HIDDEN
 70
     0
  3
Hidden __ __ __ __ __ __ __ __ __ __ __ __ __ __
 72
    65
 73
     2
 40
1.905
 49
1.27
 74
     0
 49
-0.635
 74
     0
  0
LTYPE
  5
40
330
5
100
AcDbSymbolTableRecord
100
AcDbLinetypeTableRecord
  2
PHANTOM
 70
     0
  3
Phantom ______  __  __  ______  __  __  ______
 72
    65
 73
     6
 40
12.7
 49
6.35
 74
     0
 49
-1.27
 74
     0
 49
1.27
 74
     0
 49
-1.27
 74
     0
 49
1.27
 74
     0
 49
-1.27
 74
     0
  0
LTYPE
  5
41
330
5
100
AcDbSymbolTableRecord
100
AcDbLinetypeTableRecord
  2
CENTER
 70
     0
  3
Center ____ _ ____ _ ____ _ ____ _ ____ _ ____
 72
    65
 73
     4
 40
10.16
 49
6.35
 74
     0
 49
-1.27
 74
     0
 49
1.27
 74
     0
 49
-1.27
 74
     0
  0
LTYPE
  5
42
330
5
100
AcDbSymbolTableRecord
100
AcDbLinetypeTableRecord
  2
CENTERX2
 70
     0
  3
Center (2x) ________  __  ________  __  _____
 72
    65
 73
     4
 40
20.32
 49
12.7
 74
     0
 49
-2.54
 74
     0
 49
2.54
 74
     0
 49
-2.54
 74
     0
  0
LTYPE
  5
43
330
5
100
AcDbSymbolTableRecord
100
AcDbLinetypeTableRecord
  2
DOT2
 70
     0
  3
Dot (.5x) ........................................
 72
    65
 73
     2
 40
0.635
 49
0.0
 74
     0
 49
-0.635
 74
     0
  0
ENDTAB
  0
TABLE
  2
LAYER
  5
2
330
0
100
AcDbSymbolTable
 70
     1
  0
LAYER
  5
10
330
2
100
AcDbSymbolTableRecord
100
AcDbLayerTableRecord
  2
0
 70
     0
 62
     7
  6
Continuous
370
    -3
390
F
  0
ENDTAB
  0
TABLE
  2
STYLE
  5
3
330
0
100
AcDbSymbolTable
 70
     1
  0
STYLE
  5
11
330
3
100
AcDbSymbolTableRecord
100
AcDbTextStyleTableRecord
  2
Standard
 70
     0
 40
0.0
 41
1.0
 50
0.0
 71
     0
 42
3.5
  3
txt
  4

  0
ENDTAB
  0
TABLE
  2
VIEW
  5
6
330
0
100
AcDbSymbolTable
 70
     0
  0
ENDTAB
  0
TABLE
  2
UCS
  5
7
330
0
100
AcDbSymbolTable
 70
     0
  0
ENDTAB
  0
TABLE
  2
APPID
  5
9
330
0
100
AcDbSymbolTable
 70
     1
  0
APPID
  5
12
330
9
100
AcDbSymbolTableRecord
100
AcDbRegAppTableRecord
  2
ACAD
 70
     0
  0
ENDTAB
  0
TABLE
  2
DIMSTYLE
  5
A
330
0
100
AcDbSymbolTable
 70
     1
100
AcDbDimStyleTable
  0
DIMSTYLE
105
27
330
A
100
AcDbSymbolTableRecord
100
AcDbDimStyleTableRecord
  2
ISO-25
 70
     0
 41
2.5
 42
0.625
 43
3.75
 44
1.25
 73
     0
 74
     0
 77
     1
 78
     8
140
2.5
141
2.5
143
0.0393700787
147
0.625
171
     3
172
     1
178
     0
271
     2
272
     2
274
     3
278
    44
283
     0
284
     8
340
11
  0
ENDTAB
  0
TABLE
  2
BLOCK_RECORD
  5
1
330
0
100
AcDbSymbolTable
 70
     1
  0
BLOCK_RECORD
  5
1F
330
1
100
AcDbSymbolTableRecord
100
AcDbBlockTableRecord
  2
*Model_Space
340
22
  0
BLOCK_RECORD
  5
1B
330
1
100
AcDbSymbolTableRecord
100
AcDbBlockTableRecord
  2
*Paper_Space
340
1E
  0
BLOCK_RECORD
  5
23
330
1
100
AcDbSymbolTableRecord
100
AcDbBlockTableRecord
  2
*Paper_Space0
340
26
  0
ENDTAB
  0
ENDSEC
  0
SECTION
  2
BLOCKS
  0
BLOCK
  5
20
330
1F
100
AcDbEntity
  8
0
100
AcDbBlockBegin
  2
*Model_Space
 70
     0
 10
0.0
 20
0.0
 30
0.0
  3
*Model_Space
  1

  0
ENDBLK
  5
21
330
1F
100
AcDbEntity
  8
0
100
AcDbBlockEnd
  0
BLOCK
  5
1C
330
1B
100
AcDbEntity
 67
     1
  8
0
100
AcDbBlockBegin
  2
*Paper_Space
 70
     0
 10
0.0
 20
0.0
 30
0.0
  3
*Paper_Space
  1

  0
ENDBLK
  5
1D
330
1B
100
AcDbEntity
 67
     1
  8
0
100
AcDbBlockEnd
  0
BLOCK
  5
24
330
23
100
AcDbEntity
  8
0
100
AcDbBlockBegin
  2
*Paper_Space0
 70
     0
 10
0.0
 20
0.0
 30
0.0
  3
*Paper_Space0
  1

  0
ENDBLK
  5
25
330
23
100
AcDbEntity
  8
0
100
AcDbBlockEnd
  0
ENDSEC
  0
SECTION
  2
ENTITIES
  0
LINE
  5
44
330
1F
100
AcDbEntity
  8
0
  6
Continuous
 62
     7
100
AcDbLine
 10
18.3737810858
 20
133.9840890412
 30
0.0
 11
19.4060159782
 21
114.5780730629
 31
0.0
  0
LINE
  5
45
330
1F
100
AcDbEntity
  8
0
  6
Continuous
 62
     7
100
AcDbLine
 10
19.4060159782
 20
114.5780730629
 30
0.0
 11
19.8189099352
 21
118.9134596113
 31
0.0
  0
LINE
  5
46
330
1F
100
AcDbEntity
  8
0
  6
Continuous
 62
     7
100
AcDbLine
 10
19.8189099352
 20
118.9134596113
 30
0.0
 11
20.8511448277
 21
104.8750650738
 31
0.0
  0
LINE
  5
47
330
1F
100
AcDbEntity
  8
0
  6
Continuous
 62
     7
100
AcDbLine
 10
20.8511448277
 20
104.8750650738
 30
0.0
 11
21.2640387847
 21
106.3201939233
 31
0.0
  0
LINE
  5
48
330
1F
100
AcDbEntity
  8
0
  6
Continuous
 62
     7
100
AcDbLine
 10
21.2640387847
 20
106.3201939233
 30
0.0
 11
22.0898266986
 21
97.6494208266
 31
0.0
  0
LINE
  5
49
330
1F
100
AcDbEntity
  8
0
  6
Continuous
 62
     7
100
AcDbLine
 10
22.0898266986
 20
97.6494208266
 30
0.0
 11
22.5027206556
 21
100.9525724825
 31
0.0
  0
LINE
  5
4A
330
1F
100
AcDbEntity
  8
0
  6
Continuous
 62
     7
100
AcDbLine
 10
22.5027206556
 20
100.9525724825
 30
0.0
 11
23.1220615911
 21
95.3785040632
 31
0.0
  0
LINE
  5
4B
330
1F
100
AcDbEntity
  8
0
  6
Continuous
 62
     7
100
AcDbLine
 10
23.1220615911
 20
95.3785040632
 30
0.0
 11
23.7414025266
 21
100.9525724825
 31
0.0
  0
LINE
  5
4C
330
1F
100
AcDbEntity
  8
0
  6
Continuous
 62
     7
100
AcDbLine
 10
23.7414025266
 20
100.9525724825
 30
0.0
 11
24.360743462
 21
95.3785040632
 31
0.0
  0
LINE
  5
4D
330
1F
100
AcDbEntity
  8
0
  6
Continuous
 62
     7
100
AcDbLine
 10
24.360743462
 20
95.3785040632
 30
0.0
 11
24.9800843975
 21
100.1267845685
 31
0.0
  0
LINE
  5
4E
330
1F
100
AcDbEntity
  8
0
  6
Continuous
 62
     7
100
AcDbLine
 10
24.9800843975
 20
100.1267845685
 30
0.0
 11
25.599425333
 21
94.7591631277
 31
0.0
  0
LINE
  5
4F
330
1F
100
AcDbEntity
  8
0
  6
Continuous
 62
     7
100
AcDbLine
 10
25.599425333
 20
94.7591631277
 30
0.0
 11
26.2187662685
 21
98.4752087406
 31
0.0
  0
LINE
  5
50
330
1F
100
AcDbEntity
  8
0
  6
Continuous
 62
     7
100
AcDbLine
 10
26.2187662685
 20
98.4752087406
 30
0.0
 11
26.8381072039
 21
93.3140342783
 31
0.0
  0
LINE
  5
51
330
1F
100
AcDbEntity
  8
0
  6
Continuous
 62
     7
100
AcDbLine
 10
26.8381072039
 20
93.3140342783
 30
0.0
 11
27.2510011609
 21
96.8236329126
 31
0.0
  0
LINE
  5
52
330
1F
100
AcDbEntity
  8
0
  6
Continuous
 62
     7
100
AcDbLine
 10
27.2510011609
 20
96.8236329126
 30
0.0
 11
28.0767890749
 21
90.8366705364
 31
0.0
  0
LINE
  5
53
330
1F
100
AcDbEntity
  8
0
  6
Continuous
 62
     7
100
AcDbLine
 10
28.0767890749
 20
90.8366705364
 30
0.0
 11
28.4896830319
 21
94.9656101062
 31
0.0
  0
LINE
  5
54
330
1F
100
AcDbEntity
  8
0
  6
Continuous
 62
     7
100
AcDbLine
 10
28.4896830319
 20
94.9656101062
 30
0.0
 11
29.3154709458
 21
89.3915416869
 31
0.0
  0
LINE
  5
55
330
1F
100
AcDbEntity
  8
0
  6
Continuous
 62
     7
100
AcDbLine
 10
29.3154709458
 20
89.3915416869
 30
0.0
 11
29.7283649028
 21
93.1075872998
 31
0.0
  0
LINE
  5
56
330
1F
100
AcDbEntity
  8
0
  6
Continuous
 62
     7
100
AcDbLine
 10
29.7283649028
 20
93.1075872998
 30
0.0
 11
30.5541528168
 21
86.5012839881
 31
0.0
  0
LINE
  5
57
330
1F
100
AcDbEntity
  8
0
  6
Continuous
 62
     7
100
AcDbLine
 10
30.5541528168
 20
86.5012839881
 30
0.0
 11
30.9670467738
 21
90.8366705364
 31
0.0
  0
LINE
  5
58
330
1F
100
AcDbEntity
  8
0
  6
Continuous
 62
     7
100
AcDbLine
 10
30.9670467738
 20
90.8366705364
 30
0.0
 11
31.7928346877
 21
86.2948370096
 31
0.0
  0
LINE
  5
59
330
1F
100
AcDbEntity
  8
0
  6
Continuous
 62
     7
100
AcDbLine
 10
31.7928346877
 20
86.2948370096
 30
0.0
 11
32.2057286447
 21
90.0108826224
 31
0.0
  0
LINE
  5
5A
330
1F
100
AcDbEntity
  8
0
  6
Continuous
 62
     7
100
AcDbLine
 10
32.2057286447
 20
90.0108826224
 30
0.0
 11
32.8250695802
 21
86.5012839881
 31
0.0
  0
LINE
  5
5B
330
1F
100
AcDbEntity
  8
0
  6
Continuous
 62
     7
100
AcDbLine
 10
32.8250695802
 20
86.5012839881
 30
0.0
 11
33.4444105157
 21
91.8689054288
 31
0.0
  0
LINE
  5
5C
330
1F
100
AcDbEntity
  8
0
  6
Continuous
 62
     7
100
AcDbLine
 10
33.4444105157
 20
91.8689054288
 30
0.0
 11
34.0637514511
 21
88.152859816
 31
0.0
  0
LINE
  5
5D
330
1F
100
AcDbEntity
  8
0
  6
Continuous
 62
     7
100
AcDbLine
 10
34.0637514511
 20
88.152859816
 30
0.0
 11
34.6830923866
 21
93.5204812568
 31
0.0
  0
LINE
  5
5E
330
1F
100
AcDbEntity
  8
0
  6
Continuous
 62
     7
100
AcDbLine
 10
34.6830923866
 20
93.5204812568
 30
0.0
 11
35.3024333221
 21
89.3915416869
 31
0.0
  0
LINE
  5
5F
330
1F
100
AcDbEntity
  8
0
  6
Continuous
 62
     7
100
AcDbLine
 10
35.3024333221
 20
89.3915416869
 30
0.0
 11
35.9217742576
 21
93.9333752138
 31
0.0
  0
LINE
  5
60
330
1F
100
AcDbEntity
  8
0
  6
Continuous
 62
     7
100
AcDbLine
 10
35.9217742576
 20
93.9333752138
 30
0.0
 11
36.541115193
 21
89.8044356439
 31
0.0
  0
LINE
  5
61
330
1F
100
AcDbEntity
  8
0
  6
Continuous
 62
     7
100
AcDbLine
 10
36.541115193
 20
89.8044356439
 30
0.0
 11
37.1604561285
 21
94.1398221923
 31
0.0
  0
LINE
  5
62
330
1F
100
AcDbEntity
  8
0
  6
Continuous
 62
     7
100
AcDbLine
 10
37.1604561285
 20
94.1398221923
 30
0.0
 11
37.779797064
 21
89.8044356439
 31
0.0
  0
LINE
  5
63
330
1F
100
AcDbEntity
  8
0
  6
Continuous
 62
     7
100
AcDbLine
 10
37.779797064
 20
89.8044356439
 30
0.0
 11
38.3991379995
 21
95.1720570847
 31
0.0
  0
LINE
  5
64
330
1F
100
AcDbEntity
  8
0
  6
Continuous
 62
     7
100
AcDbLine
 10
38.3991379995
 20
95.1720570847
 30
0.0
 11
39.0184789349
 21
90.8366705364
 31
0.0
  0
LINE
  5
65
330
1F
100
AcDbEntity
  8
0
  6
Continuous
 62
     7
100
AcDbLine
 10
39.0184789349
 20
90.8366705364
 30
0.0
 11
39.6378198704
 21
95.7913980202
 31
0.0
  0
LINE
  5
66
330
1F
100
AcDbEntity
  8
0
  6
Continuous
 62
     7
100
AcDbLine
 10
39.6378198704
 20
95.7913980202
 30
0.0
 11
40.2571608059
 21
91.2495644934
 31
0.0
  0
LINE
  5
67
330
1F
100
AcDbEntity
  8
0
  6
Continuous
 62
     7
100
AcDbLine
 10
40.2571608059
 20
91.2495644934
 30
0.0
 11
40.8765017414
 21
96.2042919772
 31
0.0
  0
LINE
  5
68
330
1F
100
AcDbEntity
  8
0
  6
Continuous
 62
     7
100
AcDbLine
 10
40.8765017414
 20
96.2042919772
 30
0.0
 11
41.4958426768
 21
91.6624584503
 31
0.0
  0
LINE
  5
69
330
1F
100
AcDbEntity
  8
0
  6
Continuous
 62
     7
100
AcDbLine
 10
41.4958426768
 20
91.6624584503
 30
0.0
 11
42.1151836123
 21
96.8236329126
 31
0.0
  0
LINE
  5
6A
330
1F
100
AcDbEntity
  8
0
  6
Continuous
 62
     7
100
AcDbLine
 10
42.1151836123
 20
96.8236329126
 30
0.0
 11
42.7345245478
 21
92.0753524073
 31
0.0
  0
LINE
  5
6B
330
1F
100
AcDbEntity
  8
0
  6
Continuous
 62
     7
100
AcDbLine
 10
42.7345245478
 20
92.0753524073
 30
0.0
 11
43.1474185048
 21
95.5849510417
 31
0.0
  0
LINE
  5
6C
330
1F
100
AcDbEntity
  8
0
  6
Continuous
 62
     7
100
AcDbLine
 10
43.1474185048
 20
95.5849510417
 30
0.0
 11
43.9732064187
 21
90.0108826224
 31
0.0
  0
LINE
  5
6D
330
1F
100
AcDbEntity
  8
0
  6
Continuous
 62
     7
100
AcDbLine
 10
43.9732064187
 20
90.0108826224
 30
0.0
 11
44.5925473542
 21
94.7591631277
 31
0.0
  0
LINE
  5
6E
330
1F
100
AcDbEntity
  8
0
  6
Continuous
 62
     7
100
AcDbLine
 10
44.5925473542
 20
94.7591631277
 30
0.0
 11
45.2118882897
 21
90.4237765794
 31
0.0
  0
LINE
  5
6F
330
1F
100
AcDbEntity
  8
0
  6
Continuous
 62
     7
100
AcDbLine
 10
45.2118882897
 20
90.4237765794
 30
0.0
 11
45.8312292252
 21
94.7591631277
 31
0.0
  0
LINE
  5
70
330
1F
100
AcDbEntity
  8
0
  6
Continuous
 62
     7
100
AcDbLine
 10
45.8312292252
 20
94.7591631277
 30
0.0
 11
46.4505701607
 21
90.4237765794
 31
0.0
  0
LINE
  5
71
330
1F
100
AcDbEntity
  8
0
  6
Continuous
 62
     7
100
AcDbLine
 10
46.4505701607
 20
90.4237765794
 30
0.0
 11
47.0699110961
 21
95.1720570847
 31
0.0
  0
LINE
  5
72
330
1F
100
AcDbEntity
  8
0
  6
Continuous
 62
     7
100
AcDbLine
 10
47.0699110961
 20
95.1720570847
 30
0.0
 11
47.6892520316
 21
90.8366705364
 31
0.0
  0
LINE
  5
73
330
1F
100
AcDbEntity
  8
0
  6
Continuous
 62
     7
100
AcDbLine
 10
47.6892520316
 20
90.8366705364
 30
0.0
 11
48.3085929671
 21
95.7913980202
 31
0.0
  0
LINE
  5
74
330
1F
100
AcDbEntity
  8
0
  6
Continuous
 62
     7
100
AcDbLine
 10
48.3085929671
 20
95.7913980202
 30
0.0
 11
48.9279339026
 21
91.2495644934
 31
0.0
  0
LINE
  5
75
330
1F
100
AcDbEntity
  8
0
  6
Continuous
 62
     7
100
AcDbLine
 10
48.9279339026
 20
91.2495644934
 30
0.0
 11
49.547274838
 21
94.7591631277
 31
0.0
  0
LINE
  5
76
330
1F
100
AcDbEntity
  8
0
  6
Continuous
 62
     7
100
AcDbLine
 10
49.547274838
 20
94.7591631277
 30
0.0
 11
50.1666157735
 21
90.4237765794
 31
0.0
  0
LINE
  5
77
330
1F
100
AcDbEntity
  8
0
  6
Continuous
 62
     7
100
AcDbLine
 10
50.1666157735
 20
90.4237765794
 30
0.0
 11
50.785956709
 21
95.1720570847
 31
0.0
  0
LINE
  5
78
330
1F
100
AcDbEntity
  8
0
  6
Continuous
 62
     7
100
AcDbLine
 10
50.785956709
 20
95.1720570847
 30
0.0
 11
51.4052976445
 21
90.8366705364
 31
0.0
  0
LINE
  5
79
330
1F
100
AcDbEntity
  8
0
  6
Continuous
 62
     7
100
AcDbLine
 10
51.4052976445
 20
90.8366705364
 30
0.0
 11
52.0246385799
 21
94.9656101062
 31
0.0
  0
LINE
  5
7A
330
1F
100
AcDbEntity
  8
0
  6
Continuous
 62
     7
100
AcDbLine
 10
52.0246385799
 20
94.9656101062
 30
0.0
 11
52.6439795154
 21
90.6302235579
 31
0.0
  0
LINE
  5
7B
330
1F
100
AcDbEntity
  8
0
  6
Continuous
 62
     7
100
AcDbLine
 10
52.6439795154
 20
90.6302235579
 30
0.0
 11
53.2633204509
 21
93.9333752138
 31
0.0
  0
LINE
  5
7C
330
1F
100
AcDbEntity
  8
0
  6
Continuous
 62
     7
100
AcDbLine
 10
53.2633204509
 20
93.9333752138
 30
0.0
 11
54.0891083648
 21
88.3593067945
 31
0.0
  0
LINE
  5
7D
330
1F
100
AcDbEntity
  8
0
  6
Continuous
 62
     7
100
AcDbLine
 10
54.0891083648
 20
88.3593067945
 30
0.0
 11
54.5020023218
 21
91.0431175149
 31
0.0
  0
LINE
  5
7E
330
1F
100
AcDbEntity
  8
0
  6
Continuous
 62
     7
100
AcDbLine
 10
54.5020023218
 20
91.0431175149
 30
0.0
 11
55.3277902358
 21
86.5012839881
 31
0.0
  0
LINE
  5
7F
330
1F
100
AcDbEntity
  8
0
  6
Continuous
 62
     7
100
AcDbLine
 10
55.3277902358
 20
86.5012839881
 30
0.0
 11
55.7406841928
 21
90.8366705364
 31
0.0
  0
LINE
  5
80
330
1F
100
AcDbEntity
  8
0
  6
Continuous
 62
     7
100
AcDbLine
 10
55.7406841928
 20
90.8366705364
 30
0.0
 11
56.5664721067
 21
86.2948370096
 31
0.0
  0
LINE
  5
81
330
1F
100
AcDbEntity
  8
0
  6
Continuous
 62
     7
100
AcDbLine
 10
56.5664721067
 20
86.2948370096
 30
0.0
 11
56.9793660637
 21
90.0108826224
 31
0.0
  0
LINE
  5
82
330
1F
100
AcDbEntity
  8
0
  6
Continuous
 62
     7
100
AcDbLine
 10
56.9793660637
 20
90.0108826224
 30
0.0
 11
57.5987069992
 21
86.5012839881
 31
0.0
  0
LINE
  5
83
330
1F
100
AcDbEntity
  8
0
  6
Continuous
 62
     7
100
AcDbLine
 10
57.5987069992
 20
86.5012839881
 30
0.0
 11
58.2180479347
 21
90.2173296009
 31
0.0
  0
LINE
  5
84
330
1F
100
AcDbEntity
  8
0
  6
Continuous
 62
     7
100
AcDbLine
 10
58.2180479347
 20
90.2173296009
 30
0.0
 11
58.8373888702
 21
86.7077309665
 31
0.0
  0
LINE
  5
85
330
1F
100
AcDbEntity
  8
0
  6
Continuous
 62
     7
100
AcDbLine
 10
58.8373888702
 20
86.7077309665
 30
0.0
 11
59.4567298056
 21
90.8366705364
 31
0.0
  0
LINE
  5
86
330
1F
100
AcDbEntity
  8
0
  6
Continuous
 62
     7
100
AcDbLine
 10
59.4567298056
 20
90.8366705364
 30
0.0
 11
60.0760707411
 21
87.327071902
 31
0.0
  0
LINE
  5
87
330
1F
100
AcDbEntity
  8
0
  6
Continuous
 62
     7
100
AcDbLine
 10
60.0760707411
 20
87.327071902
 30
0.0
 11
60.4889646981
 21
90.6302235579
 31
0.0
  0
LINE
  5
88
330
1F
100
AcDbEntity
  8
0
  6
Continuous
 62
     7
100
AcDbLine
 10
60.4889646981
 20
90.6302235579
 30
0.0
 11
61.3147526121
 21
86.2948370096
 31
0.0
  0
LINE
  5
89
330
1F
100
AcDbEntity
  8
0
  6
Continuous
 62
     7
100
AcDbLine
 10
61.3147526121
 20
86.2948370096
 30
0.0
 11
61.727646569
 21
90.0108826224
 31
0.0
  0
LINE
  5
8A
330
1F
100
AcDbEntity
  8
0
  6
Continuous
 62
     7
100
AcDbLine
 10
61.727646569
 20
90.0108826224
 30
0.0
 11
62.3469875045
 21
86.5012839881
 31
0.0
  0
LINE
  5
8B
330
1F
100
AcDbEntity
  8
0
  6
Continuous
 62
     7
100
AcDbLine
 10
62.3469875045
 20
86.5012839881
 30
0.0
 11
62.7598814615
 21
90.2173296009
 31
0.0
  0
LINE
  5
8C
330
1F
100
AcDbEntity
  8
0
  6
Continuous
 62
     7
100
AcDbLine
 10
62.7598814615
 20
90.2173296009
 30
0.0
 11
63.5856693755
 21
85.8819430526
 31
0.0
  0
LINE
  5
8D
330
1F
100
AcDbEntity
  8
0
  6
Continuous
 62
     7
100
AcDbLine
 10
63.5856693755
 20
85.8819430526
 30
0.0
 11
63.9985633325
 21
89.5979886654
 31
0.0
  0
LINE
  5
8E
330
1F
100
AcDbEntity
  8
0
  6
Continuous
 62
     7
100
AcDbLine
 10
63.9985633325
 20
89.5979886654
 30
0.0
 11
64.8243512464
 21
85.0561551386
 31
0.0
  0
LINE
  5
8F
330
1F
100
AcDbEntity
  8
0
  6
Continuous
 62
     7
100
AcDbLine
 10
64.8243512464
 20
85.0561551386
 30
0.0
 11
65.2372452034
 21
89.1850947084
 31
0.0
  0
LINE
  5
90
330
1F
100
AcDbEntity
  8
0
  6
Continuous
 62
     7
100
AcDbLine
 10
65.2372452034
 20
89.1850947084
 30
0.0
 11
65.8565861389
 21
85.8819430526
 31
0.0
  0
LINE
  5
91
330
1F
100
AcDbEntity
  8
0
  6
Continuous
 62
     7
100
AcDbLine
 10
65.8565861389
 20
85.8819430526
 30
0.0
 11
66.2694800959
 21
88.97864773
 31
0.0
  0
LINE
  5
92
330
1F
100
AcDbEntity
  8
0
  6
Continuous
 62
     7
100
AcDbLine
 10
66.2694800959
 20
88.97864773
 30
0.0
 11
67.0952680098
 21
84.8497081601
 31
0.0
  0
LINE
  5
93
330
1F
100
AcDbEntity
  8
0
  6
Continuous
 62
     7
100
AcDbLine
 10
67.0952680098
 20
84.8497081601
 30
0.0
 11
67.5081619668
 21
87.5335188805
 31
0.0
  0
LINE
  5
94
330
1F
100
AcDbEntity
  8
0
  6
Continuous
 62
     7
100
AcDbLine
 10
67.5081619668
 20
87.5335188805
 30
0.0
 11
68.3339498808
 21
83.8174732677
 31
0.0
  0
LINE
  5
95
330
1F
100
AcDbEntity
  8
0
  6
Continuous
 62
     7
100
AcDbLine
 10
68.3339498808
 20
83.8174732677
 30
0.0
 11
68.7468438378
 21
85.4690490956
 31
0.0
  0
LINE
  5
96
330
1F
100
AcDbEntity
  8
0
  6
Continuous
 62
     7
100
AcDbLine
 10
68.7468438378
 20
85.4690490956
 30
0.0
 11
69.3661847732
 21
82.9916853537
 31
0.0
  0
LINE
  5
97
330
1F
100
AcDbEntity
  8
0
  6
Continuous
 62
     7
100
AcDbLine
 10
69.7790787302
 20
83.6110262892
 30
0.0
 11
71.0177606012
 21
79.8949806763
 31
0.0
  0
LINE
  5
98
330
1F
100
AcDbEntity
  8
0
  6
Continuous
 62
     7
100
AcDbLine
 10
71.0177606012
 20
79.8949806763
 30
0.0
 11
71.4306545582
 21
80.9272155688
 31
0.0
  0
LINE
  5
99
330
1F
100
AcDbEntity
  8
0
  6
Continuous
 62
     7
100
AcDbLine
 10
71.4306545582
 20
80.9272155688
 30
0.0
 11
72.0499954936
 21
79.2756397408
 31
0.0
  0
LINE
  5
9A
330
1F
100
AcDbEntity
  8
0
  6
Continuous
 62
     7
100
AcDbLine
 10
72.0499954936
 20
79.2756397408
 30
0.0
 11
72.6693364291
 21
80.9272155688
 31
0.0
  0
LINE
  5
9B
330
1F
100
AcDbEntity
  8
0
  6
Continuous
 62
     7
100
AcDbLine
 10
72.6693364291
 20
80.9272155688
 30
0.0
 11
73.4951243431
 21
78.6562988054
 31
0.0
  0
LINE
  5
9C
330
1F
100
AcDbEntity
  8
0
  6
Continuous
 62
     7
100
AcDbLine
 10
73.4951243431
 20
78.6562988054
 30
0.0
 11
73.9080183001
 21
79.6885336978
 31
0.0
  0
LINE
  5
9D
330
1F
100
AcDbEntity
  8
0
  6
Continuous
 62
     7
100
AcDbLine
 10
73.9080183001
 20
79.6885336978
 30
0.0
 11
74.733806214
 21
78.2434048484
 31
0.0
  0
LINE
  5
9E
330
1F
100
AcDbEntity
  8
0
  6
Continuous
 62
     7
100
AcDbLine
 10
75.146700171
 20
78.6562988054
 30
0.0
 11
76.1789350635
 21
76.7982759989
 31
0.0
  0
LINE
  5
9F
330
1F
100
AcDbEntity
  8
0
  6
Continuous
 62
     7
100
AcDbLine
 10
76.385382042
 20
77.0047229774
 30
0.0
 11
77.4176169344
 21
76.5918290205
 31
0.0
  0
LINE
  5
A0
330
1F
100
AcDbEntity
  8
0
  6
Continuous
 62
     7
100
AcDbLine
 10
77.6240639129
 20
76.7982759989
 30
0.0
 11
79.2756397408
 21
76.1789350635
 31
0.0
  0
LINE
  5
A1
330
1F
100
AcDbEntity
  8
0
  6
Continuous
 62
     7
100
AcDbLine
 10
79.4820867193
 20
76.385382042
 30
0.0
 11
80.1014276548
 21
75.559594128
 31
0.0
  0
LINE
  5
A2
330
1F
100
AcDbEntity
  8
0
  6
Continuous
 62
     7
100
AcDbLine
 10
80.1014276548
 20
75.559594128
 30
0.0
 11
80.7207685903
 21
76.385382042
 31
0.0
  0
LINE
  5
A3
330
1F
100
AcDbEntity
  8
0
  6
Continuous
 62
     7
100
AcDbLine
 10
81.1336625473
 20
75.7660411065
 30
0.0
 11
81.7530034827
 21
79.0691927624
 31
0.0
  0
LINE
  5
A4
330
1F
100
AcDbEntity
  8
0
  6
Continuous
 62
     7
100
AcDbLine
 10
81.7530034827
 20
79.0691927624
 30
0.0
 11
83.8174732677
 21
76.1789350635
 31
0.0
  0
LINE
  5
A5
330
1F
100
AcDbEntity
  8
0
  6
Continuous
 62
     7
100
AcDbLine
 10
84.8497081601
 20
76.1789350635
 30
0.0
 11
85.4690490956
 21
80.1014276548
 31
0.0
  0
LINE
  5
A6
330
1F
100
AcDbEntity
  8
0
  6
Continuous
 62
     7
100
AcDbLine
 10
86.7077309665
 20
79.8949806763
 30
0.0
 11
87.5335188805
 21
79.2756397408
 31
0.0
  0
LINE
  5
A7
330
1F
100
AcDbEntity
  8
0
  6
Continuous
 62
     7
100
AcDbLine
 10
87.739965859
 20
79.6885336978
 30
0.0
 11
88.3593067945
 21
78.6562988054
 31
0.0
  0
LINE
  5
A8
330
1F
100
AcDbEntity
  8
0
  6
Continuous
 62
     7
100
AcDbLine
 10
89.5979886654
 20
79.2756397408
 30
0.0
 11
91.0431175149
 21
78.8627457839
 31
0.0
  0
LINE
  5
A9
330
1F
100
AcDbEntity
  8
0
  6
Continuous
 62
     7
100
AcDbLine
 10
92.2817993858
 20
78.8627457839
 30
0.0
 11
93.3140342783
 21
78.2434048484
 31
0.0
  0
LINE
  5
AA
330
1F
100
AcDbEntity
  8
0
  6
Continuous
 62
     7
100
AcDbLine
 10
93.3140342783
 20
78.4498518269
 30
0.0
 11
94.5527161492
 21
77.2111699559
 31
0.0
  0
LINE
  5
AB
330
1F
100
AcDbEntity
  8
0
  6
Continuous
 62
     7
100
AcDbLine
 10
96.6171859342
 20
77.0047229774
 30
0.0
 11
97.6494208266
 21
82.1658974397
 31
0.0
  0
LINE
  5
AC
330
1F
100
AcDbEntity
  8
0
  6
Continuous
 62
     7
100
AcDbLine
 10
97.6494208266
 20
82.1658974397
 30
0.0
 11
98.6816557191
 21
81.1336625473
 31
0.0
  0
LINE
  5
AD
330
1F
100
AcDbEntity
  8
0
  6
Continuous
 62
     7
100
AcDbLine
 10
98.6816557191
 20
81.3401095258
 30
0.0
 11
99.3009966545
 21
80.1014276548
 31
0.0
  0
LINE
  5
AE
330
1F
100
AcDbEntity
  8
0
  6
Continuous
 62
     7
100
AcDbLine
 10
101.3654664395
 20
79.2756397408
 30
0.0
 11
102.1912543534
 21
77.8305108914
 31
0.0
  0
LINE
  5
AF
330
1F
100
AcDbEntity
  8
0
  6
Continuous
 62
     7
100
AcDbLine
 10
102.1912543534
 20
77.8305108914
 30
0.0
 11
102.6041483104
 21
78.8627457839
 31
0.0
  0
LINE
  5
B0
330
1F
100
AcDbEntity
  8
0
  6
Continuous
 62
     7
100
AcDbLine
 10
102.6041483104
 20
78.8627457839
 30
0.0
 11
103.4299362244
 21
77.2111699559
 31
0.0
  0
LINE
  5
B1
330
1F
100
AcDbEntity
  8
0
  6
Continuous
 62
     7
100
AcDbLine
 10
103.4299362244
 20
77.2111699559
 30
0.0
 11
103.8428301814
 21
78.6562988054
 31
0.0
  0
LINE
  5
B2
330
1F
100
AcDbEntity
  8
0
  6
Continuous
 62
     7
100
AcDbLine
 10
103.8428301814
 20
78.6562988054
 30
0.0
 11
104.4621711168
 21
77.4176169344
 31
0.0
  0
LINE
  5
B3
330
1F
100
AcDbEntity
  8
0
  6
Continuous
 62
     7
100
AcDbLine
 10
104.4621711168
 20
77.4176169344
 30
0.0
 11
104.8750650738
 21
80.9272155688
 31
0.0
  0
LINE
  5
B4
330
1F
100
AcDbEntity
  8
0
  6
Continuous
 62
     7
100
AcDbLine
 10
104.8750650738
 20
80.9272155688
 30
0.0
 11
105.4944060093
 21
79.2756397408
 31
0.0
  0
LINE
  5
B5
330
1F
100
AcDbEntity
  8
0
  6
Continuous
 62
     7
100
AcDbLine
 10
105.4944060093
 20
79.2756397408
 30
0.0
 11
106.1137469448
 21
87.5335188805
 31
0.0
  0
LINE
  5
B6
330
1F
100
AcDbEntity
  8
0
  6
Continuous
 62
     7
100
AcDbLine
 10
106.1137469448
 20
87.5335188805
 30
0.0
 11
106.7330878802
 21
84.6432611816
 31
0.0
  0
LINE
  5
B7
330
1F
100
AcDbEntity
  8
0
  6
Continuous
 62
     7
100
AcDbLine
 10
106.7330878802
 20
84.6432611816
 30
0.0
 11
107.1459818372
 21
90.2173296009
 31
0.0
  0
LINE
  5
B8
330
1F
100
AcDbEntity
  8
0
  6
Continuous
 62
     7
100
AcDbLine
 10
107.1459818372
 20
90.2173296009
 30
0.0
 11
107.7653227727
 21
86.7077309665
 31
0.0
  0
LINE
  5
B9
330
1F
100
AcDbEntity
  8
0
  6
Continuous
 62
     7
100
AcDbLine
 10
107.7653227727
 20
86.7077309665
 30
0.0
 11
108.1782167297
 21
91.8689054288
 31
0.0
  0
LINE
  5
BA
330
1F
100
AcDbEntity
  8
0
  6
Continuous
 62
     7
100
AcDbLine
 10
108.1782167297
 20
91.8689054288
 30
0.0
 11
109.0040046437
 21
87.1206249235
 31
0.0
  0
LINE
  5
BB
330
1F
100
AcDbEntity
  8
0
  6
Continuous
 62
     7
100
AcDbLine
 10
109.0040046437
 20
87.1206249235
 30
0.0
 11
109.4168986006
 21
91.6624584503
 31
0.0
  0
LINE
  5
BC
330
1F
100
AcDbEntity
  8
0
  6
Continuous
 62
     7
100
AcDbLine
 10
109.4168986006
 20
91.6624584503
 30
0.0
 11
110.2426865146
 21
86.7077309665
 31
0.0
  0
LINE
  5
BD
330
1F
100
AcDbEntity
  8
0
  6
Continuous
 62
     7
100
AcDbLine
 10
110.2426865146
 20
86.7077309665
 30
0.0
 11
110.6555804716
 21
91.0431175149
 31
0.0
  0
LINE
  5
BE
330
1F
100
AcDbEntity
  8
0
  6
Continuous
 62
     7
100
AcDbLine
 10
110.6555804716
 20
91.0431175149
 30
0.0
 11
111.4813683856
 21
86.2948370096
 31
0.0
  0
LINE
  5
BF
330
1F
100
AcDbEntity
  8
0
  6
Continuous
 62
     7
100
AcDbLine
 10
111.4813683856
 20
86.2948370096
 30
0.0
 11
111.6878153641
 21
88.7722007515
 31
0.0
  0
LINE
  5
C0
330
1F
100
AcDbEntity
  8
0
  6
Continuous
 62
     7
100
AcDbLine
 10
111.6878153641
 20
88.7722007515
 30
0.0
 11
112.513603278
 21
84.8497081601
 31
0.0
  0
LINE
  5
C1
330
1F
100
AcDbEntity
  8
0
  6
Continuous
 62
     7
100
AcDbLine
 10
112.513603278
 20
84.8497081601
 30
0.0
 11
112.926497235
 21
89.1850947084
 31
0.0
  0
LINE
  5
C2
330
1F
100
AcDbEntity
  8
0
  6
Continuous
 62
     7
100
AcDbLine
 10
112.926497235
 20
89.1850947084
 30
0.0
 11
113.752285149
 21
84.8497081601
 31
0.0
  0
LINE
  5
C3
330
1F
100
AcDbEntity
  8
0
  6
Continuous
 62
     7
100
AcDbLine
 10
113.752285149
 20
84.8497081601
 30
0.0
 11
114.165179106
 21
88.565753773
 31
0.0
  0
LINE
  5
C4
330
1F
100
AcDbEntity
  8
0
  6
Continuous
 62
     7
100
AcDbLine
 10
114.165179106
 20
88.565753773
 30
0.0
 11
114.9909670199
 21
84.4368142031
 31
0.0
  0
LINE
  5
C5
330
1F
100
AcDbEntity
  8
0
  6
Continuous
 62
     7
100
AcDbLine
 10
114.9909670199
 20
84.4368142031
 30
0.0
 11
115.4038609769
 21
88.152859816
 31
0.0
  0
LINE
  5
C6
330
1F
100
AcDbEntity
  8
0
  6
Continuous
 62
     7
100
AcDbLine
 10
115.4038609769
 20
88.152859816
 30
0.0
 11
116.0232019124
 21
85.2626021171
 31
0.0
  0
LINE
  5
C7
330
1F
100
AcDbEntity
  8
0
  6
Continuous
 62
     7
100
AcDbLine
 10
116.0232019124
 20
85.2626021171
 30
0.0
 11
116.4360958694
 21
88.565753773
 31
0.0
  0
LINE
  5
C8
330
1F
100
AcDbEntity
  8
0
  6
Continuous
 62
     7
100
AcDbLine
 10
116.4360958694
 20
88.565753773
 30
0.0
 11
117.2618837833
 21
84.8497081601
 31
0.0
  0
LINE
  5
C9
330
1F
100
AcDbEntity
  8
0
  6
Continuous
 62
     7
100
AcDbLine
 10
117.2618837833
 20
84.8497081601
 30
0.0
 11
117.6747777403
 21
87.739965859
 31
0.0
  0
LINE
  5
CA
330
1F
100
AcDbEntity
  8
0
  6
Continuous
 62
     7
100
AcDbLine
 10
117.6747777403
 20
87.739965859
 30
0.0
 11
118.5005656543
 21
84.6432611816
 31
0.0
  0
LINE
  5
CB
330
1F
100
AcDbEntity
  8
0
  6
Continuous
 62
     7
100
AcDbLine
 10
118.5005656543
 20
84.6432611816
 30
0.0
 11
118.7070126328
 21
86.2948370096
 31
0.0
  0
LINE
  5
CC
330
1F
100
AcDbEntity
  8
0
  6
Continuous
 62
     7
100
AcDbLine
 10
118.7070126328
 20
86.2948370096
 30
0.0
 11
119.5328005467
 21
83.4045793107
 31
0.0
  0
LINE
  5
CD
330
1F
100
AcDbEntity
  8
0
  6
Continuous
 62
     7
100
AcDbLine
 10
119.5328005467
 20
83.4045793107
 30
0.0
 11
119.9456945037
 21
86.5012839881
 31
0.0
  0
LINE
  5
CE
330
1F
100
AcDbEntity
  8
0
  6
Continuous
 62
     7
100
AcDbLine
 10
119.9456945037
 20
86.5012839881
 30
0.0
 11
120.5650354392
 21
83.8174732677
 31
0.0
  0
LINE
  5
CF
330
1F
100
AcDbEntity
  8
0
  6
Continuous
 62
     7
100
AcDbLine
 10
120.5650354392
 20
83.8174732677
 30
0.0
 11
120.9779293962
 21
86.7077309665
 31
0.0
  0
LINE
  5
D0
330
1F
100
AcDbEntity
  8
0
  6
Continuous
 62
     7
100
AcDbLine
 10
120.9779293962
 20
86.7077309665
 30
0.0
 11
121.8037173101
 21
82.9916853537
 31
0.0
  0
LINE
  5
D1
330
1F
100
AcDbEntity
  8
0
  6
Continuous
 62
     7
100
AcDbLine
 10
121.8037173101
 20
82.9916853537
 30
0.0
 11
122.2166112671
 21
85.4690490956
 31
0.0
  0
LINE
  5
D2
330
1F
100
AcDbEntity
  8
0
  6
Continuous
 62
     7
100
AcDbLine
 10
122.2166112671
 20
85.4690490956
 30
0.0
 11
122.8359522026
 21
82.9916853537
 31
0.0
  0
LINE
  5
D3
330
1F
100
AcDbEntity
  8
0
  6
Continuous
 62
     7
100
AcDbLine
 10
122.8359522026
 20
82.9916853537
 30
0.0
 11
123.2488461596
 21
85.2626021171
 31
0.0
  0
LINE
  5
D4
330
1F
100
AcDbEntity
  8
0
  6
Continuous
 62
     7
100
AcDbLine
 10
123.2488461596
 20
85.2626021171
 30
0.0
 11
124.0746340736
 21
81.9594504612
 31
0.0
  0
LINE
  5
D5
330
1F
100
AcDbEntity
  8
0
  6
Continuous
 62
     7
100
AcDbLine
 10
124.0746340736
 20
81.9594504612
 30
0.0
 11
124.2810810521
 21
83.4045793107
 31
0.0
  0
LINE
  5
D6
330
1F
100
AcDbEntity
  8
0
  6
Continuous
 62
     7
100
AcDbLine
 10
124.2810810521
 20
83.4045793107
 30
0.0
 11
125.106868966
 21
80.7207685903
 31
0.0
  0
LINE
  5
D7
330
1F
100
AcDbEntity
  8
0
  6
Continuous
 62
     7
100
AcDbLine
 10
125.106868966
 20
80.7207685903
 30
0.0
 11
125.519762923
 21
82.9916853537
 31
0.0
  0
LINE
  5
D8
330
1F
100
AcDbEntity
  8
0
  6
Continuous
 62
     7
100
AcDbLine
 10
125.519762923
 20
82.9916853537
 30
0.0
 11
126.1391038585
 21
80.9272155688
 31
0.0
  0
LINE
  5
D9
330
1F
100
AcDbEntity
  8
0
  6
Continuous
 62
     7
100
AcDbLine
 10
126.1391038585
 20
80.9272155688
 30
0.0
 11
126.5519978155
 21
82.5787913967
 31
0.0
  0
LINE
  5
DA
330
1F
100
AcDbEntity
  8
0
  6
Continuous
 62
     7
100
AcDbLine
 10
126.5519978155
 20
82.5787913967
 30
0.0
 11
127.3777857294
 21
80.1014276548
 31
0.0
  0
LINE
  5
DB
330
1F
100
AcDbEntity
  8
0
  6
Continuous
 62
     7
100
AcDbLine
 10
127.3777857294
 20
80.1014276548
 30
0.0
 11
127.7906796864
 21
82.5787913967
 31
0.0
  0
LINE
  5
DC
330
1F
100
AcDbEntity
  8
0
  6
Continuous
 62
     7
100
AcDbLine
 10
127.7906796864
 20
82.5787913967
 30
0.0
 11
128.4100206219
 21
80.5143216118
 31
0.0
  0
LINE
  5
DD
330
1F
100
AcDbEntity
  8
0
  6
Continuous
 62
     7
100
AcDbLine
 10
128.4100206219
 20
80.5143216118
 30
0.0
 11
128.8229145789
 21
83.1981323322
 31
0.0
  0
LINE
  5
DE
330
1F
100
AcDbEntity
  8
0
  6
Continuous
 62
     7
100
AcDbLine
 10
128.8229145789
 20
83.1981323322
 30
0.0
 11
129.6487024928
 21
80.5143216118
 31
0.0
  0
LINE
  5
DF
330
1F
100
AcDbEntity
  8
0
  6
Continuous
 62
     7
100
AcDbLine
 10
129.6487024928
 20
80.5143216118
 30
0.0
 11
130.0615964498
 21
83.6110262892
 31
0.0
  0
LINE
  5
E0
330
1F
100
AcDbEntity
  8
0
  6
Continuous
 62
     7
100
AcDbLine
 10
130.0615964498
 20
83.6110262892
 30
0.0
 11
130.6809373853
 21
81.3401095258
 31
0.0
  0
LINE
  5
E1
330
1F
100
AcDbEntity
  8
0
  6
Continuous
 62
     7
100
AcDbLine
 10
130.6809373853
 20
81.3401095258
 30
0.0
 11
131.0938313423
 21
84.0239202462
 31
0.0
  0
LINE
  5
E2
330
1F
100
AcDbEntity
  8
0
  6
Continuous
 62
     7
100
AcDbLine
 10
131.0938313423
 20
84.0239202462
 30
0.0
 11
131.9196192562
 21
81.1336625473
 31
0.0
  0
LINE
  5
E3
330
1F
100
AcDbEntity
  8
0
  6
Continuous
 62
     7
100
AcDbLine
 10
131.9196192562
 20
81.1336625473
 30
0.0
 11
132.3325132132
 21
84.0239202462
 31
0.0
  0
LINE
  5
E4
330
1F
100
AcDbEntity
  8
0
  6
Continuous
 62
     7
100
AcDbLine
 10
132.3325132132
 20
84.0239202462
 30
0.0
 11
133.1583011272
 21
80.9272155688
 31
0.0
  0
LINE
  5
E5
330
1F
100
AcDbEntity
  8
0
  6
Continuous
 62
     7
100
AcDbLine
 10
133.1583011272
 20
80.9272155688
 30
0.0
 11
133.5711950842
 21
84.8497081601
 31
0.0
  0
LINE
  5
E6
330
1F
100
AcDbEntity
  8
0
  6
Continuous
 62
     7
100
AcDbLine
 10
133.5711950842
 20
84.8497081601
 30
0.0
 11
134.1905360197
 21
82.3723444182
 31
0.0
  0
LINE
  5
E7
330
1F
100
AcDbEntity
  8
0
  6
Continuous
 62
     7
100
AcDbLine
 10
134.1905360197
 20
82.3723444182
 30
0.0
 11
134.6034299766
 21
86.2948370096
 31
0.0
  0
LINE
  5
E8
330
1F
100
AcDbEntity
  8
0
  6
Continuous
 62
     7
100
AcDbLine
 10
134.6034299766
 20
86.2948370096
 30
0.0
 11
135.4292178906
 21
82.7852383752
 31
0.0
  0
LINE
  5
E9
330
1F
100
AcDbEntity
  8
0
  6
Continuous
 62
     7
100
AcDbLine
 10
135.4292178906
 20
82.7852383752
 30
0.0
 11
135.8421118476
 21
87.327071902
 31
0.0
  0
LINE
  5
EA
330
1F
100
AcDbEntity
  8
0
  6
Continuous
 62
     7
100
AcDbLine
 10
135.8421118476
 20
87.327071902
 30
0.0
 11
136.6678997616
 21
83.6110262892
 31
0.0
  0
LINE
  5
EB
330
1F
100
AcDbEntity
  8
0
  6
Continuous
 62
     7
100
AcDbLine
 10
136.6678997616
 20
83.6110262892
 30
0.0
 11
137.0807937185
 21
89.1850947084
 31
0.0
  0
LINE
  5
EC
330
1F
100
AcDbEntity
  8
0
  6
Continuous
 62
     7
100
AcDbLine
 10
137.0807937185
 20
89.1850947084
 30
0.0
 11
137.9065816325
 21
85.2626021171
 31
0.0
  0
LINE
  5
ED
330
1F
100
AcDbEntity
  8
0
  6
Continuous
 62
     7
100
AcDbLine
 10
137.9065816325
 20
85.2626021171
 30
0.0
 11
138.113028611
 21
87.9464128375
 31
0.0
  0
LINE
  5
EE
330
1F
100
AcDbEntity
  8
0
  6
Continuous
 62
     7
100
AcDbLine
 10
138.113028611
 20
87.9464128375
 30
0.0
 11
139.1452635035
 21
83.6110262892
 31
0.0
  0
LINE
  5
EF
330
1F
100
AcDbEntity
  8
0
  6
Continuous
 62
     7
100
AcDbLine
 10
139.1452635035
 20
83.6110262892
 30
0.0
 11
139.351710482
 21
86.2948370096
 31
0.0
  0
LINE
  5
F0
330
1F
100
AcDbEntity
  8
0
  6
Continuous
 62
     7
100
AcDbLine
 10
139.351710482
 20
86.2948370096
 30
0.0
 11
140.1774983959
 21
83.1981323322
 31
0.0
  0
LINE
  5
F1
330
1F
100
AcDbEntity
  8
0
  6
Continuous
 62
     7
100
AcDbLine
 10
140.1774983959
 20
83.1981323322
 30
0.0
 11
140.5903923529
 21
87.9464128375
 31
0.0
  0
LINE
  5
F2
330
1F
100
AcDbEntity
  8
0
  6
Continuous
 62
     7
100
AcDbLine
 10
140.5903923529
 20
87.9464128375
 30
0.0
 11
141.4161802669
 21
84.4368142031
 31
0.0
  0
LINE
  5
F3
330
1F
100
AcDbEntity
  8
0
  6
Continuous
 62
     7
100
AcDbLine
 10
141.4161802669
 20
84.4368142031
 30
0.0
 11
141.8290742239
 21
89.1850947084
 31
0.0
  0
LINE
  5
F4
330
1F
100
AcDbEntity
  8
0
  6
Continuous
 62
     7
100
AcDbLine
 10
141.8290742239
 20
89.1850947084
 30
0.0
 11
142.6548621378
 21
85.0561551386
 31
0.0
  0
LINE
  5
F5
330
1F
100
AcDbEntity
  8
0
  6
Continuous
 62
     7
100
AcDbLine
 10
142.6548621378
 20
85.0561551386
 30
0.0
 11
143.0677560948
 21
90.2173296009
 31
0.0
  0
LINE
  5
F6
330
1F
100
AcDbEntity
  8
0
  6
Continuous
 62
     7
100
AcDbLine
 10
143.0677560948
 20
90.2173296009
 30
0.0
 11
143.8935440088
 21
85.8819430526
 31
0.0
  0
LINE
  5
F7
330
1F
100
AcDbEntity
  8
0
  6
Continuous
 62
     7
100
AcDbLine
 10
143.8935440088
 20
85.8819430526
 30
0.0
 11
144.3064379658
 21
90.8366705364
 31
0.0
  0
LINE
  5
F8
330
1F
100
AcDbEntity
  8
0
  6
Continuous
 62
     7
100
AcDbLine
 10
144.3064379658
 20
90.8366705364
 30
0.0
 11
145.1322258797
 21
86.2948370096
 31
0.0
  0
LINE
  5
F9
330
1F
100
AcDbEntity
  8
0
  6
Continuous
 62
     7
100
AcDbLine
 10
145.1322258797
 20
86.2948370096
 30
0.0
 11
145.5451198367
 21
90.4237765794
 31
0.0
  0
LINE
  5
FA
330
1F
100
AcDbEntity
  8
0
  6
Continuous
 62
     7
100
AcDbLine
 10
145.5451198367
 20
90.4237765794
 30
0.0
 11
146.3709077507
 21
86.0883900311
 31
0.0
  0
LINE
  5
FB
330
1F
100
AcDbEntity
  8
0
  6
Continuous
 62
     7
100
AcDbLine
 10
146.3709077507
 20
86.0883900311
 30
0.0
 11
146.7838017077
 21
90.0108826224
 31
0.0
  0
LINE
  5
FC
330
1F
100
AcDbEntity
  8
0
  6
Continuous
 62
     7
100
AcDbLine
 10
146.7838017077
 20
90.0108826224
 30
0.0
 11
147.6095896216
 21
85.4690490956
 31
0.0
  0
LINE
  5
FD
330
1F
100
AcDbEntity
  8
0
  6
Continuous
 62
     7
100
AcDbLine
 10
147.6095896216
 20
85.4690490956
 30
0.0
 11
148.0224835786
 21
89.1850947084
 31
0.0
  0
LINE
  5
FE
330
1F
100
AcDbEntity
  8
0
  6
Continuous
 62
     7
100
AcDbLine
 10
148.0224835786
 20
89.1850947084
 30
0.0
 11
148.8482714926
 21
85.0561551386
 31
0.0
  0
LINE
  5
FF
330
1F
100
AcDbEntity
  8
0
  6
Continuous
 62
     7
100
AcDbLine
 10
148.8482714926
 20
85.0561551386
 30
0.0
 11
149.2611654496
 21
87.5335188805
 31
0.0
  0
LINE
  5
100
330
1F
100
AcDbEntity
  8
0
  6
Continuous
 62
     7
100
AcDbLine
 10
149.2611654496
 20
87.5335188805
 30
0.0
 11
150.0869533635
 21
83.8174732677
 31
0.0
  0
LINE
  5
101
330
1F
100
AcDbEntity
  8
0
  6
Continuous
 62
     7
100
AcDbLine
 10
150.0869533635
 20
83.8174732677
 30
0.0
 11
150.706294299
 21
86.7077309665
 31
0.0
  0
LINE
  5
102
330
1F
100
AcDbEntity
  8
0
  6
Continuous
 62
     7
100
AcDbLine
 10
150.706294299
 20
86.7077309665
 30
0.0
 11
151.3256352345
 21
83.8174732677
 31
0.0
  0
LINE
  5
103
330
1F
100
AcDbEntity
  8
0
  6
Continuous
 62
     7
100
AcDbLine
 10
151.3256352345
 20
83.8174732677
 30
0.0
 11
151.7385291915
 21
86.5012839881
 31
0.0
  0
LINE
  5
104
330
1F
100
AcDbEntity
  8
0
  6
Continuous
 62
     7
100
AcDbLine
 10
151.7385291915
 20
86.5012839881
 30
0.0
 11
152.5643171054
 21
81.1336625473
 31
0.0
  0
LINE
  5
105
330
1F
100
AcDbEntity
  8
0
  6
Continuous
 62
     7
100
AcDbLine
 10
152.5643171054
 20
81.1336625473
 30
0.0
 11
153.1836580409
 21
83.4045793107
 31
0.0
  0
LINE
  5
106
330
1F
100
AcDbEntity
  8
0
  6
Continuous
 62
     7
100
AcDbLine
 10
153.1836580409
 20
83.4045793107
 30
0.0
 11
154.0094459549
 21
80.5143216118
 31
0.0
  0
LINE
  5
107
330
1F
100
AcDbEntity
  8
0
  6
Continuous
 62
     7
100
AcDbLine
 10
154.0094459549
 20
80.5143216118
 30
0.0
 11
154.4223399119
 21
82.3723444182
 31
0.0
  0
LINE
  5
108
330
1F
100
AcDbEntity
  8
0
  6
Continuous
 62
     7
100
AcDbLine
 10
154.4223399119
 20
82.3723444182
 30
0.0
 11
155.2481278258
 21
79.8949806763
 31
0.0
  0
LINE
  5
109
330
1F
100
AcDbEntity
  8
0
  6
Continuous
 62
     7
100
AcDbLine
 10
155.2481278258
 20
79.8949806763
 30
0.0
 11
155.8674687613
 21
82.1658974397
 31
0.0
  0
LINE
  5
10A
330
1F
100
AcDbEntity
  8
0
  6
Continuous
 62
     7
100
AcDbLine
 10
155.8674687613
 20
82.1658974397
 30
0.0
 11
156.4868096968
 21
80.3078746333
 31
0.0
  0
LINE
  5
10B
330
1F
100
AcDbEntity
  8
0
  6
Continuous
 62
     7
100
AcDbLine
 10
156.4868096968
 20
80.3078746333
 30
0.0
 11
157.1061506322
 21
82.3723444182
 31
0.0
  0
LINE
  5
10C
330
1F
100
AcDbEntity
  8
0
  6
Continuous
 62
     7
100
AcDbLine
 10
157.1061506322
 20
82.3723444182
 30
0.0
 11
157.9319385462
 21
79.6885336978
 31
0.0
  0
LINE
  5
10D
330
1F
100
AcDbEntity
  8
0
  6
Continuous
 62
     7
100
AcDbLine
 10
157.9319385462
 20
79.6885336978
 30
0.0
 11
158.3448325032
 21
80.9272155688
 31
0.0
  0
LINE
  5
10E
330
1F
100
AcDbEntity
  8
0
  6
Continuous
 62
     7
100
AcDbLine
 10
158.3448325032
 20
80.9272155688
 30
0.0
 11
159.1706204172
 21
78.8627457839
 31
0.0
  0
LINE
  5
10F
330
1F
100
AcDbEntity
  8
0
  6
Continuous
 62
     7
100
AcDbLine
 10
159.1706204172
 20
78.8627457839
 30
0.0
 11
159.5835143741
 21
80.1014276548
 31
0.0
  0
LINE
  5
110
330
1F
100
AcDbEntity
  8
0
  6
Continuous
 62
     7
100
AcDbLine
 10
159.5835143741
 20
80.1014276548
 30
0.0
 11
160.6157492666
 21
77.8305108914
 31
0.0
  0
LINE
  5
111
330
1F
100
AcDbEntity
  8
0
  6
Continuous
 62
     7
100
AcDbLine
 10
160.6157492666
 20
77.8305108914
 30
0.0
 11
161.0286432236
 21
78.8627457839
 31
0.0
  0
LINE
  5
112
330
1F
100
AcDbEntity
  8
0
  6
Continuous
 62
     7
100
AcDbLine
 10
161.0286432236
 20
78.8627457839
 30
0.0
 11
161.6479841591
 21
77.6240639129
 31
0.0
  0
LINE
  5
113
330
1F
100
AcDbEntity
  8
0
  6
Continuous
 62
     7
100
AcDbLine
 10
161.6479841591
 20
77.6240639129
 30
0.0
 11
162.2673250945
 21
78.6562988054
 31
0.0
  0
LINE
  5
114
330
1F
100
AcDbEntity
  8
0
  6
Continuous
 62
     7
100
AcDbLine
 10
162.2673250945
 20
78.6562988054
 30
0.0
 11
162.88666603
 21
77.4176169344
 31
0.0
  0
LINE
  5
115
330
1F
100
AcDbEntity
  8
0
  6
Continuous
 62
     7
100
AcDbLine
 10
162.88666603
 20
77.4176169344
 30
0.0
 11
163.5060069655
 21
78.6562988054
 31
0.0
  0
LINE
  5
116
330
1F
100
AcDbEntity
  8
0
  6
Continuous
 62
     7
100
AcDbLine
 10
163.5060069655
 20
78.6562988054
 30
0.0
 11
164.3317948795
 21
77.2111699559
 31
0.0
  0
LINE
  5
117
330
1F
100
AcDbEntity
  8
0
  6
Continuous
 62
     7
100
AcDbLine
 10
164.9511358149
 20
77.8305108914
 30
0.0
 11
165.7769237289
 21
76.385382042
 31
0.0
  0
LINE
  5
118
330
1F
100
AcDbEntity
  8
0
  6
Continuous
 62
     7
100
AcDbLine
 10
166.1898176859
 20
77.0047229774
 30
0.0
 11
166.3962646644
 21
73.9080183001
 31
0.0
  0
LINE
  5
119
330
1F
100
AcDbEntity
  8
0
  6
Continuous
 62
     7
100
AcDbLine
 10
167.0156055998
 20
73.7015713216
 30
0.0
 11
169.0800753848
 21
76.1789350635
 31
0.0
  0
LINE
  5
11A
330
1F
100
AcDbEntity
  8
0
  6
Continuous
 62
     7
100
AcDbLine
 10
169.0800753848
 20
76.1789350635
 30
0.0
 11
169.6994163202
 21
75.3531471495
 31
0.0
  0
LINE
  5
11B
330
1F
100
AcDbEntity
  8
0
  6
Continuous
 62
     7
100
AcDbLine
 10
169.6994163202
 20
75.3531471495
 30
0.0
 11
170.3187572557
 21
76.1789350635
 31
0.0
  0
LINE
  5
11C
330
1F
100
AcDbEntity
  8
0
  6
Continuous
 62
     7
100
AcDbLine
 10
170.3187572557
 20
76.1789350635
 30
0.0
 11
171.1445451697
 21
75.3531471495
 31
0.0
  0
LINE
  5
11D
330
1F
100
AcDbEntity
  8
0
  6
Continuous
 62
     7
100
AcDbLine
 10
171.1445451697
 20
75.3531471495
 30
0.0
 11
171.7638861052
 21
76.7982759989
 31
0.0
  0
LINE
  5
11E
330
1F
100
AcDbEntity
  8
0
  6
Continuous
 62
     7
100
AcDbLine
 10
172.1767800621
 20
76.1789350635
 30
0.0
 11
172.7961209976
 21
77.4176169344
 31
0.0
  0
LINE
  5
11F
330
1F
100
AcDbEntity
  8
0
  6
Continuous
 62
     7
100
AcDbLine
 10
172.7961209976
 20
77.4176169344
 30
0.0
 11
173.4154619331
 21
76.385382042
 31
0.0
  0
LINE
  5
120
330
1F
100
AcDbEntity
  8
0
  6
Continuous
 62
     7
100
AcDbLine
 10
173.4154619331
 20
76.385382042
 30
0.0
 11
174.0348028686
 21
78.2434048484
 31
0.0
  0
LINE
  5
121
330
1F
100
AcDbEntity
  8
0
  6
Continuous
 62
     7
100
AcDbLine
 10
174.0348028686
 20
78.2434048484
 30
0.0
 11
174.8605907825
 21
76.7982759989
 31
0.0
  0
LINE
  5
122
330
1F
100
AcDbEntity
  8
0
  6
Continuous
 62
     7
100
AcDbLine
 10
174.8605907825
 20
76.7982759989
 30
0.0
 11
175.479931718
 21
78.6562988054
 31
0.0
  0
LINE
  5
123
330
1F
100
AcDbEntity
  8
0
  6
Continuous
 62
     7
100
AcDbLine
 10
175.479931718
 20
78.6562988054
 30
0.0
 11
176.0992726535
 21
77.4176169344
 31
0.0
  0
LINE
  5
124
330
1F
100
AcDbEntity
  8
0
  6
Continuous
 62
     7
100
AcDbLine
 10
176.0992726535
 20
77.4176169344
 30
0.0
 11
176.718613589
 21
79.0691927624
 31
0.0
  0
LINE
  5
125
330
1F
100
AcDbEntity
  8
0
  6
Continuous
 62
     7
100
AcDbLine
 10
176.718613589
 20
79.0691927624
 30
0.0
 11
177.3379545244
 21
77.8305108914
 31
0.0
  0
LINE
  5
126
330
1F
100
AcDbEntity
  8
0
  6
Continuous
 62
     7
100
AcDbLine
 10
177.3379545244
 20
77.8305108914
 30
0.0
 11
177.9572954599
 21
79.4820867193
 31
0.0
  0
LINE
  5
127
330
1F
100
AcDbEntity
  8
0
  6
Continuous
 62
     7
100
AcDbLine
 10
177.9572954599
 20
79.4820867193
 30
0.0
 11
178.7830833739
 21
77.8305108914
 31
0.0
  0
LINE
  5
128
330
1F
100
AcDbEntity
  8
0
  6
Continuous
 62
     7
100
AcDbLine
 10
178.7830833739
 20
77.8305108914
 30
0.0
 11
179.1959773309
 21
79.2756397408
 31
0.0
  0
LINE
  5
129
330
1F
100
AcDbEntity
  8
0
  6
Continuous
 62
     7
100
AcDbLine
 10
179.1959773309
 20
79.2756397408
 30
0.0
 11
179.8153182663
 21
77.8305108914
 31
0.0
  0
LINE
  5
12A
330
1F
100
AcDbEntity
  8
0
  6
Continuous
 62
     7
100
AcDbLine
 10
179.8153182663
 20
77.8305108914
 30
0.0
 11
180.4346592018
 21
81.7530034827
 31
0.0
  0
LINE
  5
12B
330
1F
100
AcDbEntity
  8
0
  6
Continuous
 62
     7
100
AcDbLine
 10
180.4346592018
 20
81.7530034827
 30
0.0
 11
181.2604471158
 21
79.4820867193
 31
0.0
  0
LINE
  5
12C
330
1F
100
AcDbEntity
  8
0
  6
Continuous
 62
     7
100
AcDbLine
 10
181.2604471158
 20
79.4820867193
 30
0.0
 11
181.8797880513
 21
81.3401095258
 31
0.0
  0
LINE
  5
12D
330
1F
100
AcDbEntity
  8
0
  6
Continuous
 62
     7
100
AcDbLine
 10
181.8797880513
 20
81.3401095258
 30
0.0
 11
182.4991289867
 21
79.4820867193
 31
0.0
  0
LINE
  5
12E
330
1F
100
AcDbEntity
  8
0
  6
Continuous
 62
     7
100
AcDbLine
 10
182.4991289867
 20
79.4820867193
 30
0.0
 11
183.1184699222
 21
81.9594504612
 31
0.0
  0
LINE
  5
12F
330
1F
100
AcDbEntity
  8
0
  6
Continuous
 62
     7
100
AcDbLine
 10
183.1184699222
 20
81.9594504612
 30
0.0
 11
183.9442578362
 21
79.4820867193
 31
0.0
  0
LINE
  5
130
330
1F
100
AcDbEntity
  8
0
  6
Continuous
 62
     7
100
AcDbLine
 10
183.9442578362
 20
79.4820867193
 30
0.0
 11
184.3571517932
 21
81.7530034827
 31
0.0
  0
LINE
  5
131
330
1F
100
AcDbEntity
  8
0
  6
Continuous
 62
     7
100
AcDbLine
 10
184.3571517932
 20
81.7530034827
 30
0.0
 11
185.1829397071
 21
79.4820867193
 31
0.0
  0
LINE
  5
132
330
1F
100
AcDbEntity
  8
0
  6
Continuous
 62
     7
100
AcDbLine
 10
185.1829397071
 20
79.4820867193
 30
0.0
 11
185.8022806426
 21
82.3723444182
 31
0.0
  0
LINE
  5
133
330
1F
100
AcDbEntity
  8
0
  6
Continuous
 62
     7
100
AcDbLine
 10
185.8022806426
 20
82.3723444182
 30
0.0
 11
186.4216215781
 21
80.3078746333
 31
0.0
  0
LINE
  5
134
330
1F
100
AcDbEntity
  8
0
  6
Continuous
 62
     7
100
AcDbLine
 10
186.4216215781
 20
80.3078746333
 30
0.0
 11
187.0409625136
 21
83.4045793107
 31
0.0
  0
LINE
  5
135
330
1F
100
AcDbEntity
  8
0
  6
Continuous
 62
     7
100
AcDbLine
 10
187.0409625136
 20
83.4045793107
 30
0.0
 11
187.660303449
 21
81.1336625473
 31
0.0
  0
LINE
  5
136
330
1F
100
AcDbEntity
  8
0
  6
Continuous
 62
     7
100
AcDbLine
 10
187.660303449
 20
81.1336625473
 30
0.0
 11
188.2796443845
 21
84.0239202462
 31
0.0
  0
LINE
  5
137
330
1F
100
AcDbEntity
  8
0
  6
Continuous
 62
     7
100
AcDbLine
 10
188.2796443845
 20
84.0239202462
 30
0.0
 11
189.1054322985
 21
81.1336625473
 31
0.0
  0
LINE
  5
138
330
1F
100
AcDbEntity
  8
0
  6
Continuous
 62
     7
100
AcDbLine
 10
189.1054322985
 20
81.1336625473
 30
0.0
 11
189.5183262555
 21
83.4045793107
 31
0.0
  0
LINE
  5
139
330
1F
100
AcDbEntity
  8
0
  6
Continuous
 62
     7
100
AcDbLine
 10
189.5183262555
 20
83.4045793107
 30
0.0
 11
190.3441141694
 21
80.7207685903
 31
0.0
  0
LINE
  5
13A
330
1F
100
AcDbEntity
  8
0
  6
Continuous
 62
     7
100
AcDbLine
 10
190.3441141694
 20
80.7207685903
 30
0.0
 11
190.9634551049
 21
83.4045793107
 31
0.0
  0
LINE
  5
13B
330
1F
100
AcDbEntity
  8
0
  6
Continuous
 62
     7
100
AcDbLine
 10
190.9634551049
 20
83.4045793107
 30
0.0
 11
191.7892430189
 21
80.5143216118
 31
0.0
  0
LINE
  5
13C
330
1F
100
AcDbEntity
  8
0
  6
Continuous
 62
     7
100
AcDbLine
 10
191.7892430189
 20
80.5143216118
 30
0.0
 11
192.2021369758
 21
82.3723444182
 31
0.0
  0
LINE
  5
13D
330
1F
100
AcDbEntity
  8
0
  6
Continuous
 62
     7
100
AcDbLine
 10
192.2021369758
 20
82.3723444182
 30
0.0
 11
193.0279248898
 21
79.8949806763
 31
0.0
  0
LINE
  5
13E
330
1F
100
AcDbEntity
  8
0
  6
Continuous
 62
     7
100
AcDbLine
 10
193.0279248898
 20
79.8949806763
 30
0.0
 11
193.6472658253
 21
82.5787913967
 31
0.0
  0
LINE
  5
13F
330
1F
100
AcDbEntity
  8
0
  6
Continuous
 62
     7
100
AcDbLine
 10
193.6472658253
 20
82.5787913967
 30
0.0
 11
194.4730537393
 21
80.1014276548
 31
0.0
  0
LINE
  5
140
330
1F
100
AcDbEntity
  8
0
  6
Continuous
 62
     7
100
AcDbLine
 10
194.4730537393
 20
80.1014276548
 30
0.0
 11
195.0923946747
 21
82.9916853537
 31
0.0
  0
LINE
  5
141
330
1F
100
AcDbEntity
  8
0
  6
Continuous
 62
     7
100
AcDbLine
 10
195.0923946747
 20
82.9916853537
 30
0.0
 11
195.9181825887
 21
80.5143216118
 31
0.0
  0
LINE
  5
142
330
1F
100
AcDbEntity
  8
0
  6
Continuous
 62
     7
100
AcDbLine
 10
195.9181825887
 20
80.5143216118
 30
0.0
 11
196.3310765457
 21
82.1658974397
 31
0.0
  0
LINE
  5
143
330
1F
100
AcDbEntity
  8
0
  6
Continuous
 62
     7
100
AcDbLine
 10
196.3310765457
 20
82.1658974397
 30
0.0
 11
197.3633114381
 21
79.2756397408
 31
0.0
  0
LINE
  5
144
330
1F
100
AcDbEntity
  8
0
  6
Continuous
 62
     7
100
AcDbLine
 10
197.7762053951
 20
80.1014276548
 30
0.0
 11
198.8084402876
 21
77.8305108914
 31
0.0
  0
LINE
  5
145
330
1F
100
AcDbEntity
  8
0
  6
Continuous
 62
     7
100
AcDbLine
 10
199.0148872661
 20
78.2434048484
 30
0.0
 11
200.0471221585
 21
76.7982759989
 31
0.0
  0
LINE
  5
146
330
1F
100
AcDbEntity
  8
0
  6
Continuous
 62
     7
100
AcDbLine
 10
200.0471221585
 20
76.7982759989
 30
0.0
 11
202.3180389219
 21
76.385382042
 31
0.0
  0
LINE
  5
147
330
1F
100
AcDbEntity
  8
0
  6
Continuous
 62
     7
100
AcDbLine
 10
203.9696147499
 20
76.385382042
 30
0.0
 11
205.2082966208
 21
75.972488085
 31
0.0
  0
LINE
  5
148
330
1F
100
AcDbEntity
  8
0
  6
Continuous
 62
     7
100
AcDbLine
 10
205.8276375563
 20
76.385382042
 30
0.0
 11
206.6534254703
 21
75.559594128
 31
0.0
  0
LINE
  5
149
330
1F
100
AcDbEntity
  8
0
  6
Continuous
 62
     7
100
AcDbLine
 10
206.6534254703
 20
75.559594128
 30
0.0
 11
207.6856603627
 21
76.385382042
 31
0.0
  0
LINE
  5
14A
330
1F
100
AcDbEntity
  8
0
  6
Continuous
 62
     7
100
AcDbLine
 10
211.8145999326
 20
76.1789350635
 30
0.0
 11
212.846834825
 21
75.3531471495
 31
0.0
  0
LINE
  5
14B
330
1F
100
AcDbEntity
  8
0
  6
Continuous
 62
     7
100
AcDbLine
 10
214.9113046099
 20
76.1789350635
 30
0.0
 11
215.5306455454
 21
75.3531471495
 31
0.0
  0
LINE
  5
14C
330
1F
100
AcDbEntity
  8
0
  6
Continuous
 62
     7
100
AcDbLine
 10
215.5306455454
 20
75.3531471495
 30
0.0
 11
217.5951153303
 21
76.5918290205
 31
0.0
  0
LINE
  5
14D
330
1F
100
AcDbEntity
  8
0
  6
Continuous
 62
     7
100
AcDbLine
 10
218.0080092873
 20
76.1789350635
 30
0.0
 11
218.6273502228
 21
77.0047229774
 31
0.0
  0
LINE
  5
14E
330
1F
100
AcDbEntity
  8
0
  6
Continuous
 62
     7
100
AcDbLine
 10
218.6273502228
 20
77.0047229774
 30
0.0
 11
219.2466911583
 21
76.1789350635
 31
0.0
  0
LINE
  5
14F
330
1F
100
AcDbEntity
  8
0
  6
Continuous
 62
     7
100
AcDbLine
 10
219.2466911583
 20
76.1789350635
 30
0.0
 11
219.8660320937
 21
77.0047229774
 31
0.0
  0
LINE
  5
150
330
1F
100
AcDbEntity
  8
0
  6
Continuous
 62
     7
100
AcDbLine
 10
219.8660320937
 20
77.0047229774
 30
0.0
 11
221.9305018787
 21
76.385382042
 31
0.0
  0
LINE
  5
151
330
1F
100
AcDbEntity
  8
0
  6
Continuous
 62
     7
100
AcDbLine
 10
223.5820777066
 20
76.7982759989
 30
0.0
 11
225.027206556
 21
75.7660411065
 31
0.0
  0
LINE
  5
152
330
1F
100
AcDbEntity
  8
0
  6
Continuous
 62
     7
100
AcDbLine
 10
225.027206556
 20
75.7660411065
 30
0.0
 11
229.9819340398
 21
76.5918290205
 31
0.0
  0
LINE
  5
153
330
1F
100
AcDbEntity
  8
0
  6
Continuous
 62
     7
100
AcDbLine
 10
230.3948279968
 20
77.0047229774
 30
0.0
 11
231.2206159108
 21
76.1789350635
 31
0.0
  0
LINE
  5
154
330
1F
100
AcDbEntity
  8
0
  6
Continuous
 62
     7
100
AcDbLine
 10
231.2206159108
 20
76.1789350635
 30
0.0
 11
231.8399568463
 21
78.0369578699
 31
0.0
  0
LINE
  5
155
330
1F
100
AcDbEntity
  8
0
  6
Continuous
 62
     7
100
AcDbLine
 10
231.8399568463
 20
78.0369578699
 30
0.0
 11
232.4592977817
 21
76.7982759989
 31
0.0
  0
LINE
  5
156
330
1F
100
AcDbEntity
  8
0
  6
Continuous
 62
     7
100
AcDbLine
 10
232.4592977817
 20
76.7982759989
 30
0.0
 11
233.0786387172
 21
78.4498518269
 31
0.0
  0
LINE
  5
157
330
1F
100
AcDbEntity
  8
0
  6
Continuous
 62
     7
100
AcDbLine
 10
233.0786387172
 20
78.4498518269
 30
0.0
 11
233.6979796527
 21
77.2111699559
 31
0.0
  0
LINE
  5
158
330
1F
100
AcDbEntity
  8
0
  6
Continuous
 62
     7
100
AcDbLine
 10
233.6979796527
 20
77.2111699559
 30
0.0
 11
234.3173205882
 21
80.3078746333
 31
0.0
  0
LINE
  5
159
330
1F
100
AcDbEntity
  8
0
  6
Continuous
 62
     7
100
AcDbLine
 10
234.3173205882
 20
80.3078746333
 30
0.0
 11
234.9366615236
 21
78.8627457839
 31
0.0
  0
LINE
  5
15A
330
1F
100
AcDbEntity
  8
0
  6
Continuous
 62
     7
100
AcDbLine
 10
234.9366615236
 20
78.8627457839
 30
0.0
 11
235.7624494376
 21
82.9916853537
 31
0.0
  0
LINE
  5
15B
330
1F
100
AcDbEntity
  8
0
  6
Continuous
 62
     7
100
AcDbLine
 10
235.7624494376
 20
82.9916853537
 30
0.0
 11
236.3817903731
 21
80.9272155688
 31
0.0
  0
LINE
  5
15C
330
1F
100
AcDbEntity
  8
0
  6
Continuous
 62
     7
100
AcDbLine
 10
236.3817903731
 20
80.9272155688
 30
0.0
 11
237.0011313086
 21
84.8497081601
 31
0.0
  0
LINE
  5
15D
330
1F
100
AcDbEntity
  8
0
  6
Continuous
 62
     7
100
AcDbLine
 10
237.0011313086
 20
84.8497081601
 30
0.0
 11
237.620472244
 21
82.3723444182
 31
0.0
  0
LINE
  5
15E
330
1F
100
AcDbEntity
  8
0
  6
Continuous
 62
     7
100
AcDbLine
 10
237.620472244
 20
82.3723444182
 30
0.0
 11
238.2398131795
 21
86.0883900311
 31
0.0
  0
LINE
  5
15F
330
1F
100
AcDbEntity
  8
0
  6
Continuous
 62
     7
100
AcDbLine
 10
238.2398131795
 20
86.0883900311
 30
0.0
 11
239.0656010935
 21
82.7852383752
 31
0.0
  0
LINE
  5
160
330
1F
100
AcDbEntity
  8
0
  6
Continuous
 62
     7
100
AcDbLine
 10
239.0656010935
 20
82.7852383752
 30
0.0
 11
239.4784950505
 21
85.6754960741
 31
0.0
  0
LINE
  5
161
330
1F
100
AcDbEntity
  8
0
  6
Continuous
 62
     7
100
AcDbLine
 10
239.4784950505
 20
85.6754960741
 30
0.0
 11
240.3042829644
 21
82.3723444182
 31
0.0
  0
LINE
  5
162
330
1F
100
AcDbEntity
  8
0
  6
Continuous
 62
     7
100
AcDbLine
 10
240.3042829644
 20
82.3723444182
 30
0.0
 11
240.9236238999
 21
85.8819430526
 31
0.0
  0
LINE
  5
163
330
1F
100
AcDbEntity
  8
0
  6
Continuous
 62
     7
100
AcDbLine
 10
240.9236238999
 20
85.8819430526
 30
0.0
 11
241.7494118139
 21
82.5787913967
 31
0.0
  0
LINE
  5
164
330
1F
100
AcDbEntity
  8
0
  6
Continuous
 62
     7
100
AcDbLine
 10
241.7494118139
 20
82.5787913967
 30
0.0
 11
242.3687527493
 21
86.914177945
 31
0.0
  0
LINE
  5
165
330
1F
100
AcDbEntity
  8
0
  6
Continuous
 62
     7
100
AcDbLine
 10
242.3687527493
 20
86.914177945
 30
0.0
 11
242.9880936848
 21
84.0239202462
 31
0.0
  0
LINE
  5
166
330
1F
100
AcDbEntity
  8
0
  6
Continuous
 62
     7
100
AcDbLine
 10
242.9880936848
 20
84.0239202462
 30
0.0
 11
243.6074346203
 21
87.1206249235
 31
0.0
  0
LINE
  5
167
330
1F
100
AcDbEntity
  8
0
  6
Continuous
 62
     7
100
AcDbLine
 10
243.6074346203
 20
87.1206249235
 30
0.0
 11
244.4332225343
 21
83.6110262892
 31
0.0
  0
LINE
  5
168
330
1F
100
AcDbEntity
  8
0
  6
Continuous
 62
     7
100
AcDbLine
 10
244.4332225343
 20
83.6110262892
 30
0.0
 11
245.0525634697
 21
87.327071902
 31
0.0
  0
LINE
  5
169
330
1F
100
AcDbEntity
  8
0
  6
Continuous
 62
     7
100
AcDbLine
 10
245.0525634697
 20
87.327071902
 30
0.0
 11
245.8783513837
 21
83.4045793107
 31
0.0
  0
LINE
  5
16A
330
1F
100
AcDbEntity
  8
0
  6
Continuous
 62
     7
100
AcDbLine
 10
245.8783513837
 20
83.4045793107
 30
0.0
 11
246.2912453407
 21
85.6754960741
 31
0.0
  0
LINE
  5
16B
330
1F
100
AcDbEntity
  8
0
  6
Continuous
 62
     7
100
AcDbLine
 10
246.2912453407
 20
85.6754960741
 30
0.0
 11
247.1170332547
 21
82.3723444182
 31
0.0
  0
LINE
  5
16C
330
1F
100
AcDbEntity
  8
0
  6
Continuous
 62
     7
100
AcDbLine
 10
247.1170332547
 20
82.3723444182
 30
0.0
 11
247.7363741901
 21
84.8497081601
 31
0.0
  0
LINE
  5
16D
330
1F
100
AcDbEntity
  8
0
  6
Continuous
 62
     7
100
AcDbLine
 10
247.7363741901
 20
84.8497081601
 30
0.0
 11
248.5621621041
 21
81.7530034827
 31
0.0
  0
LINE
  5
16E
330
1F
100
AcDbEntity
  8
0
  6
Continuous
 62
     7
100
AcDbLine
 10
248.5621621041
 20
81.7530034827
 30
0.0
 11
248.9750560611
 21
84.0239202462
 31
0.0
  0
LINE
  5
16F
330
1F
100
AcDbEntity
  8
0
  6
Continuous
 62
     7
100
AcDbLine
 10
248.9750560611
 20
84.0239202462
 30
0.0
 11
250.0072909535
 21
80.7207685903
 31
0.0
  0
LINE
  5
170
330
1F
100
AcDbEntity
  8
0
  6
Continuous
 62
     7
100
AcDbLine
 10
250.0072909535
 20
80.7207685903
 30
0.0
 11
250.626631889
 21
83.4045793107
 31
0.0
  0
LINE
  5
171
330
1F
100
AcDbEntity
  8
0
  6
Continuous
 62
     7
100
AcDbLine
 10
250.626631889
 20
83.4045793107
 30
0.0
 11
251.452419803
 21
80.7207685903
 31
0.0
  0
LINE
  5
172
330
1F
100
AcDbEntity
  8
0
  6
Continuous
 62
     7
100
AcDbLine
 10
251.452419803
 20
80.7207685903
 30
0.0
 11
252.0717607385
 21
83.4045793107
 31
0.0
  0
LINE
  5
173
330
1F
100
AcDbEntity
  8
0
  6
Continuous
 62
     7
100
AcDbLine
 10
252.0717607385
 20
83.4045793107
 30
0.0
 11
252.8975486524
 21
80.5143216118
 31
0.0
  0
LINE
  5
174
330
1F
100
AcDbEntity
  8
0
  6
Continuous
 62
     7
100
AcDbLine
 10
252.8975486524
 20
80.5143216118
 30
0.0
 11
253.3104426094
 21
82.5787913967
 31
0.0
  0
LINE
  5
175
330
1F
100
AcDbEntity
  8
0
  6
Continuous
 62
     7
100
AcDbLine
 10
253.3104426094
 20
82.5787913967
 30
0.0
 11
254.1362305234
 21
80.1014276548
 31
0.0
  0
LINE
  5
176
330
1F
100
AcDbEntity
  8
0
  6
Continuous
 62
     7
100
AcDbLine
 10
254.1362305234
 20
80.1014276548
 30
0.0
 11
254.7555714589
 21
82.9916853537
 31
0.0
  0
LINE
  5
177
330
1F
100
AcDbEntity
  8
0
  6
Continuous
 62
     7
100
AcDbLine
 10
254.7555714589
 20
82.9916853537
 30
0.0
 11
255.5813593728
 21
80.5143216118
 31
0.0
  0
LINE
  5
178
330
1F
100
AcDbEntity
  8
0
  6
Continuous
 62
     7
100
AcDbLine
 10
255.5813593728
 20
80.5143216118
 30
0.0
 11
256.2007003083
 21
83.1981323322
 31
0.0
  0
LINE
  5
179
330
1F
100
AcDbEntity
  8
0
  6
Continuous
 62
     7
100
AcDbLine
 10
256.2007003083
 20
83.1981323322
 30
0.0
 11
257.0264882223
 21
80.3078746333
 31
0.0
  0
LINE
  5
17A
330
1F
100
AcDbEntity
  8
0
  6
Continuous
 62
     7
100
AcDbLine
 10
257.0264882223
 20
80.3078746333
 30
0.0
 11
257.6458291577
 21
82.7852383752
 31
0.0
  0
LINE
  5
17B
330
1F
100
AcDbEntity
  8
0
  6
Continuous
 62
     7
100
AcDbLine
 10
257.6458291577
 20
82.7852383752
 30
0.0
 11
258.4716170717
 21
80.1014276548
 31
0.0
  0
LINE
  5
17C
330
1F
100
AcDbEntity
  8
0
  6
Continuous
 62
     7
100
AcDbLine
 10
258.4716170717
 20
80.1014276548
 30
0.0
 11
259.0909580072
 21
82.5787913967
 31
0.0
  0
LINE
  5
17D
330
1F
100
AcDbEntity
  8
0
  6
Continuous
 62
     7
100
AcDbLine
 10
259.0909580072
 20
82.5787913967
 30
0.0
 11
259.7102989427
 21
80.5143216118
 31
0.0
  0
LINE
  5
17E
330
1F
100
AcDbEntity
  8
0
  6
Continuous
 62
     7
100
AcDbLine
 10
259.7102989427
 20
80.5143216118
 30
0.0
 11
260.3296398781
 21
82.5787913967
 31
0.0
  0
LINE
  5
17F
330
1F
100
AcDbEntity
  8
0
  6
Continuous
 62
     7
100
AcDbLine
 10
260.3296398781
 20
82.5787913967
 30
0.0
 11
261.1554277921
 21
80.1014276548
 31
0.0
  0
LINE
  5
180
330
1F
100
AcDbEntity
  8
0
  6
Continuous
 62
     7
100
AcDbLine
 10
261.1554277921
 20
80.1014276548
 30
0.0
 11
261.7747687276
 21
81.9594504612
 31
0.0
  0
LINE
  5
181
330
1F
100
AcDbEntity
  8
0
  6
Continuous
 62
     7
100
AcDbLine
 10
261.7747687276
 20
81.9594504612
 30
0.0
 11
262.6005566415
 21
79.6885336978
 31
0.0
  0
LINE
  5
182
330
1F
100
AcDbEntity
  8
0
  6
Continuous
 62
     7
100
AcDbLine
 10
262.6005566415
 20
79.6885336978
 30
0.0
 11
263.219897577
 21
81.9594504612
 31
0.0
  0
LINE
  5
183
330
1F
100
AcDbEntity
  8
0
  6
Continuous
 62
     7
100
AcDbLine
 10
263.219897577
 20
81.9594504612
 30
0.0
 11
264.045685491
 21
79.6885336978
 31
0.0
  0
LINE
  5
184
330
1F
100
AcDbEntity
  8
0
  6
Continuous
 62
     7
100
AcDbLine
 10
264.045685491
 20
79.6885336978
 30
0.0
 11
264.458579448
 21
81.3401095258
 31
0.0
  0
LINE
  5
185
330
1F
100
AcDbEntity
  8
0
  6
Continuous
 62
     7
100
AcDbLine
 10
264.458579448
 20
81.3401095258
 30
0.0
 11
265.2843673619
 21
77.2111699559
 31
0.0
  0
LINE
  5
186
330
1F
100
AcDbEntity
  8
0
  6
Continuous
 62
     7
100
AcDbLine
 10
265.2843673619
 20
77.2111699559
 30
0.0
 11
265.9037082974
 21
79.2756397408
 31
0.0
  0
LINE
  5
187
330
1F
100
AcDbEntity
  8
0
  6
Continuous
 62
     7
100
AcDbLine
 10
265.9037082974
 20
79.2756397408
 30
0.0
 11
266.7294962114
 21
77.6240639129
 31
0.0
  0
LINE
  5
188
330
1F
100
AcDbEntity
  8
0
  6
Continuous
 62
     7
100
AcDbLine
 10
266.7294962114
 20
77.6240639129
 30
0.0
 11
267.3488371469
 21
79.2756397408
 31
0.0
  0
LINE
  5
189
330
1F
100
AcDbEntity
  8
0
  6
Continuous
 62
     7
100
AcDbLine
 10
267.3488371469
 20
79.2756397408
 30
0.0
 11
268.1746250608
 21
77.6240639129
 31
0.0
  0
LINE
  5
18A
330
1F
100
AcDbEntity
  8
0
  6
Continuous
 62
     7
100
AcDbLine
 10
268.1746250608
 20
77.6240639129
 30
0.0
 11
268.7939659963
 21
79.0691927624
 31
0.0
  0
LINE
  5
18B
330
1F
100
AcDbEntity
  8
0
  6
Continuous
 62
     7
100
AcDbLine
 10
268.7939659963
 20
79.0691927624
 30
0.0
 11
269.4133069318
 21
77.8305108914
 31
0.0
  0
LINE
  5
18C
330
1F
100
AcDbEntity
  8
0
  6
Continuous
 62
     7
100
AcDbLine
 10
269.4133069318
 20
77.8305108914
 30
0.0
 11
270.0326478672
 21
78.8627457839
 31
0.0
  0
LINE
  5
18D
330
1F
100
AcDbEntity
  8
0
  6
Continuous
 62
     7
100
AcDbLine
 10
270.8584357812
 20
75.146700171
 30
0.0
 11
271.6842236952
 21
77.0047229774
 31
0.0
  0
LINE
  5
18E
330
1F
100
AcDbEntity
  8
0
  6
Continuous
 62
     7
100
AcDbLine
 10
271.6842236952
 20
77.0047229774
 30
0.0
 11
272.3035646307
 21
75.972488085
 31
0.0
  0
LINE
  5
18F
330
1F
100
AcDbEntity
  8
0
  6
Continuous
 62
     7
100
AcDbLine
 10
272.3035646307
 20
75.972488085
 30
0.0
 11
273.1293525446
 21
77.0047229774
 31
0.0
  0
LINE
  5
190
330
1F
100
AcDbEntity
  8
0
  6
Continuous
 62
     7
100
AcDbLine
 10
273.1293525446
 20
77.0047229774
 30
0.0
 11
273.7486934801
 21
75.972488085
 31
0.0
  0
LINE
  5
191
330
1F
100
AcDbEntity
  8
0
  6
Continuous
 62
     7
100
AcDbLine
 10
273.7486934801
 20
75.972488085
 30
0.0
 11
274.3680344156
 21
77.0047229774
 31
0.0
  0
LINE
  5
192
330
1F
100
AcDbEntity
  8
0
  6
Continuous
 62
     7
100
AcDbLine
 10
274.3680344156
 20
77.0047229774
 30
0.0
 11
275.1938223295
 21
76.385382042
 31
0.0
  0
LINE
  5
193
330
1F
100
AcDbEntity
  8
0
  6
Continuous
 62
     7
100
AcDbLine
 10
275.6067162865
 20
76.7982759989
 30
0.0
 11
276.638951179
 21
75.559594128
 31
0.0
  0
LINE
  5
194
330
1F
100
AcDbEntity
  8
0
  6
Continuous
 62
     7
100
AcDbLine
 10
277.051845136
 20
76.1789350635
 30
0.0
 11
277.8776330499
 21
75.3531471495
 31
0.0
  0
LINE
  5
195
330
1F
100
AcDbEntity
  8
0
  6
Continuous
 62
     7
100
AcDbLine
 10
277.8776330499
 20
75.3531471495
 30
0.0
 11
278.4969739854
 21
76.385382042
 31
0.0
  0
LINE
  5
196
330
1F
100
AcDbEntity
  8
0
  6
Continuous
 62
     7
100
AcDbLine
 10
279.3227618994
 20
75.972488085
 30
0.0
 11
280.9743377273
 21
75.972488085
 31
0.0
  0
LINE
  5
197
330
1F
100
AcDbEntity
  8
0
  6
Continuous
 62
     7
100
AcDbLine
 10
281.5936786628
 20
75.972488085
 30
0.0
 11
283.0388075122
 21
76.1789350635
 31
0.0
  0
LINE
  5
198
330
1F
100
AcDbEntity
  8
0
  6
Continuous
 62
     7
100
AcDbLine
 10
283.2452544907
 20
76.385382042
 30
0.0
 11
280.9743377273
 21
68.7468438378
 31
0.0
  0
LINE
  5
199
330
1F
100
AcDbEntity
  8
0
  6
Continuous
 62
     7
100
AcDbLine
 10
278.7034209639
 20
68.7468438378
 30
0.0
 11
277.2582921145
 21
68.5403968593
 31
0.0
  0
LINE
  5
19A
330
1F
100
AcDbEntity
  8
0
  6
Continuous
 62
     7
100
AcDbLine
 10
277.2582921145
 20
68.5403968593
 30
0.0
 11
276.4325042005
 21
69.3661847732
 31
0.0
  0
LINE
  5
19B
330
1F
100
AcDbEntity
  8
0
  6
Continuous
 62
     7
100
AcDbLine
 10
276.4325042005
 20
69.3661847732
 30
0.0
 11
275.813163265
 21
68.3339498808
 31
0.0
  0
LINE
  5
19C
330
1F
100
AcDbEntity
  8
0
  6
Continuous
 62
     7
100
AcDbLine
 10
275.813163265
 20
68.3339498808
 30
0.0
 11
274.987375351
 21
69.3661847732
 31
0.0
  0
LINE
  5
19D
330
1F
100
AcDbEntity
  8
0
  6
Continuous
 62
     7
100
AcDbLine
 10
274.987375351
 20
69.3661847732
 30
0.0
 11
274.3680344156
 21
68.5403968593
 31
0.0
  0
LINE
  5
19E
330
1F
100
AcDbEntity
  8
0
  6
Continuous
 62
     7
100
AcDbLine
 10
274.3680344156
 20
68.5403968593
 30
0.0
 11
273.7486934801
 21
69.3661847732
 31
0.0
  0
LINE
  5
19F
330
1F
100
AcDbEntity
  8
0
  6
Continuous
 62
     7
100
AcDbLine
 10
273.7486934801
 20
69.3661847732
 30
0.0
 11
273.1293525446
 21
68.1275029023
 31
0.0
  0
LINE
  5
1A0
330
1F
100
AcDbEntity
  8
0
  6
Continuous
 62
     7
100
AcDbLine
 10
273.1293525446
 20
68.1275029023
 30
0.0
 11
272.3035646307
 21
69.1597377947
 31
0.0
  0
LINE
  5
1A1
330
1F
100
AcDbEntity
  8
0
  6
Continuous
 62
     7
100
AcDbLine
 10
272.3035646307
 20
69.1597377947
 30
0.0
 11
271.6842236952
 21
67.9210559238
 31
0.0
  0
LINE
  5
1A2
330
1F
100
AcDbEntity
  8
0
  6
Continuous
 62
     7
100
AcDbLine
 10
271.6842236952
 20
67.9210559238
 30
0.0
 11
271.0648827597
 21
68.9532908163
 31
0.0
  0
LINE
  5
1A3
330
1F
100
AcDbEntity
  8
0
  6
Continuous
 62
     7
100
AcDbLine
 10
271.0648827597
 20
68.9532908163
 30
0.0
 11
270.2390948457
 21
66.8888210313
 31
0.0
  0
LINE
  5
1A4
330
1F
100
AcDbEntity
  8
0
  6
Continuous
 62
     7
100
AcDbLine
 10
270.2390948457
 20
66.8888210313
 30
0.0
 11
269.6197539103
 21
67.9210559238
 31
0.0
  0
LINE
  5
1A5
330
1F
100
AcDbEntity
  8
0
  6
Continuous
 62
     7
100
AcDbLine
 10
269.6197539103
 20
67.9210559238
 30
0.0
 11
269.0004129748
 21
61.1083056336
 31
0.0
  0
LINE
  5
1A6
330
1F
100
AcDbEntity
  8
0
  6
Continuous
 62
     7
100
AcDbLine
 10
269.0004129748
 20
61.1083056336
 30
0.0
 11
267.9681780823
 21
64.6179042679
 31
0.0
  0
LINE
  5
1A7
330
1F
100
AcDbEntity
  8
0
  6
Continuous
 62
     7
100
AcDbLine
 10
267.5552841253
 20
63.792116354
 30
0.0
 11
266.7294962114
 21
66.0630331174
 31
0.0
  0
LINE
  5
1A8
330
1F
100
AcDbEntity
  8
0
  6
Continuous
 62
     7
100
AcDbLine
 10
266.7294962114
 20
66.0630331174
 30
0.0
 11
266.1101552759
 21
64.2050103109
 31
0.0
  0
LINE
  5
1A9
330
1F
100
AcDbEntity
  8
0
  6
Continuous
 62
     7
100
AcDbLine
 10
266.1101552759
 20
64.2050103109
 30
0.0
 11
265.2843673619
 21
66.2694800959
 31
0.0
  0
LINE
  5
1AA
330
1F
100
AcDbEntity
  8
0
  6
Continuous
 62
     7
100
AcDbLine
 10
265.2843673619
 20
66.2694800959
 30
0.0
 11
264.6650264265
 21
64.4114572894
 31
0.0
  0
LINE
  5
1AB
330
1F
100
AcDbEntity
  8
0
  6
Continuous
 62
     7
100
AcDbLine
 10
264.6650264265
 20
64.4114572894
 30
0.0
 11
263.8392385125
 21
66.6823740528
 31
0.0
  0
LINE
  5
1AC
330
1F
100
AcDbEntity
  8
0
  6
Continuous
 62
     7
100
AcDbLine
 10
263.8392385125
 20
66.6823740528
 30
0.0
 11
263.4263445555
 21
65.2372452034
 31
0.0
  0
LINE
  5
1AD
330
1F
100
AcDbEntity
  8
0
  6
Continuous
 62
     7
100
AcDbLine
 10
263.4263445555
 20
65.2372452034
 30
0.0
 11
262.6005566415
 21
67.0952680098
 31
0.0
  0
LINE
  5
1AE
330
1F
100
AcDbEntity
  8
0
  6
Continuous
 62
     7
100
AcDbLine
 10
262.6005566415
 20
67.0952680098
 30
0.0
 11
261.9812157061
 21
64.2050103109
 31
0.0
  0
LINE
  5
1AF
330
1F
100
AcDbEntity
  8
0
  6
Continuous
 62
     7
100
AcDbLine
 10
261.9812157061
 20
64.2050103109
 30
0.0
 11
261.1554277921
 21
66.2694800959
 31
0.0
  0
LINE
  5
1B0
330
1F
100
AcDbEntity
  8
0
  6
Continuous
 62
     7
100
AcDbLine
 10
261.1554277921
 20
66.2694800959
 30
0.0
 11
260.5360868566
 21
63.9985633325
 31
0.0
  0
LINE
  5
1B1
330
1F
100
AcDbEntity
  8
0
  6
Continuous
 62
     7
100
AcDbLine
 10
260.5360868566
 20
63.9985633325
 30
0.0
 11
259.7102989427
 21
66.2694800959
 31
0.0
  0
LINE
  5
1B2
330
1F
100
AcDbEntity
  8
0
  6
Continuous
 62
     7
100
AcDbLine
 10
259.7102989427
 20
66.2694800959
 30
0.0
 11
259.0909580072
 21
63.9985633325
 31
0.0
  0
LINE
  5
1B3
330
1F
100
AcDbEntity
  8
0
  6
Continuous
 62
     7
100
AcDbLine
 10
259.0909580072
 20
63.9985633325
 30
0.0
 11
258.2651700932
 21
66.2694800959
 31
0.0
  0
LINE
  5
1B4
330
1F
100
AcDbEntity
  8
0
  6
Continuous
 62
     7
100
AcDbLine
 10
258.2651700932
 20
66.2694800959
 30
0.0
 11
257.6458291577
 21
63.379222397
 31
0.0
  0
LINE
  5
1B5
330
1F
100
AcDbEntity
  8
0
  6
Continuous
 62
     7
100
AcDbLine
 10
257.6458291577
 20
63.379222397
 30
0.0
 11
257.0264882223
 21
65.2372452034
 31
0.0
  0
LINE
  5
1B6
330
1F
100
AcDbEntity
  8
0
  6
Continuous
 62
     7
100
AcDbLine
 10
257.0264882223
 20
65.2372452034
 30
0.0
 11
256.4071472868
 21
62.7598814615
 31
0.0
  0
LINE
  5
1B7
330
1F
100
AcDbEntity
  8
0
  6
Continuous
 62
     7
100
AcDbLine
 10
256.4071472868
 20
62.7598814615
 30
0.0
 11
255.5813593728
 21
65.2372452034
 31
0.0
  0
LINE
  5
1B8
330
1F
100
AcDbEntity
  8
0
  6
Continuous
 62
     7
100
AcDbLine
 10
255.5813593728
 20
65.2372452034
 30
0.0
 11
254.9620184373
 21
62.7598814615
 31
0.0
  0
LINE
  5
1B9
330
1F
100
AcDbEntity
  8
0
  6
Continuous
 62
     7
100
AcDbLine
 10
254.9620184373
 20
62.7598814615
 30
0.0
 11
254.1362305234
 21
65.2372452034
 31
0.0
  0
LINE
  5
1BA
330
1F
100
AcDbEntity
  8
0
  6
Continuous
 62
     7
100
AcDbLine
 10
254.1362305234
 20
65.2372452034
 30
0.0
 11
253.5168895879
 21
62.553434483
 31
0.0
  0
LINE
  5
1BB
330
1F
100
AcDbEntity
  8
0
  6
Continuous
 62
     7
100
AcDbLine
 10
253.5168895879
 20
62.553434483
 30
0.0
 11
252.6911016739
 21
65.2372452034
 31
0.0
  0
LINE
  5
1BC
330
1F
100
AcDbEntity
  8
0
  6
Continuous
 62
     7
100
AcDbLine
 10
252.6911016739
 20
65.2372452034
 30
0.0
 11
252.0717607385
 21
62.3469875045
 31
0.0
  0
LINE
  5
1BD
330
1F
100
AcDbEntity
  8
0
  6
Continuous
 62
     7
100
AcDbLine
 10
252.0717607385
 20
62.3469875045
 30
0.0
 11
251.2459728245
 21
64.8243512464
 31
0.0
  0
LINE
  5
1BE
330
1F
100
AcDbEntity
  8
0
  6
Continuous
 62
     7
100
AcDbLine
 10
251.2459728245
 20
64.8243512464
 30
0.0
 11
250.8330788675
 21
62.7598814615
 31
0.0
  0
LINE
  5
1BF
330
1F
100
AcDbEntity
  8
0
  6
Continuous
 62
     7
100
AcDbLine
 10
250.8330788675
 20
62.7598814615
 30
0.0
 11
249.8008439751
 21
65.8565861389
 31
0.0
  0
LINE
  5
1C0
330
1F
100
AcDbEntity
  8
0
  6
Continuous
 62
     7
100
AcDbLine
 10
249.8008439751
 20
65.8565861389
 30
0.0
 11
249.3879500181
 21
63.792116354
 31
0.0
  0
LINE
  5
1C1
330
1F
100
AcDbEntity
  8
0
  6
Continuous
 62
     7
100
AcDbLine
 10
249.3879500181
 20
63.792116354
 30
0.0
 11
248.5621621041
 21
68.1275029023
 31
0.0
  0
LINE
  5
1C2
330
1F
100
AcDbEntity
  8
0
  6
Continuous
 62
     7
100
AcDbLine
 10
248.5621621041
 20
68.1275029023
 30
0.0
 11
247.7363741901
 21
63.1727754185
 31
0.0
  0
LINE
  5
1C3
330
1F
100
AcDbEntity
  8
0
  6
Continuous
 62
     7
100
AcDbLine
 10
247.7363741901
 20
63.1727754185
 30
0.0
 11
247.1170332547
 21
65.0307982249
 31
0.0
  0
LINE
  5
1C4
330
1F
100
AcDbEntity
  8
0
  6
Continuous
 62
     7
100
AcDbLine
 10
247.1170332547
 20
65.0307982249
 30
0.0
 11
246.4976923192
 21
61.5211995906
 31
0.0
  0
LINE
  5
1C5
330
1F
100
AcDbEntity
  8
0
  6
Continuous
 62
     7
100
AcDbLine
 10
246.4976923192
 20
61.5211995906
 30
0.0
 11
245.6719044052
 21
64.4114572894
 31
0.0
  0
LINE
  5
1C6
330
1F
100
AcDbEntity
  8
0
  6
Continuous
 62
     7
100
AcDbLine
 10
245.6719044052
 20
64.4114572894
 30
0.0
 11
245.0525634697
 21
61.3147526121
 31
0.0
  0
LINE
  5
1C7
330
1F
100
AcDbEntity
  8
0
  6
Continuous
 62
     7
100
AcDbLine
 10
245.0525634697
 20
61.3147526121
 30
0.0
 11
244.4332225343
 21
63.5856693755
 31
0.0
  0
LINE
  5
1C8
330
1F
100
AcDbEntity
  8
0
  6
Continuous
 62
     7
100
AcDbLine
 10
244.4332225343
 20
63.5856693755
 30
0.0
 11
243.8138815988
 21
59.6631767841
 31
0.0
  0
LINE
  5
1C9
330
1F
100
AcDbEntity
  8
0
  6
Continuous
 62
     7
100
AcDbLine
 10
243.8138815988
 20
59.6631767841
 30
0.0
 11
242.9880936848
 21
62.96632844
 31
0.0
  0
LINE
  5
1CA
330
1F
100
AcDbEntity
  8
0
  6
Continuous
 62
     7
100
AcDbLine
 10
242.9880936848
 20
62.96632844
 30
0.0
 11
242.3687527493
 21
59.0438358486
 31
0.0
  0
LINE
  5
1CB
330
1F
100
AcDbEntity
  8
0
  6
Continuous
 62
     7
100
AcDbLine
 10
242.3687527493
 20
59.0438358486
 30
0.0
 11
241.5429648354
 21
62.553434483
 31
0.0
  0
LINE
  5
1CC
330
1F
100
AcDbEntity
  8
0
  6
Continuous
 62
     7
100
AcDbLine
 10
241.5429648354
 20
62.553434483
 30
0.0
 11
240.9236238999
 21
58.6309418917
 31
0.0
  0
LINE
  5
1CD
330
1F
100
AcDbEntity
  8
0
  6
Continuous
 62
     7
100
AcDbLine
 10
240.9236238999
 20
58.6309418917
 30
0.0
 11
240.3042829644
 21
61.5211995906
 31
0.0
  0
LINE
  5
1CE
330
1F
100
AcDbEntity
  8
0
  6
Continuous
 62
     7
100
AcDbLine
 10
240.3042829644
 20
61.5211995906
 30
0.0
 11
239.684942029
 21
57.3922600207
 31
0.0
  0
LINE
  5
1CF
330
1F
100
AcDbEntity
  8
0
  6
Continuous
 62
     7
100
AcDbLine
 10
239.684942029
 20
57.3922600207
 30
0.0
 11
238.859154115
 21
61.1083056336
 31
0.0
  0
LINE
  5
1D0
330
1F
100
AcDbEntity
  8
0
  6
Continuous
 62
     7
100
AcDbLine
 10
238.859154115
 20
61.1083056336
 30
0.0
 11
238.2398131795
 21
57.1858130422
 31
0.0
  0
LINE
  5
1D1
330
1F
100
AcDbEntity
  8
0
  6
Continuous
 62
     7
100
AcDbLine
 10
238.2398131795
 20
57.1858130422
 30
0.0
 11
237.620472244
 21
60.2825177196
 31
0.0
  0
LINE
  5
1D2
330
1F
100
AcDbEntity
  8
0
  6
Continuous
 62
     7
100
AcDbLine
 10
237.620472244
 20
60.2825177196
 30
0.0
 11
237.0011313086
 21
56.7729190852
 31
0.0
  0
LINE
  5
1D3
330
1F
100
AcDbEntity
  8
0
  6
Continuous
 62
     7
100
AcDbLine
 10
237.0011313086
 20
56.7729190852
 30
0.0
 11
236.1753433946
 21
60.9018586551
 31
0.0
  0
LINE
  5
1D4
330
1F
100
AcDbEntity
  8
0
  6
Continuous
 62
     7
100
AcDbLine
 10
236.1753433946
 20
60.9018586551
 30
0.0
 11
235.7624494376
 21
59.0438358486
 31
0.0
  0
LINE
  5
1D5
330
1F
100
AcDbEntity
  8
0
  6
Continuous
 62
     7
100
AcDbLine
 10
235.7624494376
 20
59.0438358486
 30
0.0
 11
234.9366615236
 21
62.3469875045
 31
0.0
  0
LINE
  5
1D6
330
1F
100
AcDbEntity
  8
0
  6
Continuous
 62
     7
100
AcDbLine
 10
234.9366615236
 20
62.3469875045
 30
0.0
 11
234.5237675667
 21
60.2825177196
 31
0.0
  0
LINE
  5
1D7
330
1F
100
AcDbEntity
  8
0
  6
Continuous
 62
     7
100
AcDbLine
 10
234.5237675667
 20
60.2825177196
 30
0.0
 11
233.6979796527
 21
63.379222397
 31
0.0
  0
LINE
  5
1D8
330
1F
100
AcDbEntity
  8
0
  6
Continuous
 62
     7
100
AcDbLine
 10
233.6979796527
 20
63.379222397
 30
0.0
 11
233.2850856957
 21
62.140540526
 31
0.0
  0
LINE
  5
1D9
330
1F
100
AcDbEntity
  8
0
  6
Continuous
 62
     7
100
AcDbLine
 10
233.2850856957
 20
62.140540526
 30
0.0
 11
232.4592977817
 21
64.8243512464
 31
0.0
  0
LINE
  5
1DA
330
1F
100
AcDbEntity
  8
0
  6
Continuous
 62
     7
100
AcDbLine
 10
231.8399568463
 20
64.2050103109
 30
0.0
 11
231.0141689323
 21
66.2694800959
 31
0.0
  0
LINE
  5
1DB
330
1F
100
AcDbEntity
  8
0
  6
Continuous
 62
     7
100
AcDbLine
 10
230.8077219538
 20
66.0630331174
 30
0.0
 11
229.7754870613
 21
67.7146089453
 31
0.0
  0
LINE
  5
1DC
330
1F
100
AcDbEntity
  8
0
  6
Continuous
 62
     7
100
AcDbLine
 10
229.5690400829
 20
67.5081619668
 30
0.0
 11
227.9174642549
 21
67.7146089453
 31
0.0
  0
LINE
  5
1DD
330
1F
100
AcDbEntity
  8
0
  6
Continuous
 62
     7
100
AcDbLine
 10
227.9174642549
 20
67.5081619668
 30
0.0
 11
226.678782384
 21
68.5403968593
 31
0.0
  0
LINE
  5
1DE
330
1F
100
AcDbEntity
  8
0
  6
Continuous
 62
     7
100
AcDbLine
 10
226.678782384
 20
68.3339498808
 30
0.0
 11
225.85299447
 21
69.1597377947
 31
0.0
  0
LINE
  5
1DF
330
1F
100
AcDbEntity
  8
0
  6
Continuous
 62
     7
100
AcDbLine
 10
225.85299447
 20
69.1597377947
 30
0.0
 11
225.440100513
 21
65.8565861389
 31
0.0
  0
LINE
  5
1E0
330
1F
100
AcDbEntity
  8
0
  6
Continuous
 62
     7
100
AcDbLine
 10
225.440100513
 20
65.8565861389
 30
0.0
 11
223.7885246851
 21
68.9532908163
 31
0.0
  0
LINE
  5
1E1
330
1F
100
AcDbEntity
  8
0
  6
Continuous
 62
     7
100
AcDbLine
 10
223.7885246851
 20
68.9532908163
 30
0.0
 11
222.5498428141
 21
68.1275029023
 31
0.0
  0
LINE
  5
1E2
330
1F
100
AcDbEntity
  8
0
  6
Continuous
 62
     7
100
AcDbLine
 10
217.5951153303
 20
68.3339498808
 30
0.0
 11
216.9757743949
 21
69.1597377947
 31
0.0
  0
LINE
  5
1E3
330
1F
100
AcDbEntity
  8
0
  6
Continuous
 62
     7
100
AcDbLine
 10
216.9757743949
 20
69.1597377947
 30
0.0
 11
215.9435395024
 21
67.5081619668
 31
0.0
  0
LINE
  5
1E4
330
1F
100
AcDbEntity
  8
0
  6
Continuous
 62
     7
100
AcDbLine
 10
214.9113046099
 20
67.7146089453
 30
0.0
 11
213.8790697175
 21
68.3339498808
 31
0.0
  0
LINE
  5
1E5
330
1F
100
AcDbEntity
  8
0
  6
Continuous
 62
     7
100
AcDbLine
 10
213.4661757605
 20
68.1275029023
 30
0.0
 11
212.433940868
 21
68.9532908163
 31
0.0
  0
LINE
  5
1E6
330
1F
100
AcDbEntity
  8
0
  6
Continuous
 62
     7
100
AcDbLine
 10
210.9888120186
 20
69.1597377947
 30
0.0
 11
209.5436831692
 21
68.3339498808
 31
0.0
  0
LINE
  5
1E7
330
1F
100
AcDbEntity
  8
0
  6
Continuous
 62
     7
100
AcDbLine
 10
208.5114482767
 20
68.5403968593
 30
0.0
 11
205.4147435993
 21
68.5403968593
 31
0.0
  0
LINE
  5
1E8
330
1F
100
AcDbEntity
  8
0
  6
Continuous
 62
     7
100
AcDbLine
 10
203.7631677714
 20
68.9532908163
 30
0.0
 11
201.079357051
 21
69.1597377947
 31
0.0
  0
LINE
  5
1E9
330
1F
100
AcDbEntity
  8
0
  6
Continuous
 62
     7
100
AcDbLine
 10
200.8729100725
 20
68.9532908163
 30
0.0
 11
200.0471221585
 21
69.7790787302
 31
0.0
  0
LINE
  5
1EA
330
1F
100
AcDbEntity
  8
0
  6
Continuous
 62
     7
100
AcDbLine
 10
200.0471221585
 20
69.7790787302
 30
0.0
 11
199.4277812231
 21
68.7468438378
 31
0.0
  0
LINE
  5
1EB
330
1F
100
AcDbEntity
  8
0
  6
Continuous
 62
     7
100
AcDbLine
 10
199.4277812231
 20
68.7468438378
 30
0.0
 11
198.3955463306
 21
69.9855257087
 31
0.0
  0
LINE
  5
1EC
330
1F
100
AcDbEntity
  8
0
  6
Continuous
 62
     7
100
AcDbLine
 10
198.3955463306
 20
69.9855257087
 30
0.0
 11
197.9826523736
 21
68.3339498808
 31
0.0
  0
LINE
  5
1ED
330
1F
100
AcDbEntity
  8
0
  6
Continuous
 62
     7
100
AcDbLine
 10
197.9826523736
 20
68.3339498808
 30
0.0
 11
197.7762053951
 21
71.4306545582
 31
0.0
  0
LINE
  5
1EE
330
1F
100
AcDbEntity
  8
0
  6
Continuous
 62
     7
100
AcDbLine
 10
197.3633114381
 20
71.6371015366
 30
0.0
 11
196.3310765457
 21
67.9210559238
 31
0.0
  0
LINE
  5
1EF
330
1F
100
AcDbEntity
  8
0
  6
Continuous
 62
     7
100
AcDbLine
 10
196.3310765457
 20
67.9210559238
 30
0.0
 11
195.7117356102
 21
68.9532908163
 31
0.0
  0
LINE
  5
1F0
330
1F
100
AcDbEntity
  8
0
  6
Continuous
 62
     7
100
AcDbLine
 10
195.7117356102
 20
68.9532908163
 30
0.0
 11
195.0923946747
 21
66.2694800959
 31
0.0
  0
LINE
  5
1F1
330
1F
100
AcDbEntity
  8
0
  6
Continuous
 62
     7
100
AcDbLine
 10
195.0923946747
 20
66.2694800959
 30
0.0
 11
194.4730537393
 21
67.5081619668
 31
0.0
  0
LINE
  5
1F2
330
1F
100
AcDbEntity
  8
0
  6
Continuous
 62
     7
100
AcDbLine
 10
194.4730537393
 20
67.5081619668
 30
0.0
 11
193.8537128038
 21
64.2050103109
 31
0.0
  0
LINE
  5
1F3
330
1F
100
AcDbEntity
  8
0
  6
Continuous
 62
     7
100
AcDbLine
 10
193.8537128038
 20
64.2050103109
 30
0.0
 11
193.0279248898
 21
66.2694800959
 31
0.0
  0
LINE
  5
1F4
330
1F
100
AcDbEntity
  8
0
  6
Continuous
 62
     7
100
AcDbLine
 10
193.0279248898
 20
66.2694800959
 30
0.0
 11
192.4085839543
 21
62.7598814615
 31
0.0
  0
LINE
  5
1F5
330
1F
100
AcDbEntity
  8
0
  6
Continuous
 62
     7
100
AcDbLine
 10
192.4085839543
 20
62.7598814615
 30
0.0
 11
191.5827960404
 21
65.2372452034
 31
0.0
  0
LINE
  5
1F6
330
1F
100
AcDbEntity
  8
0
  6
Continuous
 62
     7
100
AcDbLine
 10
191.5827960404
 20
65.2372452034
 30
0.0
 11
190.9634551049
 21
62.553434483
 31
0.0
  0
LINE
  5
1F7
330
1F
100
AcDbEntity
  8
0
  6
Continuous
 62
     7
100
AcDbLine
 10
190.9634551049
 20
62.553434483
 30
0.0
 11
190.3441141694
 21
64.6179042679
 31
0.0
  0
LINE
  5
1F8
330
1F
100
AcDbEntity
  8
0
  6
Continuous
 62
     7
100
AcDbLine
 10
190.3441141694
 20
64.6179042679
 30
0.0
 11
189.7247732339
 21
61.727646569
 31
0.0
  0
LINE
  5
1F9
330
1F
100
AcDbEntity
  8
0
  6
Continuous
 62
     7
100
AcDbLine
 10
189.7247732339
 20
61.727646569
 30
0.0
 11
188.89898532
 21
64.4114572894
 31
0.0
  0
LINE
  5
1FA
330
1F
100
AcDbEntity
  8
0
  6
Continuous
 62
     7
100
AcDbLine
 10
188.89898532
 20
64.4114572894
 30
0.0
 11
188.486091363
 21
62.553434483
 31
0.0
  0
LINE
  5
1FB
330
1F
100
AcDbEntity
  8
0
  6
Continuous
 62
     7
100
AcDbLine
 10
188.486091363
 20
62.553434483
 30
0.0
 11
187.660303449
 21
65.0307982249
 31
0.0
  0
LINE
  5
1FC
330
1F
100
AcDbEntity
  8
0
  6
Continuous
 62
     7
100
AcDbLine
 10
187.660303449
 20
65.0307982249
 30
0.0
 11
187.0409625136
 21
61.9340935475
 31
0.0
  0
LINE
  5
1FD
330
1F
100
AcDbEntity
  8
0
  6
Continuous
 62
     7
100
AcDbLine
 10
187.0409625136
 20
61.9340935475
 30
0.0
 11
186.4216215781
 21
64.2050103109
 31
0.0
  0
LINE
  5
1FE
330
1F
100
AcDbEntity
  8
0
  6
Continuous
 62
     7
100
AcDbLine
 10
186.4216215781
 20
64.2050103109
 30
0.0
 11
185.8022806426
 21
61.9340935475
 31
0.0
  0
LINE
  5
1FF
330
1F
100
AcDbEntity
  8
0
  6
Continuous
 62
     7
100
AcDbLine
 10
185.8022806426
 20
61.9340935475
 30
0.0
 11
184.9764927286
 21
64.6179042679
 31
0.0
  0
LINE
  5
200
330
1F
100
AcDbEntity
  8
0
  6
Continuous
 62
     7
100
AcDbLine
 10
184.9764927286
 20
64.6179042679
 30
0.0
 11
184.5635987717
 21
62.7598814615
 31
0.0
  0
LINE
  5
201
330
1F
100
AcDbEntity
  8
0
  6
Continuous
 62
     7
100
AcDbLine
 10
184.5635987717
 20
62.7598814615
 30
0.0
 11
183.7378108577
 21
65.2372452034
 31
0.0
  0
LINE
  5
202
330
1F
100
AcDbEntity
  8
0
  6
Continuous
 62
     7
100
AcDbLine
 10
183.7378108577
 20
65.2372452034
 30
0.0
 11
183.1184699222
 21
62.553434483
 31
0.0
  0
LINE
  5
203
330
1F
100
AcDbEntity
  8
0
  6
Continuous
 62
     7
100
AcDbLine
 10
183.1184699222
 20
62.553434483
 30
0.0
 11
182.4991289867
 21
64.6179042679
 31
0.0
  0
LINE
  5
204
330
1F
100
AcDbEntity
  8
0
  6
Continuous
 62
     7
100
AcDbLine
 10
182.4991289867
 20
64.6179042679
 30
0.0
 11
181.8797880513
 21
62.7598814615
 31
0.0
  0
LINE
  5
205
330
1F
100
AcDbEntity
  8
0
  6
Continuous
 62
     7
100
AcDbLine
 10
181.8797880513
 20
62.7598814615
 30
0.0
 11
181.0540001373
 21
65.4436921819
 31
0.0
  0
LINE
  5
206
330
1F
100
AcDbEntity
  8
0
  6
Continuous
 62
     7
100
AcDbLine
 10
181.0540001373
 20
65.4436921819
 30
0.0
 11
180.6411061803
 21
63.9985633325
 31
0.0
  0
LINE
  5
207
330
1F
100
AcDbEntity
  8
0
  6
Continuous
 62
     7
100
AcDbLine
 10
180.6411061803
 20
63.9985633325
 30
0.0
 11
180.0217652448
 21
65.8565861389
 31
0.0
  0
LINE
  5
208
330
1F
100
AcDbEntity
  8
0
  6
Continuous
 62
     7
100
AcDbLine
 10
180.0217652448
 20
65.8565861389
 30
0.0
 11
179.4024243094
 21
61.9340935475
 31
0.0
  0
LINE
  5
209
330
1F
100
AcDbEntity
  8
0
  6
Continuous
 62
     7
100
AcDbLine
 10
179.4024243094
 20
61.9340935475
 30
0.0
 11
178.5766363954
 21
64.6179042679
 31
0.0
  0
LINE
  5
20A
330
1F
100
AcDbEntity
  8
0
  6
Continuous
 62
     7
100
AcDbLine
 10
178.5766363954
 20
64.6179042679
 30
0.0
 11
178.1637424384
 21
62.96632844
 31
0.0
  0
LINE
  5
20B
330
1F
100
AcDbEntity
  8
0
  6
Continuous
 62
     7
100
AcDbLine
 10
178.1637424384
 20
62.96632844
 30
0.0
 11
177.3379545244
 21
65.4436921819
 31
0.0
  0
LINE
  5
20C
330
1F
100
AcDbEntity
  8
0
  6
Continuous
 62
     7
100
AcDbLine
 10
177.3379545244
 20
65.4436921819
 30
0.0
 11
176.718613589
 21
64.2050103109
 31
0.0
  0
LINE
  5
20D
330
1F
100
AcDbEntity
  8
0
  6
Continuous
 62
     7
100
AcDbLine
 10
176.718613589
 20
64.2050103109
 30
0.0
 11
175.892825675
 21
66.4759270744
 31
0.0
  0
LINE
  5
20E
330
1F
100
AcDbEntity
  8
0
  6
Continuous
 62
     7
100
AcDbLine
 10
175.892825675
 20
66.4759270744
 30
0.0
 11
175.479931718
 21
65.2372452034
 31
0.0
  0
LINE
  5
20F
330
1F
100
AcDbEntity
  8
0
  6
Continuous
 62
     7
100
AcDbLine
 10
175.479931718
 20
65.2372452034
 30
0.0
 11
174.654143804
 21
67.0952680098
 31
0.0
  0
LINE
  5
210
330
1F
100
AcDbEntity
  8
0
  6
Continuous
 62
     7
100
AcDbLine
 10
174.654143804
 20
67.0952680098
 30
0.0
 11
174.2412498471
 21
65.8565861389
 31
0.0
  0
LINE
  5
211
330
1F
100
AcDbEntity
  8
0
  6
Continuous
 62
     7
100
AcDbLine
 10
174.2412498471
 20
65.8565861389
 30
0.0
 11
173.4154619331
 21
67.5081619668
 31
0.0
  0
LINE
  5
212
330
1F
100
AcDbEntity
  8
0
  6
Continuous
 62
     7
100
AcDbLine
 10
173.0025679761
 20
66.6823740528
 30
0.0
 11
172.1767800621
 21
68.1275029023
 31
0.0
  0
LINE
  5
213
330
1F
100
AcDbEntity
  8
0
  6
Continuous
 62
     7
100
AcDbLine
 10
171.7638861052
 20
67.3017149883
 30
0.0
 11
170.9380981912
 21
68.3339498808
 31
0.0
  0
LINE
  5
214
330
1F
100
AcDbEntity
  8
0
  6
Continuous
 62
     7
100
AcDbLine
 10
170.5252042342
 20
67.7146089453
 30
0.0
 11
169.6994163202
 21
68.9532908163
 31
0.0
  0
LINE
  5
215
330
1F
100
AcDbEntity
  8
0
  6
Continuous
 62
     7
100
AcDbLine
 10
169.6994163202
 20
68.9532908163
 30
0.0
 11
169.0800753848
 21
68.1275029023
 31
0.0
  0
LINE
  5
216
330
1F
100
AcDbEntity
  8
0
  6
Continuous
 62
     7
100
AcDbLine
 10
169.0800753848
 20
68.1275029023
 30
0.0
 11
168.2542874708
 21
69.1597377947
 31
0.0
  0
LINE
  5
217
330
1F
100
AcDbEntity
  8
0
  6
Continuous
 62
     7
100
AcDbLine
 10
168.2542874708
 20
69.1597377947
 30
0.0
 11
167.6349465353
 21
68.1275029023
 31
0.0
  0
LINE
  5
218
330
1F
100
AcDbEntity
  8
0
  6
Continuous
 62
     7
100
AcDbLine
 10
167.6349465353
 20
68.1275029023
 30
0.0
 11
167.0156055998
 21
68.9532908163
 31
0.0
  0
LINE
  5
219
330
1F
100
AcDbEntity
  8
0
  6
Continuous
 62
     7
100
AcDbLine
 10
165.5704767504
 20
69.1597377947
 30
0.0
 11
164.9511358149
 21
68.1275029023
 31
0.0
  0
LINE
  5
21A
330
1F
100
AcDbEntity
  8
0
  6
Continuous
 62
     7
100
AcDbLine
 10
164.9511358149
 20
68.1275029023
 30
0.0
 11
164.3317948795
 21
69.1597377947
 31
0.0
  0
LINE
  5
21B
330
1F
100
AcDbEntity
  8
0
  6
Continuous
 62
     7
100
AcDbLine
 10
164.3317948795
 20
69.1597377947
 30
0.0
 11
163.712453944
 21
67.9210559238
 31
0.0
  0
LINE
  5
21C
330
1F
100
AcDbEntity
  8
0
  6
Continuous
 62
     7
100
AcDbLine
 10
163.712453944
 20
67.9210559238
 30
0.0
 11
162.88666603
 21
69.1597377947
 31
0.0
  0
LINE
  5
21D
330
1F
100
AcDbEntity
  8
0
  6
Continuous
 62
     7
100
AcDbLine
 10
162.88666603
 20
69.1597377947
 30
0.0
 11
162.2673250945
 21
67.7146089453
 31
0.0
  0
LINE
  5
21E
330
1F
100
AcDbEntity
  8
0
  6
Continuous
 62
     7
100
AcDbLine
 10
162.2673250945
 20
67.7146089453
 30
0.0
 11
161.6479841591
 21
68.7468438378
 31
0.0
  0
LINE
  5
21F
330
1F
100
AcDbEntity
  8
0
  6
Continuous
 62
     7
100
AcDbLine
 10
161.6479841591
 20
68.7468438378
 30
0.0
 11
161.0286432236
 21
67.3017149883
 31
0.0
  0
LINE
  5
220
330
1F
100
AcDbEntity
  8
0
  6
Continuous
 62
     7
100
AcDbLine
 10
161.0286432236
 20
67.3017149883
 30
0.0
 11
160.4093022881
 21
68.5403968593
 31
0.0
  0
LINE
  5
221
330
1F
100
AcDbEntity
  8
0
  6
Continuous
 62
     7
100
AcDbLine
 10
160.4093022881
 20
68.5403968593
 30
0.0
 11
159.9964083311
 21
67.0952680098
 31
0.0
  0
LINE
  5
222
330
1F
100
AcDbEntity
  8
0
  6
Continuous
 62
     7
100
AcDbLine
 10
159.9964083311
 20
67.0952680098
 30
0.0
 11
159.1706204172
 21
68.5403968593
 31
0.0
  0
LINE
  5
223
330
1F
100
AcDbEntity
  8
0
  6
Continuous
 62
     7
100
AcDbLine
 10
159.1706204172
 20
68.5403968593
 30
0.0
 11
158.5512794817
 21
66.6823740528
 31
0.0
  0
LINE
  5
224
330
1F
100
AcDbEntity
  8
0
  6
Continuous
 62
     7
100
AcDbLine
 10
158.5512794817
 20
66.6823740528
 30
0.0
 11
157.9319385462
 21
67.9210559238
 31
0.0
  0
LINE
  5
225
330
1F
100
AcDbEntity
  8
0
  6
Continuous
 62
     7
100
AcDbLine
 10
157.9319385462
 20
67.9210559238
 30
0.0
 11
157.3125976107
 21
65.6501391604
 31
0.0
  0
LINE
  5
226
330
1F
100
AcDbEntity
  8
0
  6
Continuous
 62
     7
100
AcDbLine
 10
157.3125976107
 20
65.6501391604
 30
0.0
 11
156.4868096968
 21
67.5081619668
 31
0.0
  0
LINE
  5
227
330
1F
100
AcDbEntity
  8
0
  6
Continuous
 62
     7
100
AcDbLine
 10
156.4868096968
 20
67.5081619668
 30
0.0
 11
155.8674687613
 21
65.0307982249
 31
0.0
  0
LINE
  5
228
330
1F
100
AcDbEntity
  8
0
  6
Continuous
 62
     7
100
AcDbLine
 10
155.8674687613
 20
65.0307982249
 30
0.0
 11
155.2481278258
 21
66.6823740528
 31
0.0
  0
LINE
  5
229
330
1F
100
AcDbEntity
  8
0
  6
Continuous
 62
     7
100
AcDbLine
 10
155.2481278258
 20
66.6823740528
 30
0.0
 11
154.6287868903
 21
63.9985633325
 31
0.0
  0
LINE
  5
22A
330
1F
100
AcDbEntity
  8
0
  6
Continuous
 62
     7
100
AcDbLine
 10
154.6287868903
 20
63.9985633325
 30
0.0
 11
153.8029989764
 21
66.2694800959
 31
0.0
  0
LINE
  5
22B
330
1F
100
AcDbEntity
  8
0
  6
Continuous
 62
     7
100
AcDbLine
 10
153.8029989764
 20
66.2694800959
 30
0.0
 11
153.1836580409
 21
64.2050103109
 31
0.0
  0
LINE
  5
22C
330
1F
100
AcDbEntity
  8
0
  6
Continuous
 62
     7
100
AcDbLine
 10
153.1836580409
 20
64.2050103109
 30
0.0
 11
152.5643171054
 21
65.8565861389
 31
0.0
  0
LINE
  5
22D
330
1F
100
AcDbEntity
  8
0
  6
Continuous
 62
     7
100
AcDbLine
 10
152.5643171054
 20
65.8565861389
 30
0.0
 11
151.9449761699
 21
62.96632844
 31
0.0
  0
LINE
  5
22E
330
1F
100
AcDbEntity
  8
0
  6
Continuous
 62
     7
100
AcDbLine
 10
151.9449761699
 20
62.96632844
 30
0.0
 11
151.3256352345
 21
64.8243512464
 31
0.0
  0
LINE
  5
22F
330
1F
100
AcDbEntity
  8
0
  6
Continuous
 62
     7
100
AcDbLine
 10
151.3256352345
 20
64.8243512464
 30
0.0
 11
150.706294299
 21
61.3147526121
 31
0.0
  0
LINE
  5
230
330
1F
100
AcDbEntity
  8
0
  6
Continuous
 62
     7
100
AcDbLine
 10
150.706294299
 20
61.3147526121
 30
0.0
 11
150.0869533635
 21
63.379222397
 31
0.0
  0
LINE
  5
231
330
1F
100
AcDbEntity
  8
0
  6
Continuous
 62
     7
100
AcDbLine
 10
150.0869533635
 20
63.379222397
 30
0.0
 11
149.467612428
 21
60.6954116766
 31
0.0
  0
LINE
  5
232
330
1F
100
AcDbEntity
  8
0
  6
Continuous
 62
     7
100
AcDbLine
 10
149.467612428
 20
60.6954116766
 30
0.0
 11
148.8482714926
 21
62.96632844
 31
0.0
  0
LINE
  5
233
330
1F
100
AcDbEntity
  8
0
  6
Continuous
 62
     7
100
AcDbLine
 10
148.8482714926
 20
62.96632844
 30
0.0
 11
148.2289305571
 21
60.0760707411
 31
0.0
  0
LINE
  5
234
330
1F
100
AcDbEntity
  8
0
  6
Continuous
 62
     7
100
AcDbLine
 10
148.2289305571
 20
60.0760707411
 30
0.0
 11
147.6095896216
 21
62.3469875045
 31
0.0
  0
LINE
  5
235
330
1F
100
AcDbEntity
  8
0
  6
Continuous
 62
     7
100
AcDbLine
 10
147.6095896216
 20
62.3469875045
 30
0.0
 11
146.9902486861
 21
58.6309418917
 31
0.0
  0
LINE
  5
236
330
1F
100
AcDbEntity
  8
0
  6
Continuous
 62
     7
100
AcDbLine
 10
146.9902486861
 20
58.6309418917
 30
0.0
 11
146.3709077507
 21
61.3147526121
 31
0.0
  0
LINE
  5
237
330
1F
100
AcDbEntity
  8
0
  6
Continuous
 62
     7
100
AcDbLine
 10
146.3709077507
 20
61.3147526121
 30
0.0
 11
145.7515668152
 21
57.1858130422
 31
0.0
  0
LINE
  5
238
330
1F
100
AcDbEntity
  8
0
  6
Continuous
 62
     7
100
AcDbLine
 10
145.7515668152
 20
57.1858130422
 30
0.0
 11
145.1322258797
 21
60.0760707411
 31
0.0
  0
LINE
  5
239
330
1F
100
AcDbEntity
  8
0
  6
Continuous
 62
     7
100
AcDbLine
 10
145.1322258797
 20
60.0760707411
 30
0.0
 11
144.5128849442
 21
56.7729190852
 31
0.0
  0
LINE
  5
23A
330
1F
100
AcDbEntity
  8
0
  6
Continuous
 62
     7
100
AcDbLine
 10
144.5128849442
 20
56.7729190852
 30
0.0
 11
143.8935440088
 21
59.6631767841
 31
0.0
  0
LINE
  5
23B
330
1F
100
AcDbEntity
  8
0
  6
Continuous
 62
     7
100
AcDbLine
 10
143.8935440088
 20
59.6631767841
 30
0.0
 11
143.2742030733
 21
56.5664721067
 31
0.0
  0
LINE
  5
23C
330
1F
100
AcDbEntity
  8
0
  6
Continuous
 62
     7
100
AcDbLine
 10
143.2742030733
 20
56.5664721067
 30
0.0
 11
142.8613091163
 21
58.4244949132
 31
0.0
  0
LINE
  5
23D
330
1F
100
AcDbEntity
  8
0
  6
Continuous
 62
     7
100
AcDbLine
 10
142.8613091163
 20
58.4244949132
 30
0.0
 11
142.2419681808
 21
55.7406841928
 31
0.0
  0
LINE
  5
23E
330
1F
100
AcDbEntity
  8
0
  6
Continuous
 62
     7
100
AcDbLine
 10
142.2419681808
 20
55.7406841928
 30
0.0
 11
141.4161802669
 21
58.2180479347
 31
0.0
  0
LINE
  5
23F
330
1F
100
AcDbEntity
  8
0
  6
Continuous
 62
     7
100
AcDbLine
 10
141.4161802669
 20
58.2180479347
 30
0.0
 11
141.0032863099
 21
56.3600251283
 31
0.0
  0
LINE
  5
240
330
1F
100
AcDbEntity
  8
0
  6
Continuous
 62
     7
100
AcDbLine
 10
141.0032863099
 20
56.3600251283
 30
0.0
 11
140.1774983959
 21
59.8696237626
 31
0.0
  0
LINE
  5
241
330
1F
100
AcDbEntity
  8
0
  6
Continuous
 62
     7
100
AcDbLine
 10
140.1774983959
 20
59.8696237626
 30
0.0
 11
139.7646044389
 21
58.2180479347
 31
0.0
  0
LINE
  5
242
330
1F
100
AcDbEntity
  8
0
  6
Continuous
 62
     7
100
AcDbLine
 10
139.7646044389
 20
58.2180479347
 30
0.0
 11
139.1452635035
 21
60.4889646981
 31
0.0
  0
LINE
  5
243
330
1F
100
AcDbEntity
  8
0
  6
Continuous
 62
     7
100
AcDbLine
 10
139.1452635035
 20
60.4889646981
 30
0.0
 11
138.525922568
 21
56.9793660637
 31
0.0
  0
LINE
  5
244
330
1F
100
AcDbEntity
  8
0
  6
Continuous
 62
     7
100
AcDbLine
 10
138.525922568
 20
56.9793660637
 30
0.0
 11
137.9065816325
 21
58.0116009562
 31
0.0
  0
LINE
  5
245
330
1F
100
AcDbEntity
  8
0
  6
Continuous
 62
     7
100
AcDbLine
 10
137.9065816325
 20
58.0116009562
 30
0.0
 11
137.287240697
 21
55.5342372143
 31
0.0
  0
LINE
  5
246
330
1F
100
AcDbEntity
  8
0
  6
Continuous
 62
     7
100
AcDbLine
 10
137.287240697
 20
55.5342372143
 30
0.0
 11
136.6678997616
 21
56.7729190852
 31
0.0
  0
LINE
  5
247
330
1F
100
AcDbEntity
  8
0
  6
Continuous
 62
     7
100
AcDbLine
 10
136.6678997616
 20
56.7729190852
 30
0.0
 11
136.0485588261
 21
55.1213432573
 31
0.0
  0
LINE
  5
248
330
1F
100
AcDbEntity
  8
0
  6
Continuous
 62
     7
100
AcDbLine
 10
136.0485588261
 20
55.1213432573
 30
0.0
 11
135.4292178906
 21
57.3922600207
 31
0.0
  0
LINE
  5
249
330
1F
100
AcDbEntity
  8
0
  6
Continuous
 62
     7
100
AcDbLine
 10
135.0163239336
 20
56.5664721067
 30
0.0
 11
134.1905360197
 21
58.2180479347
 31
0.0
  0
LINE
  5
24A
330
1F
100
AcDbEntity
  8
0
  6
Continuous
 62
     7
100
AcDbLine
 10
134.1905360197
 20
58.2180479347
 30
0.0
 11
133.7776420627
 21
54.7084493003
 31
0.0
  0
LINE
  5
24B
330
1F
100
AcDbEntity
  8
0
  6
Continuous
 62
     7
100
AcDbLine
 10
133.7776420627
 20
54.7084493003
 30
0.0
 11
132.9518541487
 21
58.6309418917
 31
0.0
  0
LINE
  5
24C
330
1F
100
AcDbEntity
  8
0
  6
Continuous
 62
     7
100
AcDbLine
 10
132.5389601917
 20
58.2180479347
 30
0.0
 11
131.7131722778
 21
61.727646569
 31
0.0
  0
LINE
  5
24D
330
1F
100
AcDbEntity
  8
0
  6
Continuous
 62
     7
100
AcDbLine
 10
131.3002783208
 20
60.9018586551
 30
0.0
 11
130.6809373853
 21
62.3469875045
 31
0.0
  0
LINE
  5
24E
330
1F
100
AcDbEntity
  8
0
  6
Continuous
 62
     7
100
AcDbLine
 10
130.6809373853
 20
62.3469875045
 30
0.0
 11
130.2680434283
 21
58.8373888702
 31
0.0
  0
LINE
  5
24F
330
1F
100
AcDbEntity
  8
0
  6
Continuous
 62
     7
100
AcDbLine
 10
130.2680434283
 20
58.8373888702
 30
0.0
 11
129.4422555143
 21
62.3469875045
 31
0.0
  0
LINE
  5
250
330
1F
100
AcDbEntity
  8
0
  6
Continuous
 62
     7
100
AcDbLine
 10
129.4422555143
 20
62.3469875045
 30
0.0
 11
129.0293615574
 21
60.9018586551
 31
0.0
  0
LINE
  5
251
330
1F
100
AcDbEntity
  8
0
  6
Continuous
 62
     7
100
AcDbLine
 10
129.0293615574
 20
60.9018586551
 30
0.0
 11
128.4100206219
 21
62.553434483
 31
0.0
  0
LINE
  5
252
330
1F
100
AcDbEntity
  8
0
  6
Continuous
 62
     7
100
AcDbLine
 10
128.4100206219
 20
62.553434483
 30
0.0
 11
127.7906796864
 21
61.1083056336
 31
0.0
  0
LINE
  5
253
330
1F
100
AcDbEntity
  8
0
  6
Continuous
 62
     7
100
AcDbLine
 10
127.7906796864
 20
61.1083056336
 30
0.0
 11
127.1713387509
 21
63.379222397
 31
0.0
  0
LINE
  5
254
330
1F
100
AcDbEntity
  8
0
  6
Continuous
 62
     7
100
AcDbLine
 10
126.758444794
 20
62.553434483
 30
0.0
 11
126.1391038585
 21
64.4114572894
 31
0.0
  0
LINE
  5
255
330
1F
100
AcDbEntity
  8
0
  6
Continuous
 62
     7
100
AcDbLine
 10
126.1391038585
 20
64.4114572894
 30
0.0
 11
125.519762923
 21
63.379222397
 31
0.0
  0
LINE
  5
256
330
1F
100
AcDbEntity
  8
0
  6
Continuous
 62
     7
100
AcDbLine
 10
125.519762923
 20
63.379222397
 30
0.0
 11
125.106868966
 21
64.6179042679
 31
0.0
  0
LINE
  5
257
330
1F
100
AcDbEntity
  8
0
  6
Continuous
 62
     7
100
AcDbLine
 10
125.106868966
 20
64.6179042679
 30
0.0
 11
124.4875280305
 21
63.5856693755
 31
0.0
  0
LINE
  5
258
330
1F
100
AcDbEntity
  8
0
  6
Continuous
 62
     7
100
AcDbLine
 10
123.8681870951
 20
64.2050103109
 30
0.0
 11
123.2488461596
 21
62.7598814615
 31
0.0
  0
LINE
  5
259
330
1F
100
AcDbEntity
  8
0
  6
Continuous
 62
     7
100
AcDbLine
 10
123.2488461596
 20
62.7598814615
 30
0.0
 11
122.8359522026
 21
64.2050103109
 31
0.0
  0
LINE
  5
25A
330
1F
100
AcDbEntity
  8
0
  6
Continuous
 62
     7
100
AcDbLine
 10
122.8359522026
 20
64.2050103109
 30
0.0
 11
122.2166112671
 21
62.553434483
 31
0.0
  0
LINE
  5
25B
330
1F
100
AcDbEntity
  8
0
  6
Continuous
 62
     7
100
AcDbLine
 10
122.2166112671
 20
62.553434483
 30
0.0
 11
121.8037173101
 21
63.792116354
 31
0.0
  0
LINE
  5
25C
330
1F
100
AcDbEntity
  8
0
  6
Continuous
 62
     7
100
AcDbLine
 10
121.8037173101
 20
63.792116354
 30
0.0
 11
120.9779293962
 21
61.1083056336
 31
0.0
  0
LINE
  5
25D
330
1F
100
AcDbEntity
  8
0
  6
Continuous
 62
     7
100
AcDbLine
 10
120.1521414822
 20
61.727646569
 30
0.0
 11
119.9456945037
 21
60.6954116766
 31
0.0
  0
LINE
  5
25E
330
1F
100
AcDbEntity
  8
0
  6
Continuous
 62
     7
100
AcDbLine
 10
119.9456945037
 20
60.6954116766
 30
0.0
 11
119.5328005467
 21
62.3469875045
 31
0.0
  0
LINE
  5
25F
330
1F
100
AcDbEntity
  8
0
  6
Continuous
 62
     7
100
AcDbLine
 10
119.5328005467
 20
62.3469875045
 30
0.0
 11
118.2941186758
 21
55.1213432573
 31
0.0
  0
LINE
  5
260
330
1F
100
AcDbEntity
  8
0
  6
Continuous
 62
     7
100
AcDbLine
 10
117.6747777403
 20
54.7084493003
 30
0.0
 11
117.2618837833
 21
57.1858130422
 31
0.0
  0
LINE
  5
261
330
1F
100
AcDbEntity
  8
0
  6
Continuous
 62
     7
100
AcDbLine
 10
117.2618837833
 20
57.1858130422
 30
0.0
 11
116.4360958694
 21
55.1213432573
 31
0.0
  0
LINE
  5
262
330
1F
100
AcDbEntity
  8
0
  6
Continuous
 62
     7
100
AcDbLine
 10
116.4360958694
 20
55.1213432573
 30
0.0
 11
116.0232019124
 21
56.7729190852
 31
0.0
  0
LINE
  5
263
330
1F
100
AcDbEntity
  8
0
  6
Continuous
 62
     7
100
AcDbLine
 10
116.0232019124
 20
56.7729190852
 30
0.0
 11
115.4038609769
 21
55.3277902358
 31
0.0
  0
LINE
  5
264
330
1F
100
AcDbEntity
  8
0
  6
Continuous
 62
     7
100
AcDbLine
 10
115.4038609769
 20
55.3277902358
 30
0.0
 11
114.9909670199
 21
56.7729190852
 31
0.0
  0
LINE
  5
265
330
1F
100
AcDbEntity
  8
0
  6
Continuous
 62
     7
100
AcDbLine
 10
114.9909670199
 20
56.7729190852
 30
0.0
 11
114.165179106
 21
53.6762144079
 31
0.0
  0
LINE
  5
266
330
1F
100
AcDbEntity
  8
0
  6
Continuous
 62
     7
100
AcDbLine
 10
114.165179106
 20
53.6762144079
 30
0.0
 11
113.752285149
 21
56.1535781498
 31
0.0
  0
LINE
  5
267
330
1F
100
AcDbEntity
  8
0
  6
Continuous
 62
     7
100
AcDbLine
 10
113.752285149
 20
56.1535781498
 30
0.0
 11
112.926497235
 21
52.6439795154
 31
0.0
  0
LINE
  5
268
330
1F
100
AcDbEntity
  8
0
  6
Continuous
 62
     7
100
AcDbLine
 10
112.926497235
 20
52.6439795154
 30
0.0
 11
112.513603278
 21
55.1213432573
 31
0.0
  0
LINE
  5
269
330
1F
100
AcDbEntity
  8
0
  6
Continuous
 62
     7
100
AcDbLine
 10
112.513603278
 20
55.1213432573
 30
0.0
 11
111.8942623425
 21
52.8504264939
 31
0.0
  0
LINE
  5
26A
330
1F
100
AcDbEntity
  8
0
  6
Continuous
 62
     7
100
AcDbLine
 10
111.8942623425
 20
52.8504264939
 30
0.0
 11
111.4813683856
 21
54.2955553433
 31
0.0
  0
LINE
  5
26B
330
1F
100
AcDbEntity
  8
0
  6
Continuous
 62
     7
100
AcDbLine
 10
111.4813683856
 20
54.2955553433
 30
0.0
 11
111.0684744286
 21
52.8504264939
 31
0.0
  0
LINE
  5
26C
330
1F
100
AcDbEntity
  8
0
  6
Continuous
 62
     7
100
AcDbLine
 10
111.0684744286
 20
52.8504264939
 30
0.0
 11
110.2426865146
 21
57.3922600207
 31
0.0
  0
LINE
  5
26D
330
1F
100
AcDbEntity
  8
0
  6
Continuous
 62
     7
100
AcDbLine
 10
110.2426865146
 20
57.3922600207
 30
0.0
 11
109.4168986006
 21
52.6439795154
 31
0.0
  0
LINE
  5
26E
330
1F
100
AcDbEntity
  8
0
  6
Continuous
 62
     7
100
AcDbLine
 10
109.4168986006
 20
52.6439795154
 30
0.0
 11
109.0040046437
 21
55.3277902358
 31
0.0
  0
LINE
  5
26F
330
1F
100
AcDbEntity
  8
0
  6
Continuous
 62
     7
100
AcDbLine
 10
109.0040046437
 20
55.3277902358
 30
0.0
 11
108.1782167297
 21
52.8504264939
 31
0.0
  0
LINE
  5
270
330
1F
100
AcDbEntity
  8
0
  6
Continuous
 62
     7
100
AcDbLine
 10
108.1782167297
 20
52.8504264939
 30
0.0
 11
107.7653227727
 21
54.5020023218
 31
0.0
  0
LINE
  5
271
330
1F
100
AcDbEntity
  8
0
  6
Continuous
 62
     7
100
AcDbLine
 10
107.7653227727
 20
54.5020023218
 30
0.0
 11
107.1459818372
 21
51.8181916014
 31
0.0
  0
LINE
  5
272
330
1F
100
AcDbEntity
  8
0
  6
Continuous
 62
     7
100
AcDbLine
 10
107.1459818372
 20
51.8181916014
 30
0.0
 11
106.5266409018
 21
55.9471311713
 31
0.0
  0
LINE
  5
273
330
1F
100
AcDbEntity
  8
0
  6
Continuous
 62
     7
100
AcDbLine
 10
106.5266409018
 20
55.9471311713
 30
0.0
 11
106.1137469448
 21
54.0891083648
 31
0.0
  0
LINE
  5
274
330
1F
100
AcDbEntity
  8
0
  6
Continuous
 62
     7
100
AcDbLine
 10
106.1137469448
 20
54.0891083648
 30
0.0
 11
105.4944060093
 21
56.1535781498
 31
0.0
  0
LINE
  5
275
330
1F
100
AcDbEntity
  8
0
  6
Continuous
 62
     7
100
AcDbLine
 10
105.4944060093
 20
56.1535781498
 30
0.0
 11
105.0815120523
 21
54.2955553433
 31
0.0
  0
LINE
  5
276
330
1F
100
AcDbEntity
  8
0
  6
Continuous
 62
     7
100
AcDbLine
 10
105.0815120523
 20
54.2955553433
 30
0.0
 11
104.4621711168
 21
57.8051539777
 31
0.0
  0
LINE
  5
277
330
1F
100
AcDbEntity
  8
0
  6
Continuous
 62
     7
100
AcDbLine
 10
104.0492771599
 20
56.9793660637
 30
0.0
 11
102.1912543534
 21
65.6501391604
 31
0.0
  0
LINE
  5
278
330
1F
100
AcDbEntity
  8
0
  6
Continuous
 62
     7
100
AcDbLine
 10
101.9848073749
 20
65.4436921819
 30
0.0
 11
101.159019461
 21
66.8888210313
 31
0.0
  0
LINE
  5
279
330
1F
100
AcDbEntity
  8
0
  6
Continuous
 62
     7
100
AcDbLine
 10
100.9525724825
 20
66.4759270744
 30
0.0
 11
99.7138906115
 21
67.5081619668
 31
0.0
  0
LINE
  5
27A
330
1F
100
AcDbEntity
  8
0
  6
Continuous
 62
     7
100
AcDbLine
 10
99.7138906115
 20
67.5081619668
 30
0.0
 11
99.0945496761
 21
66.4759270744
 31
0.0
  0
LINE
  5
27B
330
1F
100
AcDbEntity
  8
0
  6
Continuous
 62
     7
100
AcDbLine
 10
98.4752087406
 20
67.0952680098
 30
0.0
 11
97.2365268696
 21
64.2050103109
 31
0.0
  0
LINE
  5
27C
330
1F
100
AcDbEntity
  8
0
  6
Continuous
 62
     7
100
AcDbLine
 10
96.6171859342
 20
64.2050103109
 30
0.0
 11
94.7591631277
 21
67.7146089453
 31
0.0
  0
LINE
  5
27D
330
1F
100
AcDbEntity
  8
0
  6
Continuous
 62
     7
100
AcDbLine
 10
93.5204812568
 20
68.1275029023
 30
0.0
 11
92.0753524073
 21
68.1275029023
 31
0.0
  0
LINE
  5
27E
330
1F
100
AcDbEntity
  8
0
  6
Continuous
 62
     7
100
AcDbLine
 10
92.0753524073
 20
68.1275029023
 30
0.0
 11
91.2495644934
 21
67.3017149883
 31
0.0
  0
LINE
  5
27F
330
1F
100
AcDbEntity
  8
0
  6
Continuous
 62
     7
100
AcDbLine
 10
88.97864773
 20
67.3017149883
 30
0.0
 11
87.9464128375
 21
66.6823740528
 31
0.0
  0
LINE
  5
280
330
1F
100
AcDbEntity
  8
0
  6
Continuous
 62
     7
100
AcDbLine
 10
86.5012839881
 20
66.4759270744
 30
0.0
 11
85.8819430526
 21
64.6179042679
 31
0.0
  0
LINE
  5
281
330
1F
100
AcDbEntity
  8
0
  6
Continuous
 62
     7
100
AcDbLine
 10
85.8819430526
 20
64.6179042679
 30
0.0
 11
85.0561551386
 21
65.2372452034
 31
0.0
  0
LINE
  5
282
330
1F
100
AcDbEntity
  8
0
  6
Continuous
 62
     7
100
AcDbLine
 10
84.4368142031
 20
64.6179042679
 30
0.0
 11
83.4045793107
 21
66.8888210313
 31
0.0
  0
LINE
  5
283
330
1F
100
AcDbEntity
  8
0
  6
Continuous
 62
     7
100
AcDbLine
 10
83.1981323322
 20
66.6823740528
 30
0.0
 11
82.5787913967
 21
67.9210559238
 31
0.0
  0
LINE
  5
284
330
1F
100
AcDbEntity
  8
0
  6
Continuous
 62
     7
100
AcDbLine
 10
82.1658974397
 20
67.7146089453
 30
0.0
 11
81.5465565043
 21
68.7468438378
 31
0.0
  0
LINE
  5
285
330
1F
100
AcDbEntity
  8
0
  6
Continuous
 62
     7
100
AcDbLine
 10
79.4820867193
 20
67.9210559238
 30
0.0
 11
78.8627457839
 21
68.7468438378
 31
0.0
  0
LINE
  5
286
330
1F
100
AcDbEntity
  8
0
  6
Continuous
 62
     7
100
AcDbLine
 10
78.0369578699
 20
68.9532908163
 30
0.0
 11
77.2111699559
 21
68.1275029023
 31
0.0
  0
LINE
  5
287
330
1F
100
AcDbEntity
  8
0
  6
Continuous
 62
     7
100
AcDbLine
 10
75.3531471495
 20
68.3339498808
 30
0.0
 11
74.5273592355
 21
69.3661847732
 31
0.0
  0
LINE
  5
288
330
1F
100
AcDbEntity
  8
0
  6
Continuous
 62
     7
100
AcDbLine
 10
74.5273592355
 20
69.3661847732
 30
0.0
 11
74.1144652785
 21
68.1275029023
 31
0.0
  0
LINE
  5
289
330
1F
100
AcDbEntity
  8
0
  6
Continuous
 62
     7
100
AcDbLine
 10
74.1144652785
 20
68.1275029023
 30
0.0
 11
73.2886773646
 21
69.3661847732
 31
0.0
  0
LINE
  5
28A
330
1F
100
AcDbEntity
  8
0
  6
Continuous
 62
     7
100
AcDbLine
 10
73.2886773646
 20
69.3661847732
 30
0.0
 11
72.6693364291
 21
67.5081619668
 31
0.0
  0
LINE
  5
28B
330
1F
100
AcDbEntity
  8
0
  6
Continuous
 62
     7
100
AcDbLine
 10
72.6693364291
 20
67.5081619668
 30
0.0
 11
72.0499954936
 21
68.5403968593
 31
0.0
  0
LINE
  5
28C
330
1F
100
AcDbEntity
  8
0
  6
Continuous
 62
     7
100
AcDbLine
 10
72.0499954936
 20
68.5403968593
 30
0.0
 11
71.4306545582
 21
66.4759270744
 31
0.0
  0
LINE
  5
28D
330
1F
100
AcDbEntity
  8
0
  6
Continuous
 62
     7
100
AcDbLine
 10
71.4306545582
 20
66.4759270744
 30
0.0
 11
70.8113136227
 21
67.7146089453
 31
0.0
  0
LINE
  5
28E
330
1F
100
AcDbEntity
  8
0
  6
Continuous
 62
     7
100
AcDbLine
 10
70.3984196657
 20
66.8888210313
 30
0.0
 11
69.3661847732
 21
68.5403968593
 31
0.0
  0
LINE
  5
28F
330
1F
100
AcDbEntity
  8
0
  6
Continuous
 62
     7
100
AcDbLine
 10
69.3661847732
 20
68.5403968593
 30
0.0
 11
68.7468438378
 21
66.2694800959
 31
0.0
  0
LINE
  5
290
330
1F
100
AcDbEntity
  8
0
  6
Continuous
 62
     7
100
AcDbLine
 10
68.3339498808
 20
67.0952680098
 30
0.0
 11
67.5081619668
 21
63.1727754185
 31
0.0
  0
LINE
  5
291
330
1F
100
AcDbEntity
  8
0
  6
Continuous
 62
     7
100
AcDbLine
 10
67.5081619668
 20
63.1727754185
 30
0.0
 11
67.0952680098
 21
64.4114572894
 31
0.0
  0
LINE
  5
292
330
1F
100
AcDbEntity
  8
0
  6
Continuous
 62
     7
100
AcDbLine
 10
67.0952680098
 20
64.4114572894
 30
0.0
 11
66.4759270744
 21
61.727646569
 31
0.0
  0
LINE
  5
293
330
1F
100
AcDbEntity
  8
0
  6
Continuous
 62
     7
100
AcDbLine
 10
66.4759270744
 20
61.727646569
 30
0.0
 11
65.8565861389
 21
63.1727754185
 31
0.0
  0
LINE
  5
294
330
1F
100
AcDbEntity
  8
0
  6
Continuous
 62
     7
100
AcDbLine
 10
65.8565861389
 20
63.1727754185
 30
0.0
 11
65.2372452034
 21
60.9018586551
 31
0.0
  0
LINE
  5
295
330
1F
100
AcDbEntity
  8
0
  6
Continuous
 62
     7
100
AcDbLine
 10
65.2372452034
 20
60.9018586551
 30
0.0
 11
64.8243512464
 21
62.553434483
 31
0.0
  0
LINE
  5
296
330
1F
100
AcDbEntity
  8
0
  6
Continuous
 62
     7
100
AcDbLine
 10
64.8243512464
 20
62.553434483
 30
0.0
 11
63.9985633325
 21
59.8696237626
 31
0.0
  0
LINE
  5
297
330
1F
100
AcDbEntity
  8
0
  6
Continuous
 62
     7
100
AcDbLine
 10
63.9985633325
 20
59.8696237626
 30
0.0
 11
63.5856693755
 21
61.5211995906
 31
0.0
  0
LINE
  5
298
330
1F
100
AcDbEntity
  8
0
  6
Continuous
 62
     7
100
AcDbLine
 10
63.5856693755
 20
61.5211995906
 30
0.0
 11
62.96632844
 21
59.4567298056
 31
0.0
  0
LINE
  5
299
330
1F
100
AcDbEntity
  8
0
  6
Continuous
 62
     7
100
AcDbLine
 10
62.3469875045
 20
60.0760707411
 30
0.0
 11
61.727646569
 21
57.5987069992
 31
0.0
  0
LINE
  5
29A
330
1F
100
AcDbEntity
  8
0
  6
Continuous
 62
     7
100
AcDbLine
 10
61.727646569
 20
57.5987069992
 30
0.0
 11
61.3147526121
 21
59.6631767841
 31
0.0
  0
LINE
  5
29B
330
1F
100
AcDbEntity
  8
0
  6
Continuous
 62
     7
100
AcDbLine
 10
61.3147526121
 20
59.6631767841
 30
0.0
 11
60.6954116766
 21
56.1535781498
 31
0.0
  0
LINE
  5
29C
330
1F
100
AcDbEntity
  8
0
  6
Continuous
 62
     7
100
AcDbLine
 10
60.6954116766
 20
56.1535781498
 30
0.0
 11
60.0760707411
 21
59.2502828271
 31
0.0
  0
LINE
  5
29D
330
1F
100
AcDbEntity
  8
0
  6
Continuous
 62
     7
100
AcDbLine
 10
60.0760707411
 20
59.2502828271
 30
0.0
 11
59.4567298056
 21
56.1535781498
 31
0.0
  0
LINE
  5
29E
330
1F
100
AcDbEntity
  8
0
  6
Continuous
 62
     7
100
AcDbLine
 10
59.4567298056
 20
56.1535781498
 30
0.0
 11
58.8373888702
 21
59.4567298056
 31
0.0
  0
LINE
  5
29F
330
1F
100
AcDbEntity
  8
0
  6
Continuous
 62
     7
100
AcDbLine
 10
58.8373888702
 20
59.4567298056
 30
0.0
 11
58.2180479347
 21
56.9793660637
 31
0.0
  0
LINE
  5
2A0
330
1F
100
AcDbEntity
  8
0
  6
Continuous
 62
     7
100
AcDbLine
 10
58.2180479347
 20
56.9793660637
 30
0.0
 11
57.5987069992
 21
60.0760707411
 31
0.0
  0
LINE
  5
2A1
330
1F
100
AcDbEntity
  8
0
  6
Continuous
 62
     7
100
AcDbLine
 10
57.5987069992
 20
60.0760707411
 30
0.0
 11
56.9793660637
 21
56.9793660637
 31
0.0
  0
LINE
  5
2A2
330
1F
100
AcDbEntity
  8
0
  6
Continuous
 62
     7
100
AcDbLine
 10
56.9793660637
 20
56.9793660637
 30
0.0
 11
56.5664721067
 21
59.0438358486
 31
0.0
  0
LINE
  5
2A3
330
1F
100
AcDbEntity
  8
0
  6
Continuous
 62
     7
100
AcDbLine
 10
56.5664721067
 20
59.0438358486
 30
0.0
 11
55.9471311713
 21
55.1213432573
 31
0.0
  0
LINE
  5
2A4
330
1F
100
AcDbEntity
  8
0
  6
Continuous
 62
     7
100
AcDbLine
 10
55.9471311713
 20
55.1213432573
 30
0.0
 11
55.1213432573
 21
59.4567298056
 31
0.0
  0
LINE
  5
2A5
330
1F
100
AcDbEntity
  8
0
  6
Continuous
 62
     7
100
AcDbLine
 10
55.1213432573
 20
59.4567298056
 30
0.0
 11
54.7084493003
 21
55.3277902358
 31
0.0
  0
LINE
  5
2A6
330
1F
100
AcDbEntity
  8
0
  6
Continuous
 62
     7
100
AcDbLine
 10
54.7084493003
 20
55.3277902358
 30
0.0
 11
53.8826613864
 21
59.6631767841
 31
0.0
  0
LINE
  5
2A7
330
1F
100
AcDbEntity
  8
0
  6
Continuous
 62
     7
100
AcDbLine
 10
53.8826613864
 20
59.6631767841
 30
0.0
 11
53.2633204509
 21
55.5342372143
 31
0.0
  0
LINE
  5
2A8
330
1F
100
AcDbEntity
  8
0
  6
Continuous
 62
     7
100
AcDbLine
 10
53.2633204509
 20
55.5342372143
 30
0.0
 11
52.6439795154
 21
58.8373888702
 31
0.0
  0
LINE
  5
2A9
330
1F
100
AcDbEntity
  8
0
  6
Continuous
 62
     7
100
AcDbLine
 10
52.6439795154
 20
58.8373888702
 30
0.0
 11
52.0246385799
 21
54.9148962788
 31
0.0
  0
LINE
  5
2AA
330
1F
100
AcDbEntity
  8
0
  6
Continuous
 62
     7
100
AcDbLine
 10
52.0246385799
 20
54.9148962788
 30
0.0
 11
51.4052976445
 21
58.4244949132
 31
0.0
  0
LINE
  5
2AB
330
1F
100
AcDbEntity
  8
0
  6
Continuous
 62
     7
100
AcDbLine
 10
51.4052976445
 20
58.4244949132
 30
0.0
 11
50.785956709
 21
53.4697674294
 31
0.0
  0
LINE
  5
2AC
330
1F
100
AcDbEntity
  8
0
  6
Continuous
 62
     7
100
AcDbLine
 10
50.785956709
 20
53.4697674294
 30
0.0
 11
50.1666157735
 21
57.1858130422
 31
0.0
  0
LINE
  5
2AD
330
1F
100
AcDbEntity
  8
0
  6
Continuous
 62
     7
100
AcDbLine
 10
50.1666157735
 20
57.1858130422
 30
0.0
 11
49.547274838
 21
53.4697674294
 31
0.0
  0
LINE
  5
2AE
330
1F
100
AcDbEntity
  8
0
  6
Continuous
 62
     7
100
AcDbLine
 10
49.547274838
 20
53.4697674294
 30
0.0
 11
48.9279339026
 21
57.1858130422
 31
0.0
  0
LINE
  5
2AF
330
1F
100
AcDbEntity
  8
0
  6
Continuous
 62
     7
100
AcDbLine
 10
48.9279339026
 20
57.1858130422
 30
0.0
 11
48.3085929671
 21
52.8504264939
 31
0.0
  0
LINE
  5
2B0
330
1F
100
AcDbEntity
  8
0
  6
Continuous
 62
     7
100
AcDbLine
 10
48.3085929671
 20
52.8504264939
 30
0.0
 11
47.6892520316
 21
56.7729190852
 31
0.0
  0
LINE
  5
2B1
330
1F
100
AcDbEntity
  8
0
  6
Continuous
 62
     7
100
AcDbLine
 10
47.6892520316
 20
56.7729190852
 30
0.0
 11
47.0699110961
 21
51.8181916014
 31
0.0
  0
LINE
  5
2B2
330
1F
100
AcDbEntity
  8
0
  6
Continuous
 62
     7
100
AcDbLine
 10
47.0699110961
 20
51.8181916014
 30
0.0
 11
46.4505701607
 21
55.9471311713
 31
0.0
  0
LINE
  5
2B3
330
1F
100
AcDbEntity
  8
0
  6
Continuous
 62
     7
100
AcDbLine
 10
46.4505701607
 20
55.9471311713
 30
0.0
 11
45.8312292252
 21
51.8181916014
 31
0.0
  0
LINE
  5
2B4
330
1F
100
AcDbEntity
  8
0
  6
Continuous
 62
     7
100
AcDbLine
 10
45.8312292252
 20
51.8181916014
 30
0.0
 11
45.2118882897
 21
55.9471311713
 31
0.0
  0
LINE
  5
2B5
330
1F
100
AcDbEntity
  8
0
  6
Continuous
 62
     7
100
AcDbLine
 10
45.2118882897
 20
55.9471311713
 30
0.0
 11
44.5925473542
 21
52.2310855584
 31
0.0
  0
LINE
  5
2B6
330
1F
100
AcDbEntity
  8
0
  6
Continuous
 62
     7
100
AcDbLine
 10
44.5925473542
 20
52.2310855584
 30
0.0
 11
43.9732064187
 21
56.3600251283
 31
0.0
  0
LINE
  5
2B7
330
1F
100
AcDbEntity
  8
0
  6
Continuous
 62
     7
100
AcDbLine
 10
43.9732064187
 20
56.3600251283
 30
0.0
 11
43.3538654833
 21
52.0246385799
 31
0.0
  0
LINE
  5
2B8
330
1F
100
AcDbEntity
  8
0
  6
Continuous
 62
     7
100
AcDbLine
 10
43.3538654833
 20
52.0246385799
 30
0.0
 11
42.7345245478
 21
56.1535781498
 31
0.0
  0
LINE
  5
2B9
330
1F
100
AcDbEntity
  8
0
  6
Continuous
 62
     7
100
AcDbLine
 10
42.7345245478
 20
56.1535781498
 30
0.0
 11
42.1151836123
 21
51.6117446229
 31
0.0
  0
LINE
  5
2BA
330
1F
100
AcDbEntity
  8
0
  6
Continuous
 62
     7
100
AcDbLine
 10
42.1151836123
 20
51.6117446229
 30
0.0
 11
41.4958426768
 21
55.7406841928
 31
0.0
  0
LINE
  5
2BB
330
1F
100
AcDbEntity
  8
0
  6
Continuous
 62
     7
100
AcDbLine
 10
41.4958426768
 20
55.7406841928
 30
0.0
 11
40.8765017414
 21
50.9924036875
 31
0.0
  0
LINE
  5
2BC
330
1F
100
AcDbEntity
  8
0
  6
Continuous
 62
     7
100
AcDbLine
 10
40.8765017414
 20
50.9924036875
 30
0.0
 11
40.2571608059
 21
55.3277902358
 31
0.0
  0
LINE
  5
2BD
330
1F
100
AcDbEntity
  8
0
  6
Continuous
 62
     7
100
AcDbLine
 10
40.2571608059
 20
55.3277902358
 30
0.0
 11
39.6378198704
 21
51.4052976445
 31
0.0
  0
LINE
  5
2BE
330
1F
100
AcDbEntity
  8
0
  6
Continuous
 62
     7
100
AcDbLine
 10
39.6378198704
 20
51.4052976445
 30
0.0
 11
39.0184789349
 21
55.5342372143
 31
0.0
  0
LINE
  5
2BF
330
1F
100
AcDbEntity
  8
0
  6
Continuous
 62
     7
100
AcDbLine
 10
39.0184789349
 20
55.5342372143
 30
0.0
 11
38.3991379995
 21
50.5795097305
 31
0.0
  0
LINE
  5
2C0
330
1F
100
AcDbEntity
  8
0
  6
Continuous
 62
     7
100
AcDbLine
 10
38.3991379995
 20
50.5795097305
 30
0.0
 11
37.779797064
 21
54.9148962788
 31
0.0
  0
LINE
  5
2C1
330
1F
100
AcDbEntity
  8
0
  6
Continuous
 62
     7
100
AcDbLine
 10
37.779797064
 20
54.9148962788
 30
0.0
 11
37.366903107
 21
50.373062752
 31
0.0
  0
LINE
  5
2C2
330
1F
100
AcDbEntity
  8
0
  6
Continuous
 62
     7
100
AcDbLine
 10
37.366903107
 20
50.373062752
 30
0.0
 11
36.541115193
 21
57.1858130422
 31
0.0
  0
LINE
  5
2C3
330
1F
100
AcDbEntity
  8
0
  6
Continuous
 62
     7
100
AcDbLine
 10
36.541115193
 20
57.1858130422
 30
0.0
 11
35.9217742576
 21
53.4697674294
 31
0.0
  0
LINE
  5
2C4
330
1F
100
AcDbEntity
  8
0
  6
Continuous
 62
     7
100
AcDbLine
 10
35.9217742576
 20
53.4697674294
 30
0.0
 11
35.3024333221
 21
57.1858130422
 31
0.0
  0
LINE
  5
2C5
330
1F
100
AcDbEntity
  8
0
  6
Continuous
 62
     7
100
AcDbLine
 10
35.3024333221
 20
57.1858130422
 30
0.0
 11
34.6830923866
 21
53.2633204509
 31
0.0
  0
LINE
  5
2C6
330
1F
100
AcDbEntity
  8
0
  6
Continuous
 62
     7
100
AcDbLine
 10
34.6830923866
 20
53.2633204509
 30
0.0
 11
34.0637514511
 21
57.1858130422
 31
0.0
  0
LINE
  5
2C7
330
1F
100
AcDbEntity
  8
0
  6
Continuous
 62
     7
100
AcDbLine
 10
34.0637514511
 20
57.1858130422
 30
0.0
 11
33.4444105157
 21
52.4375325369
 31
0.0
  0
LINE
  5
2C8
330
1F
100
AcDbEntity
  8
0
  6
Continuous
 62
     7
100
AcDbLine
 10
33.4444105157
 20
52.4375325369
 30
0.0
 11
32.8250695802
 21
56.3600251283
 31
0.0
  0
LINE
  5
2C9
330
1F
100
AcDbEntity
  8
0
  6
Continuous
 62
     7
100
AcDbLine
 10
32.8250695802
 20
56.3600251283
 30
0.0
 11
32.2057286447
 21
51.198850666
 31
0.0
  0
LINE
  5
2CA
330
1F
100
AcDbEntity
  8
0
  6
Continuous
 62
     7
100
AcDbLine
 10
32.2057286447
 20
51.198850666
 30
0.0
 11
31.5863877092
 21
55.5342372143
 31
0.0
  0
LINE
  5
2CB
330
1F
100
AcDbEntity
  8
0
  6
Continuous
 62
     7
100
AcDbLine
 10
31.5863877092
 20
55.5342372143
 30
0.0
 11
30.9670467738
 21
51.198850666
 31
0.0
  0
LINE
  5
2CC
330
1F
100
AcDbEntity
  8
0
  6
Continuous
 62
     7
100
AcDbLine
 10
30.9670467738
 20
51.198850666
 30
0.0
 11
30.5541528168
 21
54.0891083648
 31
0.0
  0
LINE
  5
2CD
330
1F
100
AcDbEntity
  8
0
  6
Continuous
 62
     7
100
AcDbLine
 10
30.5541528168
 20
54.0891083648
 30
0.0
 11
29.9348118813
 21
49.7537218165
 31
0.0
  0
LINE
  5
2CE
330
1F
100
AcDbEntity
  8
0
  6
Continuous
 62
     7
100
AcDbLine
 10
29.9348118813
 20
49.7537218165
 30
0.0
 11
29.3154709458
 21
54.0891083648
 31
0.0
  0
LINE
  5
2CF
330
1F
100
AcDbEntity
  8
0
  6
Continuous
 62
     7
100
AcDbLine
 10
29.3154709458
 20
54.0891083648
 30
0.0
 11
28.6961300104
 21
49.134380881
 31
0.0
  0
LINE
  5
2D0
330
1F
100
AcDbEntity
  8
0
  6
Continuous
 62
     7
100
AcDbLine
 10
28.6961300104
 20
49.134380881
 30
0.0
 11
28.0767890749
 21
53.4697674294
 31
0.0
  0
LINE
  5
2D1
330
1F
100
AcDbEntity
  8
0
  6
Continuous
 62
     7
100
AcDbLine
 10
28.0767890749
 20
53.4697674294
 30
0.0
 11
27.4574481394
 21
47.6892520316
 31
0.0
  0
LINE
  5
2D2
330
1F
100
AcDbEntity
  8
0
  6
Continuous
 62
     7
100
AcDbLine
 10
27.4574481394
 20
47.6892520316
 30
0.0
 11
26.8381072039
 21
52.2310855584
 31
0.0
  0
LINE
  5
2D3
330
1F
100
AcDbEntity
  8
0
  6
Continuous
 62
     7
100
AcDbLine
 10
26.8381072039
 20
52.2310855584
 30
0.0
 11
26.2187662685
 21
46.0376762037
 31
0.0
  0
LINE
  5
2D4
330
1F
100
AcDbEntity
  8
0
  6
Continuous
 62
     7
100
AcDbLine
 10
26.2187662685
 20
46.0376762037
 30
0.0
 11
25.599425333
 21
51.198850666
 31
0.0
  0
LINE
  5
2D5
330
1F
100
AcDbEntity
  8
0
  6
Continuous
 62
     7
100
AcDbLine
 10
25.599425333
 20
51.198850666
 30
0.0
 11
24.9800843975
 21
46.8634641176
 31
0.0
  0
LINE
  5
2D6
330
1F
100
AcDbEntity
  8
0
  6
Continuous
 62
     7
100
AcDbLine
 10
24.9800843975
 20
46.8634641176
 30
0.0
 11
24.360743462
 21
52.0246385799
 31
0.0
  0
LINE
  5
2D7
330
1F
100
AcDbEntity
  8
0
  6
Continuous
 62
     7
100
AcDbLine
 10
24.360743462
 20
52.0246385799
 30
0.0
 11
23.7414025266
 21
47.2763580746
 31
0.0
  0
LINE
  5
2D8
330
1F
100
AcDbEntity
  8
0
  6
Continuous
 62
     7
100
AcDbLine
 10
23.7414025266
 20
47.2763580746
 30
0.0
 11
23.1220615911
 21
52.2310855584
 31
0.0
  0
LINE
  5
2D9
330
1F
100
AcDbEntity
  8
0
  6
Continuous
 62
     7
100
AcDbLine
 10
23.1220615911
 20
52.2310855584
 30
0.0
 11
22.7091676341
 21
48.5150399456
 31
0.0
  0
LINE
  5
2DA
330
1F
100
AcDbEntity
  8
0
  6
Continuous
 62
     7
100
AcDbLine
 10
22.7091676341
 20
48.5150399456
 30
0.0
 11
21.8833797201
 21
54.5020023218
 31
0.0
  0
LINE
  5
2DB
330
1F
100
AcDbEntity
  8
0
  6
Continuous
 62
     7
100
AcDbLine
 10
21.8833797201
 20
54.5020023218
 30
0.0
 11
21.4704857631
 21
50.9924036875
 31
0.0
  0
LINE
  5
2DC
330
1F
100
AcDbEntity
  8
0
  6
Continuous
 62
     7
100
AcDbLine
 10
21.4704857631
 20
50.9924036875
 30
0.0
 11
20.6446978492
 21
56.3600251283
 31
0.0
  0
LINE
  5
2DD
330
1F
100
AcDbEntity
  8
0
  6
Continuous
 62
     7
100
AcDbLine
 10
20.6446978492
 20
56.3600251283
 30
0.0
 11
20.0253569137
 21
50.5795097305
 31
0.0
  0
LINE
  5
2DE
330
1F
100
AcDbEntity
  8
0
  6
Continuous
 62
     7
100
AcDbLine
 10
20.0253569137
 20
50.5795097305
 30
0.0
 11
19.4060159782
 21
54.9148962788
 31
0.0
  0
LINE
  5
2DF
330
1F
100
AcDbEntity
  8
0
  6
Continuous
 62
     7
100
AcDbLine
 10
19.4060159782
 20
54.9148962788
 30
0.0
 11
18.7866750428
 21
46.6570171391
 31
0.0
  0
LINE
  5
2E0
330
1F
100
AcDbEntity
  8
0
  6
Continuous
 62
     7
100
AcDbLine
 10
18.7866750428
 20
46.6570171391
 30
0.0
 11
18.1673341073
 21
51.8181916014
 31
0.0
  0
LINE
  5
2E1
330
1F
100
AcDbEntity
  8
0
  6
Continuous
 62
     7
100
AcDbLine
 10
18.1673341073
 20
51.8181916014
 30
0.0
 11
17.7544401503
 21
46.8634641176
 31
0.0
  0
LINE
  5
2E2
330
1F
100
AcDbEntity
  8
0
  6
Continuous
 62
     7
100
AcDbLine
 10
17.7544401503
 20
46.8634641176
 30
0.0
 11
16.9286522363
 21
53.2633204509
 31
0.0
  0
LINE
  5
2E3
330
1F
100
AcDbEntity
  8
0
  6
Continuous
 62
     7
100
AcDbLine
 10
16.9286522363
 20
53.2633204509
 30
0.0
 11
16.5157582793
 21
48.3085929671
 31
0.0
  0
LINE
  5
2E4
330
1F
100
AcDbEntity
  8
0
  6
Continuous
 62
     7
100
AcDbLine
 10
16.5157582793
 20
48.3085929671
 30
0.0
 11
15.6899703654
 21
54.2955553433
 31
0.0
  0
LINE
  5
2E5
330
1F
100
AcDbEntity
  8
0
  6
Continuous
 62
     7
100
AcDbLine
 10
15.6899703654
 20
54.2955553433
 30
0.0
 11
15.2770764084
 21
49.7537218165
 31
0.0
  0
LINE
  5
2E6
330
1F
100
AcDbEntity
  8
0
  6
Continuous
 62
     7
100
AcDbLine
 10
15.2770764084
 20
49.7537218165
 30
0.0
 11
14.4512884944
 21
56.7729190852
 31
0.0
  0
LINE
  5
2E7
330
1F
100
AcDbEntity
  8
0
  6
Continuous
 62
     7
100
AcDbLine
 10
14.4512884944
 20
56.7729190852
 30
0.0
 11
14.0383945374
 21
52.2310855584
 31
0.0
  0
LINE
  5
2E8
330
1F
100
AcDbEntity
  8
0
  6
Continuous
 62
     7
100
AcDbLine
 10
14.0383945374
 20
52.2310855584
 30
0.0
 11
13.2126066235
 21
57.1858130422
 31
0.0
  0
LINE
  5
2E9
330
1F
100
AcDbEntity
  8
0
  6
Continuous
 62
     7
100
AcDbLine
 10
13.2126066235
 20
57.1858130422
 30
0.0
 11
12.7997126665
 21
52.6439795154
 31
0.0
  0
LINE
  5
2EA
330
1F
100
AcDbEntity
  8
0
  6
Continuous
 62
     7
100
AcDbLine
 10
12.7997126665
 20
52.6439795154
 30
0.0
 11
12.180371731
 21
56.3600251283
 31
0.0
  0
LINE
  5
2EB
330
1F
100
AcDbEntity
  8
0
  6
Continuous
 62
     7
100
AcDbLine
 10
12.180371731
 20
56.3600251283
 30
0.0
 11
11.5610307955
 21
50.5795097305
 31
0.0
  0
LINE
  5
2EC
330
1F
100
AcDbEntity
  8
0
  6
Continuous
 62
     7
100
AcDbLine
 10
11.5610307955
 20
50.5795097305
 30
0.0
 11
10.9416898601
 21
54.9148962788
 31
0.0
  0
LINE
  5
2ED
330
1F
100
AcDbEntity
  8
0
  6
Continuous
 62
     7
100
AcDbLine
 10
10.9416898601
 20
54.9148962788
 30
0.0
 11
10.5287959031
 21
52.4375325369
 31
0.0
  0
LINE
  5
2EE
330
1F
100
AcDbEntity
  8
0
  6
Continuous
 62
     7
100
AcDbLine
 10
10.5287959031
 20
52.4375325369
 30
0.0
 11
9.7030079891
 21
57.3922600207
 31
0.0
  0
LINE
  5
2EF
330
1F
100
AcDbEntity
  8
0
  6
Continuous
 62
     7
100
AcDbLine
 10
9.4965610106
 20
56.9793660637
 30
0.0
 11
8.4643261182
 21
63.1727754185
 31
0.0
  0
LINE
  5
2F0
330
1F
100
AcDbEntity
  8
0
  6
Continuous
 62
     7
100
AcDbLine
 10
8.2578791397
 20
62.7598814615
 30
0.0
 11
5.9869623763
 21
68.1275029023
 31
0.0
  0
LINE
  5
2F1
330
1F
100
AcDbEntity
  8
0
  6
Continuous
 62
     7
100
AcDbLine
 10
4.5418335268
 20
67.7146089453
 30
0.0
 11
3.9224925913
 21
68.7468438378
 31
0.0
  0
LINE
  5
2F2
330
1F
100
AcDbEntity
  8
0
  6
Continuous
 62
     7
100
AcDbLine
 10
3.5095986344
 20
68.5403968593
 30
0.0
 11
1.8580228064
 21
68.3339498808
 31
0.0
  0
LINE
  5
2F3
330
1F
100
AcDbEntity
  8
0
  6
Continuous
 62
     7
100
AcDbLine
 10
1.8580228064
 20
68.3339498808
 30
0.0
 11
4.5418335268
 21
76.5918290205
 31
0.0
  0
LINE
  5
2F4
330
1F
100
AcDbEntity
  8
0
  6
Continuous
 62
     7
100
AcDbLine
 10
6.8127502902
 20
76.7982759989
 30
0.0
 11
7.4320912257
 21
75.972488085
 31
0.0
  0
LINE
  5
2F5
330
1F
100
AcDbEntity
  8
0
  6
Continuous
 62
     7
100
AcDbLine
 10
7.4320912257
 20
75.972488085
 30
0.0
 11
8.0514321612
 21
77.2111699559
 31
0.0
  0
LINE
  5
2F6
330
1F
100
AcDbEntity
  8
0
  6
Continuous
 62
     7
100
AcDbLine
 10
8.0514321612
 20
77.2111699559
 30
0.0
 11
8.6707730967
 21
76.1789350635
 31
0.0
  0
LINE
  5
2F7
330
1F
100
AcDbEntity
  8
0
  6
Continuous
 62
     7
100
AcDbLine
 10
8.6707730967
 20
76.1789350635
 30
0.0
 11
9.0836670536
 21
78.0369578699
 31
0.0
  0
LINE
  5
2F8
330
1F
100
AcDbEntity
  8
0
  6
Continuous
 62
     7
100
AcDbLine
 10
9.0836670536
 20
78.0369578699
 30
0.0
 11
9.7030079891
 21
77.0047229774
 31
0.0
  0
LINE
  5
2F9
330
1F
100
AcDbEntity
  8
0
  6
Continuous
 62
     7
100
AcDbLine
 10
9.7030079891
 20
77.0047229774
 30
0.0
 11
10.3223489246
 21
81.3401095258
 31
0.0
  0
LINE
  5
2FA
330
1F
100
AcDbEntity
  8
0
  6
Continuous
 62
     7
100
AcDbLine
 10
10.3223489246
 20
81.3401095258
 30
0.0
 11
10.9416898601
 21
79.6885336978
 31
0.0
  0
LINE
  5
2FB
330
1F
100
AcDbEntity
  8
0
  6
Continuous
 62
     7
100
AcDbLine
 10
10.9416898601
 20
79.6885336978
 30
0.0
 11
11.5610307955
 21
86.0883900311
 31
0.0
  0
LINE
  5
2FC
330
1F
100
AcDbEntity
  8
0
  6
Continuous
 62
     7
100
AcDbLine
 10
11.5610307955
 20
86.0883900311
 30
0.0
 11
12.180371731
 21
83.4045793107
 31
0.0
  0
LINE
  5
2FD
330
1F
100
AcDbEntity
  8
0
  6
Continuous
 62
     7
100
AcDbLine
 10
12.180371731
 20
83.4045793107
 30
0.0
 11
12.593265688
 21
89.8044356439
 31
0.0
  0
LINE
  5
2FE
330
1F
100
AcDbEntity
  8
0
  6
Continuous
 62
     7
100
AcDbLine
 10
12.593265688
 20
89.8044356439
 30
0.0
 11
13.2126066235
 21
84.2303672246
 31
0.0
  0
LINE
  5
2FF
330
1F
100
AcDbEntity
  8
0
  6
Continuous
 62
     7
100
AcDbLine
 10
13.2126066235
 20
84.2303672246
 30
0.0
 11
13.8319475589
 21
91.8689054288
 31
0.0
  0
LINE
  5
300
330
1F
100
AcDbEntity
  8
0
  6
Continuous
 62
     7
100
AcDbLine
 10
13.8319475589
 20
91.8689054288
 30
0.0
 11
14.4512884944
 21
88.3593067945
 31
0.0
  0
LINE
  5
301
330
1F
100
AcDbEntity
  8
0
  6
Continuous
 62
     7
100
AcDbLine
 10
14.4512884944
 20
88.3593067945
 30
0.0
 11
15.0706294299
 21
94.1398221923
 31
0.0
  0
LINE
  5
302
330
1F
100
AcDbEntity
  8
0
  6
Continuous
 62
     7
100
AcDbLine
 10
15.0706294299
 20
94.1398221923
 30
0.0
 11
15.6899703654
 21
90.2173296009
 31
0.0
  0
LINE
  5
303
330
1F
100
AcDbEntity
  8
0
  6
Continuous
 62
     7
100
AcDbLine
 10
15.6899703654
 20
90.2173296009
 30
0.0
 11
16.3093113009
 21
97.4429738481
 31
0.0
  0
LINE
  5
304
330
1F
100
AcDbEntity
  8
0
  6
Continuous
 62
     7
100
AcDbLine
 10
16.3093113009
 20
97.4429738481
 30
0.0
 11
16.9286522363
 21
91.6624584503
 31
0.0
  0
LINE
  5
305
330
1F
100
AcDbEntity
  8
0
  6
Continuous
 62
     7
100
AcDbLine
 10
16.9286522363
 20
91.6624584503
 30
0.0
 11
17.5479931718
 21
99.3009966545
 31
0.0
  0
LINE
  5
306
330
1F
100
AcDbEntity
  8
0
  6
Continuous
 62
     7
100
AcDbLine
 10
17.5479931718
 20
99.3009966545
 30
0.0
 11
18.1673341073
 21
92.9011403213
 31
0.0
  0
LINE
  5
307
330
1F
100
AcDbEntity
  8
0
  6
Continuous
 62
     7
100
AcDbLine
 10
18.1673341073
 20
92.9011403213
 30
0.0
 11
18.3737810858
 21
133.9840890412
 31
0.0
  0
LWPOLYLINE
  5
308
330
1F
100
AcDbEntity
  8
0
  6
Continuous
 62
     7
100
AcDbPolyline
 90
        4
 70
   128
 43
0.0
 10
270.0326442719
 20
78.8627457839
 10
270.0236692416
 20
76.240789208
 10
270.191274424
 20
75.8207869117
 10
270.8584357812
 20
75.146700171
  0
ENDSEC
  0
SECTION
  2
OBJECTS
  0
DICTIONARY
  5
C
330
0
100
AcDbDictionary
281
     1
  3
ACAD_GROUP
350
D
  3
ACAD_LAYOUT
350
1A
  3
ACAD_MLINESTYLE
350
17
  3
ACAD_PLOTSETTINGS
350
19
  3
ACAD_PLOTSTYLENAME
350
E
  0
DICTIONARY
  5
D
102
{ACAD_REACTORS
330
C
102
}
330
C
100
AcDbDictionary
281
     1
  0
DICTIONARY
  5
1A
102
{ACAD_REACTORS
330
C
102
}
330
C
100
AcDbDictionary
281
     1
  3
Layout1
350
1E
  3
Layout2
350
26
  3
Model
350
22
  0
DICTIONARY
  5
17
102
{ACAD_REACTORS
330
C
102
}
330
C
100
AcDbDictionary
281
     1
  3
Standard
350
18
  0
DICTIONARY
  5
19
102
{ACAD_REACTORS
330
C
102
}
330
C
100
AcDbDictionary
281
     1
  0
ACDBDICTIONARYWDFLT
  5
E
102
{ACAD_REACTORS
330
C
102
}
330
C
100
AcDbDictionary
281
     1
  3
Normal
350
F
100
AcDbDictionaryWithDefault
340
F
  0
LAYOUT
  5
1E
102
{ACAD_REACTORS
330
1A
102
}
330
1A
100
AcDbPlotSettings
  1

  2
none_device
  4

  6

 40
0.0
 41
0.0
 42
0.0
 43
0.0
 44
0.0
 45
0.0
 46
0.0
 47
0.0
 48
0.0
 49
0.0
140
0.0
141
0.0
142
1.0
143
1.0
 70
   688
 72
     0
 73
     0
 74
     5
  7

 75
    16
147
1.0
148
0.0
149
0.0
100
AcDbLayout
  1
Layout1
 70
     1
 71
     1
 10
0.0
 20
0.0
 11
420.0
 21
297.0
 12
0.0
 22
0.0
 32
0.0
 14
1.0000000000E+20
 24
1.0000000000E+20
 34
1.0000000000E+20
 15
-1.0000000000E+20
 25
-1.0000000000E+20
 35
-1.0000000000E+20
146
0.0
 13
0.0
 23
0.0
 33
0.0
 16
1.0
 26
0.0
 36
0.0
 17
0.0
 27
1.0
 37
0.0
 76
     0
330
1B
  0
LAYOUT
  5
26
102
{ACAD_REACTORS
330
1A
102
}
330
1A
100
AcDbPlotSettings
  1

  2
none_device
  4

  6

 40
0.0
 41
0.0
 42
0.0
 43
0.0
 44
0.0
 45
0.0
 46
0.0
 47
0.0
 48
0.0
 49
0.0
140
0.0
141
0.0
142
1.0
143
1.0
 70
   688
 72
     0
 73
     0
 74
     5
  7

 75
    16
147
1.0
148
0.0
149
0.0
100
AcDbLayout
  1
Layout2
 70
     1
 71
     2
 10
0.0
 20
0.0
 11
0.0
 21
0.0
 12
0.0
 22
0.0
 32
0.0
 14
0.0
 24
0.0
 34
0.0
 15
0.0
 25
0.0
 35
0.0
146
0.0
 13
0.0
 23
0.0
 33
0.0
 16
1.0
 26
0.0
 36
0.0
 17
0.0
 27
1.0
 37
0.0
 76
     0
330
23
  0
LAYOUT
  5
22
102
{ACAD_REACTORS
330
1A
102
}
330
1A
100
AcDbPlotSettings
  1

  2
none_device
  4
ANSI_A_(11.00_x_8.50_Inches)
  6

 40
6.35
 41
19.05
 42
6.35000508
 43
19.05000254
 44
279.4
 45
215.9
 46
-6.7794544842
 47
0.4185489868
 48
0.0
 49
0.0
140
0.0
141
0.0
142
0.0387011164
143
1.0
 70
  1696
 72
     0
 73
     0
 74
     0
  7

 75
     0
147
0.0179189148
148
0.0
149
0.0
100
AcDbLayout
  1
Model
 70
     1
 71
     0
 10
0.0
 20
0.0
 11
420.0
 21
297.0
 12
0.0
 22
0.0
 32
0.0
 14
1.8580228064
 24
46.0376762037
 34
0.0
 15
283.2452544907
 25
133.9840890412
 35
0.0
146
0.0
 13
0.0
 23
0.0
 33
0.0
 16
1.0
 26
0.0
 36
0.0
 17
0.0
 27
1.0
 37
0.0
 76
     0
330
1F
331
29
  0
MLINESTYLE
  5
18
102
{ACAD_REACTORS
330
17
102
}
330
17
100
AcDbMlineStyle
  2
Standard
 70
     0
  3

 62
   256
 51
90.0
 52
90.0
 71
     2
 49
0.5
 62
   256
  6
BYLAYER
 49
-0.5
 62
   256
  6
BYLAYER
  0
ACDBPLACEHOLDER
  5
F
102
{ACAD_REACTORS
330
E
102
}
330
E
  0
ENDSEC
  0
EOF
