  0
SECTION
  2
HEADER
  9
$ACADVER
  1
AC1014
  9
$HANDSEED
  5
FFFF
  9
$MEASUREMENT
 70
     1
  0
ENDSEC
  0
SECTION
  2
TABLES
  0
TABLE
  2
VPORT
  5
8
330
0
100
AcDbSymbolTable
 70
     4
  0
VPORT
  5
2E
330
8
100
AcDbSymbolTableRecord
100
AcDbViewportTableRecord
  2
*ACTIVE
 70
     0
 10
0.0
 20
0.0
 11
1.0
 21
1.0
 12
210.0
 22
148.5
 13
0.0
 23
0.0
 14
10.0
 24
10.0
 15
10.0
 25
10.0
 16
0.0
 26
0.0
 36
1.0
 17
0.0
 27
0.0
 37
0.0
 40
341.0
 41
1.24
 42
50.0
 43
0.0
 44
0.0
 50
0.0
 51
0.0
 71
     0
 72
   100
 73
     1
 74
     3
 75
     0
 76
     0
 77
     0
 78
     0
  0
ENDTAB
  0
TABLE
  2
LTYPE
  5
5
330
0
100
AcDbSymbolTable
 70
     1
  0
LTYPE
  5
14
330
5
100
AcDbSymbolTableRecord
100
AcDbLinetypeTableRecord
  2
BYBLOCK
 70
     0
  3

 72
    65
 73
     0
 40
0.0
  0
LTYPE
  5
15
330
5
100
AcDbSymbolTableRecord
100
AcDbLinetypeTableRecord
  2
BYLAYER
 70
     0
  3

 72
    65
 73
     0
 40
0.0
  0
LTYPE
  5
16
330
5
100
AcDbSymbolTableRecord
100
AcDbLinetypeTableRecord
  2
CONTINUOUS
 70
     0
  3
Solid line
 72
    65
 73
     0
 40
0.0
  0
ENDTAB
  0
TABLE
  2
LAYER
  5
2
100
AcDbSymbolTable
 70
3
  0
LAYER
  5
50
100
AcDbSymbolTableRecord
100
AcDbLayerTableRecord
  2
0
 70
0
  6
CONTINUOUS
  0
LAYER
  5
51
100
AcDbSymbolTableRecord
100
AcDbLayerTableRecord
  2
Ebene_1
 70
0
  6
CONTINUOUS
  0
LAYER
  5
52
100
AcDbSymbolTableRecord
100
AcDbLayerTableRecord
  2
Ebene_2
 70
0
  6
CONTINUOUS
  0
ENDTAB
  0
TABLE
  2
STYLE
  5
3
330
0
100
AcDbSymbolTable
 70
     1
  0
STYLE
  5
11
330
3
100
AcDbSymbolTableRecord
100
AcDbTextStyleTableRecord
  2
STANDARD
 70
     0
 40
0.0
 41
1.0
 50
0.0
 71
     0
 42
2.5
  3
txt
  4

  0
ENDTAB
  0
TABLE
  2
VIEW
  5
6
330
0
100
AcDbSymbolTable
 70
     0
  0
ENDTAB
  0
TABLE
  2
UCS
  5
7
330
0
100
AcDbSymbolTable
 70
     0
  0
ENDTAB
  0
TABLE
  2
APPID
  5
9
330
0
100
AcDbSymbolTable
 70
     2
  0
APPID
  5
12
330
9
100
AcDbSymbolTableRecord
100
AcDbRegAppTableRecord
  2
ACAD
 70
     0
  0
ENDTAB
  0
TABLE
  2
DIMSTYLE
  5
A
330
0
100
AcDbSymbolTable
 70
     1
  0
DIMSTYLE
105
27
330
A
100
AcDbSymbolTableRecord
100
AcDbDimStyleTableRecord
  2
ISO-25
 70
     0
  3

  4

  5

  6

  7

 40
1.0
 41
2.5
 42
0.625
 43
3.75
 44
1.25
 45
0.0
 46
0.0
 47
0.0
 48
0.0
140
2.5
141
2.5
142
0.0
143
0.03937007874016
144
1.0
145
0.0
146
1.0
147
0.625
 71
     0
 72
     0
 73
     0
 74
     0
 75
     0
 76
     0
 77
     1
 78
     8
170
     0
171
     3
172
     1
173
     0
174
     0
175
     0
176
     0
177
     0
178
     0
270
     2
271
     2
272
     2
273
     2
274
     3
340
11
275
     0
280
     0
281
     0
282
     0
283
     0
284
     8
285
     0
286
     0
287
     3
288
     0
  0
ENDTAB
  0
TABLE
  2
BLOCK_RECORD
  5
1
330
0
100
AcDbSymbolTable
 70
     1
  0
BLOCK_RECORD
  5
1F
330
1
100
AcDbSymbolTableRecord
100
AcDbBlockTableRecord
  2
*MODEL_SPACE
  0
BLOCK_RECORD
  5
1B
330
1
100
AcDbSymbolTableRecord
100
AcDbBlockTableRecord
  2
*PAPER_SPACE
  0
ENDTAB
  0
ENDSEC
  0
SECTION
  2
BLOCKS
  0
BLOCK
  5
20
330
1F
100
AcDbEntity
  8
0
100
AcDbBlockBegin
  2
*MODEL_SPACE
 70
     0
 10
0.0
 20
0.0
 30
0.0
  3
*MODEL_SPACE
  1

  0
ENDBLK
  5
21
330
1F
100
AcDbEntity
  8
0
100
AcDbBlockEnd
  0
BLOCK
  5
1C
330
1B
100
AcDbEntity
 67
     1
  8
0
100
AcDbBlockBegin
  2
*PAPER_SPACE
  1

  0
ENDBLK
  5
1D
330
1B
100
AcDbEntity
 67
     1
  8
0
100
AcDbBlockEnd
  0
ENDSEC
  0
SECTION
  2
ENTITIES
  0
SPLINE
  5
100
100
AcDbEntity
  8
Ebene_2
 62
7
100
AcDbSpline
 70
8
 71
3
 72
8
 73
4
 74
0
 40
0
 40
0
 40
0
 40
0
 40
1
 40
1
 40
1
 40
1
 10
70.318325
 20
152.275401
 30
0.0
 10
69.892388
 20
152.824932
 30
0.0
 10
69.048607
 20
152.440316
 30
0.0
 10
69.011787
 20
151.944830
 30
0.0
  0
SPLINE
  5
101
100
AcDbEntity
  8
Ebene_2
 62
7
100
AcDbSpline
 70
8
 71
3
 72
8
 73
4
 74
0
 40
0
 40
0
 40
0
 40
0
 40
1
 40
1
 40
1
 40
1
 10
69.011787
 20
151.944830
 30
0.0
 10
68.117754
 20
143.803583
 30
0.0
 10
62.914837
 20
136.485056
 30
0.0
 10
59.134970
 20
128.898777
 30
0.0
  0
SPLINE
  5
102
100
AcDbEntity
  8
Ebene_2
 62
7
100
AcDbSpline
 70
8
 71
3
 72
8
 73
4
 74
0
 40
0
 40
0
 40
0
 40
0
 40
1
 40
1
 40
1
 40
1
 10
59.134970
 20
128.898777
 30
0.0
 10
58.070130
 20
126.010389
 30
0.0
 10
57.144311
 20
123.008256
 30
0.0
 10
57.395705
 20
119.042948
 30
0.0
  0
SPLINE
  5
103
100
AcDbEntity
  8
Ebene_2
 62
7
100
AcDbSpline
 70
8
 71
3
 72
8
 73
4
 74
0
 40
0
 40
0
 40
0
 40
0
 40
1
 40
1
 40
1
 40
1
 10
57.395705
 20
119.042948
 30
0.0
 10
57.867278
 20
114.180352
 30
0.0
 10
59.660019
 20
109.813650
 30
0.0
 10
62.803177
 20
105.193920
 30
0.0
  0
SPLINE
  5
104
100
AcDbEntity
  8
Ebene_2
 62
7
100
AcDbSpline
 70
8
 71
3
 72
8
 73
4
 74
0
 40
0
 40
0
 40
0
 40
0
 40
1
 40
1
 40
1
 40
1
 10
62.803177
 20
105.193920
 30
0.0
 10
63.310994
 20
104.646200
 30
0.0
 10
63.476124
 20
104.441200
 30
0.0
 10
64.234308
 20
104.920620
 30
0.0
  0
SPLINE
  5
105
100
AcDbEntity
  8
Ebene_2
 62
7
100
AcDbSpline
 70
8
 71
3
 72
8
 73
4
 74
0
 40
0
 40
0
 40
0
 40
0
 40
1
 40
1
 40
1
 40
1
 10
64.234308
 20
104.920620
 30
0.0
 10
64.847252
 20
105.820920
 30
0.0
 10
64.162028
 20
109.559640
 30
0.0
 10
64.610429
 20
109.509210
 30
0.0
  0
SPLINE
  5
106
100
AcDbEntity
  8
Ebene_2
 62
7
100
AcDbSpline
 70
8
 71
3
 72
8
 73
4
 74
0
 40
0
 40
0
 40
0
 40
0
 40
1
 40
1
 40
1
 40
1
 10
64.610429
 20
109.509210
 30
0.0
 10
64.305447
 20
113.826205
 30
0.0
 10
67.752050
 20
119.550045
 30
0.0
 10
71.245398
 20
125.291414
 30
0.0
  0
SPLINE
  5
107
100
AcDbEntity
  8
Ebene_2
 62
7
100
AcDbSpline
 70
8
 71
3
 72
8
 73
4
 74
0
 40
0
 40
0
 40
0
 40
0
 40
1
 40
1
 40
1
 40
1
 10
71.245398
 20
125.291414
 30
0.0
 10
75.581626
 20
133.966059
 30
0.0
 10
71.561840
 20
142.126584
 30
0.0
 10
70.318325
 20
152.275401
 30
0.0
  0
SPLINE
  5
108
100
AcDbEntity
  8
Ebene_2
 62
7
100
AcDbSpline
 70
8
 71
3
 72
8
 73
4
 74
0
 40
0
 40
0
 40
0
 40
0
 40
1
 40
1
 40
1
 40
1
 10
70.101179
 20
145.303939
 30
0.0
 10
67.601597
 20
137.384748
 30
0.0
 10
62.075556
 20
134.284972
 30
0.0
 10
59.761368
 20
126.127465
 30
0.0
  0
SPLINE
  5
109
100
AcDbEntity
  8
Ebene_2
 62
7
100
AcDbSpline
 70
8
 71
3
 72
8
 73
4
 74
0
 40
0
 40
0
 40
0
 40
0
 40
1
 40
1
 40
1
 40
1
 10
59.761368
 20
126.127465
 30
0.0
 10
58.088918
 20
118.188117
 30
0.0
 10
59.741588
 20
113.535070
 30
0.0
 10
62.243834
 20
110.196412
 30
0.0
  0
SPLINE
  5
10a
100
AcDbEntity
  8
Ebene_2
 62
7
100
AcDbSpline
 70
8
 71
3
 72
8
 73
4
 74
0
 40
0
 40
0
 40
0
 40
0
 40
1
 40
1
 40
1
 40
1
 10
62.243834
 20
110.196412
 30
0.0
 10
62.570932
 20
110.009144
 30
0.0
 10
62.888440
 20
110.061658
 30
0.0
 10
63.200380
 20
110.253352
 30
0.0
  0
SPLINE
  5
10b
100
AcDbEntity
  8
Ebene_2
 62
7
100
AcDbSpline
 70
8
 71
3
 72
8
 73
4
 74
0
 40
0
 40
0
 40
0
 40
0
 40
1
 40
1
 40
1
 40
1
 10
63.200380
 20
110.253352
 30
0.0
 10
66.434712
 20
118.503481
 30
0.0
 10
71.603966
 20
131.059483
 30
0.0
 10
71.604322
 20
132.823291
 30
0.0
  0
SPLINE
  5
10c
100
AcDbEntity
  8
Ebene_2
 62
7
100
AcDbSpline
 70
8
 71
3
 72
8
 73
4
 74
0
 40
0
 40
0
 40
0
 40
0
 40
1
 40
1
 40
1
 40
1
 10
71.604322
 20
132.823291
 30
0.0
 10
71.744425
 20
136.538362
 30
0.0
 10
70.934180
 20
140.190077
 30
0.0
 10
70.192277
 20
143.846348
 30
0.0
  0
LWPOLYLINE
  5
10d
100
AcDbEntity
  8
Ebene_2
 62
7
100
AcDbPolyline
 90
1
 70
1
 10
70.318325
 20
152.275401
 30
0.0
  0
LWPOLYLINE
  5
10e
100
AcDbEntity
  8
Ebene_2
 62
7
100
AcDbPolyline
 90
2
 70
0
 10
70.192277
 20
143.846348
 30
0.0
 10
70.101179
 20
145.303939
 30
0.0
  0
SPLINE
  5
10f
100
AcDbEntity
  8
Ebene_2
 62
7
100
AcDbSpline
 70
8
 71
3
 72
8
 73
4
 74
0
 40
0
 40
0
 40
0
 40
0
 40
1
 40
1
 40
1
 40
1
 10
72.879719
 20
110.686073
 30
0.0
 10
78.233170
 20
127.328180
 30
0.0
 10
77.301961
 20
121.585327
 30
0.0
 10
79.476152
 20
126.061310
 30
0.0
  0
SPLINE
  5
110
100
AcDbEntity
  8
Ebene_2
 62
7
100
AcDbSpline
 70
8
 71
3
 72
8
 73
4
 74
0
 40
0
 40
0
 40
0
 40
0
 40
1
 40
1
 40
1
 40
1
 10
79.476152
 20
126.061310
 30
0.0
 10
79.919811
 20
126.433737
 30
0.0
 10
80.141306
 20
126.065810
 30
0.0
 10
80.156302
 20
125.785836
 30
0.0
  0
SPLINE
  5
111
100
AcDbEntity
  8
Ebene_2
 62
7
100
AcDbSpline
 70
8
 71
3
 72
8
 73
4
 74
0
 40
0
 40
0
 40
0
 40
0
 40
1
 40
1
 40
1
 40
1
 10
80.156302
 20
125.785836
 30
0.0
 10
79.210460
 20
119.666304
 30
0.0
 10
76.535234
 20
110.857687
 30
0.0
 10
83.265078
 20
106.358840
 30
0.0
  0
SPLINE
  5
112
100
AcDbEntity
  8
Ebene_2
 62
7
100
AcDbSpline
 70
8
 71
3
 72
8
 73
4
 74
0
 40
0
 40
0
 40
0
 40
0
 40
1
 40
1
 40
1
 40
1
 10
83.265078
 20
106.358840
 30
0.0
 10
86.521315
 20
103.748370
 30
0.0
 10
88.708303
 20
105.034640
 30
0.0
 10
90.039610
 20
106.289340
 30
0.0
  0
SPLINE
  5
113
100
AcDbEntity
  8
Ebene_2
 62
7
100
AcDbSpline
 70
8
 71
3
 72
8
 73
4
 74
0
 40
0
 40
0
 40
0
 40
0
 40
1
 40
1
 40
1
 40
1
 10
90.039610
 20
106.289340
 30
0.0
 10
92.497988
 20
110.421164
 30
0.0
 10
89.380927
 20
116.520659
 30
0.0
 10
88.822156
 20
117.472998
 30
0.0
  0
SPLINE
  5
114
100
AcDbEntity
  8
Ebene_2
 62
7
100
AcDbSpline
 70
8
 71
3
 72
8
 73
4
 74
0
 40
0
 40
0
 40
0
 40
0
 40
1
 40
1
 40
1
 40
1
 10
88.822156
 20
117.472998
 30
0.0
 10
87.003386
 20
124.060472
 30
0.0
 10
88.112010
 20
128.507793
 30
0.0
 10
88.958805
 20
132.641089
 30
0.0
  0
SPLINE
  5
115
100
AcDbEntity
  8
Ebene_2
 62
7
100
AcDbSpline
 70
8
 71
3
 72
8
 73
4
 74
0
 40
0
 40
0
 40
0
 40
0
 40
1
 40
1
 40
1
 40
1
 10
88.958805
 20
132.641089
 30
0.0
 10
91.943382
 20
141.258905
 30
0.0
 10
95.435796
 20
144.459800
 30
0.0
 10
98.752018
 20
149.540074
 30
0.0
  0
SPLINE
  5
116
100
AcDbEntity
  8
Ebene_2
 62
7
100
AcDbSpline
 70
8
 71
3
 72
8
 73
4
 74
0
 40
0
 40
0
 40
0
 40
0
 40
1
 40
1
 40
1
 40
1
 10
98.752018
 20
149.540074
 30
0.0
 10
102.774490
 20
154.923631
 30
0.0
 10
106.940600
 20
159.807751
 30
0.0
 10
108.755900
 20
165.681792
 30
0.0
  0
SPLINE
  5
117
100
AcDbEntity
  8
Ebene_2
 62
7
100
AcDbSpline
 70
8
 71
3
 72
8
 73
4
 74
0
 40
0
 40
0
 40
0
 40
0
 40
1
 40
1
 40
1
 40
1
 10
108.755900
 20
165.681792
 30
0.0
 10
109.022450
 20
166.184296
 30
0.0
 10
109.529590
 20
166.305780
 30
0.0
 10
110.008510
 20
165.807053
 30
0.0
  0
SPLINE
  5
118
100
AcDbEntity
  8
Ebene_2
 62
7
100
AcDbSpline
 70
8
 71
3
 72
8
 73
4
 74
0
 40
0
 40
0
 40
0
 40
0
 40
1
 40
1
 40
1
 40
1
 10
110.008510
 20
165.807053
 30
0.0
 10
111.721380
 20
158.429354
 30
0.0
 10
111.458180
 20
150.788569
 30
0.0
 10
109.501780
 20
141.022254
 30
0.0
  0
SPLINE
  5
119
100
AcDbEntity
  8
Ebene_2
 62
7
100
AcDbSpline
 70
8
 71
3
 72
8
 73
4
 74
0
 40
0
 40
0
 40
0
 40
0
 40
1
 40
1
 40
1
 40
1
 10
109.501780
 20
141.022254
 30
0.0
 10
108.741780
 20
135.729031
 30
0.0
 10
107.322790
 20
125.067386
 30
0.0
 10
114.967750
 20
128.427729
 30
0.0
  0
SPLINE
  5
11a
100
AcDbEntity
  8
Ebene_2
 62
7
100
AcDbSpline
 70
8
 71
3
 72
8
 73
4
 74
0
 40
0
 40
0
 40
0
 40
0
 40
1
 40
1
 40
1
 40
1
 10
114.967750
 20
128.427729
 30
0.0
 10
116.774720
 20
131.116418
 30
0.0
 10
117.355000
 20
135.100699
 30
0.0
 10
117.882940
 20
138.835865
 30
0.0
  0
SPLINE
  5
11b
100
AcDbEntity
  8
Ebene_2
 62
7
100
AcDbSpline
 70
8
 71
3
 72
8
 73
4
 74
0
 40
0
 40
0
 40
0
 40
0
 40
1
 40
1
 40
1
 40
1
 10
117.882940
 20
138.835865
 30
0.0
 10
117.129130
 20
146.429582
 30
0.0
 10
117.303000
 20
153.219094
 30
0.0
 10
118.156240
 20
159.970982
 30
0.0
  0
SPLINE
  5
11c
100
AcDbEntity
  8
Ebene_2
 62
7
100
AcDbSpline
 70
8
 71
3
 72
8
 73
4
 74
0
 40
0
 40
0
 40
0
 40
0
 40
1
 40
1
 40
1
 40
1
 10
118.156240
 20
159.970982
 30
0.0
 10
118.056540
 20
164.104372
 30
0.0
 10
119.981710
 20
167.212569
 30
0.0
 10
122.500550
 20
171.107913
 30
0.0
  0
SPLINE
  5
11d
100
AcDbEntity
  8
Ebene_2
 62
7
100
AcDbSpline
 70
8
 71
3
 72
8
 73
4
 74
0
 40
0
 40
0
 40
0
 40
0
 40
1
 40
1
 40
1
 40
1
 10
122.500550
 20
171.107913
 30
0.0
 10
123.859700
 20
172.274018
 30
0.0
 10
124.127980
 20
171.265985
 30
0.0
 10
124.328250
 20
170.697966
 30
0.0
  0
SPLINE
  5
11e
100
AcDbEntity
  8
Ebene_2
 62
7
100
AcDbSpline
 70
8
 71
3
 72
8
 73
4
 74
0
 40
0
 40
0
 40
0
 40
0
 40
1
 40
1
 40
1
 40
1
 10
124.328250
 20
170.697966
 30
0.0
 10
124.849460
 20
169.938419
 30
0.0
 10
123.244140
 20
166.855632
 30
0.0
 10
123.781650
 20
163.888267
 30
0.0
  0
SPLINE
  5
11f
100
AcDbEntity
  8
Ebene_2
 62
7
100
AcDbSpline
 70
8
 71
3
 72
8
 73
4
 74
0
 40
0
 40
0
 40
0
 40
0
 40
1
 40
1
 40
1
 40
1
 10
123.781650
 20
163.888267
 30
0.0
 10
125.235340
 20
157.708138
 30
0.0
 10
130.091280
 20
151.962338
 30
0.0
 10
135.533740
 20
146.291413
 30
0.0
  0
SPLINE
  5
120
100
AcDbEntity
  8
Ebene_2
 62
7
100
AcDbSpline
 70
8
 71
3
 72
8
 73
4
 74
0
 40
0
 40
0
 40
0
 40
0
 40
1
 40
1
 40
1
 40
1
 10
135.533740
 20
146.291413
 30
0.0
 10
138.933420
 20
140.610073
 30
0.0
 10
141.990700
 20
134.633020
 30
0.0
 10
142.753140
 20
126.674061
 30
0.0
  0
SPLINE
  5
121
100
AcDbEntity
  8
Ebene_2
 62
7
100
AcDbSpline
 70
8
 71
3
 72
8
 73
4
 74
0
 40
0
 40
0
 40
0
 40
0
 40
1
 40
1
 40
1
 40
1
 10
142.753140
 20
126.674061
 30
0.0
 10
143.657360
 20
120.634312
 30
0.0
 10
143.480100
 20
114.834892
 30
0.0
 10
142.844240
 20
109.137380
 30
0.0
  0
SPLINE
  5
122
100
AcDbEntity
  8
Ebene_2
 62
7
100
AcDbSpline
 70
8
 71
3
 72
8
 73
4
 74
0
 40
0
 40
0
 40
0
 40
0
 40
1
 40
1
 40
1
 40
1
 10
142.844240
 20
109.137380
 30
0.0
 10
142.530190
 20
104.780640
 30
0.0
 10
140.620070
 20
101.468220
 30
0.0
 10
141.257810
 20
99.813960
 30
0.0
  0
SPLINE
  5
123
100
AcDbEntity
  8
Ebene_2
 62
7
100
AcDbSpline
 70
8
 71
3
 72
8
 73
4
 74
0
 40
0
 40
0
 40
0
 40
0
 40
1
 40
1
 40
1
 40
1
 10
141.257810
 20
99.813960
 30
0.0
 10
143.013260
 20
99.357340
 30
0.0
 10
144.322700
 20
100.461740
 30
0.0
 10
145.759430
 20
101.120610
 30
0.0
  0
SPLINE
  5
124
100
AcDbEntity
  8
Ebene_2
 62
7
100
AcDbSpline
 70
8
 71
3
 72
8
 73
4
 74
0
 40
0
 40
0
 40
0
 40
0
 40
1
 40
1
 40
1
 40
1
 10
145.759430
 20
101.120610
 30
0.0
 10
147.446620
 20
102.559250
 30
0.0
 10
147.761280
 20
104.099190
 30
0.0
 10
148.663560
 20
105.851790
 30
0.0
  0
SPLINE
  5
125
100
AcDbEntity
  8
Ebene_2
 62
7
100
AcDbSpline
 70
8
 71
3
 72
8
 73
4
 74
0
 40
0
 40
0
 40
0
 40
0
 40
1
 40
1
 40
1
 40
1
 10
148.663560
 20
105.851790
 30
0.0
 10
148.783670
 20
106.098160
 30
0.0
 10
149.900320
 20
106.401210
 30
0.0
 10
150.077900
 20
105.113990
 30
0.0
  0
SPLINE
  5
126
100
AcDbEntity
  8
Ebene_2
 62
7
100
AcDbSpline
 70
8
 71
3
 72
8
 73
4
 74
0
 40
0
 40
0
 40
0
 40
0
 40
1
 40
1
 40
1
 40
1
 10
150.077900
 20
105.113990
 30
0.0
 10
150.425170
 20
102.767900
 30
0.0
 10
149.844940
 20
100.834030
 30
0.0
 10
149.043120
 20
98.998640
 30
0.0
  0
SPLINE
  5
127
100
AcDbEntity
  8
Ebene_2
 62
7
100
AcDbSpline
 70
8
 71
3
 72
8
 73
4
 74
0
 40
0
 40
0
 40
0
 40
0
 40
1
 40
1
 40
1
 40
1
 10
149.043120
 20
98.998640
 30
0.0
 10
147.218980
 20
94.758830
 30
0.0
 10
144.375480
 20
90.009350
 30
0.0
 10
143.843550
 20
86.415650
 30
0.0
  0
SPLINE
  5
128
100
AcDbEntity
  8
Ebene_2
 62
7
100
AcDbSpline
 70
8
 71
3
 72
8
 73
4
 74
0
 40
0
 40
0
 40
0
 40
0
 40
1
 40
1
 40
1
 40
1
 10
143.843550
 20
86.415650
 30
0.0
 10
143.423270
 20
85.466010
 30
0.0
 10
144.082610
 20
85.750210
 30
0.0
 10
144.455510
 20
85.707060
 30
0.0
  0
SPLINE
  5
129
100
AcDbEntity
  8
Ebene_2
 62
7
100
AcDbSpline
 70
8
 71
3
 72
8
 73
4
 74
0
 40
0
 40
0
 40
0
 40
0
 40
1
 40
1
 40
1
 40
1
 10
144.455510
 20
85.707060
 30
0.0
 10
147.685820
 20
85.750060
 30
0.0
 10
150.517080
 20
86.709790
 30
0.0
 10
154.413890
 20
88.457760
 30
0.0
  0
SPLINE
  5
12a
100
AcDbEntity
  8
Ebene_2
 62
7
100
AcDbSpline
 70
8
 71
3
 72
8
 73
4
 74
0
 40
0
 40
0
 40
0
 40
0
 40
1
 40
1
 40
1
 40
1
 10
154.413890
 20
88.457760
 30
0.0
 10
158.410380
 20
86.583070
 30
0.0
 10
162.991700
 20
86.340160
 30
0.0
 10
167.494510
 20
85.703140
 30
0.0
  0
SPLINE
  5
12b
100
AcDbEntity
  8
Ebene_2
 62
7
100
AcDbSpline
 70
8
 71
3
 72
8
 73
4
 74
0
 40
0
 40
0
 40
0
 40
0
 40
1
 40
1
 40
1
 40
1
 10
167.494510
 20
85.703140
 30
0.0
 10
167.897810
 20
85.593760
 30
0.0
 10
167.820340
 20
84.789920
 30
0.0
 10
167.451710
 20
83.565540
 30
0.0
  0
SPLINE
  5
12c
100
AcDbEntity
  8
Ebene_2
 62
7
100
AcDbSpline
 70
8
 71
3
 72
8
 73
4
 74
0
 40
0
 40
0
 40
0
 40
0
 40
1
 40
1
 40
1
 40
1
 10
167.451710
 20
83.565540
 30
0.0
 10
166.968600
 20
82.556760
 30
0.0
 10
166.465440
 20
81.798580
 30
0.0
 10
165.897020
 20
81.856280
 30
0.0
  0
SPLINE
  5
12d
100
AcDbEntity
  8
Ebene_2
 62
7
100
AcDbSpline
 70
8
 71
3
 72
8
 73
4
 74
0
 40
0
 40
0
 40
0
 40
0
 40
1
 40
1
 40
1
 40
1
 10
165.897020
 20
81.856280
 30
0.0
 10
163.398830
 20
82.051140
 30
0.0
 10
161.695420
 20
82.683130
 30
0.0
 10
160.039960
 20
83.341490
 30
0.0
  0
SPLINE
  5
12e
100
AcDbEntity
  8
Ebene_2
 62
7
100
AcDbSpline
 70
8
 71
3
 72
8
 73
4
 74
0
 40
0
 40
0
 40
0
 40
0
 40
1
 40
1
 40
1
 40
1
 10
160.039960
 20
83.341490
 30
0.0
 10
147.870980
 20
84.299020
 30
0.0
 10
144.425730
 20
82.622960
 30
0.0
 10
141.751030
 20
80.714290
 30
0.0
  0
SPLINE
  5
12f
100
AcDbEntity
  8
Ebene_2
 62
7
100
AcDbSpline
 70
8
 71
3
 72
8
 73
4
 74
0
 40
0
 40
0
 40
0
 40
0
 40
1
 40
1
 40
1
 40
1
 10
141.751030
 20
80.714290
 30
0.0
 10
141.473420
 20
80.311400
 30
0.0
 10
141.173510
 20
79.905720
 30
0.0
 10
141.842130
 20
79.621100
 30
0.0
  0
SPLINE
  5
130
100
AcDbEntity
  8
Ebene_2
 62
7
100
AcDbSpline
 70
8
 71
3
 72
8
 73
4
 74
0
 40
0
 40
0
 40
0
 40
0
 40
1
 40
1
 40
1
 40
1
 10
141.842130
 20
79.621100
 30
0.0
 10
150.882810
 20
79.418090
 30
0.0
 10
155.078220
 20
77.277420
 30
0.0
 10
167.145060
 20
76.455380
 30
0.0
  0
SPLINE
  5
131
100
AcDbEntity
  8
Ebene_2
 62
7
100
AcDbSpline
 70
8
 71
3
 72
8
 73
4
 74
0
 40
0
 40
0
 40
0
 40
0
 40
1
 40
1
 40
1
 40
1
 10
167.145060
 20
76.455380
 30
0.0
 10
168.614220
 20
76.492680
 30
0.0
 10
168.393330
 20
74.803570
 30
0.0
 10
168.169930
 20
73.517420
 30
0.0
  0
SPLINE
  5
132
100
AcDbEntity
  8
Ebene_2
 62
7
100
AcDbSpline
 70
8
 71
3
 72
8
 73
4
 74
0
 40
0
 40
0
 40
0
 40
0
 40
1
 40
1
 40
1
 40
1
 10
168.169930
 20
73.517420
 30
0.0
 10
167.636010
 20
70.876950
 30
0.0
 10
165.775940
 20
68.720340
 30
0.0
 10
165.483830
 20
69.407830
 30
0.0
  0
SPLINE
  5
133
100
AcDbEntity
  8
Ebene_2
 62
7
100
AcDbSpline
 70
8
 71
3
 72
8
 73
4
 74
0
 40
0
 40
0
 40
0
 40
0
 40
1
 40
1
 40
1
 40
1
 10
165.483830
 20
69.407830
 30
0.0
 10
156.408060
 20
71.093600
 30
0.0
 10
149.335370
 20
71.971660
 30
0.0
 10
145.577220
 20
71.513220
 30
0.0
  0
SPLINE
  5
134
100
AcDbEntity
  8
Ebene_2
 62
7
100
AcDbSpline
 70
8
 71
3
 72
8
 73
4
 74
0
 40
0
 40
0
 40
0
 40
0
 40
1
 40
1
 40
1
 40
1
 10
145.577220
 20
71.513220
 30
0.0
 10
145.828630
 20
70.527110
 30
0.0
 10
146.387870
 20
69.820860
 30
0.0
 10
147.581410
 20
69.691230
 30
0.0
  0
SPLINE
  5
135
100
AcDbEntity
  8
Ebene_2
 62
7
100
AcDbSpline
 70
8
 71
3
 72
8
 73
4
 74
0
 40
0
 40
0
 40
0
 40
0
 40
1
 40
1
 40
1
 40
1
 10
147.581410
 20
69.691230
 30
0.0
 10
147.651510
 20
69.050080
 30
0.0
 10
147.558410
 20
68.564750
 30
0.0
 10
147.157170
 20
68.373530
 30
0.0
  0
SPLINE
  5
136
100
AcDbEntity
  8
Ebene_2
 62
7
100
AcDbSpline
 70
8
 71
3
 72
8
 73
4
 74
0
 40
0
 40
0
 40
0
 40
0
 40
1
 40
1
 40
1
 40
1
 10
147.157170
 20
68.373530
 30
0.0
 10
145.612520
 20
67.818540
 30
0.0
 10
144.211570
 20
67.670700
 30
0.0
 10
142.790390
 20
67.465530
 30
0.0
  0
SPLINE
  5
137
100
AcDbEntity
  8
Ebene_2
 62
7
100
AcDbSpline
 70
8
 71
3
 72
8
 73
4
 74
0
 40
0
 40
0
 40
0
 40
0
 40
1
 40
1
 40
1
 40
1
 10
142.790390
 20
67.465530
 30
0.0
 10
136.450280
 20
70.214490
 30
0.0
 10
130.085100
 20
73.402280
 30
0.0
 10
124.077700
 20
70.328930
 30
0.0
  0
LWPOLYLINE
  5
138
100
AcDbEntity
  8
Ebene_2
 62
7
100
AcDbPolyline
 90
3
 70
0
 10
76.432605
 20
84.722670
 30
0.0
 10
72.378670
 20
96.793380
 30
0.0
 10
72.879719
 20
110.686073
 30
0.0
  0
SPLINE
  5
139
100
AcDbEntity
  8
Ebene_2
 62
7
100
AcDbSpline
 70
8
 71
3
 72
8
 73
4
 74
0
 40
0
 40
0
 40
0
 40
0
 40
1
 40
1
 40
1
 40
1
 10
124.099700
 20
70.021470
 30
0.0
 10
127.823820
 20
67.049850
 30
0.0
 10
137.712560
 20
65.127540
 30
0.0
 10
145.030640
 20
62.767660
 30
0.0
  0
SPLINE
  5
13a
100
AcDbEntity
  8
Ebene_2
 62
7
100
AcDbSpline
 70
8
 71
3
 72
8
 73
4
 74
0
 40
0
 40
0
 40
0
 40
0
 40
1
 40
1
 40
1
 40
1
 10
145.030640
 20
62.767660
 30
0.0
 10
147.184090
 20
62.383940
 30
0.0
 10
150.064690
 20
62.839260
 30
0.0
 10
151.225420
 20
61.310070
 30
0.0
  0
SPLINE
  5
13b
100
AcDbEntity
  8
Ebene_2
 62
7
100
AcDbSpline
 70
8
 71
3
 72
8
 73
4
 74
0
 40
0
 40
0
 40
0
 40
0
 40
1
 40
1
 40
1
 40
1
 10
151.225420
 20
61.310070
 30
0.0
 10
152.100760
 20
58.789890
 30
0.0
 10
151.346470
 20
57.736210
 30
0.0
 10
149.976700
 20
56.016180
 30
0.0
  0
SPLINE
  5
13c
100
AcDbEntity
  8
Ebene_2
 62
7
100
AcDbSpline
 70
8
 71
3
 72
8
 73
4
 74
0
 40
0
 40
0
 40
0
 40
0
 40
1
 40
1
 40
1
 40
1
 10
149.976700
 20
56.016180
 30
0.0
 10
146.493230
 20
55.001870
 30
0.0
 10
143.180530
 20
54.563880
 30
0.0
 10
140.641280
 20
54.922980
 30
0.0
  0
SPLINE
  5
13d
100
AcDbEntity
  8
Ebene_2
 62
7
100
AcDbSpline
 70
8
 71
3
 72
8
 73
4
 74
0
 40
0
 40
0
 40
0
 40
0
 40
1
 40
1
 40
1
 40
1
 10
140.641280
 20
54.922980
 30
0.0
 10
133.511920
 20
56.499000
 30
0.0
 10
126.409560
 20
60.620460
 30
0.0
 10
123.804420
 20
60.763470
 30
0.0
  0
SPLINE
  5
13e
100
AcDbEntity
  8
Ebene_2
 62
7
100
AcDbSpline
 70
8
 71
3
 72
8
 73
4
 74
0
 40
0
 40
0
 40
0
 40
0
 40
1
 40
1
 40
1
 40
1
 10
123.804420
 20
60.763470
 30
0.0
 10
122.284400
 20
61.076260
 30
0.0
 10
122.030700
 20
59.683680
 30
0.0
 10
122.473760
 20
59.075840
 30
0.0
  0
SPLINE
  5
13f
100
AcDbEntity
  8
Ebene_2
 62
7
100
AcDbSpline
 70
8
 71
3
 72
8
 73
4
 74
0
 40
0
 40
0
 40
0
 40
0
 40
1
 40
1
 40
1
 40
1
 10
122.473760
 20
59.075840
 30
0.0
 10
124.219320
 20
58.102170
 30
0.0
 10
126.120860
 20
57.150780
 30
0.0
 10
125.535320
 20
55.844090
 30
0.0
  0
SPLINE
  5
140
100
AcDbEntity
  8
Ebene_2
 62
7
100
AcDbSpline
 70
8
 71
3
 72
8
 73
4
 74
0
 40
0
 40
0
 40
0
 40
0
 40
1
 40
1
 40
1
 40
1
 10
125.535320
 20
55.844090
 30
0.0
 10
123.163950
 20
55.590460
 30
0.0
 10
120.579550
 20
55.760890
 30
0.0
 10
118.681210
 20
55.115760
 30
0.0
  0
SPLINE
  5
141
100
AcDbEntity
  8
Ebene_2
 62
7
100
AcDbSpline
 70
8
 71
3
 72
8
 73
4
 74
0
 40
0
 40
0
 40
0
 40
0
 40
1
 40
1
 40
1
 40
1
 10
118.681210
 20
55.115760
 30
0.0
 10
116.647050
 20
59.341550
 30
0.0
 10
114.051870
 20
63.961190
 30
0.0
 10
111.779270
 20
64.908500
 30
0.0
  0
SPLINE
  5
142
100
AcDbEntity
  8
Ebene_2
 62
7
100
AcDbSpline
 70
8
 71
3
 72
8
 73
4
 74
0
 40
0
 40
0
 40
0
 40
0
 40
1
 40
1
 40
1
 40
1
 10
111.779270
 20
64.908500
 30
0.0
 10
111.040760
 20
65.477530
 30
0.0
 10
110.299800
 20
66.002730
 30
0.0
 10
109.501780
 20
65.500650
 30
0.0
  0
SPLINE
  5
143
100
AcDbEntity
  8
Ebene_2
 62
7
100
AcDbSpline
 70
8
 71
3
 72
8
 73
4
 74
0
 40
0
 40
0
 40
0
 40
0
 40
1
 40
1
 40
1
 40
1
 10
109.501780
 20
65.500650
 30
0.0
 10
101.109870
 20
57.285730
 30
0.0
 10
94.465331
 20
52.052470
 30
0.0
 10
89.076591
 20
48.299400
 30
0.0
  0
LWPOLYLINE
  5
144
100
AcDbEntity
  8
Ebene_2
 62
7
100
AcDbPolyline
 90
2
 70
0
 10
124.077700
 20
70.328930
 30
0.0
 10
124.099700
 20
70.021470
 30
0.0
  0
SPLINE
  5
145
100
AcDbEntity
  8
Ebene_2
 62
7
100
AcDbSpline
 70
8
 71
3
 72
8
 73
4
 74
0
 40
0
 40
0
 40
0
 40
0
 40
1
 40
1
 40
1
 40
1
 10
85.829687
 20
49.440460
 30
0.0
 10
85.504023
 20
49.755150
 30
0.0
 10
85.981474
 20
50.546480
 30
0.0
 10
86.224239
 20
50.850450
 30
0.0
  0
SPLINE
  5
146
100
AcDbEntity
  8
Ebene_2
 62
7
100
AcDbSpline
 70
8
 71
3
 72
8
 73
4
 74
0
 40
0
 40
0
 40
0
 40
0
 40
1
 40
1
 40
1
 40
1
 10
86.224239
 20
50.850450
 30
0.0
 10
87.622235
 20
51.186540
 30
0.0
 10
99.546208
 20
62.724420
 30
0.0
 10
96.902394
 20
61.918820
 30
0.0
  0
SPLINE
  5
147
100
AcDbEntity
  8
Ebene_2
 62
7
100
AcDbSpline
 70
8
 71
3
 72
8
 73
4
 74
0
 40
0
 40
0
 40
0
 40
0
 40
1
 40
1
 40
1
 40
1
 10
96.902394
 20
61.918820
 30
0.0
 10
92.777205
 20
61.454230
 30
0.0
 10
75.522453
 20
48.972110
 30
0.0
 10
68.211530
 20
48.599410
 30
0.0
  0
SPLINE
  5
148
100
AcDbEntity
  8
Ebene_2
 62
7
100
AcDbSpline
 70
8
 71
3
 72
8
 73
4
 74
0
 40
0
 40
0
 40
0
 40
0
 40
1
 40
1
 40
1
 40
1
 10
68.211530
 20
48.599410
 30
0.0
 10
66.833072
 20
50.717270
 30
0.0
 10
65.951074
 20
52.630550
 30
0.0
 10
64.986258
 20
54.996590
 30
0.0
  0
SPLINE
  5
149
100
AcDbEntity
  8
Ebene_2
 62
7
100
AcDbSpline
 70
8
 71
3
 72
8
 73
4
 74
0
 40
0
 40
0
 40
0
 40
0
 40
1
 40
1
 40
1
 40
1
 10
64.986258
 20
54.996590
 30
0.0
 10
72.510424
 20
59.360670
 30
0.0
 10
81.179521
 20
61.232470
 30
0.0
 10
89.095455
 20
67.003820
 30
0.0
  0
SPLINE
  5
14a
100
AcDbEntity
  8
Ebene_2
 62
7
100
AcDbSpline
 70
8
 71
3
 72
8
 73
4
 74
0
 40
0
 40
0
 40
0
 40
0
 40
1
 40
1
 40
1
 40
1
 10
89.095455
 20
67.003820
 30
0.0
 10
89.172285
 20
67.304810
 30
0.0
 10
89.411847
 20
67.670900
 30
0.0
 10
88.321109
 20
67.504870
 30
0.0
  0
SPLINE
  5
14b
100
AcDbEntity
  8
Ebene_2
 62
7
100
AcDbSpline
 70
8
 71
3
 72
8
 73
4
 74
0
 40
0
 40
0
 40
0
 40
0
 40
1
 40
1
 40
1
 40
1
 10
88.321109
 20
67.504870
 30
0.0
 10
79.809140
 20
66.204240
 30
0.0
 10
72.962915
 20
65.132100
 30
0.0
 10
68.051436
 20
60.535750
 30
0.0
  0
SPLINE
  5
14c
100
AcDbEntity
  8
Ebene_2
 62
7
100
AcDbSpline
 70
8
 71
3
 72
8
 73
4
 74
0
 40
0
 40
0
 40
0
 40
0
 40
1
 40
1
 40
1
 40
1
 10
68.051436
 20
60.535750
 30
0.0
 10
67.154697
 20
60.578350
 30
0.0
 10
66.198952
 20
60.432100
 30
0.0
 10
65.591745
 20
61.401190
 30
0.0
  0
SPLINE
  5
14d
100
AcDbEntity
  8
Ebene_2
 62
7
100
AcDbSpline
 70
8
 71
3
 72
8
 73
4
 74
0
 40
0
 40
0
 40
0
 40
0
 40
1
 40
1
 40
1
 40
1
 10
65.591745
 20
61.401190
 30
0.0
 10
65.396006
 20
61.995420
 30
0.0
 10
65.137922
 20
62.546790
 30
0.0
 10
65.409547
 20
63.462330
 30
0.0
  0
SPLINE
  5
14e
100
AcDbEntity
  8
Ebene_2
 62
7
100
AcDbSpline
 70
8
 71
3
 72
8
 73
4
 74
0
 40
0
 40
0
 40
0
 40
0
 40
1
 40
1
 40
1
 40
1
 10
65.409547
 20
63.462330
 30
0.0
 10
65.595599
 20
64.009830
 30
0.0
 10
66.251321
 20
64.205080
 30
0.0
 10
66.776041
 20
64.498580
 30
0.0
  0
SPLINE
  5
14f
100
AcDbEntity
  8
Ebene_2
 62
7
100
AcDbSpline
 70
8
 71
3
 72
8
 73
4
 74
0
 40
0
 40
0
 40
0
 40
0
 40
1
 40
1
 40
1
 40
1
 10
66.776041
 20
64.498580
 30
0.0
 10
67.422973
 20
64.939190
 30
0.0
 10
67.306638
 20
65.241030
 30
0.0
 10
66.958241
 20
65.500680
 30
0.0
  0
SPLINE
  5
150
100
AcDbEntity
  8
Ebene_2
 62
7
100
AcDbSpline
 70
8
 71
3
 72
8
 73
4
 74
0
 40
0
 40
0
 40
0
 40
0
 40
1
 40
1
 40
1
 40
1
 10
66.958241
 20
65.500680
 30
0.0
 10
62.231911
 20
65.509680
 30
0.0
 10
56.136596
 20
64.511480
 30
0.0
 10
50.605853
 20
61.492290
 30
0.0
  0
SPLINE
  5
151
100
AcDbEntity
  8
Ebene_2
 62
7
100
AcDbSpline
 70
8
 71
3
 72
8
 73
4
 74
0
 40
0
 40
0
 40
0
 40
0
 40
1
 40
1
 40
1
 40
1
 10
50.605853
 20
61.492290
 30
0.0
 10
51.679129
 20
62.324490
 30
0.0
 10
52.015333
 20
67.149660
 30
0.0
 10
52.291198
 20
71.513250
 30
0.0
  0
SPLINE
  5
152
100
AcDbEntity
  8
Ebene_2
 62
7
100
AcDbSpline
 70
8
 71
3
 72
8
 73
4
 74
0
 40
0
 40
0
 40
0
 40
0
 40
1
 40
1
 40
1
 40
1
 10
52.291198
 20
71.513250
 30
0.0
 10
58.483988
 20
74.248730
 30
0.0
 10
66.266475
 20
72.804990
 30
0.0
 10
75.612707
 20
75.430540
 30
0.0
  0
SPLINE
  5
153
100
AcDbEntity
  8
Ebene_2
 62
7
100
AcDbSpline
 70
8
 71
3
 72
8
 73
4
 74
0
 40
0
 40
0
 40
0
 40
0
 40
1
 40
1
 40
1
 40
1
 10
75.612707
 20
75.430540
 30
0.0
 10
76.181919
 20
75.810140
 30
0.0
 10
77.171508
 20
76.217060
 30
0.0
 10
75.515917
 20
76.495270
 30
0.0
  0
SPLINE
  5
154
100
AcDbEntity
  8
Ebene_2
 62
7
100
AcDbSpline
 70
8
 71
3
 72
8
 73
4
 74
0
 40
0
 40
0
 40
0
 40
0
 40
1
 40
1
 40
1
 40
1
 10
75.515917
 20
76.495270
 30
0.0
 10
68.009322
 20
79.638260
 30
0.0
 10
60.370106
 20
79.333110
 30
0.0
 10
52.746697
 20
79.438930
 30
0.0
  0
SPLINE
  5
155
100
AcDbEntity
  8
Ebene_2
 62
7
100
AcDbSpline
 70
8
 71
3
 72
8
 73
4
 74
0
 40
0
 40
0
 40
0
 40
0
 40
1
 40
1
 40
1
 40
1
 10
52.746697
 20
79.438930
 30
0.0
 10
52.746697
 20
79.438930
 30
0.0
 10
52.403743
 20
81.704740
 30
0.0
 10
53.521045
 20
83.219560
 30
0.0
  0
SPLINE
  5
156
100
AcDbEntity
  8
Ebene_2
 62
7
100
AcDbSpline
 70
8
 71
3
 72
8
 73
4
 74
0
 40
0
 40
0
 40
0
 40
0
 40
1
 40
1
 40
1
 40
1
 10
53.521045
 20
83.219560
 30
0.0
 10
54.515206
 20
84.567430
 30
0.0
 10
55.593562
 20
86.749680
 30
0.0
 10
55.593562
 20
86.749680
 30
0.0
  0
SPLINE
  5
157
100
AcDbEntity
  8
Ebene_2
 62
7
100
AcDbSpline
 70
8
 71
3
 72
8
 73
4
 74
0
 40
0
 40
0
 40
0
 40
0
 40
1
 40
1
 40
1
 40
1
 10
55.593562
 20
86.749680
 30
0.0
 10
59.479496
 20
86.573650
 30
0.0
 10
62.386481
 20
85.725490
 30
0.0
 10
67.944432
 20
84.542130
 30
0.0
  0
SPLINE
  5
158
100
AcDbEntity
  8
Ebene_2
 62
7
100
AcDbSpline
 70
8
 71
3
 72
8
 73
4
 74
0
 40
0
 40
0
 40
0
 40
0
 40
1
 40
1
 40
1
 40
1
 10
67.944432
 20
84.542130
 30
0.0
 10
68.584818
 20
86.816760
 30
0.0
 10
69.093154
 20
87.115230
 30
0.0
 10
70.550678
 20
87.659230
 30
0.0
  0
LWPOLYLINE
  5
159
100
AcDbEntity
  8
Ebene_2
 62
7
100
AcDbPolyline
 90
3
 70
0
 10
89.076591
 20
48.299400
 30
0.0
 10
86.772416
 20
48.237300
 30
0.0
 10
85.829687
 20
49.440460
 30
0.0
  0
SPLINE
  5
15a
100
AcDbEntity
  8
Ebene_2
 62
7
100
AcDbSpline
 70
8
 71
3
 72
8
 73
4
 74
0
 40
0
 40
0
 40
0
 40
0
 40
1
 40
1
 40
1
 40
1
 10
135.789640
 20
181.170818
 30
0.0
 10
136.455790
 20
181.895553
 30
0.0
 10
137.970130
 20
183.807087
 30
0.0
 10
138.587570
 20
183.003863
 30
0.0
  0
SPLINE
  5
15b
100
AcDbEntity
  8
Ebene_2
 62
7
100
AcDbSpline
 70
8
 71
3
 72
8
 73
4
 74
0
 40
0
 40
0
 40
0
 40
0
 40
1
 40
1
 40
1
 40
1
 10
138.587570
 20
183.003863
 30
0.0
 10
138.105340
 20
179.266450
 30
0.0
 10
146.524140
 20
169.627994
 30
0.0
 10
151.340850
 20
162.041715
 30
0.0
  0
SPLINE
  5
15c
100
AcDbEntity
  8
Ebene_2
 62
7
100
AcDbSpline
 70
8
 71
3
 72
8
 73
4
 74
0
 40
0
 40
0
 40
0
 40
0
 40
1
 40
1
 40
1
 40
1
 10
151.340850
 20
162.041715
 30
0.0
 10
152.703820
 20
158.992284
 30
0.0
 10
152.662960
 20
152.267458
 30
0.0
 10
151.375250
 20
149.042948
 30
0.0
  0
SPLINE
  5
15d
100
AcDbEntity
  8
Ebene_2
 62
7
100
AcDbSpline
 70
8
 71
3
 72
8
 73
4
 74
0
 40
0
 40
0
 40
0
 40
0
 40
1
 40
1
 40
1
 40
1
 10
151.375250
 20
149.042948
 30
0.0
 10
149.746270
 20
143.360455
 30
0.0
 10
148.633860
 20
139.085723
 30
0.0
 10
147.078630
 20
133.828296
 30
0.0
  0
SPLINE
  5
15e
100
AcDbEntity
  8
Ebene_2
 62
7
100
AcDbSpline
 70
8
 71
3
 72
8
 73
4
 74
0
 40
0
 40
0
 40
0
 40
0
 40
1
 40
1
 40
1
 40
1
 10
147.078630
 20
133.828296
 30
0.0
 10
146.547340
 20
133.247821
 30
0.0
 10
145.784240
 20
131.502817
 30
0.0
 10
145.563840
 20
132.520295
 30
0.0
  0
SPLINE
  5
15f
100
AcDbEntity
  8
Ebene_2
 62
7
100
AcDbSpline
 70
8
 71
3
 72
8
 73
4
 74
0
 40
0
 40
0
 40
0
 40
0
 40
1
 40
1
 40
1
 40
1
 10
145.563840
 20
132.520295
 30
0.0
 10
145.504240
 20
133.541377
 30
0.0
 10
145.996160
 20
136.872200
 30
0.0
 10
145.554840
 20
136.821770
 30
0.0
  0
SPLINE
  5
160
100
AcDbEntity
  8
Ebene_2
 62
7
100
AcDbSpline
 70
8
 71
3
 72
8
 73
4
 74
0
 40
0
 40
0
 40
0
 40
0
 40
1
 40
1
 40
1
 40
1
 10
145.554840
 20
136.821770
 30
0.0
 10
144.632100
 20
142.641910
 30
0.0
 10
140.676510
 20
148.502399
 30
0.0
 10
136.398480
 20
154.243768
 30
0.0
  0
SPLINE
  5
161
100
AcDbEntity
  8
Ebene_2
 62
7
100
AcDbSpline
 70
8
 71
3
 72
8
 73
4
 74
0
 40
0
 40
0
 40
0
 40
0
 40
1
 40
1
 40
1
 40
1
 10
136.398480
 20
154.243768
 30
0.0
 10
127.059620
 20
167.509525
 30
0.0
 10
135.527040
 20
179.013658
 30
0.0
 10
135.789810
 20
181.170818
 30
0.0
  0
LWPOLYLINE
  5
162
100
AcDbEntity
  8
Ebene_2
 62
7
100
AcDbPolyline
 90
2
 70
0
 10
70.550678
 20
87.659230
 30
0.0
 10
76.432605
 20
84.722670
 30
0.0
  0
SPLINE
  5
163
100
AcDbEntity
  8
Ebene_2
 62
7
100
AcDbSpline
 70
8
 71
3
 72
8
 73
4
 74
0
 40
0
 40
0
 40
0
 40
0
 40
1
 40
1
 40
1
 40
1
 10
137.312610
 20
178.446877
 30
0.0
 10
141.997740
 20
169.800014
 30
0.0
 10
149.512480
 20
165.763899
 30
0.0
 10
150.360390
 20
157.383600
 30
0.0
  0
SPLINE
  5
164
100
AcDbEntity
  8
Ebene_2
 62
7
100
AcDbSpline
 70
8
 71
3
 72
8
 73
4
 74
0
 40
0
 40
0
 40
0
 40
0
 40
1
 40
1
 40
1
 40
1
 10
150.360390
 20
157.383600
 30
0.0
 10
150.831120
 20
149.862964
 30
0.0
 10
149.117900
 20
144.126903
 30
0.0
 10
147.361830
 20
140.401742
 30
0.0
  0
SPLINE
  5
165
100
AcDbEntity
  8
Ebene_2
 62
7
100
AcDbSpline
 70
8
 71
3
 72
8
 73
4
 74
0
 40
0
 40
0
 40
0
 40
0
 40
1
 40
1
 40
1
 40
1
 10
147.361830
 20
140.401742
 30
0.0
 10
147.054520
 20
139.309732
 30
0.0
 10
146.847460
 20
138.778565
 30
0.0
 10
146.514240
 20
139.738015
 30
0.0
  0
SPLINE
  5
166
100
AcDbEntity
  8
Ebene_2
 62
7
100
AcDbSpline
 70
8
 71
3
 72
8
 73
4
 74
0
 40
0
 40
0
 40
0
 40
0
 40
1
 40
1
 40
1
 40
1
 10
146.514240
 20
139.738015
 30
0.0
 10
146.395270
 20
147.574531
 30
0.0
 10
134.846890
 20
156.208808
 30
0.0
 10
134.190090
 20
162.504442
 30
0.0
  0
SPLINE
  5
167
100
AcDbEntity
  8
Ebene_2
 62
7
100
AcDbSpline
 70
8
 71
3
 72
8
 73
4
 74
0
 40
0
 40
0
 40
0
 40
0
 40
1
 40
1
 40
1
 40
1
 10
134.190090
 20
162.504442
 30
0.0
 10
132.647580
 20
166.829503
 30
0.0
 10
134.274090
 20
175.826802
 30
0.0
 10
136.236440
 20
178.310231
 30
0.0
  0
SPLINE
  5
168
100
AcDbEntity
  8
Ebene_2
 62
7
100
AcDbSpline
 70
8
 71
3
 72
8
 73
4
 74
0
 40
0
 40
0
 40
0
 40
0
 40
1
 40
1
 40
1
 40
1
 10
136.236440
 20
178.310231
 30
0.0
 10
136.710280
 20
178.873825
 30
0.0
 10
137.005100
 20
178.631787
 30
0.0
 10
137.312610
 20
178.446877
 30
0.0
  0
LWPOLYLINE
  5
169
100
AcDbEntity
  8
Ebene_2
 62
7
100
AcDbPolyline
 90
2
 70
0
 10
135.789810
 20
181.170818
 30
0.0
 10
135.789640
 20
181.170818
 30
0.0
  0
SPLINE
  5
16a
100
AcDbEntity
  8
Ebene_2
 62
7
100
AcDbSpline
 70
8
 71
3
 72
8
 73
4
 74
0
 40
0
 40
0
 40
0
 40
0
 40
1
 40
1
 40
1
 40
1
 10
166.177282
 20
152.322471
 30
0.0
 10
166.593485
 20
151.019234
 30
0.0
 10
166.527424
 20
149.814993
 30
0.0
 10
166.003982
 20
149.163375
 30
0.0
  0
SPLINE
  5
16b
100
AcDbEntity
  8
Ebene_2
 62
7
100
AcDbSpline
 70
8
 71
3
 72
8
 73
4
 74
0
 40
0
 40
0
 40
0
 40
0
 40
1
 40
1
 40
1
 40
1
 10
166.003982
 20
149.163375
 30
0.0
 10
165.480541
 20
148.511756
 30
0.0
 10
164.579242
 20
148.511756
 30
0.0
 10
163.639597
 20
149.163375
 30
0.0
  0
SPLINE
  5
16c
100
AcDbEntity
  8
Ebene_2
 62
7
100
AcDbSpline
 70
8
 71
3
 72
8
 73
4
 74
0
 40
0
 40
0
 40
0
 40
0
 40
1
 40
1
 40
1
 40
1
 10
163.639597
 20
149.163375
 30
0.0
 10
162.699952
 20
149.814993
 30
0.0
 10
161.864715
 20
151.019234
 30
0.0
 10
161.448512
 20
152.322471
 30
0.0
  0
SPLINE
  5
16d
100
AcDbEntity
  8
Ebene_2
 62
7
100
AcDbSpline
 70
8
 71
3
 72
8
 73
4
 74
0
 40
0
 40
0
 40
0
 40
0
 40
1
 40
1
 40
1
 40
1
 10
161.448512
 20
152.322471
 30
0.0
 10
160.805117
 20
154.337101
 30
0.0
 10
161.342114
 20
155.970281
 30
0.0
 10
162.647928
 20
155.970281
 30
0.0
  0
SPLINE
  5
16e
100
AcDbEntity
  8
Ebene_2
 62
7
100
AcDbSpline
 70
8
 71
3
 72
8
 73
4
 74
0
 40
0
 40
0
 40
0
 40
0
 40
1
 40
1
 40
1
 40
1
 10
162.647928
 20
155.970281
 30
0.0
 10
163.953742
 20
155.970281
 30
0.0
 10
165.533887
 20
154.337101
 30
0.0
 10
166.177282
 20
152.322471
 30
0.0
  0
LWPOLYLINE
  5
16f
100
AcDbEntity
  8
Ebene_2
 62
7
100
AcDbPolyline
 90
1
 70
1
 10
137.312610
 20
178.446877
 30
0.0
  0
SPLINE
  5
170
100
AcDbEntity
  8
Ebene_2
 62
7
100
AcDbSpline
 70
8
 71
3
 72
8
 73
4
 74
0
 40
0
 40
0
 40
0
 40
0
 40
1
 40
1
 40
1
 40
1
 10
163.990017
 20
152.419098
 30
0.0
 10
164.114387
 20
152.140053
 30
0.0
 10
164.100391
 20
151.882204
 30
0.0
 10
163.953303
 20
151.742682
 30
0.0
  0
SPLINE
  5
171
100
AcDbEntity
  8
Ebene_2
 62
7
100
AcDbSpline
 70
8
 71
3
 72
8
 73
4
 74
0
 40
0
 40
0
 40
0
 40
0
 40
1
 40
1
 40
1
 40
1
 10
163.953303
 20
151.742682
 30
0.0
 10
163.806215
 20
151.603159
 30
0.0
 10
163.548380
 20
151.603159
 30
0.0
 10
163.276922
 20
151.742682
 30
0.0
  0
SPLINE
  5
172
100
AcDbEntity
  8
Ebene_2
 62
7
100
AcDbSpline
 70
8
 71
3
 72
8
 73
4
 74
0
 40
0
 40
0
 40
0
 40
0
 40
1
 40
1
 40
1
 40
1
 10
163.276922
 20
151.742682
 30
0.0
 10
163.005465
 20
151.882204
 30
0.0
 10
162.761626
 20
152.140053
 30
0.0
 10
162.637257
 20
152.419098
 30
0.0
  0
SPLINE
  5
173
100
AcDbEntity
  8
Ebene_2
 62
7
100
AcDbSpline
 70
8
 71
3
 72
8
 73
4
 74
0
 40
0
 40
0
 40
0
 40
0
 40
1
 40
1
 40
1
 40
1
 10
162.637257
 20
152.419098
 30
0.0
 10
162.512887
 20
152.698143
 30
0.0
 10
162.526883
 20
152.955992
 30
0.0
 10
162.673971
 20
153.095514
 30
0.0
  0
SPLINE
  5
174
100
AcDbEntity
  8
Ebene_2
 62
7
100
AcDbSpline
 70
8
 71
3
 72
8
 73
4
 74
0
 40
0
 40
0
 40
0
 40
0
 40
1
 40
1
 40
1
 40
1
 10
162.673971
 20
153.095514
 30
0.0
 10
162.821060
 20
153.235037
 30
0.0
 10
163.078894
 20
153.235037
 30
0.0
 10
163.350352
 20
153.095514
 30
0.0
  0
SPLINE
  5
175
100
AcDbEntity
  8
Ebene_2
 62
7
100
AcDbSpline
 70
8
 71
3
 72
8
 73
4
 74
0
 40
0
 40
0
 40
0
 40
0
 40
1
 40
1
 40
1
 40
1
 10
163.350352
 20
153.095514
 30
0.0
 10
163.621809
 20
152.955992
 30
0.0
 10
163.865648
 20
152.698143
 30
0.0
 10
163.990017
 20
152.419098
 30
0.0
  0
LWPOLYLINE
  5
176
100
AcDbEntity
  8
Ebene_2
 62
7
100
AcDbPolyline
 90
1
 70
1
 10
166.177282
 20
152.322471
 30
0.0
  0
SPLINE
  5
177
100
AcDbEntity
  8
Ebene_2
 62
7
100
AcDbSpline
 70
8
 71
3
 72
8
 73
4
 74
0
 40
0
 40
0
 40
0
 40
0
 40
1
 40
1
 40
1
 40
1
 10
151.954210
 20
85.519800
 30
0.0
 10
152.744110
 20
85.789000
 30
0.0
 10
152.490030
 20
86.197390
 30
0.0
 10
154.914950
 20
86.248590
 30
0.0
  0
SPLINE
  5
178
100
AcDbEntity
  8
Ebene_2
 62
7
100
AcDbSpline
 70
8
 71
3
 72
8
 73
4
 74
0
 40
0
 40
0
 40
0
 40
0
 40
1
 40
1
 40
1
 40
1
 10
154.914950
 20
86.248590
 30
0.0
 10
154.914950
 20
86.896270
 30
0.0
 10
163.981860
 20
84.484590
 30
0.0
 10
163.979370
 20
84.176080
 30
0.0
  0
SPLINE
  5
179
100
AcDbEntity
  8
Ebene_2
 62
7
100
AcDbSpline
 70
8
 71
3
 72
8
 73
4
 74
0
 40
0
 40
0
 40
0
 40
0
 40
1
 40
1
 40
1
 40
1
 10
163.979370
 20
84.176080
 30
0.0
 10
163.977370
 20
83.892220
 30
0.0
 10
157.068710
 20
84.847080
 30
0.0
 10
157.033020
 20
85.132620
 30
0.0
  0
SPLINE
  5
17a
100
AcDbEntity
  8
Ebene_2
 62
7
100
AcDbSpline
 70
8
 71
3
 72
8
 73
4
 74
0
 40
0
 40
0
 40
0
 40
0
 40
1
 40
1
 40
1
 40
1
 10
157.033020
 20
85.132620
 30
0.0
 10
155.226700
 20
85.380800
 30
0.0
 10
154.032370
 20
85.652210
 30
0.0
 10
151.954210
 20
85.519800
 30
0.0
  0
LWPOLYLINE
  5
17b
100
AcDbEntity
  8
Ebene_2
 62
7
100
AcDbPolyline
 90
1
 70
1
 10
163.990017
 20
152.419098
 30
0.0
  0
SPLINE
  5
17c
100
AcDbEntity
  8
Ebene_2
 62
7
100
AcDbSpline
 70
8
 71
3
 72
8
 73
4
 74
0
 40
0
 40
0
 40
0
 40
0
 40
1
 40
1
 40
1
 40
1
 10
60.763464
 20
83.902780
 30
0.0
 10
62.134375
 20
83.448130
 30
0.0
 10
63.558832
 20
83.039770
 30
0.0
 10
66.445805
 20
82.251590
 30
0.0
  0
LWPOLYLINE
  5
17d
100
AcDbEntity
  8
Ebene_2
 62
7
100
AcDbPolyline
 90
1
 70
1
 10
151.954210
 20
85.519800
 30
0.0
  0
SPLINE
  5
17e
100
AcDbEntity
  8
Ebene_2
 62
7
100
AcDbSpline
 70
8
 71
3
 72
8
 73
4
 74
0
 40
0
 40
0
 40
0
 40
0
 40
1
 40
1
 40
1
 40
1
 10
70.454188
 20
82.285790
 30
0.0
 10
71.291461
 20
83.860880
 30
0.0
 10
70.289295
 20
83.949130
 30
0.0
 10
71.034950
 20
84.996000
 30
0.0
  0
SPLINE
  5
17f
100
AcDbEntity
  8
Ebene_2
 62
7
100
AcDbSpline
 70
8
 71
3
 72
8
 73
4
 74
0
 40
0
 40
0
 40
0
 40
0
 40
1
 40
1
 40
1
 40
1
 10
71.034950
 20
84.996000
 30
0.0
 10
75.961711
 20
84.628470
 30
0.0
 10
78.813923
 20
79.058450
 30
0.0
 10
87.523987
 20
74.428440
 30
0.0
  0
SPLINE
  5
180
100
AcDbEntity
  8
Ebene_2
 62
7
100
AcDbSpline
 70
8
 71
3
 72
8
 73
4
 74
0
 40
0
 40
0
 40
0
 40
0
 40
1
 40
1
 40
1
 40
1
 10
87.523987
 20
74.428440
 30
0.0
 10
88.552762
 20
74.855420
 30
0.0
 10
89.610799
 20
75.005850
 30
0.0
 10
89.915351
 20
75.794940
 30
0.0
  0
SPLINE
  5
181
100
AcDbEntity
  8
Ebene_2
 62
7
100
AcDbSpline
 70
8
 71
3
 72
8
 73
4
 74
0
 40
0
 40
0
 40
0
 40
0
 40
1
 40
1
 40
1
 40
1
 10
89.915351
 20
75.794940
 30
0.0
 10
90.342290
 20
74.836200
 30
0.0
 10
90.012631
 20
74.360770
 30
0.0
 10
92.535136
 20
72.580240
 30
0.0
  0
SPLINE
  5
182
100
AcDbEntity
  8
Ebene_2
 62
7
100
AcDbSpline
 70
8
 71
3
 72
8
 73
4
 74
0
 40
0
 40
0
 40
0
 40
0
 40
1
 40
1
 40
1
 40
1
 10
92.535136
 20
72.580240
 30
0.0
 10
94.628297
 20
72.009990
 30
0.0
 10
96.709516
 20
71.590470
 30
0.0
 10
98.843117
 20
71.545940
 30
0.0
  0
SPLINE
  5
183
100
AcDbEntity
  8
Ebene_2
 62
7
100
AcDbSpline
 70
8
 71
3
 72
8
 73
4
 74
0
 40
0
 40
0
 40
0
 40
0
 40
1
 40
1
 40
1
 40
1
 10
98.843117
 20
71.545940
 30
0.0
 10
101.851520
 20
72.171830
 30
0.0
 10
103.618220
 20
73.953570
 30
0.0
 10
104.823010
 20
77.241950
 30
0.0
  0
SPLINE
  5
184
100
AcDbEntity
  8
Ebene_2
 62
7
100
AcDbSpline
 70
8
 71
3
 72
8
 73
4
 74
0
 40
0
 40
0
 40
0
 40
0
 40
1
 40
1
 40
1
 40
1
 10
104.823010
 20
77.241950
 30
0.0
 10
104.776110
 20
75.677260
 30
0.0
 10
104.893910
 20
74.592550
 30
0.0
 10
104.470140
 20
73.362880
 30
0.0
  0
SPLINE
  5
185
100
AcDbEntity
  8
Ebene_2
 62
7
100
AcDbSpline
 70
8
 71
3
 72
8
 73
4
 74
0
 40
0
 40
0
 40
0
 40
0
 40
1
 40
1
 40
1
 40
1
 10
104.470140
 20
73.362880
 30
0.0
 10
104.545640
 20
72.438050
 30
0.0
 10
105.116050
 20
72.142750
 30
0.0
 10
105.916210
 20
71.862030
 30
0.0
  0
SPLINE
  5
186
100
AcDbEntity
  8
Ebene_2
 62
7
100
AcDbSpline
 70
8
 71
3
 72
8
 73
4
 74
0
 40
0
 40
0
 40
0
 40
0
 40
1
 40
1
 40
1
 40
1
 10
105.916210
 20
71.862030
 30
0.0
 10
107.521250
 20
71.515000
 30
0.0
 10
107.122130
 20
72.306940
 30
0.0
 10
107.668730
 20
72.489140
 30
0.0
  0
SPLINE
  5
187
100
AcDbEntity
  8
Ebene_2
 62
7
100
AcDbSpline
 70
8
 71
3
 72
8
 73
4
 74
0
 40
0
 40
0
 40
0
 40
0
 40
1
 40
1
 40
1
 40
1
 10
107.668730
 20
72.489140
 30
0.0
 10
108.281150
 20
70.858620
 30
0.0
 10
112.839210
 20
70.744230
 30
0.0
 10
115.058860
 20
72.059850
 30
0.0
  0
SPLINE
  5
188
100
AcDbEntity
  8
Ebene_2
 62
7
100
AcDbSpline
 70
8
 71
3
 72
8
 73
4
 74
0
 40
0
 40
0
 40
0
 40
0
 40
1
 40
1
 40
1
 40
1
 10
115.058860
 20
72.059850
 30
0.0
 10
117.740040
 20
73.884190
 30
0.0
 10
119.232730
 20
77.338030
 30
0.0
 10
121.162530
 20
80.144940
 30
0.0
  0
SPLINE
  5
189
100
AcDbEntity
  8
Ebene_2
 62
7
100
AcDbSpline
 70
8
 71
3
 72
8
 73
4
 74
0
 40
0
 40
0
 40
0
 40
0
 40
1
 40
1
 40
1
 40
1
 10
121.162530
 20
80.144940
 30
0.0
 10
121.143030
 20
78.919890
 30
0.0
 10
120.927870
 20
77.711140
 30
0.0
 10
120.183210
 20
76.546510
 30
0.0
  0
SPLINE
  5
18a
100
AcDbEntity
  8
Ebene_2
 62
7
100
AcDbSpline
 70
8
 71
3
 72
8
 73
4
 74
0
 40
0
 40
0
 40
0
 40
0
 40
1
 40
1
 40
1
 40
1
 10
120.183210
 20
76.546510
 30
0.0
 10
120.966990
 20
76.356450
 30
0.0
 10
121.741720
 20
76.118030
 30
0.0
 10
122.346830
 20
74.975040
 30
0.0
  0
LWPOLYLINE
  5
18b
100
AcDbEntity
  8
Ebene_2
 62
7
100
AcDbPolyline
 90
2
 70
0
 10
66.445805
 20
82.251590
 30
0.0
 10
70.454188
 20
82.285790
 30
0.0
  0
SPLINE
  5
18c
100
AcDbEntity
  8
Ebene_2
 62
7
100
AcDbSpline
 70
8
 71
3
 72
8
 73
4
 74
0
 40
0
 40
0
 40
0
 40
0
 40
1
 40
1
 40
1
 40
1
 10
122.802320
 20
73.699650
 30
0.0
 10
125.059170
 20
72.910970
 30
0.0
 10
127.746860
 20
73.654150
 30
0.0
 10
130.545790
 20
74.792840
 30
0.0
  0
SPLINE
  5
18d
100
AcDbEntity
  8
Ebene_2
 62
7
100
AcDbSpline
 70
8
 71
3
 72
8
 73
4
 74
0
 40
0
 40
0
 40
0
 40
0
 40
1
 40
1
 40
1
 40
1
 10
130.545790
 20
74.792840
 30
0.0
 10
133.248410
 20
76.598230
 30
0.0
 10
135.951040
 20
78.090400
 30
0.0
 10
138.653660
 20
77.616930
 30
0.0
  0
SPLINE
  5
18e
100
AcDbEntity
  8
Ebene_2
 62
7
100
AcDbSpline
 70
8
 71
3
 72
8
 73
4
 74
0
 40
0
 40
0
 40
0
 40
0
 40
1
 40
1
 40
1
 40
1
 10
138.653660
 20
77.616930
 30
0.0
 10
138.653660
 20
78.413900
 30
0.0
 10
149.610880
 20
77.756310
 30
0.0
 10
150.861010
 20
77.252530
 30
0.0
  0
SPLINE
  5
18f
100
AcDbEntity
  8
Ebene_2
 62
7
100
AcDbSpline
 70
8
 71
3
 72
8
 73
4
 74
0
 40
0
 40
0
 40
0
 40
0
 40
1
 40
1
 40
1
 40
1
 10
150.861010
 20
77.252530
 30
0.0
 10
151.718420
 20
77.019670
 30
0.0
 10
164.617090
 20
74.519560
 30
0.0
 10
164.617060
 20
74.519540
 30
0.0
  0
SPLINE
  5
190
100
AcDbEntity
  8
Ebene_2
 62
7
100
AcDbSpline
 70
8
 71
3
 72
8
 73
4
 74
0
 40
0
 40
0
 40
0
 40
0
 40
1
 40
1
 40
1
 40
1
 10
164.617060
 20
74.519540
 30
0.0
 10
165.967950
 20
73.846020
 30
0.0
 10
166.253880
 20
72.855890
 30
0.0
 10
164.434860
 20
71.239960
 30
0.0
  0
SPLINE
  5
191
100
AcDbEntity
  8
Ebene_2
 62
7
100
AcDbSpline
 70
8
 71
3
 72
8
 73
4
 74
0
 40
0
 40
0
 40
0
 40
0
 40
1
 40
1
 40
1
 40
1
 10
164.434860
 20
71.239960
 30
0.0
 10
154.587890
 20
73.587390
 30
0.0
 10
149.047430
 20
74.339230
 30
0.0
 10
143.327380
 20
75.007250
 30
0.0
  0
SPLINE
  5
192
100
AcDbEntity
  8
Ebene_2
 62
7
100
AcDbSpline
 70
8
 71
3
 72
8
 73
4
 74
0
 40
0
 40
0
 40
0
 40
0
 40
1
 40
1
 40
1
 40
1
 10
143.327380
 20
75.007250
 30
0.0
 10
142.865340
 20
74.794000
 30
0.0
 10
141.737160
 20
73.907750
 30
0.0
 10
141.534690
 20
72.708940
 30
0.0
  0
SPLINE
  5
193
100
AcDbEntity
  8
Ebene_2
 62
7
100
AcDbSpline
 70
8
 71
3
 72
8
 73
4
 74
0
 40
0
 40
0
 40
0
 40
0
 40
1
 40
1
 40
1
 40
1
 10
141.534690
 20
72.708940
 30
0.0
 10
141.281470
 20
71.209630
 30
0.0
 10
143.146350
 20
69.998140
 30
0.0
 10
143.299740
 20
70.055660
 30
0.0
  0
SPLINE
  5
194
100
AcDbEntity
  8
Ebene_2
 62
7
100
AcDbSpline
 70
8
 71
3
 72
8
 73
4
 74
0
 40
0
 40
0
 40
0
 40
0
 40
1
 40
1
 40
1
 40
1
 10
143.299740
 20
70.055660
 30
0.0
 10
138.352650
 20
71.266640
 30
0.0
 10
129.127860
 20
73.532520
 30
0.0
 10
126.947360
 20
73.198600
 30
0.0
  0
SPLINE
  5
195
100
AcDbEntity
  8
Ebene_2
 62
7
100
AcDbSpline
 70
8
 71
3
 72
8
 73
4
 74
0
 40
0
 40
0
 40
0
 40
0
 40
1
 40
1
 40
1
 40
1
 10
126.947360
 20
73.198600
 30
0.0
 10
121.460190
 20
72.748610
 30
0.0
 10
120.725650
 20
73.243100
 30
0.0
 10
118.193550
 20
71.863650
 30
0.0
  0
SPLINE
  5
196
100
AcDbEntity
  8
Ebene_2
 62
7
100
AcDbSpline
 70
8
 71
3
 72
8
 73
4
 74
0
 40
0
 40
0
 40
0
 40
0
 40
1
 40
1
 40
1
 40
1
 10
118.193550
 20
71.863650
 30
0.0
 10
117.712850
 20
71.697610
 30
0.0
 10
117.297530
 20
70.964760
 30
0.0
 10
117.679110
 20
70.251910
 30
0.0
  0
SPLINE
  5
197
100
AcDbEntity
  8
Ebene_2
 62
7
100
AcDbSpline
 70
8
 71
3
 72
8
 73
4
 74
0
 40
0
 40
0
 40
0
 40
0
 40
1
 40
1
 40
1
 40
1
 10
117.679110
 20
70.251910
 30
0.0
 10
120.129410
 20
69.061340
 30
0.0
 10
122.969810
 20
67.946370
 30
0.0
 10
125.604780
 20
66.699030
 30
0.0
  0
SPLINE
  5
198
100
AcDbEntity
  8
Ebene_2
 62
7
100
AcDbSpline
 70
8
 71
3
 72
8
 73
4
 74
0
 40
0
 40
0
 40
0
 40
0
 40
1
 40
1
 40
1
 40
1
 10
125.604780
 20
66.699030
 30
0.0
 10
133.010120
 20
64.257950
 30
0.0
 10
140.422960
 20
61.826040
 30
0.0
 10
148.583520
 20
60.308000
 30
0.0
  0
SPLINE
  5
199
100
AcDbEntity
  8
Ebene_2
 62
7
100
AcDbSpline
 70
8
 71
3
 72
8
 73
4
 74
0
 40
0
 40
0
 40
0
 40
0
 40
1
 40
1
 40
1
 40
1
 10
148.583520
 20
60.308000
 30
0.0
 10
148.895160
 20
60.034970
 30
0.0
 10
149.310260
 20
59.834970
 30
0.0
 10
149.130120
 20
59.214800
 30
0.0
  0
SPLINE
  5
19a
100
AcDbEntity
  8
Ebene_2
 62
7
100
AcDbSpline
 70
8
 71
3
 72
8
 73
4
 74
0
 40
0
 40
0
 40
0
 40
0
 40
1
 40
1
 40
1
 40
1
 10
149.130120
 20
59.214800
 30
0.0
 10
147.560160
 20
57.913260
 30
0.0
 10
145.792030
 20
57.305310
 30
0.0
 10
143.857730
 20
57.278930
 30
0.0
  0
SPLINE
  5
19b
100
AcDbEntity
  8
Ebene_2
 62
7
100
AcDbSpline
 70
8
 71
3
 72
8
 73
4
 74
0
 40
0
 40
0
 40
0
 40
0
 40
1
 40
1
 40
1
 40
1
 10
143.857730
 20
57.278930
 30
0.0
 10
141.808830
 20
56.643270
 30
0.0
 10
140.032270
 20
56.892700
 30
0.0
 10
138.324000
 20
57.364030
 30
0.0
  0
SPLINE
  5
19c
100
AcDbEntity
  8
Ebene_2
 62
7
100
AcDbSpline
 70
8
 71
3
 72
8
 73
4
 74
0
 40
0
 40
0
 40
0
 40
0
 40
1
 40
1
 40
1
 40
1
 10
138.324000
 20
57.364030
 30
0.0
 10
131.766930
 20
58.728690
 30
0.0
 10
125.298300
 20
63.479260
 30
0.0
 10
120.786740
 20
64.122750
 30
0.0
  0
SPLINE
  5
19d
100
AcDbEntity
  8
Ebene_2
 62
7
100
AcDbSpline
 70
8
 71
3
 72
8
 73
4
 74
0
 40
0
 40
0
 40
0
 40
0
 40
1
 40
1
 40
1
 40
1
 10
120.786740
 20
64.122750
 30
0.0
 10
120.181890
 20
63.840150
 30
0.0
 10
119.512780
 20
62.847770
 30
0.0
 10
119.374710
 20
62.107180
 30
0.0
  0
SPLINE
  5
19e
100
AcDbEntity
  8
Ebene_2
 62
7
100
AcDbSpline
 70
8
 71
3
 72
8
 73
4
 74
0
 40
0
 40
0
 40
0
 40
0
 40
1
 40
1
 40
1
 40
1
 10
119.374710
 20
62.107180
 30
0.0
 10
119.235920
 20
61.362780
 30
0.0
 10
121.365840
 20
56.841290
 30
0.0
 10
120.843680
 20
57.643290
 30
0.0
  0
SPLINE
  5
19f
100
AcDbEntity
  8
Ebene_2
 62
7
100
AcDbSpline
 70
8
 71
3
 72
8
 73
4
 74
0
 40
0
 40
0
 40
0
 40
0
 40
1
 40
1
 40
1
 40
1
 10
120.843680
 20
57.643290
 30
0.0
 10
117.875750
 20
59.460620
 30
0.0
 10
116.061260
 20
65.960390
 30
0.0
 10
111.344930
 20
68.443460
 30
0.0
  0
SPLINE
  5
1a0
100
AcDbEntity
  8
Ebene_2
 62
7
100
AcDbSpline
 70
8
 71
3
 72
8
 73
4
 74
0
 40
0
 40
0
 40
0
 40
0
 40
1
 40
1
 40
1
 40
1
 10
111.344930
 20
68.443460
 30
0.0
 10
110.577140
 20
69.000960
 30
0.0
 10
108.585710
 20
68.240320
 30
0.0
 10
108.317480
 20
67.960330
 30
0.0
  0
SPLINE
  5
1a1
100
AcDbEntity
  8
Ebene_2
 62
7
100
AcDbSpline
 70
8
 71
3
 72
8
 73
4
 74
0
 40
0
 40
0
 40
0
 40
0
 40
1
 40
1
 40
1
 40
1
 10
108.317480
 20
67.960330
 30
0.0
 10
102.737330
 20
62.215460
 30
0.0
 10
97.155564
 20
55.291410
 30
0.0
 10
90.871899
 20
51.972340
 30
0.0
  0
SPLINE
  5
1a2
100
AcDbEntity
  8
Ebene_2
 62
7
100
AcDbSpline
 70
8
 71
3
 72
8
 73
4
 74
0
 40
0
 40
0
 40
0
 40
0
 40
1
 40
1
 40
1
 40
1
 10
90.871899
 20
51.972340
 30
0.0
 10
95.051334
 20
56.055150
 30
0.0
 10
99.275733
 20
60.036800
 30
0.0
 10
103.124800
 20
64.862940
 30
0.0
  0
SPLINE
  5
1a3
100
AcDbEntity
  8
Ebene_2
 62
7
100
AcDbSpline
 70
8
 71
3
 72
8
 73
4
 74
0
 40
0
 40
0
 40
0
 40
0
 40
1
 40
1
 40
1
 40
1
 10
103.124800
 20
64.862940
 30
0.0
 10
103.193300
 20
66.123570
 30
0.0
 10
102.629980
 20
66.120440
 30
0.0
 10
102.213800
 20
66.411640
 30
0.0
  0
SPLINE
  5
1a4
100
AcDbEntity
  8
Ebene_2
 62
7
100
AcDbSpline
 70
8
 71
3
 72
8
 73
4
 74
0
 40
0
 40
0
 40
0
 40
0
 40
1
 40
1
 40
1
 40
1
 10
102.213800
 20
66.411640
 30
0.0
 10
93.166558
 20
63.780830
 30
0.0
 10
76.431078
 20
51.966650
 30
0.0
 10
72.242020
 20
51.471290
 30
0.0
  0
SPLINE
  5
1a5
100
AcDbEntity
  8
Ebene_2
 62
7
100
AcDbSpline
 70
8
 71
3
 72
8
 73
4
 74
0
 40
0
 40
0
 40
0
 40
0
 40
1
 40
1
 40
1
 40
1
 10
72.242020
 20
51.471290
 30
0.0
 10
69.618471
 20
51.423290
 30
0.0
 10
67.214229
 20
54.110190
 30
0.0
 10
67.960337
 20
54.477580
 30
0.0
  0
SPLINE
  5
1a6
100
AcDbEntity
  8
Ebene_2
 62
7
100
AcDbSpline
 70
8
 71
3
 72
8
 73
4
 74
0
 40
0
 40
0
 40
0
 40
0
 40
1
 40
1
 40
1
 40
1
 10
67.960337
 20
54.477580
 30
0.0
 10
68.940549
 20
54.960250
 30
0.0
 10
95.956664
 20
67.033160
 30
0.0
 10
96.790138
 20
69.938310
 30
0.0
  0
SPLINE
  5
1a7
100
AcDbEntity
  8
Ebene_2
 62
7
100
AcDbSpline
 70
8
 71
3
 72
8
 73
4
 74
0
 40
0
 40
0
 40
0
 40
0
 40
1
 40
1
 40
1
 40
1
 10
96.790138
 20
69.938310
 30
0.0
 10
96.098150
 20
70.928040
 30
0.0
 10
94.511283
 20
72.040210
 30
0.0
 10
93.568494
 20
70.939940
 30
0.0
  0
SPLINE
  5
1a8
100
AcDbEntity
  8
Ebene_2
 62
7
100
AcDbSpline
 70
8
 71
3
 72
8
 73
4
 74
0
 40
0
 40
0
 40
0
 40
0
 40
1
 40
1
 40
1
 40
1
 10
93.568494
 20
70.939940
 30
0.0
 10
93.518614
 20
70.690540
 30
0.0
 10
76.298283
 20
66.494460
 30
0.0
 10
75.253836
 20
66.589260
 30
0.0
  0
SPLINE
  5
1a9
100
AcDbEntity
  8
Ebene_2
 62
7
100
AcDbSpline
 70
8
 71
3
 72
8
 73
4
 74
0
 40
0
 40
0
 40
0
 40
0
 40
1
 40
1
 40
1
 40
1
 10
75.253836
 20
66.589260
 30
0.0
 10
74.292506
 20
66.676560
 30
0.0
 10
68.632197
 20
63.257310
 30
0.0
 10
68.632197
 20
63.257310
 30
0.0
  0
SPLINE
  5
1aa
100
AcDbEntity
  8
Ebene_2
 62
7
100
AcDbSpline
 70
8
 71
3
 72
8
 73
4
 74
0
 40
0
 40
0
 40
0
 40
0
 40
1
 40
1
 40
1
 40
1
 10
68.632197
 20
63.257310
 30
0.0
 10
69.375165
 20
64.517590
 30
0.0
 10
71.246581
 20
64.686980
 30
0.0
 10
71.331023
 20
66.411640
 30
0.0
  0
SPLINE
  5
1ab
100
AcDbEntity
  8
Ebene_2
 62
7
100
AcDbSpline
 70
8
 71
3
 72
8
 73
4
 74
0
 40
0
 40
0
 40
0
 40
0
 40
1
 40
1
 40
1
 40
1
 10
71.331023
 20
66.411640
 30
0.0
 10
70.819714
 20
68.631730
 30
0.0
 10
68.984710
 20
67.702340
 30
0.0
 10
67.687038
 20
68.051430
 30
0.0
  0
SPLINE
  5
1ac
100
AcDbEntity
  8
Ebene_2
 62
7
100
AcDbSpline
 70
8
 71
3
 72
8
 73
4
 74
0
 40
0
 40
0
 40
0
 40
0
 40
1
 40
1
 40
1
 40
1
 10
67.687038
 20
68.051430
 30
0.0
 10
63.375710
 20
67.838900
 30
0.0
 10
58.960767
 20
66.282200
 30
0.0
 10
54.545636
 20
64.723050
 30
0.0
  0
SPLINE
  5
1ad
100
AcDbEntity
  8
Ebene_2
 62
7
100
AcDbSpline
 70
8
 71
3
 72
8
 73
4
 74
0
 40
0
 40
0
 40
0
 40
0
 40
1
 40
1
 40
1
 40
1
 10
54.545636
 20
64.723050
 30
0.0
 10
54.090535
 20
66.175050
 30
0.0
 10
53.562682
 20
67.574130
 30
0.0
 10
54.022090
 20
69.691220
 30
0.0
  0
SPLINE
  5
1ae
100
AcDbEntity
  8
Ebene_2
 62
7
100
AcDbSpline
 70
8
 71
3
 72
8
 73
4
 74
0
 40
0
 40
0
 40
0
 40
0
 40
1
 40
1
 40
1
 40
1
 10
54.022090
 20
69.691220
 30
0.0
 10
61.375982
 20
72.425940
 30
0.0
 10
71.126885
 20
71.929520
 30
0.0
 10
81.422877
 20
74.229620
 30
0.0
  0
SPLINE
  5
1af
100
AcDbEntity
  8
Ebene_2
 62
7
100
AcDbSpline
 70
8
 71
3
 72
8
 73
4
 74
0
 40
0
 40
0
 40
0
 40
0
 40
1
 40
1
 40
1
 40
1
 10
81.422877
 20
74.229620
 30
0.0
 10
82.181174
 20
74.613980
 30
0.0
 10
81.786343
 20
75.792650
 30
0.0
 10
81.582023
 20
76.738110
 30
0.0
  0
SPLINE
  5
1b0
100
AcDbEntity
  8
Ebene_2
 62
7
100
AcDbSpline
 70
8
 71
3
 72
8
 73
4
 74
0
 40
0
 40
0
 40
0
 40
0
 40
1
 40
1
 40
1
 40
1
 10
81.582023
 20
76.738110
 30
0.0
 10
76.783265
 20
78.832610
 30
0.0
 10
71.796439
 20
80.509180
 30
0.0
 10
66.229443
 20
80.896480
 30
0.0
  0
SPLINE
  5
1b1
100
AcDbEntity
  8
Ebene_2
 62
7
100
AcDbSpline
 70
8
 71
3
 72
8
 73
4
 74
0
 40
0
 40
0
 40
0
 40
0
 40
1
 40
1
 40
1
 40
1
 10
66.229443
 20
80.896480
 30
0.0
 10
59.119604
 20
80.710870
 30
0.0
 10
56.191889
 20
80.977380
 30
0.0
 10
55.422748
 20
81.477240
 30
0.0
  0
SPLINE
  5
1b2
100
AcDbEntity
  8
Ebene_2
 62
7
100
AcDbSpline
 70
8
 71
3
 72
8
 73
4
 74
0
 40
0
 40
0
 40
0
 40
0
 40
1
 40
1
 40
1
 40
1
 10
55.422748
 20
81.477240
 30
0.0
 10
55.231090
 20
84.151250
 30
0.0
 10
59.403495
 20
83.772830
 30
0.0
 10
60.763464
 20
83.902770
 30
0.0
  0
LWPOLYLINE
  5
1b3
100
AcDbEntity
  8
Ebene_2
 62
7
100
AcDbPolyline
 90
2
 70
0
 10
122.346830
 20
74.975040
 30
0.0
 10
122.802320
 20
73.699650
 30
0.0
  0
SPLINE
  5
1b4
100
AcDbEntity
  8
Ebene_2
 62
7
100
AcDbSpline
 70
8
 71
3
 72
8
 73
4
 74
0
 40
0
 40
0
 40
0
 40
0
 40
1
 40
1
 40
1
 40
1
 10
108.955180
 20
160.517581
 30
0.0
 10
111.273490
 20
155.407014
 30
0.0
 10
108.450670
 20
145.460909
 30
0.0
 10
106.495490
 20
136.307850
 30
0.0
  0
SPLINE
  5
1b5
100
AcDbEntity
  8
Ebene_2
 62
7
100
AcDbSpline
 70
8
 71
3
 72
8
 73
4
 74
0
 40
0
 40
0
 40
0
 40
0
 40
1
 40
1
 40
1
 40
1
 10
106.495490
 20
136.307850
 30
0.0
 10
106.232730
 20
131.144863
 30
0.0
 10
106.966750
 20
127.522665
 30
0.0
 10
109.069050
 20
125.876941
 30
0.0
  0
SPLINE
  5
1b6
100
AcDbEntity
  8
Ebene_2
 62
7
100
AcDbSpline
 70
8
 71
3
 72
8
 73
4
 74
0
 40
0
 40
0
 40
0
 40
0
 40
1
 40
1
 40
1
 40
1
 10
109.069050
 20
125.876941
 30
0.0
 10
111.083910
 20
124.192854
 30
0.0
 10
112.646520
 20
125.264570
 30
0.0
 10
114.443930
 20
125.102594
 30
0.0
  0
SPLINE
  5
1b7
100
AcDbEntity
  8
Ebene_2
 62
7
100
AcDbSpline
 70
8
 71
3
 72
8
 73
4
 74
0
 40
0
 40
0
 40
0
 40
0
 40
1
 40
1
 40
1
 40
1
 10
114.443930
 20
125.102594
 30
0.0
 10
114.495730
 20
124.504557
 30
0.0
 10
121.256110
 20
130.926893
 30
0.0
 10
119.565050
 20
146.986045
 30
0.0
  0
SPLINE
  5
1b8
100
AcDbEntity
  8
Ebene_2
 62
7
100
AcDbSpline
 70
8
 71
3
 72
8
 73
4
 74
0
 40
0
 40
0
 40
0
 40
0
 40
1
 40
1
 40
1
 40
1
 10
119.565050
 20
146.986045
 30
0.0
 10
119.200650
 20
147.714842
 30
0.0
 10
119.081720
 20
157.575963
 30
0.0
 10
119.081720
 20
157.575963
 30
0.0
  0
SPLINE
  5
1b9
100
AcDbEntity
  8
Ebene_2
 62
7
100
AcDbSpline
 70
8
 71
3
 72
8
 73
4
 74
0
 40
0
 40
0
 40
0
 40
0
 40
1
 40
1
 40
1
 40
1
 10
119.081720
 20
157.575963
 30
0.0
 10
119.771170
 20
159.596111
 30
0.0
 10
119.438200
 20
163.843422
 30
0.0
 10
121.316630
 20
165.609057
 30
0.0
  0
SPLINE
  5
1ba
100
AcDbEntity
  8
Ebene_2
 62
7
100
AcDbSpline
 70
8
 71
3
 72
8
 73
4
 74
0
 40
0
 40
0
 40
0
 40
0
 40
1
 40
1
 40
1
 40
1
 10
121.316630
 20
165.609057
 30
0.0
 10
122.873190
 20
156.539814
 30
0.0
 10
132.377040
 20
148.487624
 30
0.0
 10
138.176060
 20
136.049510
 30
0.0
  0
SPLINE
  5
1bb
100
AcDbEntity
  8
Ebene_2
 62
7
100
AcDbSpline
 70
8
 71
3
 72
8
 73
4
 74
0
 40
0
 40
0
 40
0
 40
0
 40
1
 40
1
 40
1
 40
1
 10
138.176060
 20
136.049510
 30
0.0
 10
144.948340
 20
120.996542
 30
0.0
 10
140.706560
 20
104.694780
 30
0.0
 10
138.562560
 20
103.215900
 30
0.0
  0
SPLINE
  5
1bc
100
AcDbEntity
  8
Ebene_2
 62
7
100
AcDbSpline
 70
8
 71
3
 72
8
 73
4
 74
0
 40
0
 40
0
 40
0
 40
0
 40
1
 40
1
 40
1
 40
1
 10
138.562560
 20
103.215900
 30
0.0
 10
137.859120
 20
102.864180
 30
0.0
 10
138.078170
 20
99.533000
 30
0.0
 10
138.684450
 20
98.618610
 30
0.0
  0
SPLINE
  5
1bd
100
AcDbEntity
  8
Ebene_2
 62
7
100
AcDbSpline
 70
8
 71
3
 72
8
 73
4
 74
0
 40
0
 40
0
 40
0
 40
0
 40
1
 40
1
 40
1
 40
1
 10
138.684450
 20
98.618610
 30
0.0
 10
140.343110
 20
96.117020
 30
0.0
 10
146.000310
 20
98.184310
 30
0.0
 10
146.898180
 20
99.571920
 30
0.0
  0
SPLINE
  5
1be
100
AcDbEntity
  8
Ebene_2
 62
7
100
AcDbSpline
 70
8
 71
3
 72
8
 73
4
 74
0
 40
0
 40
0
 40
0
 40
0
 40
1
 40
1
 40
1
 40
1
 10
146.898180
 20
99.571920
 30
0.0
 10
144.247210
 20
84.958150
 30
0.0
 10
130.029950
 20
76.265040
 30
0.0
 10
126.081910
 20
77.024750
 30
0.0
  0
SPLINE
  5
1bf
100
AcDbEntity
  8
Ebene_2
 62
7
100
AcDbSpline
 70
8
 71
3
 72
8
 73
4
 74
0
 40
0
 40
0
 40
0
 40
0
 40
1
 40
1
 40
1
 40
1
 10
126.081910
 20
77.024750
 30
0.0
 10
126.492050
 20
77.358740
 30
0.0
 10
126.484670
 20
77.782200
 30
0.0
 10
125.398660
 20
78.436800
 30
0.0
  0
SPLINE
  5
1c0
100
AcDbEntity
  8
Ebene_2
 62
7
100
AcDbSpline
 70
8
 71
3
 72
8
 73
4
 74
0
 40
0
 40
0
 40
0
 40
0
 40
1
 40
1
 40
1
 40
1
 10
125.398660
 20
78.436800
 30
0.0
 10
124.404680
 20
78.071090
 30
0.0
 10
124.156540
 20
78.232920
 30
0.0
 10
124.032170
 20
78.482300
 30
0.0
  0
SPLINE
  5
1c1
100
AcDbEntity
  8
Ebene_2
 62
7
100
AcDbSpline
 70
8
 71
3
 72
8
 73
4
 74
0
 40
0
 40
0
 40
0
 40
0
 40
1
 40
1
 40
1
 40
1
 10
124.032170
 20
78.482300
 30
0.0
 10
123.729680
 20
80.897610
 30
0.0
 10
123.075900
 20
82.961630
 30
0.0
 10
122.289890
 20
84.893430
 30
0.0
  0
SPLINE
  5
1c2
100
AcDbEntity
  8
Ebene_2
 62
7
100
AcDbSpline
 70
8
 71
3
 72
8
 73
4
 74
0
 40
0
 40
0
 40
0
 40
0
 40
1
 40
1
 40
1
 40
1
 10
122.289890
 20
84.893430
 30
0.0
 10
121.549710
 20
85.436500
 30
0.0
 10
120.809520
 20
85.173930
 30
0.0
 10
120.069340
 20
84.950330
 30
0.0
  0
SPLINE
  5
1c3
100
AcDbEntity
  8
Ebene_2
 62
7
100
AcDbSpline
 70
8
 71
3
 72
8
 73
4
 74
0
 40
0
 40
0
 40
0
 40
0
 40
1
 40
1
 40
1
 40
1
 10
120.069340
 20
84.950330
 30
0.0
 10
117.683730
 20
75.648370
 30
0.0
 10
114.374460
 20
72.551560
 30
0.0
 10
110.314420
 20
74.498380
 30
0.0
  0
SPLINE
  5
1c4
100
AcDbEntity
  8
Ebene_2
 62
7
100
AcDbSpline
 70
8
 71
3
 72
8
 73
4
 74
0
 40
0
 40
0
 40
0
 40
0
 40
1
 40
1
 40
1
 40
1
 10
110.314420
 20
74.498380
 30
0.0
 10
109.955220
 20
74.930660
 30
0.0
 10
109.611190
 20
75.383470
 30
0.0
 10
108.897240
 20
75.335800
 30
0.0
  0
SPLINE
  5
1c5
100
AcDbEntity
  8
Ebene_2
 62
7
100
AcDbSpline
 70
8
 71
3
 72
8
 73
4
 74
0
 40
0
 40
0
 40
0
 40
0
 40
1
 40
1
 40
1
 40
1
 10
108.897240
 20
75.335800
 30
0.0
 10
108.106110
 20
75.023620
 30
0.0
 10
107.670160
 20
74.961010
 30
0.0
 10
107.673310
 20
75.206970
 30
0.0
  0
SPLINE
  5
1c6
100
AcDbEntity
  8
Ebene_2
 62
7
100
AcDbSpline
 70
8
 71
3
 72
8
 73
4
 74
0
 40
0
 40
0
 40
0
 40
0
 40
1
 40
1
 40
1
 40
1
 10
107.673310
 20
75.206970
 30
0.0
 10
107.572660
 20
83.009690
 30
0.0
 10
105.400860
 20
82.123270
 30
0.0
 10
104.296940
 20
82.982240
 30
0.0
  0
SPLINE
  5
1c7
100
AcDbEntity
  8
Ebene_2
 62
7
100
AcDbSpline
 70
8
 71
3
 72
8
 73
4
 74
0
 40
0
 40
0
 40
0
 40
0
 40
1
 40
1
 40
1
 40
1
 10
104.296940
 20
82.982240
 30
0.0
 10
103.137760
 20
78.704490
 30
0.0
 10
101.970090
 20
75.436570
 30
0.0
 10
100.780680
 20
74.756050
 30
0.0
  0
SPLINE
  5
1c8
100
AcDbEntity
  8
Ebene_2
 62
7
100
AcDbSpline
 70
8
 71
3
 72
8
 73
4
 74
0
 40
0
 40
0
 40
0
 40
0
 40
1
 40
1
 40
1
 40
1
 10
100.780680
 20
74.756050
 30
0.0
 10
100.202340
 20
74.352480
 30
0.0
 10
99.839481
 20
73.598760
 30
0.0
 10
98.815952
 20
73.918630
 30
0.0
  0
SPLINE
  5
1c9
100
AcDbEntity
  8
Ebene_2
 62
7
100
AcDbSpline
 70
8
 71
3
 72
8
 73
4
 74
0
 40
0
 40
0
 40
0
 40
0
 40
1
 40
1
 40
1
 40
1
 10
98.815952
 20
73.918630
 30
0.0
 10
96.786597
 20
75.494380
 30
0.0
 10
93.262076
 20
75.342240
 30
0.0
 10
92.648340
 20
76.865240
 30
0.0
  0
SPLINE
  5
1ca
100
AcDbEntity
  8
Ebene_2
 62
7
100
AcDbSpline
 70
8
 71
3
 72
8
 73
4
 74
0
 40
0
 40
0
 40
0
 40
0
 40
1
 40
1
 40
1
 40
1
 10
92.648340
 20
76.865240
 30
0.0
 10
92.767720
 20
77.720470
 30
0.0
 10
93.130818
 20
78.526970
 30
0.0
 10
91.600696
 20
79.712100
 30
0.0
  0
SPLINE
  5
1cb
100
AcDbEntity
  8
Ebene_2
 62
7
100
AcDbSpline
 70
8
 71
3
 72
8
 73
4
 74
0
 40
0
 40
0
 40
0
 40
0
 40
1
 40
1
 40
1
 40
1
 10
91.600696
 20
79.712100
 30
0.0
 10
88.831241
 20
77.183760
 30
0.0
 10
86.434957
 20
77.362760
 30
0.0
 10
85.760027
 20
77.937550
 30
0.0
  0
SPLINE
  5
1cc
100
AcDbEntity
  8
Ebene_2
 62
7
100
AcDbSpline
 70
8
 71
3
 72
8
 73
4
 74
0
 40
0
 40
0
 40
0
 40
0
 40
1
 40
1
 40
1
 40
1
 10
85.760027
 20
77.937550
 30
0.0
 10
80.924047
 20
82.838530
 30
0.0
 10
77.216273
 20
86.597220
 30
0.0
 10
75.303683
 20
94.145620
 30
0.0
  0
SPLINE
  5
1cd
100
AcDbEntity
  8
Ebene_2
 62
7
100
AcDbSpline
 70
8
 71
3
 72
8
 73
4
 74
0
 40
0
 40
0
 40
0
 40
0
 40
1
 40
1
 40
1
 40
1
 10
75.303683
 20
94.145620
 30
0.0
 10
71.473149
 20
105.676970
 30
0.0
 10
75.365223
 20
113.023940
 30
0.0
 10
77.067061
 20
117.232032
 30
0.0
  0
SPLINE
  5
1ce
100
AcDbEntity
  8
Ebene_2
 62
7
100
AcDbSpline
 70
8
 71
3
 72
8
 73
4
 74
0
 40
0
 40
0
 40
0
 40
0
 40
1
 40
1
 40
1
 40
1
 10
77.067061
 20
117.232032
 30
0.0
 10
76.924151
 20
111.533046
 30
0.0
 10
77.986957
 20
106.637870
 30
0.0
 10
82.196320
 20
103.840400
 30
0.0
  0
SPLINE
  5
1cf
100
AcDbEntity
  8
Ebene_2
 62
7
100
AcDbSpline
 70
8
 71
3
 72
8
 73
4
 74
0
 40
0
 40
0
 40
0
 40
0
 40
1
 40
1
 40
1
 40
1
 10
82.196320
 20
103.840400
 30
0.0
 10
83.737999
 20
102.889600
 30
0.0
 10
87.077002
 20
101.637570
 30
0.0
 10
89.409701
 20
103.159840
 30
0.0
  0
SPLINE
  5
1d0
100
AcDbEntity
  8
Ebene_2
 62
7
100
AcDbSpline
 70
8
 71
3
 72
8
 73
4
 74
0
 40
0
 40
0
 40
0
 40
0
 40
1
 40
1
 40
1
 40
1
 10
89.409701
 20
103.159840
 30
0.0
 10
92.141317
 20
104.795340
 30
0.0
 10
93.050207
 20
106.309110
 30
0.0
 10
93.066186
 20
109.698460
 30
0.0
  0
SPLINE
  5
1d1
100
AcDbEntity
  8
Ebene_2
 62
7
100
AcDbSpline
 70
8
 71
3
 72
8
 73
4
 74
0
 40
0
 40
0
 40
0
 40
0
 40
1
 40
1
 40
1
 40
1
 10
93.066186
 20
109.698460
 30
0.0
 10
93.941064
 20
118.425326
 30
0.0
 10
84.724696
 20
122.472759
 30
0.0
 10
94.561434
 20
140.475568
 30
0.0
  0
SPLINE
  5
1d2
100
AcDbEntity
  8
Ebene_2
 62
7
100
AcDbSpline
 70
8
 71
3
 72
8
 73
4
 74
0
 40
0
 40
0
 40
0
 40
0
 40
1
 40
1
 40
1
 40
1
 10
94.561434
 20
140.475568
 30
0.0
 10
98.213727
 20
148.444642
 30
0.0
 10
105.092430
 20
152.575306
 30
0.0
 10
108.955180
 20
160.517581
 30
0.0
  0
LWPOLYLINE
  5
1d3
100
AcDbEntity
  8
Ebene_2
 62
7
100
AcDbPolyline
 90
1
 70
1
 10
60.763464
 20
83.902770
 30
0.0
  0
LWPOLYLINE
  5
1d4
100
AcDbEntity
  8
Ebene_2
 62
7
100
AcDbPolyline
 90
1
 70
1
 10
108.955180
 20
160.517581
 30
0.0
  0
ENDSEC
  0
SECTION
  2
OBJECTS
  0
DICTIONARY
  5
C
330
0
100
AcDbDictionary
  3
ACAD_GROUP
350
D
  3
ACAD_MLINESTYLE
350
17
  0
DICTIONARY
  5
D
330
C
100
AcDbDictionary
  0
DICTIONARY
  5
1A
330
C
100
AcDbDictionary
  0
DICTIONARY
  5
17
330
C
100
AcDbDictionary
  3
STANDARD
350
18
  0
DICTIONARY
  5
19
330
C
100
AcDbDictionary
  0
ENDSEC
  0
EOF
