0
SECTION
2
TABLES
0
TABLE
2
LTYPE
0
LTYPE
2
CONTINUOUS
3
__________
70
0
72
65
73
1
40
1.000000
49
1.000000
0
ENDTAB
0
TABLE
2
LAYER
0
LAYER
2
0
70
0
62
1
6
CONTINUOUS
0
LAYER
2
GPS-MESSUNGEN
70
0
62
-9
6
CONTINUOUS
0
LAYER
2
RASEN
70
0
62
-3
6
CONTINUOUS
0
LAYER
2
EINLAEUFE
70
0
62
1
6
CONTINUOUS
0
LAYER
2
RABATTEN
70
0
62
2
6
CONTINUOUS
0
LAYER
2
KIESKANTE
70
0
62
9
6
CONTINUOUS
0
LAYER
2
WEGEFLAECHEN
70
0
62
1
6
CONTINUOUS
0
LAYER
2
HECKEN
70
0
62
1
6
CONTINUOUS
0
ENDTAB
0
TABLE
2
APPID
70
2
0
APPID
2
PE_URL
70
0
0
ENDTAB
0
ENDSEC
0
SECTION
2
BLOCKS
0
BLOCK
8
0
2
TP_POINT
10
0.0
20
0.0
30
0.0
70
2
0
POINT
8
0
10
0.0
20
0.0
30
0.0
0
ATTDEF
8
PUNKT_-_NAME
10
0.0
20
0.000000
30
0.0
40
0.500000
50
0.0
1

3
Punktname
2
PUNKT_-_NAME
70
0
0
ATTDEF
8
PUNKT-GEHÖ
10
0.0
20
0.750000
30
0.0
40
0.500000
50
0.0
1

3
Punkt_Geländehöhe
2
PUNKT-GEHÖ
70
0
0
ATTDEF
8
PUNKT_-_KATEGORIE
10
0.0
20
1.500000
30
0.0
40
0.500000
50
0.0
1

3
Punktkategorie
2
PUNKT_-_KATEGORIE
70
0
0
ATTDEF
8
PUNKT_-_BESCHR
10
0.0
20
2.250000
30
0.0
40
0.500000
50
0.0
1

3
Punktbeschreibung
2
PUNKT_-_BESCHR
70
0
0
ATTDEF
8
PUNKT-BASIS
10
0.0
20
3.000000
30
0.0
40
0.500000
50
0.0
1

3
Basis_
2
PUNKT-BASIS
70
0
0
ENDBLK
0
ENDSEC
0
SECTION
2
ENTITIES
0
POLYLINE
8
RASEN
48
1.000000
10
0
20
0
30
0
66
1
70
8
0
VERTEX
8
RASEN
10
0.000000
20
0.000000
30
0.000000
70
32
0
VERTEX
8
RASEN
10
-0.708967
20
15.634308
30
-0.237667
70
32
0
SEQEND
8
0
0
ARC
8
RASEN
48
1.000000
10
2.296659
20
16.222582
40
3.062655
50
118.287621
51
191.074179
0
ARC
8
RASEN
48
1.000000
10
-2.230547
20
18.994593
40
3.076737
50
358.601345
51
53.044624
0
LINE
8
RASEN
48
1.000000
10
-0.380835
20
21.453225
30
-0.286667
11
-1.621070
21
20.294540
31
-0.249667
0
LINE
8
RASEN
48
1.000000
10
-1.621070
20
20.294540
30
-0.249667
11
-2.683550
21
20.876013
31
-0.430000
0
ARC
8
RASEN
48
1.000000
10
-4.416138
20
21.116281
40
1.749169
50
278.090929
51
352.104835
0
ARC
8
RASEN
48
1.000000
10
-4.704511
20
19.103286
40
0.696558
50
219.225041
51
354.742881
0
LINE
8
RASEN
48
1.000000
10
-4.010883
20
19.039464
30
-1.316333
11
-4.169952
21
19.384523
31
-0.798667
0
LINE
8
RASEN
48
1.000000
10
-5.244112
20
18.662806
30
-1.873333
11
-5.409049
21
19.151586
31
-1.942667
0
LINE
8
RASEN
48
1.000000
10
-5.409049
20
19.151586
30
-1.942667
11
-5.670155
21
19.147639
31
-1.902333
0
LINE
8
RASEN
48
1.000000
10
-5.670155
20
19.147639
30
-1.902333
11
-4.679309
21
15.200630
31
-0.400000
0
LINE
8
RASEN
48
1.000000
10
-4.679309
20
15.200630
30
-0.400000
11
-3.862803
21
15.377949
31
-0.306000
0
ARC
8
RASEN
48
1.000000
10
-4.138412
20
14.417024
40
0.999668
50
3.849304
51
73.996234
0
LINE
8
RASEN
48
1.000000
10
-3.140999
20
14.484134
30
-0.165333
11
-3.013076
21
13.482164
31
-0.170667
0
ARC
8
RASEN
48
1.000000
10
-4.624827
20
13.757382
40
1.635081
50
284.993022
51
350.309795
0
LINE
8
RASEN
48
1.000000
10
-4.201830
20
12.177964
30
-0.043333
11
-6.200528
21
11.812893
31
0.047000
0
LINE
8
RASEN
48
1.000000
10
-6.200528
20
11.812893
30
0.047000
11
-6.613658
21
12.925770
31
0.039333
0
POLYLINE
8
RASEN
48
1.000000
10
0
20
0
30
0
66
1
70
8
0
VERTEX
8
RASEN
10
-6.613658
20
12.925770
30
0.039333
70
32
0
VERTEX
8
RASEN
10
-10.487014
20
12.461433
30
0.043333
70
32
0
VERTEX
8
RASEN
10
-10.368856
20
10.414597
30
0.032667
70
32
0
VERTEX
8
RASEN
10
-10.712689
20
9.358865
30
0.041333
70
32
0
VERTEX
8
RASEN
10
-11.717097
20
7.531022
30
-0.028000
70
32
0
VERTEX
8
RASEN
10
-8.490271
20
7.372222
30
0.030000
70
32
0
VERTEX
8
RASEN
10
-5.954468
20
3.974262
30
-0.005333
70
32
0
VERTEX
8
RASEN
10
-7.129323
20
1.086043
30
0.049000
70
32
0
VERTEX
8
RASEN
10
-3.044357
20
0.520223
30
0.051000
70
32
0
VERTEX
8
RASEN
10
-2.995515
20
0.075027
30
0.037000
70
32
0
SEQEND
8
0
0
LINE
8
RASEN
48
1.000000
10
-2.995515
20
0.075027
30
0.037000
11
0.000000
21
0.000000
31
0.000000
0
POLYLINE
8
RABATTEN
48
1.000000
10
0
20
0
30
0
66
1
70
8
0
VERTEX
8
RABATTEN
10
-6.551381
20
12.757012
30
0.036000
70
32
0
VERTEX
8
RABATTEN
10
-4.279398
20
13.467930
30
0.063000
70
32
0
SEQEND
8
0
0
LINE
8
RABATTEN
48
1.000000
10
-4.279398
20
13.467930
30
0.063000
11
-4.679309
21
15.200630
31
-0.400000
0
LINE
8
RABATTEN
48
1.000000
10
-4.679309
20
15.200630
30
-0.400000
11
-3.862803
21
15.377949
31
-0.306000
0
ARC
8
RABATTEN
48
1.000000
10
-4.138412
20
14.417024
40
0.999668
50
3.849304
51
73.996234
0
LINE
8
RABATTEN
48
1.000000
10
-3.140999
20
14.484134
30
-0.165333
11
-3.013076
21
13.482164
31
-0.170667
0
ARC
8
RABATTEN
48
1.000000
10
-4.624827
20
13.757382
40
1.635081
50
284.993022
51
350.309795
0
LINE
8
RABATTEN
48
1.000000
10
-4.201830
20
12.177964
30
-0.043333
11
-6.200528
21
11.812893
31
0.047000
0
LINE
8
RABATTEN
48
1.000000
10
-6.200528
20
11.812893
30
0.047000
11
-6.551381
21
12.757012
31
0.036000
0
POLYLINE
8
KIESKANTE
48
1.000000
10
0
20
0
30
0
66
1
70
8
0
VERTEX
8
KIESKANTE
10
0.217666
20
0.030406
30
0.003333
70
32
0
VERTEX
8
KIESKANTE
10
0.208017
20
0.029417
30
0.000667
70
32
0
SEQEND
8
0
0
POLYLINE
8
KIESKANTE
48
1.000000
10
0
20
0
30
0
66
1
70
8
0
VERTEX
8
KIESKANTE
10
-0.335229
20
13.602918
30
-0.168333
70
32
0
VERTEX
8
KIESKANTE
10
-0.539965
20
13.594271
30
-0.158667
70
32
0
SEQEND
8
0
0
LINE
8
KIESKANTE
48
1.000000
10
0.208017
20
0.029417
30
0.000667
11
-0.335229
21
13.602918
31
-0.168333
0
LINE
8
KIESKANTE
48
1.000000
10
-0.539965
20
13.594271
30
-0.158667
11
-0.616311
21
13.591047
0
LINE
8
KIESKANTE
48
1.000000
10
-0.616311
20
13.591047
11
0.000000
21
0.000000
31
0.000000
0
LINE
8
KIESKANTE
48
1.000000
10
0.000000
20
0.000000
30
0.000000
11
0.208017
21
0.029417
31
0.000667
0
ARC
8
RABATTEN
48
1.000000
10
1.228658
20
15.578901
40
2.091145
50
220.033333
51
278.117525
0
LINE
8
RABATTEN
48
1.000000
10
-0.372470
20
14.233807
30
-0.142333
11
-0.335229
21
13.602918
31
-0.168333
0
LINE
8
RABATTEN
48
1.000000
10
-0.335229
20
13.602918
30
-0.168333
11
0.208017
21
0.029417
31
0.000667
0
POLYLINE
8
RABATTEN
48
1.000000
10
0
20
0
30
0
66
1
70
8
0
VERTEX
8
RABATTEN
10
1.523936
20
13.508708
30
-0.190667
70
32
0
VERTEX
8
RABATTEN
10
2.205095
20
1.942347
30
-0.032333
70
32
0
SEQEND
8
0
0
LINE
8
RABATTEN
48
1.000000
10
2.205095
20
1.942347
30
-0.032333
11
0.208017
21
0.029417
31
0.000667
0
LINE
8
RABATTEN
48
1.000000
10
-7.129323
20
1.086043
30
0.049000
11
-8.125792
21
1.515449
31
0.071333
0
POLYLINE
8
RABATTEN
48
1.000000
10
0
20
0
30
0
66
1
70
8
0
VERTEX
8
RABATTEN
10
-8.125792
20
1.515449
30
0.071333
70
32
0
VERTEX
8
RABATTEN
10
-8.326765
20
2.200433
30
0.020333
70
32
0
VERTEX
8
RABATTEN
10
-7.750232
20
3.462063
30
-0.095000
70
32
0
SEQEND
8
0
0
LINE
8
RABATTEN
48
1.000000
10
-7.129323
20
1.086043
30
0.049000
11
-5.954468
21
3.974262
31
-0.005333
0
LINE
8
RABATTEN
48
1.000000
10
-8.490271
20
7.372222
30
0.030000
11
-11.717097
21
7.531022
31
-0.028000
0
POLYLINE
8
RABATTEN
48
1.000000
10
0
20
0
30
0
66
1
70
8
0
VERTEX
8
RABATTEN
10
-7.750232
20
3.462063
30
-0.095000
70
32
0
VERTEX
8
RABATTEN
10
-9.559768
20
5.962068
30
0.043333
70
32
0
SEQEND
8
0
0
POLYLINE
8
RABATTEN
48
1.000000
10
0
20
0
30
0
66
1
70
8
0
VERTEX
8
RABATTEN
10
-9.559768
20
5.962068
30
0.043333
70
32
0
VERTEX
8
RABATTEN
10
-11.957499
20
5.370151
30
0.168333
70
32
0
SEQEND
8
0
0
LINE
8
RABATTEN
48
1.000000
10
-11.957499
20
5.370151
30
0.168333
11
-11.717097
21
7.531022
31
-0.028000
0
LINE
8
WEGEFLAECHEN
48
1.000000
10
-11.514432
20
12.346680
30
0.083000
11
-16.198268
21
11.739583
31
0.082667
0
LINE
8
WEGEFLAECHEN
48
1.000000
10
-16.198268
20
11.739583
30
0.082667
11
-18.553882
21
24.090078
31
0.109000
0
LINE
8
WEGEFLAECHEN
48
1.000000
10
-18.553882
20
24.090078
30
0.109000
11
-17.773115
21
24.248480
31
0.131333
0
LINE
8
WEGEFLAECHEN
48
1.000000
10
-11.609219
20
13.119808
30
0.120000
11
-11.514432
21
12.346680
31
0.083000
0
LINE
8
WEGEFLAECHEN
48
1.000000
10
-15.553042
20
12.608629
11
-11.609219
21
13.119808
31
0.120000
0
LINE
8
WEGEFLAECHEN
48
1.000000
10
-15.553042
20
12.608629
11
-17.773115
21
24.248480
31
0.131333
0
LINE
8
RABATTEN
48
1.000000
10
-8.490271
20
7.372222
30
0.030000
11
-5.954468
21
3.974262
31
-0.005333
0
INSERT
8
PUNKTE
48
1.000000
66
1
2
TP_POINT
10
-7.210628
20
7.974313
30
0.030000
0
ATTRIB
8
PUNKT - NAME
10
-7.210628
20
8.724313
30
0.030000
40
0.500000
1
168
2
PUNKT - NAME
70
0
0
ATTRIB
8
PUNKT-GEHÖ
10
-7.210628
20
9.474313
30
0.030000
40
0.500000
1
0.030m
2
PUNKT-GEHÖ
70
0
0
ATTRIB
8
PUNKT - KATEGORIE
10
-7.210628
20
10.224313
30
0.030000
40
0.500000
1

2
PUNKT - KATEGORIE
70
0
0
ATTRIB
8
PUNKT - BESCHR
10
-7.210628
20
10.974313
30
0.030000
40
0.500000
1

2
PUNKT - BESCHR
70
0
0
ATTRIB
8
PUNKT-BASIS
10
-7.210628
20
11.724313
30
0.030000
40
0.500000
1

2
PUNKT-BASIS
70
0
0
SEQEND
0
INSERT
8
PUNKTE
48
1.000000
66
1
2
TP_POINT
10
-6.871852
20
8.915180
30
0.030000
0
ATTRIB
8
PUNKT - NAME
10
-6.871852
20
9.665180
30
0.030000
40
0.500000
1
167
2
PUNKT - NAME
70
0
0
ATTRIB
8
PUNKT-GEHÖ
10
-6.871852
20
10.415180
30
0.030000
40
0.500000
1
0.030m
2
PUNKT-GEHÖ
70
0
0
ATTRIB
8
PUNKT - KATEGORIE
10
-6.871852
20
11.165180
30
0.030000
40
0.500000
1

2
PUNKT - KATEGORIE
70
0
0
ATTRIB
8
PUNKT - BESCHR
10
-6.871852
20
11.915180
30
0.030000
40
0.500000
1

2
PUNKT - BESCHR
70
0
0
ATTRIB
8
PUNKT-BASIS
10
-6.871852
20
12.665180
30
0.030000
40
0.500000
1

2
PUNKT-BASIS
70
0
0
SEQEND
0
INSERT
8
PUNKTE
48
1.000000
66
1
2
TP_POINT
10
-7.812719
20
9.253956
30
0.030000
0
ATTRIB
8
PUNKT - NAME
10
-7.812719
20
10.003956
30
0.030000
40
0.500000
1
166
2
PUNKT - NAME
70
0
0
ATTRIB
8
PUNKT-GEHÖ
10
-7.812719
20
10.753956
30
0.030000
40
0.500000
1
0.030m
2
PUNKT-GEHÖ
70
0
0
ATTRIB
8
PUNKT - KATEGORIE
10
-7.812719
20
11.503956
30
0.030000
40
0.500000
1

2
PUNKT - KATEGORIE
70
0
0
ATTRIB
8
PUNKT - BESCHR
10
-7.812719
20
12.253956
30
0.030000
40
0.500000
1

2
PUNKT - BESCHR
70
0
0
ATTRIB
8
PUNKT-BASIS
10
-7.812719
20
13.003956
30
0.030000
40
0.500000
1

2
PUNKT-BASIS
70
0
0
SEQEND
0
INSERT
8
PUNKTE
48
1.000000
66
1
2
TP_POINT
10
-8.151495
20
8.313089
30
0.030000
0
ATTRIB
8
PUNKT - NAME
10
-8.151495
20
9.063089
30
0.030000
40
0.500000
1
165
2
PUNKT - NAME
70
0
0
ATTRIB
8
PUNKT-GEHÖ
10
-8.151495
20
9.813089
30
0.030000
40
0.500000
1
0.030m
2
PUNKT-GEHÖ
70
0
0
ATTRIB
8
PUNKT - KATEGORIE
10
-8.151495
20
10.563089
30
0.030000
40
0.500000
1

2
PUNKT - KATEGORIE
70
0
0
ATTRIB
8
PUNKT - BESCHR
10
-8.151495
20
11.313089
30
0.030000
40
0.500000
1

2
PUNKT - BESCHR
70
0
0
ATTRIB
8
PUNKT-BASIS
10
-8.151495
20
12.063089
30
0.030000
40
0.500000
1

2
PUNKT-BASIS
70
0
0
SEQEND
0
INSERT
8
PUNKTE
48
1.000000
66
1
2
TP_POINT
10
-7.549404
20
7.033446
30
0.030000
0
ATTRIB
8
PUNKT - NAME
10
-7.549404
20
7.783446
30
0.030000
40
0.500000
1
164
2
PUNKT - NAME
70
0
0
ATTRIB
8
PUNKT-GEHÖ
10
-7.549404
20
8.533446
30
0.030000
40
0.500000
1
0.030m
2
PUNKT-GEHÖ
70
0
0
ATTRIB
8
PUNKT - KATEGORIE
10
-7.549404
20
9.283446
30
0.030000
40
0.500000
1

2
PUNKT - KATEGORIE
70
0
0
ATTRIB
8
PUNKT - BESCHR
10
-7.549404
20
10.033446
30
0.030000
40
0.500000
1

2
PUNKT - BESCHR
70
0
0
ATTRIB
8
PUNKT-BASIS
10
-7.549404
20
10.783446
30
0.030000
40
0.500000
1

2
PUNKT-BASIS
70
0
0
SEQEND
0
INSERT
8
PUNKTE
48
1.000000
66
1
2
TP_POINT
10
-7.210628
20
7.974313
30
0.030000
0
ATTRIB
8
PUNKT - NAME
10
-7.210628
20
8.724313
30
0.030000
40
0.500000
1
163
2
PUNKT - NAME
70
0
0
ATTRIB
8
PUNKT-GEHÖ
10
-7.210628
20
9.474313
30
0.030000
40
0.500000
1
0.030m
2
PUNKT-GEHÖ
70
0
0
ATTRIB
8
PUNKT - KATEGORIE
10
-7.210628
20
10.224313
30
0.030000
40
0.500000
1

2
PUNKT - KATEGORIE
70
0
0
ATTRIB
8
PUNKT - BESCHR
10
-7.210628
20
10.974313
30
0.030000
40
0.500000
1

2
PUNKT - BESCHR
70
0
0
ATTRIB
8
PUNKT-BASIS
10
-7.210628
20
11.724313
30
0.030000
40
0.500000
1

2
PUNKT-BASIS
70
0
0
SEQEND
0
INSERT
8
PUNKTE
48
1.000000
66
1
2
TP_POINT
10
-8.151495
20
8.313089
30
0.030000
0
ATTRIB
8
PUNKT - NAME
10
-8.151495
20
9.063089
30
0.030000
40
0.500000
1
162
2
PUNKT - NAME
70
0
0
ATTRIB
8
PUNKT-GEHÖ
10
-8.151495
20
9.813089
30
0.030000
40
0.500000
1
0.030m
2
PUNKT-GEHÖ
70
0
0
ATTRIB
8
PUNKT - KATEGORIE
10
-8.151495
20
10.563089
30
0.030000
40
0.500000
1

2
PUNKT - KATEGORIE
70
0
0
ATTRIB
8
PUNKT - BESCHR
10
-8.151495
20
11.313089
30
0.030000
40
0.500000
1

2
PUNKT - BESCHR
70
0
0
ATTRIB
8
PUNKT-BASIS
10
-8.151495
20
12.063089
30
0.030000
40
0.500000
1

2
PUNKT-BASIS
70
0
0
SEQEND
0
INSERT
8
WEGEFLAECHEN
48
1.000000
66
1
2
TP_POINT
10
-15.553042
20
12.608629
0
ATTRIB
8
PUNKT - NAME
10
-15.553042
20
13.358629
40
0.500000
1
161
2
PUNKT - NAME
70
0
0
ATTRIB
8
PUNKT-GEHÖ
10
-15.553042
20
14.108629
40
0.500000
1

2
PUNKT-GEHÖ
70
0
0
ATTRIB
8
PUNKT - KATEGORIE
10
-15.553042
20
14.858629
40
0.500000
1
WEGEFLAECHEN
2
PUNKT - KATEGORIE
70
0
0
ATTRIB
8
PUNKT - BESCHR
10
-15.553042
20
15.608629
40
0.500000
1

2
PUNKT - BESCHR
70
0
0
ATTRIB
8
PUNKT-BASIS
10
-15.553042
20
16.358629
40
0.500000
1

2
PUNKT-BASIS
70
0
0
SEQEND
0
INSERT
8
WEGEFLAECHEN
48
1.000000
66
1
2
TP_POINT
10
-17.773115
20
24.248480
30
0.131333
0
ATTRIB
8
PUNKT - NAME
10
-17.773115
20
24.998480
30
0.131333
40
0.500000
1
160
2
PUNKT - NAME
70
0
0
ATTRIB
8
PUNKT-GEHÖ
10
-17.773115
20
25.748480
30
0.131333
40
0.500000
1
0.131m
2
PUNKT-GEHÖ
70
0
0
ATTRIB
8
PUNKT - KATEGORIE
10
-17.773115
20
26.498480
30
0.131333
40
0.500000
1
WEGEFLAECHEN
2
PUNKT - KATEGORIE
70
0
0
ATTRIB
8
PUNKT - BESCHR
10
-17.773115
20
27.248480
30
0.131333
40
0.500000
1

2
PUNKT - BESCHR
70
0
0
ATTRIB
8
PUNKT-BASIS
10
-17.773115
20
27.998480
30
0.131333
40
0.500000
1

2
PUNKT-BASIS
70
0
0
SEQEND
0
INSERT
8
WEGEFLAECHEN
48
1.000000
66
1
2
TP_POINT
10
-18.553882
20
24.090078
30
0.109000
0
ATTRIB
8
PUNKT - NAME
10
-18.553882
20
24.840078
30
0.109000
40
0.500000
1
159
2
PUNKT - NAME
70
0
0
ATTRIB
8
PUNKT-GEHÖ
10
-18.553882
20
25.590078
30
0.109000
40
0.500000
1
0.109m
2
PUNKT-GEHÖ
70
0
0
ATTRIB
8
PUNKT - KATEGORIE
10
-18.553882
20
26.340078
30
0.109000
40
0.500000
1
WEGEFLAECHEN
2
PUNKT - KATEGORIE
70
0
0
ATTRIB
8
PUNKT - BESCHR
10
-18.553882
20
27.090078
30
0.109000
40
0.500000
1

2
PUNKT - BESCHR
70
0
0
ATTRIB
8
PUNKT-BASIS
10
-18.553882
20
27.840078
30
0.109000
40
0.500000
1

2
PUNKT-BASIS
70
0
0
SEQEND
0
INSERT
8
WEGEFLAECHEN
48
1.000000
66
1
2
TP_POINT
10
-16.198268
20
11.739583
30
0.082667
0
ATTRIB
8
PUNKT - NAME
10
-16.198268
20
12.489583
30
0.082667
40
0.500000
1
158
2
PUNKT - NAME
70
0
0
ATTRIB
8
PUNKT-GEHÖ
10
-16.198268
20
13.239583
30
0.082667
40
0.500000
1
0.083m
2
PUNKT-GEHÖ
70
0
0
ATTRIB
8
PUNKT - KATEGORIE
10
-16.198268
20
13.989583
30
0.082667
40
0.500000
1
WEGEFLAECHEN
2
PUNKT - KATEGORIE
70
0
0
ATTRIB
8
PUNKT - BESCHR
10
-16.198268
20
14.739583
30
0.082667
40
0.500000
1

2
PUNKT - BESCHR
70
0
0
ATTRIB
8
PUNKT-BASIS
10
-16.198268
20
15.489583
30
0.082667
40
0.500000
1

2
PUNKT-BASIS
70
0
0
SEQEND
0
INSERT
8
WEGEFLAECHEN
48
1.000000
66
1
2
TP_POINT
10
-11.514432
20
12.346680
30
0.083000
0
ATTRIB
8
PUNKT - NAME
10
-11.514432
20
13.096680
30
0.083000
40
0.500000
1
157
2
PUNKT - NAME
70
0
0
ATTRIB
8
PUNKT-GEHÖ
10
-11.514432
20
13.846680
30
0.083000
40
0.500000
1
0.083m
2
PUNKT-GEHÖ
70
0
0
ATTRIB
8
PUNKT - KATEGORIE
10
-11.514432
20
14.596680
30
0.083000
40
0.500000
1
WEGEFLAECHEN
2
PUNKT - KATEGORIE
70
0
0
ATTRIB
8
PUNKT - BESCHR
10
-11.514432
20
15.346680
30
0.083000
40
0.500000
1

2
PUNKT - BESCHR
70
0
0
ATTRIB
8
PUNKT-BASIS
10
-11.514432
20
16.096680
30
0.083000
40
0.500000
1

2
PUNKT-BASIS
70
0
0
SEQEND
0
INSERT
8
WEGEFLAECHEN
48
1.000000
66
1
2
TP_POINT
10
-11.609219
20
13.119808
30
0.120000
0
ATTRIB
8
PUNKT - NAME
10
-11.609219
20
13.869808
30
0.120000
40
0.500000
1
156
2
PUNKT - NAME
70
0
0
ATTRIB
8
PUNKT-GEHÖ
10
-11.609219
20
14.619808
30
0.120000
40
0.500000
1
0.120m
2
PUNKT-GEHÖ
70
0
0
ATTRIB
8
PUNKT - KATEGORIE
10
-11.609219
20
15.369808
30
0.120000
40
0.500000
1
WEGEFLAECHEN
2
PUNKT - KATEGORIE
70
0
0
ATTRIB
8
PUNKT - BESCHR
10
-11.609219
20
16.119808
30
0.120000
40
0.500000
1

2
PUNKT - BESCHR
70
0
0
ATTRIB
8
PUNKT-BASIS
10
-11.609219
20
16.869808
30
0.120000
40
0.500000
1

2
PUNKT-BASIS
70
0
0
SEQEND
0
INSERT
8
RABATTEN
48
1.000000
66
1
2
TP_POINT
10
-11.957499
20
5.370151
30
0.168333
0
ATTRIB
8
PUNKT - NAME
10
-11.957499
20
6.120151
30
0.168333
40
0.500000
1
155
2
PUNKT - NAME
70
0
0
ATTRIB
8
PUNKT-GEHÖ
10
-11.957499
20
6.870151
30
0.168333
40
0.500000
1
0.168m
2
PUNKT-GEHÖ
70
0
0
ATTRIB
8
PUNKT - KATEGORIE
10
-11.957499
20
7.620151
30
0.168333
40
0.500000
1
RABATTEN
2
PUNKT - KATEGORIE
70
0
0
ATTRIB
8
PUNKT - BESCHR
10
-11.957499
20
8.370151
30
0.168333
40
0.500000
1

2
PUNKT - BESCHR
70
0
0
ATTRIB
8
PUNKT-BASIS
10
-11.957499
20
9.120151
30
0.168333
40
0.500000
1

2
PUNKT-BASIS
70
0
0
SEQEND
0
INSERT
8
RABATTEN
48
1.000000
66
1
2
TP_POINT
10
-9.559768
20
5.962068
30
0.043333
0
ATTRIB
8
PUNKT - NAME
10
-9.559768
20
6.712068
30
0.043333
40
0.500000
1
154
2
PUNKT - NAME
70
0
0
ATTRIB
8
PUNKT-GEHÖ
10
-9.559768
20
7.462068
30
0.043333
40
0.500000
1
0.043m
2
PUNKT-GEHÖ
70
0
0
ATTRIB
8
PUNKT - KATEGORIE
10
-9.559768
20
8.212068
30
0.043333
40
0.500000
1
RABATTEN
2
PUNKT - KATEGORIE
70
0
0
ATTRIB
8
PUNKT - BESCHR
10
-9.559768
20
8.962068
30
0.043333
40
0.500000
1

2
PUNKT - BESCHR
70
0
0
ATTRIB
8
PUNKT-BASIS
10
-9.559768
20
9.712068
30
0.043333
40
0.500000
1

2
PUNKT-BASIS
70
0
0
SEQEND
0
INSERT
8
RABATTEN
48
1.000000
66
1
2
TP_POINT
10
-7.750232
20
3.462063
30
-0.095000
0
ATTRIB
8
PUNKT - NAME
10
-7.750232
20
4.212063
30
-0.095000
40
0.500000
1
152
2
PUNKT - NAME
70
0
0
ATTRIB
8
PUNKT-GEHÖ
10
-7.750232
20
4.962063
30
-0.095000
40
0.500000
1
-0.095m
2
PUNKT-GEHÖ
70
0
0
ATTRIB
8
PUNKT - KATEGORIE
10
-7.750232
20
5.712063
30
-0.095000
40
0.500000
1
RABATTEN
2
PUNKT - KATEGORIE
70
0
0
ATTRIB
8
PUNKT - BESCHR
10
-7.750232
20
6.462063
30
-0.095000
40
0.500000
1

2
PUNKT - BESCHR
70
0
0
ATTRIB
8
PUNKT-BASIS
10
-7.750232
20
7.212063
30
-0.095000
40
0.500000
1

2
PUNKT-BASIS
70
0
0
SEQEND
0
INSERT
8
RABATTEN
48
1.000000
66
1
2
TP_POINT
10
-8.326765
20
2.200433
30
0.020333
0
ATTRIB
8
PUNKT - NAME
10
-8.326765
20
2.950433
30
0.020333
40
0.500000
1
151
2
PUNKT - NAME
70
0
0
ATTRIB
8
PUNKT-GEHÖ
10
-8.326765
20
3.700433
30
0.020333
40
0.500000
1
0.020m
2
PUNKT-GEHÖ
70
0
0
ATTRIB
8
PUNKT - KATEGORIE
10
-8.326765
20
4.450433
30
0.020333
40
0.500000
1
RABATTEN
2
PUNKT - KATEGORIE
70
0
0
ATTRIB
8
PUNKT - BESCHR
10
-8.326765
20
5.200433
30
0.020333
40
0.500000
1

2
PUNKT - BESCHR
70
0
0
ATTRIB
8
PUNKT-BASIS
10
-8.326765
20
5.950433
30
0.020333
40
0.500000
1

2
PUNKT-BASIS
70
0
0
SEQEND
0
INSERT
8
RABATTEN
48
1.000000
66
1
2
TP_POINT
10
-8.125792
20
1.515449
30
0.071333
0
ATTRIB
8
PUNKT - NAME
10
-8.125792
20
2.265449
30
0.071333
40
0.500000
1
150
2
PUNKT - NAME
70
0
0
ATTRIB
8
PUNKT-GEHÖ
10
-8.125792
20
3.015449
30
0.071333
40
0.500000
1
0.071m
2
PUNKT-GEHÖ
70
0
0
ATTRIB
8
PUNKT - KATEGORIE
10
-8.125792
20
3.765449
30
0.071333
40
0.500000
1
RABATTEN
2
PUNKT - KATEGORIE
70
0
0
ATTRIB
8
PUNKT - BESCHR
10
-8.125792
20
4.515449
30
0.071333
40
0.500000
1

2
PUNKT - BESCHR
70
0
0
ATTRIB
8
PUNKT-BASIS
10
-8.125792
20
5.265449
30
0.071333
40
0.500000
1

2
PUNKT-BASIS
70
0
0
SEQEND
0
INSERT
8
RABATTEN
48
1.000000
66
1
2
TP_POINT
10
2.205095
20
1.942347
30
-0.032333
0
ATTRIB
8
PUNKT - NAME
10
2.205095
20
2.692347
30
-0.032333
40
0.500000
1
147
2
PUNKT - NAME
70
0
0
ATTRIB
8
PUNKT-GEHÖ
10
2.205095
20
3.442347
30
-0.032333
40
0.500000
1
-0.032m
2
PUNKT-GEHÖ
70
0
0
ATTRIB
8
PUNKT - KATEGORIE
10
2.205095
20
4.192347
30
-0.032333
40
0.500000
1
RABATTEN
2
PUNKT - KATEGORIE
70
0
0
ATTRIB
8
PUNKT - BESCHR
10
2.205095
20
4.942347
30
-0.032333
40
0.500000
1

2
PUNKT - BESCHR
70
0
0
ATTRIB
8
PUNKT-BASIS
10
2.205095
20
5.692347
30
-0.032333
40
0.500000
1

2
PUNKT-BASIS
70
0
0
SEQEND
0
INSERT
8
RABATTEN
48
1.000000
66
1
2
TP_POINT
10
1.523936
20
13.508708
30
-0.190667
0
ATTRIB
8
PUNKT - NAME
10
1.523936
20
14.258708
30
-0.190667
40
0.500000
1
146
2
PUNKT - NAME
70
0
0
ATTRIB
8
PUNKT-GEHÖ
10
1.523936
20
15.008708
30
-0.190667
40
0.500000
1
-0.191m
2
PUNKT-GEHÖ
70
0
0
ATTRIB
8
PUNKT - KATEGORIE
10
1.523936
20
15.758708
30
-0.190667
40
0.500000
1
RABATTEN
2
PUNKT - KATEGORIE
70
0
0
ATTRIB
8
PUNKT - BESCHR
10
1.523936
20
16.508708
30
-0.190667
40
0.500000
1

2
PUNKT - BESCHR
70
0
0
ATTRIB
8
PUNKT-BASIS
10
1.523936
20
17.258708
30
-0.190667
40
0.500000
1

2
PUNKT-BASIS
70
0
0
SEQEND
0
INSERT
8
RABATTEN
48
1.000000
66
1
2
TP_POINT
10
0.274518
20
13.718120
30
-0.163000
0
ATTRIB
8
PUNKT - NAME
10
0.274518
20
14.468120
30
-0.163000
40
0.500000
1
145
2
PUNKT - NAME
70
0
0
ATTRIB
8
PUNKT-GEHÖ
10
0.274518
20
15.218120
30
-0.163000
40
0.500000
1
-0.163m
2
PUNKT-GEHÖ
70
0
0
ATTRIB
8
PUNKT - KATEGORIE
10
0.274518
20
15.968120
30
-0.163000
40
0.500000
1
RABATTEN
2
PUNKT - KATEGORIE
70
0
0
ATTRIB
8
PUNKT - BESCHR
10
0.274518
20
16.718120
30
-0.163000
40
0.500000
1

2
PUNKT - BESCHR
70
0
0
ATTRIB
8
PUNKT-BASIS
10
0.274518
20
17.468120
30
-0.163000
40
0.500000
1

2
PUNKT-BASIS
70
0
0
SEQEND
0
INSERT
8
RABATTEN
48
1.000000
66
1
2
TP_POINT
10
-0.372470
20
14.233807
30
-0.142333
0
ATTRIB
8
PUNKT - NAME
10
-0.372470
20
14.983807
30
-0.142333
40
0.500000
1
144
2
PUNKT - NAME
70
0
0
ATTRIB
8
PUNKT-GEHÖ
10
-0.372470
20
15.733807
30
-0.142333
40
0.500000
1
-0.142m
2
PUNKT-GEHÖ
70
0
0
ATTRIB
8
PUNKT - KATEGORIE
10
-0.372470
20
16.483807
30
-0.142333
40
0.500000
1
RABATTEN
2
PUNKT - KATEGORIE
70
0
0
ATTRIB
8
PUNKT - BESCHR
10
-0.372470
20
17.233807
30
-0.142333
40
0.500000
1

2
PUNKT - BESCHR
70
0
0
ATTRIB
8
PUNKT-BASIS
10
-0.372470
20
17.983807
30
-0.142333
40
0.500000
1

2
PUNKT-BASIS
70
0
0
SEQEND
0
INSERT
8
KIESKANTE
48
1.000000
66
1
2
TP_POINT
10
-0.616311
20
13.591047
0
ATTRIB
8
PUNKT - NAME
10
-0.616311
20
14.341047
40
0.500000
1
143
2
PUNKT - NAME
70
0
0
ATTRIB
8
PUNKT-GEHÖ
10
-0.616311
20
15.091047
40
0.500000
1

2
PUNKT-GEHÖ
70
0
0
ATTRIB
8
PUNKT - KATEGORIE
10
-0.616311
20
15.841047
40
0.500000
1
KIESKANTE
2
PUNKT - KATEGORIE
70
0
0
ATTRIB
8
PUNKT - BESCHR
10
-0.616311
20
16.591047
40
0.500000
1

2
PUNKT - BESCHR
70
0
0
ATTRIB
8
PUNKT-BASIS
10
-0.616311
20
17.341047
40
0.500000
1

2
PUNKT-BASIS
70
0
0
SEQEND
0
INSERT
8
KIESKANTE
48
1.000000
66
1
2
TP_POINT
10
-0.539965
20
13.594271
30
-0.158667
0
ATTRIB
8
PUNKT - NAME
10
-0.539965
20
14.344271
30
-0.158667
40
0.500000
1
142
2
PUNKT - NAME
70
0
0
ATTRIB
8
PUNKT-GEHÖ
10
-0.539965
20
15.094271
30
-0.158667
40
0.500000
1
-0.159m
2
PUNKT-GEHÖ
70
0
0
ATTRIB
8
PUNKT - KATEGORIE
10
-0.539965
20
15.844271
30
-0.158667
40
0.500000
1
KIESKANTE
2
PUNKT - KATEGORIE
70
0
0
ATTRIB
8
PUNKT - BESCHR
10
-0.539965
20
16.594271
30
-0.158667
40
0.500000
1

2
PUNKT - BESCHR
70
0
0
ATTRIB
8
PUNKT-BASIS
10
-0.539965
20
17.344271
30
-0.158667
40
0.500000
1

2
PUNKT-BASIS
70
0
0
SEQEND
0
INSERT
8
KIESKANTE
48
1.000000
66
1
2
TP_POINT
10
-0.335229
20
13.602918
30
-0.168333
0
ATTRIB
8
PUNKT - NAME
10
-0.335229
20
14.352918
30
-0.168333
40
0.500000
1
141
2
PUNKT - NAME
70
0
0
ATTRIB
8
PUNKT-GEHÖ
10
-0.335229
20
15.102918
30
-0.168333
40
0.500000
1
-0.168m
2
PUNKT-GEHÖ
70
0
0
ATTRIB
8
PUNKT - KATEGORIE
10
-0.335229
20
15.852918
30
-0.168333
40
0.500000
1
KIESKANTE
2
PUNKT - KATEGORIE
70
0
0
ATTRIB
8
PUNKT - BESCHR
10
-0.335229
20
16.602918
30
-0.168333
40
0.500000
1

2
PUNKT - BESCHR
70
0
0
ATTRIB
8
PUNKT-BASIS
10
-0.335229
20
17.352918
30
-0.168333
40
0.500000
1

2
PUNKT-BASIS
70
0
0
SEQEND
0
INSERT
8
KIESKANTE
48
1.000000
66
1
2
TP_POINT
10
0.208017
20
0.029417
30
0.000667
0
ATTRIB
8
PUNKT - NAME
10
0.208017
20
0.779417
30
0.000667
40
0.500000
1
140
2
PUNKT - NAME
70
0
0
ATTRIB
8
PUNKT-GEHÖ
10
0.208017
20
1.529417
30
0.000667
40
0.500000
1
0.001m
2
PUNKT-GEHÖ
70
0
0
ATTRIB
8
PUNKT - KATEGORIE
10
0.208017
20
2.279417
30
0.000667
40
0.500000
1
KIESKANTE
2
PUNKT - KATEGORIE
70
0
0
ATTRIB
8
PUNKT - BESCHR
10
0.208017
20
3.029417
30
0.000667
40
0.500000
1

2
PUNKT - BESCHR
70
0
0
ATTRIB
8
PUNKT-BASIS
10
0.208017
20
3.779417
30
0.000667
40
0.500000
1

2
PUNKT-BASIS
70
0
0
SEQEND
0
INSERT
8
EINLAEUFE
48
1.000000
66
1
2
TP_POINT
10
-6.117781
20
1.949320
30
0.023333
0
ATTRIB
8
PUNKT - NAME
10
-6.117781
20
2.699320
30
0.023333
40
0.500000
1
138
2
PUNKT - NAME
70
0
0
ATTRIB
8
PUNKT-GEHÖ
10
-6.117781
20
3.449320
30
0.023333
40
0.500000
1
0.023m
2
PUNKT-GEHÖ
70
0
0
ATTRIB
8
PUNKT - KATEGORIE
10
-6.117781
20
4.199320
30
0.023333
40
0.500000
1
EINLAEUFE
2
PUNKT - KATEGORIE
70
0
0
ATTRIB
8
PUNKT - BESCHR
10
-6.117781
20
4.949320
30
0.023333
40
0.500000
1

2
PUNKT - BESCHR
70
0
0
ATTRIB
8
PUNKT-BASIS
10
-6.117781
20
5.699320
30
0.023333
40
0.500000
1

2
PUNKT-BASIS
70
0
0
SEQEND
0
INSERT
8
EINLAEUFE
48
1.000000
66
1
2
TP_POINT
10
-5.207771
20
2.679512
30
0.020333
0
ATTRIB
8
PUNKT - NAME
10
-5.207771
20
3.429512
30
0.020333
40
0.500000
1
137
2
PUNKT - NAME
70
0
0
ATTRIB
8
PUNKT-GEHÖ
10
-5.207771
20
4.179512
30
0.020333
40
0.500000
1
0.020m
2
PUNKT-GEHÖ
70
0
0
ATTRIB
8
PUNKT - KATEGORIE
10
-5.207771
20
4.929512
30
0.020333
40
0.500000
1
EINLAEUFE
2
PUNKT - KATEGORIE
70
0
0
ATTRIB
8
PUNKT - BESCHR
10
-5.207771
20
5.679512
30
0.020333
40
0.500000
1

2
PUNKT - BESCHR
70
0
0
ATTRIB
8
PUNKT-BASIS
10
-5.207771
20
6.429512
30
0.020333
40
0.500000
1

2
PUNKT-BASIS
70
0
0
SEQEND
0
INSERT
8
RABATTEN
48
1.000000
66
1
2
TP_POINT
10
-4.279398
20
13.467930
30
0.063000
0
ATTRIB
8
PUNKT - NAME
10
-4.279398
20
14.217930
30
0.063000
40
0.500000
1
136
2
PUNKT - NAME
70
0
0
ATTRIB
8
PUNKT-GEHÖ
10
-4.279398
20
14.967930
30
0.063000
40
0.500000
1
0.063m
2
PUNKT-GEHÖ
70
0
0
ATTRIB
8
PUNKT - KATEGORIE
10
-4.279398
20
15.717930
30
0.063000
40
0.500000
1
RABATTEN
2
PUNKT - KATEGORIE
70
0
0
ATTRIB
8
PUNKT - BESCHR
10
-4.279398
20
16.467930
30
0.063000
40
0.500000
1

2
PUNKT - BESCHR
70
0
0
ATTRIB
8
PUNKT-BASIS
10
-4.279398
20
17.217930
30
0.063000
40
0.500000
1

2
PUNKT-BASIS
70
0
0
SEQEND
0
INSERT
8
RABATTEN
48
1.000000
66
1
2
TP_POINT
10
-6.551381
20
12.757012
30
0.036000
0
ATTRIB
8
PUNKT - NAME
10
-6.551381
20
13.507012
30
0.036000
40
0.500000
1
135
2
PUNKT - NAME
70
0
0
ATTRIB
8
PUNKT-GEHÖ
10
-6.551381
20
14.257012
30
0.036000
40
0.500000
1
0.036m
2
PUNKT-GEHÖ
70
0
0
ATTRIB
8
PUNKT - KATEGORIE
10
-6.551381
20
15.007012
30
0.036000
40
0.500000
1
RABATTEN
2
PUNKT - KATEGORIE
70
0
0
ATTRIB
8
PUNKT - BESCHR
10
-6.551381
20
15.757012
30
0.036000
40
0.500000
1

2
PUNKT - BESCHR
70
0
0
ATTRIB
8
PUNKT-BASIS
10
-6.551381
20
16.507012
30
0.036000
40
0.500000
1

2
PUNKT-BASIS
70
0
0
SEQEND
0
INSERT
8
RASEN
48
1.000000
66
1
2
TP_POINT
10
-2.995515
20
0.075027
30
0.037000
0
ATTRIB
8
PUNKT - NAME
10
-2.995515
20
0.825027
30
0.037000
40
0.500000
1
134
2
PUNKT - NAME
70
0
0
ATTRIB
8
PUNKT-GEHÖ
10
-2.995515
20
1.575027
30
0.037000
40
0.500000
1
0.037m
2
PUNKT-GEHÖ
70
0
0
ATTRIB
8
PUNKT - KATEGORIE
10
-2.995515
20
2.325027
30
0.037000
40
0.500000
1
RASEN
2
PUNKT - KATEGORIE
70
0
0
ATTRIB
8
PUNKT - BESCHR
10
-2.995515
20
3.075027
30
0.037000
40
0.500000
1

2
PUNKT - BESCHR
70
0
0
ATTRIB
8
PUNKT-BASIS
10
-2.995515
20
3.825027
30
0.037000
40
0.500000
1

2
PUNKT-BASIS
70
0
0
SEQEND
0
INSERT
8
RASEN
48
1.000000
66
1
2
TP_POINT
10
-3.044357
20
0.520223
30
0.051000
0
ATTRIB
8
PUNKT - NAME
10
-3.044357
20
1.270223
30
0.051000
40
0.500000
1
133
2
PUNKT - NAME
70
0
0
ATTRIB
8
PUNKT-GEHÖ
10
-3.044357
20
2.020223
30
0.051000
40
0.500000
1
0.051m
2
PUNKT-GEHÖ
70
0
0
ATTRIB
8
PUNKT - KATEGORIE
10
-3.044357
20
2.770223
30
0.051000
40
0.500000
1
RASEN
2
PUNKT - KATEGORIE
70
0
0
ATTRIB
8
PUNKT - BESCHR
10
-3.044357
20
3.520223
30
0.051000
40
0.500000
1

2
PUNKT - BESCHR
70
0
0
ATTRIB
8
PUNKT-BASIS
10
-3.044357
20
4.270223
30
0.051000
40
0.500000
1

2
PUNKT-BASIS
70
0
0
SEQEND
0
INSERT
8
RASEN
48
1.000000
66
1
2
TP_POINT
10
-7.129323
20
1.086043
30
0.049000
0
ATTRIB
8
PUNKT - NAME
10
-7.129323
20
1.836043
30
0.049000
40
0.500000
1
132
2
PUNKT - NAME
70
0
0
ATTRIB
8
PUNKT-GEHÖ
10
-7.129323
20
2.586043
30
0.049000
40
0.500000
1
0.049m
2
PUNKT-GEHÖ
70
0
0
ATTRIB
8
PUNKT - KATEGORIE
10
-7.129323
20
3.336043
30
0.049000
40
0.500000
1
RASEN
2
PUNKT - KATEGORIE
70
0
0
ATTRIB
8
PUNKT - BESCHR
10
-7.129323
20
4.086043
30
0.049000
40
0.500000
1

2
PUNKT - BESCHR
70
0
0
ATTRIB
8
PUNKT-BASIS
10
-7.129323
20
4.836043
30
0.049000
40
0.500000
1

2
PUNKT-BASIS
70
0
0
SEQEND
0
INSERT
8
RASEN
48
1.000000
66
1
2
TP_POINT
10
-5.954468
20
3.974262
30
-0.005333
0
ATTRIB
8
PUNKT - NAME
10
-5.954468
20
4.724262
30
-0.005333
40
0.500000
1
131
2
PUNKT - NAME
70
0
0
ATTRIB
8
PUNKT-GEHÖ
10
-5.954468
20
5.474262
30
-0.005333
40
0.500000
1
-0.005m
2
PUNKT-GEHÖ
70
0
0
ATTRIB
8
PUNKT - KATEGORIE
10
-5.954468
20
6.224262
30
-0.005333
40
0.500000
1
RASEN
2
PUNKT - KATEGORIE
70
0
0
ATTRIB
8
PUNKT - BESCHR
10
-5.954468
20
6.974262
30
-0.005333
40
0.500000
1

2
PUNKT - BESCHR
70
0
0
ATTRIB
8
PUNKT-BASIS
10
-5.954468
20
7.724262
30
-0.005333
40
0.500000
1

2
PUNKT-BASIS
70
0
0
SEQEND
0
INSERT
8
RASEN
48
1.000000
66
1
2
TP_POINT
10
-8.490271
20
7.372222
30
0.030000
0
ATTRIB
8
PUNKT - NAME
10
-8.490271
20
8.122222
30
0.030000
40
0.500000
1
130
2
PUNKT - NAME
70
0
0
ATTRIB
8
PUNKT-GEHÖ
10
-8.490271
20
8.872222
30
0.030000
40
0.500000
1
0.030m
2
PUNKT-GEHÖ
70
0
0
ATTRIB
8
PUNKT - KATEGORIE
10
-8.490271
20
9.622222
30
0.030000
40
0.500000
1
RASEN
2
PUNKT - KATEGORIE
70
0
0
ATTRIB
8
PUNKT - BESCHR
10
-8.490271
20
10.372222
30
0.030000
40
0.500000
1

2
PUNKT - BESCHR
70
0
0
ATTRIB
8
PUNKT-BASIS
10
-8.490271
20
11.122222
30
0.030000
40
0.500000
1

2
PUNKT-BASIS
70
0
0
SEQEND
0
INSERT
8
RASEN
48
1.000000
66
1
2
TP_POINT
10
-11.717097
20
7.531022
30
-0.028000
0
ATTRIB
8
PUNKT - NAME
10
-11.717097
20
8.281022
30
-0.028000
40
0.500000
1
129
2
PUNKT - NAME
70
0
0
ATTRIB
8
PUNKT-GEHÖ
10
-11.717097
20
9.031022
30
-0.028000
40
0.500000
1
-0.028m
2
PUNKT-GEHÖ
70
0
0
ATTRIB
8
PUNKT - KATEGORIE
10
-11.717097
20
9.781022
30
-0.028000
40
0.500000
1
RASEN
2
PUNKT - KATEGORIE
70
0
0
ATTRIB
8
PUNKT - BESCHR
10
-11.717097
20
10.531022
30
-0.028000
40
0.500000
1

2
PUNKT - BESCHR
70
0
0
ATTRIB
8
PUNKT-BASIS
10
-11.717097
20
11.281022
30
-0.028000
40
0.500000
1

2
PUNKT-BASIS
70
0
0
SEQEND
0
INSERT
8
RASEN
48
1.000000
66
1
2
TP_POINT
10
-10.712689
20
9.358865
30
0.041333
0
ATTRIB
8
PUNKT - NAME
10
-10.712689
20
10.108865
30
0.041333
40
0.500000
1
128
2
PUNKT - NAME
70
0
0
ATTRIB
8
PUNKT-GEHÖ
10
-10.712689
20
10.858865
30
0.041333
40
0.500000
1
0.041m
2
PUNKT-GEHÖ
70
0
0
ATTRIB
8
PUNKT - KATEGORIE
10
-10.712689
20
11.608865
30
0.041333
40
0.500000
1
RASEN
2
PUNKT - KATEGORIE
70
0
0
ATTRIB
8
PUNKT - BESCHR
10
-10.712689
20
12.358865
30
0.041333
40
0.500000
1

2
PUNKT - BESCHR
70
0
0
ATTRIB
8
PUNKT-BASIS
10
-10.712689
20
13.108865
30
0.041333
40
0.500000
1

2
PUNKT-BASIS
70
0
0
SEQEND
0
INSERT
8
RASEN
48
1.000000
66
1
2
TP_POINT
10
-10.368856
20
10.414597
30
0.032667
0
ATTRIB
8
PUNKT - NAME
10
-10.368856
20
11.164597
30
0.032667
40
0.500000
1
127
2
PUNKT - NAME
70
0
0
ATTRIB
8
PUNKT-GEHÖ
10
-10.368856
20
11.914597
30
0.032667
40
0.500000
1
0.033m
2
PUNKT-GEHÖ
70
0
0
ATTRIB
8
PUNKT - KATEGORIE
10
-10.368856
20
12.664597
30
0.032667
40
0.500000
1
RASEN
2
PUNKT - KATEGORIE
70
0
0
ATTRIB
8
PUNKT - BESCHR
10
-10.368856
20
13.414597
30
0.032667
40
0.500000
1

2
PUNKT - BESCHR
70
0
0
ATTRIB
8
PUNKT-BASIS
10
-10.368856
20
14.164597
30
0.032667
40
0.500000
1

2
PUNKT-BASIS
70
0
0
SEQEND
0
INSERT
8
RASEN
48
1.000000
66
1
2
TP_POINT
10
-10.487014
20
12.461433
30
0.043333
0
ATTRIB
8
PUNKT - NAME
10
-10.487014
20
13.211433
30
0.043333
40
0.500000
1
126
2
PUNKT - NAME
70
0
0
ATTRIB
8
PUNKT-GEHÖ
10
-10.487014
20
13.961433
30
0.043333
40
0.500000
1
0.043m
2
PUNKT-GEHÖ
70
0
0
ATTRIB
8
PUNKT - KATEGORIE
10
-10.487014
20
14.711433
30
0.043333
40
0.500000
1
RASEN
2
PUNKT - KATEGORIE
70
0
0
ATTRIB
8
PUNKT - BESCHR
10
-10.487014
20
15.461433
30
0.043333
40
0.500000
1

2
PUNKT - BESCHR
70
0
0
ATTRIB
8
PUNKT-BASIS
10
-10.487014
20
16.211433
30
0.043333
40
0.500000
1

2
PUNKT-BASIS
70
0
0
SEQEND
0
INSERT
8
RASEN
48
1.000000
66
1
2
TP_POINT
10
-6.613658
20
12.925770
30
0.039333
0
ATTRIB
8
PUNKT - NAME
10
-6.613658
20
13.675770
30
0.039333
40
0.500000
1
125
2
PUNKT - NAME
70
0
0
ATTRIB
8
PUNKT-GEHÖ
10
-6.613658
20
14.425770
30
0.039333
40
0.500000
1
0.039m
2
PUNKT-GEHÖ
70
0
0
ATTRIB
8
PUNKT - KATEGORIE
10
-6.613658
20
15.175770
30
0.039333
40
0.500000
1
RASEN
2
PUNKT - KATEGORIE
70
0
0
ATTRIB
8
PUNKT - BESCHR
10
-6.613658
20
15.925770
30
0.039333
40
0.500000
1

2
PUNKT - BESCHR
70
0
0
ATTRIB
8
PUNKT-BASIS
10
-6.613658
20
16.675770
30
0.039333
40
0.500000
1

2
PUNKT-BASIS
70
0
0
SEQEND
0
INSERT
8
RASEN
48
1.000000
66
1
2
TP_POINT
10
-6.200528
20
11.812893
30
0.047000
0
ATTRIB
8
PUNKT - NAME
10
-6.200528
20
12.562893
30
0.047000
40
0.500000
1
124
2
PUNKT - NAME
70
0
0
ATTRIB
8
PUNKT-GEHÖ
10
-6.200528
20
13.312893
30
0.047000
40
0.500000
1
0.047m
2
PUNKT-GEHÖ
70
0
0
ATTRIB
8
PUNKT - KATEGORIE
10
-6.200528
20
14.062893
30
0.047000
40
0.500000
1
RASEN
2
PUNKT - KATEGORIE
70
0
0
ATTRIB
8
PUNKT - BESCHR
10
-6.200528
20
14.812893
30
0.047000
40
0.500000
1

2
PUNKT - BESCHR
70
0
0
ATTRIB
8
PUNKT-BASIS
10
-6.200528
20
15.562893
30
0.047000
40
0.500000
1

2
PUNKT-BASIS
70
0
0
SEQEND
0
INSERT
8
RASEN
48
1.000000
66
1
2
TP_POINT
10
-4.201830
20
12.177964
30
-0.043333
0
ATTRIB
8
PUNKT - NAME
10
-4.201830
20
12.927964
30
-0.043333
40
0.500000
1
123
2
PUNKT - NAME
70
0
0
ATTRIB
8
PUNKT-GEHÖ
10
-4.201830
20
13.677964
30
-0.043333
40
0.500000
1
-0.043m
2
PUNKT-GEHÖ
70
0
0
ATTRIB
8
PUNKT - KATEGORIE
10
-4.201830
20
14.427964
30
-0.043333
40
0.500000
1
RASEN
2
PUNKT - KATEGORIE
70
0
0
ATTRIB
8
PUNKT - BESCHR
10
-4.201830
20
15.177964
30
-0.043333
40
0.500000
1

2
PUNKT - BESCHR
70
0
0
ATTRIB
8
PUNKT-BASIS
10
-4.201830
20
15.927964
30
-0.043333
40
0.500000
1

2
PUNKT-BASIS
70
0
0
SEQEND
0
INSERT
8
RASEN
48
1.000000
66
1
2
TP_POINT
10
-3.322569
20
12.768640
30
-0.123333
0
ATTRIB
8
PUNKT - NAME
10
-3.322569
20
13.518640
30
-0.123333
40
0.500000
1
122
2
PUNKT - NAME
70
0
0
ATTRIB
8
PUNKT-GEHÖ
10
-3.322569
20
14.268640
30
-0.123333
40
0.500000
1
-0.123m
2
PUNKT-GEHÖ
70
0
0
ATTRIB
8
PUNKT - KATEGORIE
10
-3.322569
20
15.018640
30
-0.123333
40
0.500000
1
RASEN
2
PUNKT - KATEGORIE
70
0
0
ATTRIB
8
PUNKT - BESCHR
10
-3.322569
20
15.768640
30
-0.123333
40
0.500000
1

2
PUNKT - BESCHR
70
0
0
ATTRIB
8
PUNKT-BASIS
10
-3.322569
20
16.518640
30
-0.123333
40
0.500000
1

2
PUNKT-BASIS
70
0
0
SEQEND
0
INSERT
8
RASEN
48
1.000000
66
1
2
TP_POINT
10
-3.013076
20
13.482164
30
-0.170667
0
ATTRIB
8
PUNKT - NAME
10
-3.013076
20
14.232164
30
-0.170667
40
0.500000
1
121
2
PUNKT - NAME
70
0
0
ATTRIB
8
PUNKT-GEHÖ
10
-3.013076
20
14.982164
30
-0.170667
40
0.500000
1
-0.171m
2
PUNKT-GEHÖ
70
0
0
ATTRIB
8
PUNKT - KATEGORIE
10
-3.013076
20
15.732164
30
-0.170667
40
0.500000
1
RASEN
2
PUNKT - KATEGORIE
70
0
0
ATTRIB
8
PUNKT - BESCHR
10
-3.013076
20
16.482164
30
-0.170667
40
0.500000
1

2
PUNKT - BESCHR
70
0
0
ATTRIB
8
PUNKT-BASIS
10
-3.013076
20
17.232164
30
-0.170667
40
0.500000
1

2
PUNKT-BASIS
70
0
0
SEQEND
0
INSERT
8
RASEN
48
1.000000
66
1
2
TP_POINT
10
-3.140999
20
14.484134
30
-0.165333
0
ATTRIB
8
PUNKT - NAME
10
-3.140999
20
15.234134
30
-0.165333
40
0.500000
1
120
2
PUNKT - NAME
70
0
0
ATTRIB
8
PUNKT-GEHÖ
10
-3.140999
20
15.984134
30
-0.165333
40
0.500000
1
-0.165m
2
PUNKT-GEHÖ
70
0
0
ATTRIB
8
PUNKT - KATEGORIE
10
-3.140999
20
16.734134
30
-0.165333
40
0.500000
1
RASEN
2
PUNKT - KATEGORIE
70
0
0
ATTRIB
8
PUNKT - BESCHR
10
-3.140999
20
17.484134
30
-0.165333
40
0.500000
1

2
PUNKT - BESCHR
70
0
0
ATTRIB
8
PUNKT-BASIS
10
-3.140999
20
18.234134
30
-0.165333
40
0.500000
1

2
PUNKT-BASIS
70
0
0
SEQEND
0
INSERT
8
RASEN
48
1.000000
66
1
2
TP_POINT
10
-3.433624
20
15.125974
30
-0.299333
0
ATTRIB
8
PUNKT - NAME
10
-3.433624
20
15.875974
30
-0.299333
40
0.500000
1
119
2
PUNKT - NAME
70
0
0
ATTRIB
8
PUNKT-GEHÖ
10
-3.433624
20
16.625974
30
-0.299333
40
0.500000
1
-0.299m
2
PUNKT-GEHÖ
70
0
0
ATTRIB
8
PUNKT - KATEGORIE
10
-3.433624
20
17.375974
30
-0.299333
40
0.500000
1
RASEN
2
PUNKT - KATEGORIE
70
0
0
ATTRIB
8
PUNKT - BESCHR
10
-3.433624
20
18.125974
30
-0.299333
40
0.500000
1

2
PUNKT - BESCHR
70
0
0
ATTRIB
8
PUNKT-BASIS
10
-3.433624
20
18.875974
30
-0.299333
40
0.500000
1

2
PUNKT-BASIS
70
0
0
SEQEND
0
INSERT
8
RASEN
48
1.000000
66
1
2
TP_POINT
10
-3.862803
20
15.377949
30
-0.306000
0
ATTRIB
8
PUNKT - NAME
10
-3.862803
20
16.127949
30
-0.306000
40
0.500000
1
118
2
PUNKT - NAME
70
0
0
ATTRIB
8
PUNKT-GEHÖ
10
-3.862803
20
16.877949
30
-0.306000
40
0.500000
1
-0.306m
2
PUNKT-GEHÖ
70
0
0
ATTRIB
8
PUNKT - KATEGORIE
10
-3.862803
20
17.627949
30
-0.306000
40
0.500000
1
RASEN
2
PUNKT - KATEGORIE
70
0
0
ATTRIB
8
PUNKT - BESCHR
10
-3.862803
20
18.377949
30
-0.306000
40
0.500000
1

2
PUNKT - BESCHR
70
0
0
ATTRIB
8
PUNKT-BASIS
10
-3.862803
20
19.127949
30
-0.306000
40
0.500000
1

2
PUNKT-BASIS
70
0
0
SEQEND
0
INSERT
8
RASEN
48
1.000000
66
1
2
TP_POINT
10
-4.679309
20
15.200630
30
-0.400000
0
ATTRIB
8
PUNKT - NAME
10
-4.679309
20
15.950630
30
-0.400000
40
0.500000
1
117
2
PUNKT - NAME
70
0
0
ATTRIB
8
PUNKT-GEHÖ
10
-4.679309
20
16.700630
30
-0.400000
40
0.500000
1
-0.400m
2
PUNKT-GEHÖ
70
0
0
ATTRIB
8
PUNKT - KATEGORIE
10
-4.679309
20
17.450630
30
-0.400000
40
0.500000
1
RASEN
2
PUNKT - KATEGORIE
70
0
0
ATTRIB
8
PUNKT - BESCHR
10
-4.679309
20
18.200630
30
-0.400000
40
0.500000
1

2
PUNKT - BESCHR
70
0
0
ATTRIB
8
PUNKT-BASIS
10
-4.679309
20
18.950630
30
-0.400000
40
0.500000
1

2
PUNKT-BASIS
70
0
0
SEQEND
0
INSERT
8
EINLAEUFE
48
1.000000
66
1
2
TP_POINT
10
-4.648472
20
18.914682
30
-1.687333
0
ATTRIB
8
PUNKT - NAME
10
-4.648472
20
19.664682
30
-1.687333
40
0.500000
1
115
2
PUNKT - NAME
70
0
0
ATTRIB
8
PUNKT-GEHÖ
10
-4.648472
20
20.414682
30
-1.687333
40
0.500000
1
-1.687m
2
PUNKT-GEHÖ
70
0
0
ATTRIB
8
PUNKT - KATEGORIE
10
-4.648472
20
21.164682
30
-1.687333
40
0.500000
1
EINLAEUFE
2
PUNKT - KATEGORIE
70
0
0
ATTRIB
8
PUNKT - BESCHR
10
-4.648472
20
21.914682
30
-1.687333
40
0.500000
1

2
PUNKT - BESCHR
70
0
0
ATTRIB
8
PUNKT-BASIS
10
-4.648472
20
22.664682
30
-1.687333
40
0.500000
1

2
PUNKT-BASIS
70
0
0
SEQEND
0
INSERT
8
RASEN
48
1.000000
66
1
2
TP_POINT
10
-5.670155
20
19.147639
30
-1.902333
0
ATTRIB
8
PUNKT - NAME
10
-5.670155
20
19.897639
30
-1.902333
40
0.500000
1
114
2
PUNKT - NAME
70
0
0
ATTRIB
8
PUNKT-GEHÖ
10
-5.670155
20
20.647639
30
-1.902333
40
0.500000
1
-1.902m
2
PUNKT-GEHÖ
70
0
0
ATTRIB
8
PUNKT - KATEGORIE
10
-5.670155
20
21.397639
30
-1.902333
40
0.500000
1
RASEN
2
PUNKT - KATEGORIE
70
0
0
ATTRIB
8
PUNKT - BESCHR
10
-5.670155
20
22.147639
30
-1.902333
40
0.500000
1

2
PUNKT - BESCHR
70
0
0
ATTRIB
8
PUNKT-BASIS
10
-5.670155
20
22.897639
30
-1.902333
40
0.500000
1

2
PUNKT-BASIS
70
0
0
SEQEND
0
INSERT
8
RASEN
48
1.000000
66
1
2
TP_POINT
10
-5.409049
20
19.151586
30
-1.942667
0
ATTRIB
8
PUNKT - NAME
10
-5.409049
20
19.901586
30
-1.942667
40
0.500000
1
113
2
PUNKT - NAME
70
0
0
ATTRIB
8
PUNKT-GEHÖ
10
-5.409049
20
20.651586
30
-1.942667
40
0.500000
1
-1.943m
2
PUNKT-GEHÖ
70
0
0
ATTRIB
8
PUNKT - KATEGORIE
10
-5.409049
20
21.401586
30
-1.942667
40
0.500000
1
RASEN
2
PUNKT - KATEGORIE
70
0
0
ATTRIB
8
PUNKT - BESCHR
10
-5.409049
20
22.151586
30
-1.942667
40
0.500000
1

2
PUNKT - BESCHR
70
0
0
ATTRIB
8
PUNKT-BASIS
10
-5.409049
20
22.901586
30
-1.942667
40
0.500000
1

2
PUNKT-BASIS
70
0
0
SEQEND
0
INSERT
8
RASEN
48
1.000000
66
1
2
TP_POINT
10
-5.244112
20
18.662806
30
-1.873333
0
ATTRIB
8
PUNKT - NAME
10
-5.244112
20
19.412806
30
-1.873333
40
0.500000
1
112
2
PUNKT - NAME
70
0
0
ATTRIB
8
PUNKT-GEHÖ
10
-5.244112
20
20.162806
30
-1.873333
40
0.500000
1
-1.873m
2
PUNKT-GEHÖ
70
0
0
ATTRIB
8
PUNKT - KATEGORIE
10
-5.244112
20
20.912806
30
-1.873333
40
0.500000
1
RASEN
2
PUNKT - KATEGORIE
70
0
0
ATTRIB
8
PUNKT - BESCHR
10
-5.244112
20
21.662806
30
-1.873333
40
0.500000
1

2
PUNKT - BESCHR
70
0
0
ATTRIB
8
PUNKT-BASIS
10
-5.244112
20
22.412806
30
-1.873333
40
0.500000
1

2
PUNKT-BASIS
70
0
0
SEQEND
0
INSERT
8
RASEN
48
1.000000
66
1
2
TP_POINT
10
-4.441198
20
18.458415
30
-1.576333
0
ATTRIB
8
PUNKT - NAME
10
-4.441198
20
19.208415
30
-1.576333
40
0.500000
1
111
2
PUNKT - NAME
70
0
0
ATTRIB
8
PUNKT-GEHÖ
10
-4.441198
20
19.958415
30
-1.576333
40
0.500000
1
-1.576m
2
PUNKT-GEHÖ
70
0
0
ATTRIB
8
PUNKT - KATEGORIE
10
-4.441198
20
20.708415
30
-1.576333
40
0.500000
1
RASEN
2
PUNKT - KATEGORIE
70
0
0
ATTRIB
8
PUNKT - BESCHR
10
-4.441198
20
21.458415
30
-1.576333
40
0.500000
1

2
PUNKT - BESCHR
70
0
0
ATTRIB
8
PUNKT-BASIS
10
-4.441198
20
22.208415
30
-1.576333
40
0.500000
1

2
PUNKT-BASIS
70
0
0
SEQEND
0
INSERT
8
RASEN
48
1.000000
66
1
2
TP_POINT
10
-4.010883
20
19.039464
30
-1.316333
0
ATTRIB
8
PUNKT - NAME
10
-4.010883
20
19.789464
30
-1.316333
40
0.500000
1
110
2
PUNKT - NAME
70
0
0
ATTRIB
8
PUNKT-GEHÖ
10
-4.010883
20
20.539464
30
-1.316333
40
0.500000
1
-1.316m
2
PUNKT-GEHÖ
70
0
0
ATTRIB
8
PUNKT - KATEGORIE
10
-4.010883
20
21.289464
30
-1.316333
40
0.500000
1
RASEN
2
PUNKT - KATEGORIE
70
0
0
ATTRIB
8
PUNKT - BESCHR
10
-4.010883
20
22.039464
30
-1.316333
40
0.500000
1

2
PUNKT - BESCHR
70
0
0
ATTRIB
8
PUNKT-BASIS
10
-4.010883
20
22.789464
30
-1.316333
40
0.500000
1

2
PUNKT-BASIS
70
0
0
SEQEND
0
INSERT
8
RASEN
48
1.000000
66
1
2
TP_POINT
10
-4.169952
20
19.384523
30
-0.798667
0
ATTRIB
8
PUNKT - NAME
10
-4.169952
20
20.134523
30
-0.798667
40
0.500000
1
109
2
PUNKT - NAME
70
0
0
ATTRIB
8
PUNKT-GEHÖ
10
-4.169952
20
20.884523
30
-0.798667
40
0.500000
1
-0.799m
2
PUNKT-GEHÖ
70
0
0
ATTRIB
8
PUNKT - KATEGORIE
10
-4.169952
20
21.634523
30
-0.798667
40
0.500000
1
RASEN
2
PUNKT - KATEGORIE
70
0
0
ATTRIB
8
PUNKT - BESCHR
10
-4.169952
20
22.384523
30
-0.798667
40
0.500000
1

2
PUNKT - BESCHR
70
0
0
ATTRIB
8
PUNKT-BASIS
10
-4.169952
20
23.134523
30
-0.798667
40
0.500000
1

2
PUNKT-BASIS
70
0
0
SEQEND
0
INSERT
8
RASEN
48
1.000000
66
1
2
TP_POINT
10
-3.170135
20
19.888654
30
-0.304333
0
ATTRIB
8
PUNKT - NAME
10
-3.170135
20
20.638654
30
-0.304333
40
0.500000
1
108
2
PUNKT - NAME
70
0
0
ATTRIB
8
PUNKT-GEHÖ
10
-3.170135
20
21.388654
30
-0.304333
40
0.500000
1
-0.304m
2
PUNKT-GEHÖ
70
0
0
ATTRIB
8
PUNKT - KATEGORIE
10
-3.170135
20
22.138654
30
-0.304333
40
0.500000
1
RASEN
2
PUNKT - KATEGORIE
70
0
0
ATTRIB
8
PUNKT - BESCHR
10
-3.170135
20
22.888654
30
-0.304333
40
0.500000
1

2
PUNKT - BESCHR
70
0
0
ATTRIB
8
PUNKT-BASIS
10
-3.170135
20
23.638654
30
-0.304333
40
0.500000
1

2
PUNKT-BASIS
70
0
0
SEQEND
0
INSERT
8
RASEN
48
1.000000
66
1
2
TP_POINT
10
-2.683550
20
20.876013
30
-0.430000
0
ATTRIB
8
PUNKT - NAME
10
-2.683550
20
21.626013
30
-0.430000
40
0.500000
1
107
2
PUNKT - NAME
70
0
0
ATTRIB
8
PUNKT-GEHÖ
10
-2.683550
20
22.376013
30
-0.430000
40
0.500000
1
-0.430m
2
PUNKT-GEHÖ
70
0
0
ATTRIB
8
PUNKT - KATEGORIE
10
-2.683550
20
23.126013
30
-0.430000
40
0.500000
1
RASEN
2
PUNKT - KATEGORIE
70
0
0
ATTRIB
8
PUNKT - BESCHR
10
-2.683550
20
23.876013
30
-0.430000
40
0.500000
1

2
PUNKT - BESCHR
70
0
0
ATTRIB
8
PUNKT-BASIS
10
-2.683550
20
24.626013
30
-0.430000
40
0.500000
1

2
PUNKT-BASIS
70
0
0
SEQEND
0
INSERT
8
RASEN
48
1.000000
66
1
2
TP_POINT
10
-1.621070
20
20.294540
30
-0.249667
0
ATTRIB
8
PUNKT - NAME
10
-1.621070
20
21.044540
30
-0.249667
40
0.500000
1
106
2
PUNKT - NAME
70
0
0
ATTRIB
8
PUNKT-GEHÖ
10
-1.621070
20
21.794540
30
-0.249667
40
0.500000
1
-0.250m
2
PUNKT-GEHÖ
70
0
0
ATTRIB
8
PUNKT - KATEGORIE
10
-1.621070
20
22.544540
30
-0.249667
40
0.500000
1
RASEN
2
PUNKT - KATEGORIE
70
0
0
ATTRIB
8
PUNKT - BESCHR
10
-1.621070
20
23.294540
30
-0.249667
40
0.500000
1

2
PUNKT - BESCHR
70
0
0
ATTRIB
8
PUNKT-BASIS
10
-1.621070
20
24.044540
30
-0.249667
40
0.500000
1

2
PUNKT-BASIS
70
0
0
SEQEND
0
INSERT
8
RASEN
48
1.000000
66
1
2
TP_POINT
10
-0.380835
20
21.453225
30
-0.286667
0
ATTRIB
8
PUNKT - NAME
10
-0.380835
20
22.203225
30
-0.286667
40
0.500000
1
105
2
PUNKT - NAME
70
0
0
ATTRIB
8
PUNKT-GEHÖ
10
-0.380835
20
22.953225
30
-0.286667
40
0.500000
1
-0.287m
2
PUNKT-GEHÖ
70
0
0
ATTRIB
8
PUNKT - KATEGORIE
10
-0.380835
20
23.703225
30
-0.286667
40
0.500000
1
RASEN
2
PUNKT - KATEGORIE
70
0
0
ATTRIB
8
PUNKT - BESCHR
10
-0.380835
20
24.453225
30
-0.286667
40
0.500000
1

2
PUNKT - BESCHR
70
0
0
ATTRIB
8
PUNKT-BASIS
10
-0.380835
20
25.203225
30
-0.286667
40
0.500000
1

2
PUNKT-BASIS
70
0
0
SEQEND
0
INSERT
8
RASEN
48
1.000000
66
1
2
TP_POINT
10
0.496079
20
20.420012
30
-0.255333
0
ATTRIB
8
PUNKT - NAME
10
0.496079
20
21.170012
30
-0.255333
40
0.500000
1
104
2
PUNKT - NAME
70
0
0
ATTRIB
8
PUNKT-GEHÖ
10
0.496079
20
21.920012
30
-0.255333
40
0.500000
1
-0.255m
2
PUNKT-GEHÖ
70
0
0
ATTRIB
8
PUNKT - KATEGORIE
10
0.496079
20
22.670012
30
-0.255333
40
0.500000
1
RASEN
2
PUNKT - KATEGORIE
70
0
0
ATTRIB
8
PUNKT - BESCHR
10
0.496079
20
23.420012
30
-0.255333
40
0.500000
1

2
PUNKT - BESCHR
70
0
0
ATTRIB
8
PUNKT-BASIS
10
0.496079
20
24.170012
30
-0.255333
40
0.500000
1

2
PUNKT-BASIS
70
0
0
SEQEND
0
INSERT
8
RASEN
48
1.000000
66
1
2
TP_POINT
10
0.845273
20
18.919493
30
-0.358667
0
ATTRIB
8
PUNKT - NAME
10
0.845273
20
19.669493
30
-0.358667
40
0.500000
1
103
2
PUNKT - NAME
70
0
0
ATTRIB
8
PUNKT-GEHÖ
10
0.845273
20
20.419493
30
-0.358667
40
0.500000
1
-0.359m
2
PUNKT-GEHÖ
70
0
0
ATTRIB
8
PUNKT - KATEGORIE
10
0.845273
20
21.169493
30
-0.358667
40
0.500000
1
RASEN
2
PUNKT - KATEGORIE
70
0
0
ATTRIB
8
PUNKT - BESCHR
10
0.845273
20
21.919493
30
-0.358667
40
0.500000
1

2
PUNKT - BESCHR
70
0
0
ATTRIB
8
PUNKT-BASIS
10
0.845273
20
22.669493
30
-0.358667
40
0.500000
1

2
PUNKT-BASIS
70
0
0
SEQEND
0
INSERT
8
RASEN
48
1.000000
66
1
2
TP_POINT
10
-0.557224
20
17.333978
30
-0.245000
0
ATTRIB
8
PUNKT - NAME
10
-0.557224
20
18.083978
30
-0.245000
40
0.500000
1
102
2
PUNKT - NAME
70
0
0
ATTRIB
8
PUNKT-GEHÖ
10
-0.557224
20
18.833978
30
-0.245000
40
0.500000
1
-0.245m
2
PUNKT-GEHÖ
70
0
0
ATTRIB
8
PUNKT - KATEGORIE
10
-0.557224
20
19.583978
30
-0.245000
40
0.500000
1
RASEN
2
PUNKT - KATEGORIE
70
0
0
ATTRIB
8
PUNKT - BESCHR
10
-0.557224
20
20.333978
30
-0.245000
40
0.500000
1

2
PUNKT - BESCHR
70
0
0
ATTRIB
8
PUNKT-BASIS
10
-0.557224
20
21.083978
30
-0.245000
40
0.500000
1

2
PUNKT-BASIS
70
0
0
SEQEND
0
INSERT
8
RASEN
48
1.000000
66
1
2
TP_POINT
10
-0.708967
20
15.634308
30
-0.237667
0
ATTRIB
8
PUNKT - NAME
10
-0.708967
20
16.384308
30
-0.237667
40
0.500000
1
101
2
PUNKT - NAME
70
0
0
ATTRIB
8
PUNKT-GEHÖ
10
-0.708967
20
17.134308
30
-0.237667
40
0.500000
1
-0.238m
2
PUNKT-GEHÖ
70
0
0
ATTRIB
8
PUNKT - KATEGORIE
10
-0.708967
20
17.884308
30
-0.237667
40
0.500000
1
RASEN
2
PUNKT - KATEGORIE
70
0
0
ATTRIB
8
PUNKT - BESCHR
10
-0.708967
20
18.634308
30
-0.237667
40
0.500000
1

2
PUNKT - BESCHR
70
0
0
ATTRIB
8
PUNKT-BASIS
10
-0.708967
20
19.384308
30
-0.237667
40
0.500000
1

2
PUNKT-BASIS
70
0
0
SEQEND
0
INSERT
8
RASEN
48
1.000000
66
1
2
TP_POINT
10
0.000000
20
0.000000
30
0.000000
0
ATTRIB
8
PUNKT - NAME
10
0.000000
20
0.750000
30
0.000000
40
0.500000
1
100
2
PUNKT - NAME
70
0
0
ATTRIB
8
PUNKT-GEHÖ
10
0.000000
20
1.500000
30
0.000000
40
0.500000
1
0.000m
2
PUNKT-GEHÖ
70
0
0
ATTRIB
8
PUNKT - KATEGORIE
10
0.000000
20
2.250000
30
0.000000
40
0.500000
1
RASEN
2
PUNKT - KATEGORIE
70
0
0
ATTRIB
8
PUNKT - BESCHR
10
0.000000
20
3.000000
30
0.000000
40
0.500000
1

2
PUNKT - BESCHR
70
0
0
ATTRIB
8
PUNKT-BASIS
10
0.000000
20
3.750000
30
0.000000
40
0.500000
1

2
PUNKT-BASIS
70
0
0
SEQEND
0
ENDSEC
0
EOF
