999
dxfrw 0.5.10
0
SECTION
2
HEADER
9
$ACADVER
1
AC1021
9
$HANDSEED
5
20000
9
$DWGCODEPAGE
3
ANSI_1252
9
$INSBASE
10
0
20
0
30
0
9
$EXTMIN
10
-44.2356421281
20
-243.970563393
30
0
9
$EXTMAX
10
86.4012254349
20
34.9598111651
30
0
9
$LIMMIN
10
0
20
0
9
$LIMMAX
10
12
20
9
9
$ORTHOMODE
70
0
9
$LTSCALE
40
1
9
$TEXTSTYLE
7
STANDARD
9
$CLAYER
8
0
9
$DIMASZ
40
0.18
9
$DIMLFAC
40
1
9
$DIMSCALE
40
1
9
$DIMEXO
40
0.0625
9
$DIMEXE
40
0.18
9
$DIMTXT
40
0.18
9
$DIMTSZ
40
0
9
$DIMAUNIT
70
0
9
$DIMADEC
70
0
9
$DIMLUNIT
70
2
9
$DIMSTYLE
2
STANDARD
9
$DIMGAP
40
0.09
9
$DIMTIH
70
1
9
$LUNITS
70
2
9
$LUPREC
70
4
9
$AUNITS
70
0
9
$AUPREC
70
0
9
$SPLINESEGS
70
8
9
$GRIDMODE
70
0
9
$SNAPSTYLE
70
0
9
$PINSBASE
10
0
20
0
30
0
9
$PLIMMIN
10
0
20
0
9
$PLIMMAX
10
12
20
9
9
$INSUNITS
70
4
9
$PSVPSCALE
40
1
0
ENDSEC
0
SECTION
2
CLASSES
0
ENDSEC
0
SECTION
2
TABLES
0
TABLE
2
VPORT
5
8
330
0
100
AcDbSymbolTable
70
1
0
VPORT
5
31
330
2
100
AcDbSymbolTableRecord
100
AcDbViewportTableRecord
2
*ACTIVE
70
0
10
0
20
0
11
1
21
1
12
41.9799520188
22
10.001934877
13
0
23
0
14
10
24
10
15
10
25
10
16
0
26
0
36
1
17
0
27
0
37
0
40
67.0552253723
41
2.00420168067
42
50
43
0
44
0
50
0
51
0
71
0
72
100
73
1
74
3
75
0
76
0
77
0
78
0
281
0
65
1
110
0
120
0
130
0
111
1
121
0
131
0
112
0
122
1
132
0
79
0
146
0
348
10020
60
7
61
5
292
1
282
1
141
0
142
0
63
250
421
3358443
0
ENDTAB
0
TABLE
2
LTYPE
5
5
330
0
100
AcDbSymbolTable
70
4
0
LTYPE
5
14
330
5
100
AcDbSymbolTableRecord
100
AcDbLinetypeTableRecord
2
ByBlock
70
0
3

72
65
73
0
40
0
0
LTYPE
5
15
330
5
100
AcDbSymbolTableRecord
100
AcDbLinetypeTableRecord
2
ByLayer
70
0
3

72
65
73
0
40
0
0
LTYPE
5
16
330
5
100
AcDbSymbolTableRecord
100
AcDbLinetypeTableRecord
2
Continuous
70
0
3
Solid line
72
65
73
0
40
0
0
LTYPE
5
32
330
5
100
AcDbSymbolTableRecord
100
AcDbLinetypeTableRecord
2
DOT
70
0
3
Dot . . . . . . . . . . . . . . . . . . . . . .
72
65
73
2
40
6.35
49
0
74
0
49
-6.35
74
0
0
LTYPE
5
33
330
5
100
AcDbSymbolTableRecord
100
AcDbLinetypeTableRecord
2
DOT2
70
0
3
Dot (.5x) .....................................
72
65
73
2
40
3.175
49
0
74
0
49
-3.175
74
0
0
LTYPE
5
34
330
5
100
AcDbSymbolTableRecord
100
AcDbLinetypeTableRecord
2
DOTX2
70
0
3
Dot (2x) .  .  .  .  .  .  .  .  .  .  .  .  .
72
65
73
2
40
12.7
49
0
74
0
49
-12.7
74
0
0
LTYPE
5
35
330
5
100
AcDbSymbolTableRecord
100
AcDbLinetypeTableRecord
2
DASHED
70
0
3
Dot . . . . . . . . . . . . . . . . . . . . . .
72
65
73
2
40
19.05
49
12.7
74
0
49
-6.35
74
0
0
LTYPE
5
36
330
5
100
AcDbSymbolTableRecord
100
AcDbLinetypeTableRecord
2
DASHED2
70
0
3
Dashed (.5x) _ _ _ _ _ _ _ _ _ _ _ _ _ _ _ _ _
72
65
73
2
40
9.525
49
6.35
74
0
49
-3.175
74
0
0
LTYPE
5
37
330
5
100
AcDbSymbolTableRecord
100
AcDbLinetypeTableRecord
2
DASHEDX2
70
0
3
Dashed (2x) ____  ____  ____  ____  ____  ___
72
65
73
2
40
38.1
49
25.4
74
0
49
-12.7
74
0
0
LTYPE
5
38
330
5
100
AcDbSymbolTableRecord
100
AcDbLinetypeTableRecord
2
DASHDOT
70
0
3
Dash dot __ . __ . __ . __ . __ . __ . __ . __
72
65
73
4
40
25.4
49
12.7
74
0
49
-6.35
74
0
49
0
74
0
49
-6.35
74
0
0
LTYPE
5
39
330
5
100
AcDbSymbolTableRecord
100
AcDbLinetypeTableRecord
2
DASHDOT2
70
0
3
Dash dot (.5x) _._._._._._._._._._._._._._._.
72
65
73
4
40
12.7
49
6.35
74
0
49
-3.175
74
0
49
0
74
0
49
-3.175
74
0
0
LTYPE
5
3A
330
5
100
AcDbSymbolTableRecord
100
AcDbLinetypeTableRecord
2
DASHDOTX2
70
0
3
Dash dot (2x) ____  .  ____  .  ____  .  ___
72
65
73
4
40
50.8
49
25.4
74
0
49
-12.7
74
0
49
0
74
0
49
-12.7
74
0
0
LTYPE
5
3B
330
5
100
AcDbSymbolTableRecord
100
AcDbLinetypeTableRecord
2
DIVIDE
70
0
3
Divide ____ . . ____ . . ____ . . ____ . . ____
72
65
73
6
40
31.75
49
12.7
74
0
49
-6.35
74
0
49
0
74
0
49
-6.35
74
0
49
0
74
0
49
-6.35
74
0
0
LTYPE
5
3C
330
5
100
AcDbSymbolTableRecord
100
AcDbLinetypeTableRecord
2
DIVIDE2
70
0
3
Divide (.5x) __..__..__..__..__..__..__..__.._
72
65
73
6
40
15.875
49
6.35
74
0
49
-3.175
74
0
49
0
74
0
49
-3.175
74
0
49
0
74
0
49
-3.175
74
0
0
LTYPE
5
3D
330
5
100
AcDbSymbolTableRecord
100
AcDbLinetypeTableRecord
2
DIVIDEX2
70
0
3
Divide (2x) ________  .  .  ________  .  .  _
72
65
73
6
40
63.5
49
25.4
74
0
49
-12.7
74
0
49
0
74
0
49
-12.7
74
0
49
0
74
0
49
-12.7
74
0
0
LTYPE
5
3E
330
5
100
AcDbSymbolTableRecord
100
AcDbLinetypeTableRecord
2
BORDER
70
0
3
Border __ __ . __ __ . __ __ . __ __ . __ __ .
72
65
73
6
40
44.45
49
12.7
74
0
49
-6.35
74
0
49
12.7
74
0
49
-6.35
74
0
49
0
74
0
49
-6.35
74
0
0
LTYPE
5
3F
330
5
100
AcDbSymbolTableRecord
100
AcDbLinetypeTableRecord
2
BORDER2
70
0
3
Border (.5x) __.__.__.__.__.__.__.__.__.__.__.
72
65
73
6
40
22.225
49
6.35
74
0
49
-3.175
74
0
49
6.35
74
0
49
-3.175
74
0
49
0
74
0
49
-3.175
74
0
0
LTYPE
5
40
330
5
100
AcDbSymbolTableRecord
100
AcDbLinetypeTableRecord
2
BORDERX2
70
0
3
Border (2x) ____  ____  .  ____  ____  .  ___
72
65
73
6
40
88.9
49
25.4
74
0
49
-12.7
74
0
49
25.4
74
0
49
-12.7
74
0
49
0
74
0
49
-12.7
74
0
0
LTYPE
5
41
330
5
100
AcDbSymbolTableRecord
100
AcDbLinetypeTableRecord
2
CENTER
70
0
3
Center ____ _ ____ _ ____ _ ____ _ ____ _ ____
72
65
73
4
40
50.8
49
31.75
74
0
49
-6.35
74
0
49
6.35
74
0
49
-6.35
74
0
0
LTYPE
5
42
330
5
100
AcDbSymbolTableRecord
100
AcDbLinetypeTableRecord
2
CENTER2
70
0
3
Center (.5x) ___ _ ___ _ ___ _ ___ _ ___ _ ___
72
65
73
4
40
28.575
49
19.05
74
0
49
-3.175
74
0
49
3.175
74
0
49
-3.175
74
0
0
LTYPE
5
43
330
5
100
AcDbSymbolTableRecord
100
AcDbLinetypeTableRecord
2
CENTERX2
70
0
3
Center (2x) ________  __  ________  __  _____
72
65
73
4
40
101.6
49
63.5
74
0
49
-12.7
74
0
49
12.7
74
0
49
-12.7
74
0
0
ENDTAB
0
TABLE
2
LAYER
5
2
330
0
100
AcDbSymbolTable
70
1
0
LAYER
5
10
330
2
100
AcDbSymbolTableRecord
100
AcDbLayerTableRecord
2
0
70
0
62
7
6
CONTINUOUS
370
-3
390
F
0
ENDTAB
0
TABLE
2
STYLE
5
3
330
0
100
AcDbSymbolTable
70
3
0
STYLE
5
44
330
2
100
AcDbSymbolTableRecord
100
AcDbTextStyleTableRecord
2
Standard
70
0
40
0
41
1
50
0
71
0
42
1
3
txt
4

0
ENDTAB
0
TABLE
2
VIEW
5
6
330
0
100
AcDbSymbolTable
70
0
0
ENDTAB
0
TABLE
2
UCS
5
7
330
0
100
AcDbSymbolTable
70
0
0
ENDTAB
0
TABLE
2
APPID
5
9
330
0
100
AcDbSymbolTable
70
1
0
APPID
5
12
330
9
100
AcDbSymbolTableRecord
100
AcDbRegAppTableRecord
2
ACAD
70
0
0
ENDTAB
0
TABLE
2
DIMSTYLE
5
A
330
0
100
AcDbSymbolTable
70
1
100
AcDbDimStyleTable
71
1
0
DIMSTYLE
105
45
330
A
100
AcDbSymbolTableRecord
100
AcDbDimStyleTableRecord
2
Standard
70
0
40
1
41
0.18
42
0.0625
43
0.38
44
0.18
45
0
46
0
47
0
48
0
140
0.18
141
0.09
142
0
143
25.4
144
1
145
0
146
1
147
0.09
148
0
71
0
72
0
73
0
74
1
75
0
76
0
77
0
78
0
79
0
170
0
171
2
172
0
173
0
174
0
175
0
176
0
177
0
178
0
179
0
271
4
272
4
273
2
274
2
275
0
276
0
277
2
278
46
279
0
280
0
281
0
282
0
283
1
284
0
285
0
286
0
288
0
289
3
340
Standard
341

371
-2
372
-2
0
ENDTAB
0
TABLE
2
BLOCK_RECORD
5
1
330
0
100
AcDbSymbolTable
70
2
0
BLOCK_RECORD
5
1F
330
1
100
AcDbSymbolTableRecord
100
AcDbBlockTableRecord
2
*Model_Space
70
0
280
1
281
0
0
BLOCK_RECORD
5
1E
330
1
100
AcDbSymbolTableRecord
100
AcDbBlockTableRecord
2
*Paper_Space
70
0
280
1
281
0
0
BLOCK_RECORD
5
46
330
1
100
AcDbSymbolTableRecord
100
AcDbBlockTableRecord
2
SCALE
70
0
280
1
281
0
0
ENDTAB
0
ENDSEC
0
SECTION
2
BLOCKS
0
BLOCK
5
20
330
1F
100
AcDbEntity
8
0
100
AcDbBlockBegin
2
*Model_Space
70
0
10
0
20
0
30
0
3
*Model_Space
1

0
ENDBLK
5
21
330
1F
100
AcDbEntity
8
0
100
AcDbBlockEnd
0
BLOCK
5
1C
330
1B
100
AcDbEntity
8
0
100
AcDbBlockBegin
2
*Paper_Space
70
0
10
0
20
0
30
0
3
*Paper_Space
1

0
ENDBLK
5
1D
330
1F
100
AcDbEntity
8
0
100
AcDbBlockEnd
0
BLOCK
5
47
330
46
100
AcDbEntity
8
0
100
AcDbBlockBegin
2
SCALE
70
0
10
0
20
0
3
SCALE
1

0
LWPOLYLINE
5
49
100
AcDbEntity
8
0
6
ByLayer
62
7
370
-1
100
AcDbPolyline
90
4
70
1
43
0
10
1486.52940645
20
-872.513340219
10
1334.86468926
20
-872.513340219
10
1334.86468926
20
-760.042875351
10
1486.52940645
20
-760.042875351
0
LWPOLYLINE
5
4A
100
AcDbEntity
8
0
6
ByLayer
62
7
370
-1
100
AcDbPolyline
90
4
70
1
43
0
10
1480.56508186
20
-752.374417796
10
1336.99483848
20
-752.374417796
10
1336.99483848
20
-717.014387458
10
1480.56508186
20
-717.014387458
0
LWPOLYLINE
5
4B
100
AcDbEntity
8
0
6
ByLayer
62
7
370
-1
100
AcDbPolyline
90
4
70
1
43
0
10
1305.04297892
20
-781.344085931
10
1160.19464795
20
-781.344085931
10
1160.19464795
20
-717.440416329
10
1305.04297892
20
-717.440416329
0
LWPOLYLINE
5
4C
100
AcDbEntity
8
0
6
ByLayer
62
7
370
-1
100
AcDbPolyline
90
4
70
1
43
0
10
1130.79897328
20
-780.065998345
10
982.96848972
20
-780.065998345
10
982.96848972
20
-731.925232922
10
1130.79897328
20
-731.925232922
0
LWPOLYLINE
5
4D
100
AcDbEntity
8
0
6
ByLayer
62
7
370
-1
100
AcDbPolyline
90
4
70
1
43
0
10
1484.39928637
20
-1051.01758604
10
1468.21035623
20
-1051.01758604
10
1468.21035623
20
-1034.8286559
10
1484.39928637
20
-1034.8286559
0
LWPOLYLINE
5
4E
100
AcDbEntity
8
0
6
ByLayer
62
7
370
-1
100
AcDbPolyline
90
4
70
1
43
0
10
1310.15529043
20
-1020.34384319
10
1064.76518262
20
-1020.34384319
10
1064.76518262
20
-794.124854996
10
1310.15529043
20
-794.124854996
0
LWPOLYLINE
5
4F
100
AcDbEntity
8
0
6
ByLayer
62
7
370
-1
100
AcDbPolyline
90
4
70
1
43
0
10
1057.2360024
20
-1020.79442181
10
811.845894591
20
-1020.79442181
10
811.845894591
20
-794.575433611
10
1057.2360024
20
-794.575433611
0
LWPOLYLINE
5
50
100
AcDbEntity
8
0
6
ByLayer
62
7
370
-1
100
AcDbPolyline
90
4
70
1
43
0
10
1139.31946333
20
-1373.51812061
10
1105.23750699
20
-1373.51812061
10
1105.23750699
20
-1346.67857936
10
1139.31946333
20
-1346.67857936
0
LWPOLYLINE
5
51
100
AcDbEntity
8
0
6
ByLayer
62
7
370
-1
100
AcDbPolyline
90
4
70
1
43
0
10
1146.5618658
20
-1339.43617009
10
1096.71700043
20
-1339.43617009
10
1096.71700043
20
-1301.09396581
10
1146.5618658
20
-1301.09396581
0
LWPOLYLINE
5
52
100
AcDbEntity
8
0
6
ByLayer
62
7
370
-1
100
AcDbPolyline
90
8
70
1
43
0
10
1309.72925476
20
-1338.15809222
10
1190.44240367
20
-1369.6839064
10
1178.08768969
20
-1356.05112425
10
1177.66166373
20
-1307.05830399
10
1190.86842963
20
-1293.8515478
10
1308.87720284
20
-1293.42552185
10
1322.50998499
20
-1306.63227804
10
1322.50998499
20
-1324.95133603
0
LWPOLYLINE
5
53
100
AcDbEntity
8
0
6
ByLayer
62
7
370
-1
100
AcDbPolyline
90
8
70
1
43
0
10
931.377582939
20
-1337.84200468
10
1050.66442432
20
-1369.36781886
10
1063.0191383
20
-1355.73503671
10
1063.44516426
20
-1306.74221646
10
1050.23839836
20
-1293.53546027
10
932.229634857
20
-1293.10943431
10
918.596852708
20
-1306.3161905
10
918.596852708
20
-1324.63524849
0
LWPOLYLINE
5
54
100
AcDbEntity
8
0
6
ByLayer
62
7
370
-1
100
AcDbPolyline
90
12
70
1
43
0
10
1540.63452268
20
-987.965967383
10
1531.26198653
20
-987.539951133
10
1531.26198653
20
-1005.0069475
10
1325.06614075
20
-1004.58093125
10
1325.06614075
20
-988.391993342
10
1317.3976929
20
-987.965967383
10
1316.97166694
20
-897.64878443
10
1325.492157
20
-898.07481039
10
1325.492157
20
-880.181778358
10
1531.26198653
20
-880.181778358
10
1530.83596057
20
-897.64878443
10
1540.20849866
20
-897.64878443
0
LWPOLYLINE
5
55
100
AcDbEntity
8
0
6
ByLayer
62
7
370
-1
100
AcDbPolyline
90
22
70
1
43
0
10
1627.117492
20
-708.493909051
10
1491.21568229
20
-653.110728535
10
1422.62574559
20
-685.914620594
10
818.523032593
20
-686.340636845
10
751.211164056
20
-653.536754494
10
605.084745503
20
-675.690026701
10
707.330645602
20
-1031.84649555
10
714.999083741
20
-1051.86964766
10
725.649693885
20
-1073.59689391
10
733.744157983
20
-1087.22967606
10
740.986579871
20
-1095.32414016
10
750.359112137
20
-1100.86245821
10
757.601534025
20
-1103.41860426
10
768.678170129
20
-1104.27065617
10
1475.87880602
20
-1104.27065617
10
1486.1033902
20
-1103.41860426
10
1494.62388026
20
-1099.15836408
10
1502.71834436
20
-1092.76799411
10
1511.66486037
20
-1082.54340993
10
1516.77715246
20
-1073.17086795
10
1525.29764252
20
-1054.42579371
10
1536.37427765
20
-1027.58624566
0
LWPOLYLINE
5
56
100
AcDbEntity
8
0
6
ByLayer
62
7
370
-1
100
AcDbPolyline
90
16
70
1
43
0
10
1410.27103161
20
-1120.03355841
10
1432.85032977
20
-1143.46490849
10
1433.27635573
20
-1285.33105775
10
1573.43840794
20
-1285.33105775
10
1595.59168015
20
-1308.33638187
10
1595.59168015
20
-1358.6072703
10
1426.03393384
20
-1358.6072703
10
1244.97353227
20
-1379.48246462
10
997.453314079
20
-1379.48246462
10
817.244954715
20
-1358.6072703
10
648.113250872
20
-1359.03329625
10
648.965263956
20
-1308.76240783
10
667.284341364
20
-1285.75708371
10
810.854594454
20
-1286.18310967
10
810.428568495
20
-1143.46490849
10
831.729788783
20
-1120.45958437
0
CIRCLE
5
57
100
AcDbEntity
8
0
6
ByLayer
62
7
370
-1
100
AcDbCircle
10
763.778891016
20
-1019.9423796
40
30.8867742718
0
CIRCLE
5
58
100
AcDbEntity
8
0
6
ByLayer
62
7
370
-1
100
AcDbCircle
10
766.12197554
20
-821.81646467
40
30.8867742718
0
CIRCLE
5
59
100
AcDbEntity
8
0
6
ByLayer
62
7
370
-1
100
AcDbCircle
10
691.448785796
20
-815.852081826
40
30.8867742718
0
CIRCLE
5
5A
100
AcDbEntity
8
0
6
ByLayer
62
7
370
-1
100
AcDbCircle
10
925.881234493
20
-742.149853028
40
30.8867742718
0
CIRCLE
5
5B
100
AcDbEntity
8
0
6
ByLayer
62
7
370
-1
100
AcDbCircle
10
853.47338405
20
-741.723807652
40
30.8867742718
0
CIRCLE
5
5C
100
AcDbEntity
8
0
6
ByLayer
62
7
370
-1
100
AcDbCircle
10
770.226618475
20
-741.96142183
40
30.8867742718
0
CIRCLE
5
5D
100
AcDbEntity
8
0
6
ByLayer
62
7
370
-1
100
AcDbCircle
10
681.769194849
20
-745.132015325
40
30.8867742718
0
CIRCLE
5
5E
100
AcDbEntity
8
0
6
ByLayer
62
7
370
-1
100
AcDbCircle
10
753.152872361
20
-923.210274018
40
39.4198862773
0
CIRCLE
5
5F
100
AcDbEntity
8
0
6
ByLayer
62
7
370
-1
100
AcDbCircle
10
1539.0493968
20
-750.244355959
40
30.8867742718
0
CIRCLE
5
60
100
AcDbEntity
8
0
6
ByLayer
62
7
370
-1
100
AcDbCircle
10
1540.02007135
20
-831.614974354
40
30.8867742718
0
CIRCLE
5
61
100
AcDbEntity
8
0
6
ByLayer
62
7
370
-1
100
AcDbCircle
10
1375.75465956
20
-1312.1706058
40
8.36205970595
0
ENDBLK
5
48
330
46
100
AcDbEntity
8
0
100
AcDbBlockEnd
0
ENDSEC
0
SECTION
2
ENTITIES
0
CIRCLE
5
62
100
AcDbEntity
8
0
6
ByLayer
62
0
370
-1
100
AcDbCircle
10
28.4359572815
20
4.69549424362
40
2.59989682423
0
CIRCLE
5
63
100
AcDbEntity
8
0
6
ByLayer
62
0
370
-1
100
AcDbCircle
10
28.2387279445
20
-11.9817713225
40
2.59989682423
0
CIRCLE
5
64
100
AcDbEntity
8
0
6
ByLayer
62
0
370
-1
100
AcDbCircle
10
34.5243499768
20
-12.4838237507
40
2.59989682423
0
CIRCLE
5
65
100
AcDbEntity
8
0
6
ByLayer
62
0
370
-1
100
AcDbCircle
10
14.7909788742
20
-18.6877150637
40
2.59989682423
0
CIRCLE
5
66
100
AcDbEntity
8
0
6
ByLayer
62
0
370
-1
100
AcDbCircle
10
20.8859157804
20
-18.7235774691
40
2.59989682423
0
CIRCLE
5
67
100
AcDbEntity
8
0
6
ByLayer
62
0
370
-1
100
AcDbCircle
10
27.8932192798
20
-18.7035762756
40
2.59989682423
0
CIRCLE
5
68
100
AcDbEntity
8
0
6
ByLayer
62
0
370
-1
100
AcDbCircle
10
35.3391303597
20
-18.4366913012
40
2.59989682423
0
CIRCLE
5
69
100
AcDbEntity
8
0
6
ByLayer
62
0
370
-1
100
AcDbCircle
10
29.3304032962
20
-3.44693888609
40
3.31817224558
0
CIRCLE
5
6A
100
AcDbEntity
8
0
6
ByLayer
62
0
370
-1
100
AcDbCircle
10
-36.8225028016
20
-18.006359598
40
2.59989682423
0
CIRCLE
5
6B
100
AcDbEntity
8
0
6
ByLayer
62
0
370
-1
100
AcDbCircle
10
-36.9042094132
20
-11.1569809453
40
2.59989682423
0
LWPOLYLINE
5
6C
100
AcDbEntity
8
0
6
ByLayer
62
0
370
-1
100
AcDbPolyline
90
4
70
1
43
0
10
-32.4016281929
20
-7.71435755589
10
-19.6352378572
20
-7.71435755589
10
-19.6352378572
20
-17.1815684034
10
-32.4016281929
20
-17.1815684034
0
LWPOLYLINE
5
6D
100
AcDbEntity
8
0
6
ByLayer
62
0
370
-1
100
AcDbPolyline
90
4
70
1
43
0
10
-31.8995806682
20
-17.8270614637
10
-19.8145433465
20
-17.8270614637
10
-19.8145433465
20
-20.8034949936
10
-31.8995806682
20
-20.8034949936
0
LWPOLYLINE
5
6E
100
AcDbEntity
8
0
6
ByLayer
62
0
370
-1
100
AcDbPolyline
90
4
70
1
43
0
10
-17.1249928787
20
-15.3885372098
10
-4.93237242684
20
-15.3885372098
10
-4.93237242684
20
-20.7676339776
10
-17.1249928787
20
-20.7676339776
0
LWPOLYLINE
5
6F
100
AcDbEntity
8
0
6
ByLayer
62
0
370
-1
100
AcDbPolyline
90
4
70
1
43
0
10
-2.45798903668
20
-15.4961203399
10
9.98565436031
20
-15.4961203399
10
9.98565436031
20
-19.5483733216
10
-2.45798903668
20
-19.5483733216
0
LWPOLYLINE
5
70
100
AcDbEntity
8
0
6
ByLayer
62
0
370
-1
100
AcDbPolyline
90
4
70
1
43
0
10
-32.2223251553
20
7.31125236141
10
-30.8596205982
20
7.31125236141
10
-30.8596205982
20
5.94854780447
10
-32.2223251553
20
5.94854780447
0
LWPOLYLINE
5
71
100
AcDbEntity
8
0
6
ByLayer
62
0
370
-1
100
AcDbPolyline
90
4
70
1
43
0
10
-17.5553221304
20
4.7292874754
10
3.10041085055
20
4.7292874754
10
3.10041085055
20
-14.312714898
10
-17.5553221304
20
-14.312714898
0
LWPOLYLINE
5
72
100
AcDbEntity
8
0
6
ByLayer
62
0
370
-1
100
AcDbPolyline
90
4
70
1
43
0
10
3.73418022869
20
4.76721496838
10
24.3899132097
20
4.76721496838
10
24.3899132097
20
-14.274787405
10
3.73418022869
20
-14.274787405
0
CIRCLE
5
73
100
AcDbEntity
8
0
6
ByLayer
62
0
370
-1
100
AcDbCircle
10
-23.0771545491
20
29.2938297822
40
0.703877079626
0
LWPOLYLINE
5
74
100
AcDbEntity
8
0
6
ByLayer
62
0
370
-1
100
AcDbPolyline
90
4
70
1
43
0
10
-3.17520200431
20
34.4577620059
10
-0.30635046015
20
34.4577620059
10
-0.30635046015
20
32.1985413618
10
-3.17520200431
20
32.1985413618
0
LWPOLYLINE
5
75
100
AcDbEntity
8
0
6
ByLayer
62
0
370
-1
100
AcDbPolyline
90
4
70
1
43
0
10
-3.78483184207
20
31.5889109521
10
0.410863896792
20
31.5889109521
10
0.410863896792
20
28.361452679
10
-3.78483184207
20
28.361452679
0
LWPOLYLINE
5
76
100
AcDbEntity
8
0
6
ByLayer
62
0
370
-1
100
AcDbPolyline
90
8
70
1
43
0
10
-17.5194605422
20
31.4813286392
10
-7.47847981091
20
34.1350167016
10
-6.43852072171
20
32.9874761167
10
-6.40265995061
20
28.8635013478
10
-7.51434058172
20
27.7518215338
10
-17.4477390002
20
27.7159607628
10
-18.5952795852
20
28.8276405768
10
-18.5952795852
20
30.3696488252
0
LWPOLYLINE
5
77
100
AcDbEntity
8
0
6
ByLayer
62
0
370
-1
100
AcDbPolyline
90
8
70
1
43
0
10
14.3283232812
20
31.4547219444
10
4.28734336728
20
34.1084100068
10
3.2473842778
20
32.9608694219
10
3.21152350699
20
28.836894653
10
4.32320413809
20
27.725214839
10
14.2566017393
20
27.689354068
10
15.4041423243
20
28.801033882
10
15.4041423243
20
30.3430421304
0
LWPOLYLINE
5
78
100
AcDbEntity
8
0
6
ByLayer
62
0
370
-1
100
AcDbPolyline
90
12
70
1
43
0
10
-36.9559309058
20
2.00387705385
10
-36.1669968865
20
1.96801710019
10
-36.1669968865
20
3.43830298939
10
-18.810444211
20
3.40244303572
10
-18.810444211
20
2.03973782495
10
-18.164951968
20
2.00387705385
10
-18.129091197
20
-5.59857942354
10
-18.8463041648
20
-5.56271865273
10
-18.8463041648
20
-7.06886613017
10
-36.1669968865
20
-7.06886613017
10
-36.1311361155
20
-5.59857942354
10
-36.9200702983
20
-5.59857942354
0
LWPOLYLINE
5
79
100
AcDbEntity
8
0
6
ByLayer
62
0
370
-1
100
AcDbPolyline
90
22
70
1
43
0
10
-44.2356421281
20
-21.5207069808
10
-32.7960958563
20
-26.1825908626
10
-27.0225321606
20
-23.4213204874
10
23.8278645563
20
-23.3854605335
10
29.4938467563
20
-26.1467300915
10
41.7940503383
20
-24.2819765389
10
33.1874930908
20
5.69752420555
10
32.5420016648
20
7.38297472075
10
31.6454856594
20
9.21186750234
10
30.9641334629
20
10.3594080874
10
30.3545019909
20
11.0407602842
10
29.5655682982
20
11.5069486722
10
28.9559368261
20
11.722112481
10
28.0235600499
20
11.7938340229
10
-31.5051130047
20
11.7938340229
10
-32.3657682391
20
11.722112481
10
-33.0829812069
20
11.3635064055
10
-33.7643334037
20
10.8255964756
10
-34.5174071424
20
9.96494124106
10
-34.9477347596
20
9.17600673153
10
-35.6649477274
20
7.59813852933
10
-36.597324422
20
5.33891731316
0
LWPOLYLINE
5
7A
100
AcDbEntity
8
0
6
ByLayer
62
0
370
-1
100
AcDbPolyline
90
16
70
1
43
0
10
-25.9825730713
20
13.1206776455
10
-27.883187395
20
15.0930135111
10
-27.919048166
20
27.034608566
10
-39.7172007091
20
27.034608566
10
-41.5819542618
20
28.9710836607
10
-41.5819542618
20
33.2026399253
10
-27.3094166939
20
33.2026399253
10
-12.0686421506
20
34.9598111651
10
8.76639305079
20
34.9598111651
10
23.935446869
20
33.2026399253
10
38.1721222768
20
33.2385006962
10
38.1004040038
20
29.0069444317
10
36.5583941209
20
27.070469337
10
24.473355982
20
27.106330108
10
24.5092167531
20
15.0930135111
10
22.7161847424
20
13.1565384163
0
ENDSEC
0
SECTION
2
OBJECTS
0
DICTIONARY
5
C
330
0
100
AcDbDictionary
281
1
3
ACAD_GROUP
350
D
0
DICTIONARY
5
D
330
C
100
AcDbDictionary
281
1
0
ENDSEC
0
EOF
