  0
SECTION
  2
HEADER
  9
$ACADVER
  1
AC1009
  9
$INSBASE
 10
0.0
 20
0.0
 30
0.0
  9
$EXTMIN
 10
-912.56768419276068
 20
-147.6538981012213
 30
-0.0015258207003583
  9
$EXTMAX
 10
160.5982907609868
 20
1741.8375169891681
 30
0.0000000349246037
  9
$LIMMIN
 10
0.0
 20
0.0
  9
$LIMMAX
 10
1073.1004780983189
 20
1889.2319685612019
  9
$ORTHOMODE
 70
     0
  9
$REGENMODE
 70
     1
  9
$FILLMODE
 70
     1
  9
$QTEXTMODE
 70
     0
  9
$MIRRTEXT
 70
     0
  9
$DRAGMODE
 70
     2
  9
$LTSCALE
 40
1.0
  9
$OSMODE
 70
   643
  9
$ATTMODE
 70
     1
  9
$TEXTSIZE
 40
0.2
  9
$TRACEWID
 40
0.05
  9
$TEXTSTYLE
  7
STANDARD
  9
$CLAYER
  8
0
  9
$CELTYPE
  6
BYLAYER
  9
$CECOLOR
 62
   256
  9
$DIMSCALE
 40
1.0
  9
$DIMASZ
 40
1.7999999999999989
  9
$DIMEXO
 40
0.0625
  9
$DIMDLI
 40
0.38
  9
$DIMRND
 40
0.0
  9
$DIMDLE
 40
0.0
  9
$DIMEXE
 40
0.18
  9
$DIMTP
 40
0.0
  9
$DIMTM
 40
0.0
  9
$DIMTXT
 40
1.7999999999999989
  9
$DIMCEN
 40
0.09
  9
$DIMTSZ
 40
0.0
  9
$DIMTOL
 70
     0
  9
$DIMLIM
 70
     0
  9
$DIMTIH
 70
     1
  9
$DIMTOH
 70
     1
  9
$DIMSE1
 70
     0
  9
$DIMSE2
 70
     0
  9
$DIMTAD
 70
     0
  9
$DIMZIN
 70
     0
  9
$DIMBLK
  1

  9
$DIMASO
 70
     1
  9
$DIMSHO
 70
     1
  9
$DIMPOST
  1

  9
$DIMAPOST
  1

  9
$DIMALT
 70
     0
  9
$DIMALTD
 70
     2
  9
$DIMALTF
 40
25.399999999999999
  9
$DIMLFAC
 40
1.0
  9
$DIMTOFL
 70
     0
  9
$DIMTVP
 40
0.0
  9
$DIMTIX
 70
     0
  9
$DIMSOXD
 70
     0
  9
$DIMSAH
 70
     0
  9
$DIMBLK1
  1

  9
$DIMBLK2
  1

  9
$DIMSTYLE
  2
STANDARD
  9
$DIMCLRD
 70
     0
  9
$DIMCLRE
 70
     0
  9
$DIMCLRT
 70
     0
  9
$DIMTFAC
 40
1.0
  9
$DIMGAP
 40
0.09
  9
$LUNITS
 70
     2
  9
$LUPREC
 70
     4
  9
$SKETCHINC
 40
0.1
  9
$FILLETRAD
 40
0.0
  9
$AUNITS
 70
     0
  9
$AUPREC
 70
     0
  9
$MENU
  1
.
  9
$ELEVATION
 40
0.0
  9
$PELEVATION
 40
0.0
  9
$THICKNESS
 40
0.0
  9
$LIMCHECK
 70
     0
  9
$BLIPMODE
 70
     0
  9
$CHAMFERA
 40
0.0
  9
$CHAMFERB
 40
0.0
  9
$SKPOLY
 70
     0
  9
$TDCREATE
 40
2457070.829593102
  9
$TDUPDATE
 40
2457070.87741603
  9
$TDINDWG
 40
0.0474702546
  9
$TDUSRTIMER
 40
0.0474701852
  9
$USRTIMER
 70
     1
  9
$ANGBASE
 50
0.0
  9
$ANGDIR
 70
     0
  9
$PDMODE
 70
     0
  9
$PDSIZE
 40
0.0
  9
$PLINEWID
 40
0.0
  9
$COORDS
 70
     1
  9
$SPLFRAME
 70
     0
  9
$SPLINETYPE
 70
     6
  9
$SPLINESEGS
 70
     8
  9
$ATTDIA
 70
     1
  9
$ATTREQ
 70
     1
  9
$HANDLING
 70
     1
  9
$HANDSEED
  5
1C4
  9
$SURFTAB1
 70
     6
  9
$SURFTAB2
 70
     6
  9
$SURFTYPE
 70
     6
  9
$SURFU
 70
     6
  9
$SURFV
 70
     6
  9
$UCSNAME
  2

  9
$UCSORG
 10
0.0
 20
0.0
 30
0.0
  9
$UCSXDIR
 10
1.0
 20
0.0
 30
0.0
  9
$UCSYDIR
 10
0.0
 20
1.0
 30
0.0
  9
$PUCSNAME
  2

  9
$PUCSORG
 10
0.0
 20
0.0
 30
0.0
  9
$PUCSXDIR
 10
1.0
 20
0.0
 30
0.0
  9
$PUCSYDIR
 10
0.0
 20
1.0
 30
0.0
  9
$USERI1
 70
     0
  9
$USERI2
 70
     0
  9
$USERI3
 70
     0
  9
$USERI4
 70
     0
  9
$USERI5
 70
     0
  9
$USERR1
 40
0.0
  9
$USERR2
 40
0.0
  9
$USERR3
 40
0.0
  9
$USERR4
 40
0.0
  9
$USERR5
 40
0.0
  9
$WORLDVIEW
 70
     1
  9
$SHADEDGE
 70
     3
  9
$SHADEDIF
 70
    70
  9
$TILEMODE
 70
     1
  9
$MAXACTVP
 70
    64
  9
$PLIMCHECK
 70
     0
  9
$PEXTMIN
 10
0.0
 20
0.0
 30
0.0
  9
$PEXTMAX
 10
1073.1004780983189
 20
1889.2319685612019
 30
0.0
  9
$PLIMMIN
 10
0.0
 20
0.0
  9
$PLIMMAX
 10
1073.1004780983189
 20
1889.2319685612019
  9
$UNITMODE
 70
     0
  9
$VISRETAIN
 70
     1
  9
$PLINEGEN
 70
     0
  9
$PSLTSCALE
 70
     1
  0
ENDSEC
  0
SECTION
  2
TABLES
  0
TABLE
  2
VPORT
 70
     1
  0
VPORT
  2
*ACTIVE
 70
     0
 10
0.0
 20
0.0
 11
1.0
 21
1.0
 12
405.60433590455648
 22
904.52882000940679
 13
0.0
 23
0.0
 14
1.0
 24
1.0
 15
0.0
 25
0.0
 16
0.0
 26
0.0
 36
1.0
 17
0.0
 27
0.0
 37
0.0
 40
3241.3328272507729
 41
1.9294117647058819
 42
50.0
 43
0.0
 44
0.0
 50
0.0
 51
0.0
 71
     0
 72
   100
 73
     1
 74
     1
 75
     0
 76
     0
 77
     0
 78
     0
  0
ENDTAB
  0
TABLE
  2
LTYPE
 70
    49
  0
LTYPE
  2
CONTINUOUS
 70
     0
  3
Solid line
 72
    65
 73
     0
 40
0.0
  0
LTYPE
  2
BORDER
 70
     0
  3
Border __ __ . __ __ . __ __ . __ __ . __ __ .
 72
    65
 73
     6
 40
1.75
 49
0.5
 49
-0.25
 49
0.5
 49
-0.25
 49
0.0
 49
-0.25
  0
LTYPE
  2
BORDER2
 70
     0
  3
Border (.5x) __.__.__.__.__.__.__.__.__.__.__.
 72
    65
 73
     6
 40
0.875
 49
0.25
 49
-0.125
 49
0.25
 49
-0.125
 49
0.0
 49
-0.125
  0
LTYPE
  2
BORDERX2
 70
     0
  3
Border (2x) ____  ____  .  ____  ____  .  ___
 72
    65
 73
     6
 40
3.5
 49
1.0
 49
-0.5
 49
1.0
 49
-0.5
 49
0.0
 49
-0.5
  0
LTYPE
  2
CENTER
 70
     0
  3
Center ____ _ ____ _ ____ _ ____ _ ____ _ ____
 72
    65
 73
     4
 40
2.0
 49
1.25
 49
-0.25
 49
0.25
 49
-0.25
  0
LTYPE
  2
CENTER2
 70
     0
  3
Center (.5x) ___ _ ___ _ ___ _ ___ _ ___ _ ___
 72
    65
 73
     4
 40
1.125
 49
0.75
 49
-0.125
 49
0.125
 49
-0.125
  0
LTYPE
  2
CENTERX2
 70
     0
  3
Center (2x) ________  __  ________  __  _____
 72
    65
 73
     4
 40
4.0
 49
2.5
 49
-0.5
 49
0.5
 49
-0.5
  0
LTYPE
  2
DASHDOT
 70
     0
  3
Dash dot __ . __ . __ . __ . __ . __ . __ . __
 72
    65
 73
     4
 40
1.0
 49
0.5
 49
-0.25
 49
0.0
 49
-0.25
  0
LTYPE
  2
DASHDOT2
 70
     0
  3
Dash dot (.5x) _._._._._._._._._._._._._._._.
 72
    65
 73
     4
 40
0.5
 49
0.25
 49
-0.125
 49
0.0
 49
-0.125
  0
LTYPE
  2
DASHDOTX2
 70
     0
  3
Dash dot (2x) ____  .  ____  .  ____  .  ___
 72
    65
 73
     4
 40
2.0
 49
1.0
 49
-0.5
 49
0.0
 49
-0.5
  0
LTYPE
  2
DASHED
 70
     0
  3
Dashed __ __ __ __ __ __ __ __ __ __ __ __ __ _
 72
    65
 73
     2
 40
0.75
 49
0.5
 49
-0.25
  0
LTYPE
  2
DASHED2
 70
     0
  3
Dashed (.5x) _ _ _ _ _ _ _ _ _ _ _ _ _ _ _ _ _
 72
    65
 73
     2
 40
0.375
 49
0.25
 49
-0.125
  0
LTYPE
  2
DASHEDX2
 70
     0
  3
Dashed (2x) ____  ____  ____  ____  ____  ___
 72
    65
 73
     2
 40
1.5
 49
1.0
 49
-0.5
  0
LTYPE
  2
DIVIDE
 70
     0
  3
Divide ____ . . ____ . . ____ . . ____ . . ____
 72
    65
 73
     6
 40
1.25
 49
0.5
 49
-0.25
 49
0.0
 49
-0.25
 49
0.0
 49
-0.25
  0
LTYPE
  2
DIVIDE2
 70
     0
  3
Divide (.5x) __..__..__..__..__..__..__..__.._
 72
    65
 73
     6
 40
0.625
 49
0.25
 49
-0.125
 49
0.0
 49
-0.125
 49
0.0
 49
-0.125
  0
LTYPE
  2
DIVIDEX2
 70
     0
  3
Divide (2x) ________  .  .  ________  .  .  _
 72
    65
 73
     6
 40
2.5
 49
1.0
 49
-0.5
 49
0.0
 49
-0.5
 49
0.0
 49
-0.5
  0
LTYPE
  2
DOT
 70
     0
  3
Dot . . . . . . . . . . . . . . . . . . . . . .
 72
    65
 73
     2
 40
0.25
 49
0.0
 49
-0.25
  0
LTYPE
  2
DOT2
 70
     0
  3
Dot (.5x) .....................................
 72
    65
 73
     2
 40
0.125
 49
0.0
 49
-0.125
  0
LTYPE
  2
DOTX2
 70
     0
  3
Dot (2x) .  .  .  .  .  .  .  .  .  .  .  .  . 
 72
    65
 73
     2
 40
0.5
 49
0.0
 49
-0.5
  0
LTYPE
  2
HIDDEN
 70
     0
  3
Hidden __ __ __ __ __ __ __ __ __ __ __ __ __ _
 72
    65
 73
     2
 40
0.375
 49
0.25
 49
-0.125
  0
LTYPE
  2
HIDDEN2
 70
     0
  3
Hidden (.5x) _ _ _ _ _ _ _ _ _ _ _ _ _ _ _ _ _
 72
    65
 73
     2
 40
0.1875
 49
0.125
 49
-0.0625
  0
LTYPE
  2
HIDDENX2
 70
     0
  3
Hidden (2x) ____ ____ ____ ____ ____ ____ ____
 72
    65
 73
     2
 40
0.75
 49
0.5
 49
-0.25
  0
LTYPE
  2
PHANTOM
 70
     0
  3
Phantom ______  __  __  ______  __  __  ______
 72
    65
 73
     6
 40
2.5
 49
1.25
 49
-0.25
 49
0.25
 49
-0.25
 49
0.25
 49
-0.25
  0
LTYPE
  2
PHANTOM2
 70
     0
  3
Phantom (.5x) ___ _ _ ___ _ _ ___ _ _ ___ _ _
 72
    65
 73
     6
 40
1.25
 49
0.625
 49
-0.125
 49
0.125
 49
-0.125
 49
0.125
 49
-0.125
  0
LTYPE
  2
PHANTOMX2
 70
     0
  3
Phantom (2x) ____________    ____    ____   _
 72
    65
 73
     6
 40
5.0
 49
2.5
 49
-0.5
 49
0.5
 49
-0.5
 49
0.5
 49
-0.5
  0
LTYPE
  2
ACAD_ISO02W100
 70
     0
  3
ISO dash __ __ __ __ __ __ __ __ __ __ __ __ __
 72
    65
 73
     2
 40
15.0
 49
12.0
 49
-3.0
  0
LTYPE
  2
ACAD_ISO03W100
 70
     0
  3
ISO dash space __    __    __    __    __    __
 72
    65
 73
     2
 40
30.0
 49
12.0
 49
-18.0
  0
LTYPE
  2
ACAD_ISO04W100
 70
     0
  3
ISO long-dash dot ____ . ____ . ____ . ____ . _
 72
    65
 73
     4
 40
30.0
 49
24.0
 49
-3.0
 49
0.0
 49
-3.0
  0
LTYPE
  2
ACAD_ISO05W100
 70
     0
  3
ISO long-dash double-dot ____ .. ____ .. ____ .
 72
    65
 73
     6
 40
33.0
 49
24.0
 49
-3.0
 49
0.0
 49
-3.0
 49
0.0
 49
-3.0
  0
LTYPE
  2
ACAD_ISO06W100
 70
     0
  3
ISO long-dash triple-dot ____ ... ____ ... ____
 72
    65
 73
     8
 40
36.0
 49
24.0
 49
-3.0
 49
0.0
 49
-3.0
 49
0.0
 49
-3.0
 49
0.0
 49
-3.0
  0
LTYPE
  2
ACAD_ISO07W100
 70
     0
  3
ISO dot . . . . . . . . . . . . . . . . . . . .
 72
    65
 73
     2
 40
3.0
 49
0.0
 49
-3.0
  0
LTYPE
  2
ACAD_ISO08W100
 70
     0
  3
ISO long-dash short-dash ____ __ ____ __ ____ _
 72
    65
 73
     4
 40
36.0
 49
24.0
 49
-3.0
 49
6.0
 49
-3.0
  0
LTYPE
  2
ACAD_ISO09W100
 70
     0
  3
ISO long-dash double-short-dash ____ __ __ ____
 72
    65
 73
     6
 40
45.0
 49
24.0
 49
-3.0
 49
6.0
 49
-3.0
 49
6.0
 49
-3.0
  0
LTYPE
  2
ACAD_ISO10W100
 70
     0
  3
ISO dash dot __ . __ . __ . __ . __ . __ . __ .
 72
    65
 73
     4
 40
18.0
 49
12.0
 49
-3.0
 49
0.0
 49
-3.0
  0
LTYPE
  2
ACAD_ISO11W100
 70
     0
  3
ISO double-dash dot __ __ . __ __ . __ __ . __ 
 72
    65
 73
     6
 40
33.0
 49
12.0
 49
-3.0
 49
12.0
 49
-3.0
 49
0.0
 49
-3.0
  0
LTYPE
  2
ACAD_ISO12W100
 70
     0
  3
ISO dash double-dot __ . . __ . . __ . . __ . .
 72
    65
 73
     6
 40
21.0
 49
12.0
 49
-3.0
 49
0.0
 49
-3.0
 49
0.0
 49
-3.0
  0
LTYPE
  2
ACAD_ISO13W100
 70
     0
  3
ISO double-dash double-dot __ __ . . __ __ . . 
 72
    65
 73
     8
 40
36.0
 49
12.0
 49
-3.0
 49
12.0
 49
-3.0
 49
0.0
 49
-3.0
 49
0.0
 49
-3.0
  0
LTYPE
  2
ACAD_ISO14W100
 70
     0
  3
ISO dash triple-dot __ . . . __ . . . __ . . . 
 72
    65
 73
     8
 40
24.0
 49
12.0
 49
-3.0
 49
0.0
 49
-3.0
 49
0.0
 49
-3.0
 49
0.0
 49
-3.0
  0
LTYPE
  2
ACAD_ISO15W100
 70
     0
  3
ISO double-dash triple-dot __ __ . . . __ __ . 
 72
    65
 73
    10
 40
39.0
 49
12.0
 49
-3.0
 49
12.0
 49
-3.0
 49
0.0
 49
-3.0
 49
0.0
 49
-3.0
 49
0.0
 49
-3.0
  0
LTYPE
  2
FENCELINE1
 70
     0
  3
Fenceline circle ----0-----0----0-----0----0---
 72
    65
 73
     4
 40
1.45
 49
0.25
 49
-0.1
 49
-0.1
 49
1.0
  0
LTYPE
  2
FENCELINE2
 70
     0
  3
Fenceline square ----[]-----[]----[]-----[]----
 72
    65
 73
     4
 40
1.45
 49
0.25
 49
-0.1
 49
-0.1
 49
1.0
  0
LTYPE
  2
TRACKS
 70
     0
  3
Tracks -|-|-|-|-|-|-|-|-|-|-|-|-|-|-|-|-|-|-|-|
 72
    65
 73
     2
 40
0.3
 49
0.15
 49
0.15
  0
LTYPE
  2
BATTING
 70
     0
  3
Batting SSSSSSSSSSSSSSSSSSSSSSSSSSSSSSSSSSSSSSS
 72
    65
 73
     4
 40
0.4001000000000002
 49
0.0001
 49
-0.1
 49
-0.2
 49
-0.1
  0
LTYPE
  2
HOT_WATER_SUPPLY
 70
     0
  3
Hot water supply ---- HW ---- HW ---- HW ----
 72
    65
 73
     3
 40
0.9
 49
0.5
 49
-0.2
 49
-0.2
  0
LTYPE
  2
GAS_LINE
 70
     0
  3
Gas line ----GAS----GAS----GAS----GAS----GAS---
 72
    65
 73
     3
 40
0.95
 49
0.5
 49
-0.2
 49
-0.25
  0
LTYPE
  2
ZIGZAG
 70
     0
  3
Zig zag /\/\/\/\/\/\/\/\/\/\/\/\/\/\/\/\/\/\/\/
 72
    65
 73
     4
 40
0.8001000000000001
 49
0.0001
 49
-0.2
 49
-0.4
 49
-0.2
  0
LTYPE
  2
DURCHGEHEND
 70
     0
  3

 72
    65
 73
     0
 40
0.0
  0
ENDTAB
  0
TABLE
  2
LAYER
 70
     3
  0
LAYER
  2
0
 70
     0
 62
     7
  6
CONTINUOUS
  0
LAYER
  2
IV_OUTER_PROFILE
 70
     0
 62
     7
  6
DURCHGEHEND
  0
LAYER
  2
IV_TANGENT
 70
     0
 62
     7
  6
DURCHGEHEND
  0
ENDTAB
  0
TABLE
  2
STYLE
 70
     3
  0
STYLE
  2
STANDARD
 70
     0
 40
0.0
 41
1.0
 50
0.0
 71
     0
 42
0.2
  3
txt
  4

  0
STYLE
  2
ANNOTATIVE
 70
     0
 40
0.0
 41
1.0
 50
0.0
 71
     0
 42
0.2
  3
txt
  4

  0
STYLE
  2

 70
     1
 40
0.0
 41
1.0
 50
0.0
 71
     0
 42
0.2
  3
ltypeshp.shx
  4

  0
ENDTAB
  0
TABLE
  2
VIEW
 70
     0
  0
ENDTAB
  0
TABLE
  2
UCS
 70
     0
  0
ENDTAB
  0
TABLE
  2
APPID
 70
     5
  0
APPID
  2
ACAD
 70
     0
  0
APPID
  2
ACADANNOTATIVE
 70
     0
  0
APPID
  2
ACAD_MLEADERVER
 70
     0
  0
APPID
  2
ACAD_EXEMPT_FROM_CAD_STANDARDS
 70
     0
  0
APPID
  2
ACAD_NAV_VCDISPLAY
 70
     0
  0
ENDTAB
  0
TABLE
  2
DIMSTYLE
 70
     3
  0
DIMSTYLE
  2
STANDARD
 70
     0
  3

  4

  5

  6

  7

 40
1.0
 41
0.18
 42
0.0625
 43
0.38
 44
0.18
 45
0.0
 46
0.0
 47
0.0
 48
0.0
140
0.18
141
0.09
142
0.0
143
25.399999999999999
144
1.0
145
0.0
146
1.0
147
0.09
 71
     0
 72
     0
 73
     1
 74
     1
 75
     0
 76
     0
 77
     0
 78
     0
170
     0
171
     2
172
     0
173
     0
174
     0
175
     0
176
     0
177
     0
178
     0
  0
DIMSTYLE
  2
ANNOTATIVE
 70
     0
  3

  4

  5

  6

  7

 40
1.0
 41
0.18
 42
0.0625
 43
0.38
 44
0.18
 45
0.0
 46
0.0
 47
0.0
 48
0.0
140
0.18
141
0.09
142
0.0
143
25.399999999999999
144
1.0
145
0.0
146
1.0
147
0.09
 71
     0
 72
     0
 73
     1
 74
     1
 75
     0
 76
     0
 77
     0
 78
     0
170
     0
171
     2
172
     0
173
     0
174
     0
175
     0
176
     0
177
     0
178
     0
  0
ENDTAB
  0
ENDSEC
  0
SECTION
  2
BLOCKS
  0
BLOCK
  8
0
  2
$MODEL_SPACE
 70
     0
 10
0.0
 20
0.0
 30
0.0
  3
$MODEL_SPACE
  1

  0
ENDBLK
  5
72
  8
0
  0
BLOCK
 67
     1
  8
0
  2
$PAPER_SPACE
 70
     0
 10
0.0
 20
0.0
 30
0.0
  3
$PAPER_SPACE
  1

  0
ENDBLK
  5
6E
 67
     1
  8
0
  0
BLOCK
  8
0
  2
*U3
 70
     1
 10
0.0
 20
0.0
 30
0.0
  3
*U3
  1

  0
TEXT
  5
1B9
  8
0
 62
     2
 10
-683.05914176542126
 20
1238.539615225154
 30
0.0
 40
30.0
  1
Biegemarkierungen
  0
ENDBLK
  5
1BB
  8
0
  0
BLOCK
  8
0
  2
*U4
 70
     1
 10
0.0
 20
0.0
 30
0.0
  3
*U4
  1

  0
TEXT
  5
1BD
  8
0
 62
     2
 10
0.0
 20
9.9999996438564267
 30
0.0
 40
30.0
  1
Biegemarkierungen
  0
ENDBLK
  5
1BF
  8
0
  0
BLOCK
  8
0
  2
*U5
 70
     1
 10
0.0
 20
0.0
 30
0.0
  3
*U5
  1

  0
TEXT
  5
1C1
  8
0
 62
     4
 10
-692.31673075855906
 20
1165.6769068630431
 30
0.0
 40
30.0
  1
Trennschnitt
  0
ENDBLK
  5
1C3
  8
0
  0
ENDSEC
  0
SECTION
  2
ENTITIES
  0
LINE
  5
AA
  8
IV_OUTER_PROFILE
 10
-912.51254111337164
 20
-147.5261061302474
 30
0.0
 11
-911.76601474738038
 21
-147.52377210055619
 31
0.0
  0
LINE
  5
AC
  8
IV_OUTER_PROFILE
 10
-911.76601474738038
 20
-147.52377210055619
 30
0.0
 11
-15.165722785727951
 21
-147.5237721005565
 31
0.0
  0
LINE
  5
AD
  8
IV_OUTER_PROFILE
 10
160.5879369849481
 20
1592.0486409441489
 30
0.0
 11
-723.44512118854618
 21
1741.5773419638519
 31
0.0
  0
LINE
  5
AE
  8
IV_OUTER_PROFILE
 10
-723.44512118854618
 20
1741.5773419638519
 30
0.0
 11
-724.19114972852117
 21
1741.705862430955
 31
0.0
  0
LINE
  5
AF
  8
IV_OUTER_PROFILE
 10
-724.19114972852117
 20
1741.705862430955
 30
0.0
 11
-728.47217170054455
 21
1725.984863225126
 31
0.0
  0
LINE
  5
B0
  8
IV_OUTER_PROFILE
 10
-728.47217170054455
 20
1725.984863225126
 30
0.0
 11
-732.49642470632375
 21
1710.195877594482
 31
0.0
  0
LINE
  5
B1
  8
IV_OUTER_PROFILE
 10
-732.49642470632375
 20
1710.195877594482
 30
0.0
 11
-736.25334994349259
 21
1694.3413441534051
 31
0.0
  0
LINE
  5
B2
  8
IV_OUTER_PROFILE
 10
-736.25334994349259
 20
1694.3413441534051
 30
0.0
 11
-739.73238860968365
 21
1678.4237015162789
 31
0.0
  0
LINE
  5
B3
  8
IV_OUTER_PROFILE
 10
-739.73238860968365
 20
1678.4237015162789
 30
0.0
 11
-742.92379305558654
 21
1662.4457104614919
 31
0.0
  0
LINE
  5
B4
  8
IV_OUTER_PROFILE
 10
-742.92379305558654
 20
1662.4457104614919
 30
0.0
 11
-745.83352248180131
 21
1646.414277672478
 31
0.0
  0
LINE
  5
B5
  8
IV_OUTER_PROFILE
 10
-745.83352248180131
 20
1646.414277672478
 30
0.0
 11
-748.47931144029735
 21
1630.337132188713
 31
0.0
  0
LINE
  5
B6
  8
IV_OUTER_PROFILE
 10
-748.47931144029735
 20
1630.337132188713
 30
0.0
 11
-750.87885571070035
 21
1614.221621660749
 31
0.0
  0
LINE
  5
B7
  8
IV_OUTER_PROFILE
 10
-750.87885571070035
 20
1614.221621660749
 30
0.0
 11
-844.46476156936319
 21
962.63457588358369
 31
0.0
  0
LINE
  5
B8
  8
IV_OUTER_PROFILE
 10
-844.46476156936319
 20
962.63457588358369
 30
0.0
 11
-846.69668680902134
 21
946.48879546360058
 31
0.0
  0
LINE
  5
B9
  8
IV_OUTER_PROFILE
 10
-846.69668680902134
 20
946.48879546360058
 30
0.0
 11
-848.6799942069739
 21
930.31022070571055
 31
0.0
  0
LINE
  5
BA
  8
IV_OUTER_PROFILE
 10
-848.6799942069739
 20
930.31022070571055
 30
0.0
 11
-850.39962069544697
 21
914.10178193259856
 31
0.0
  0
LINE
  5
BB
  8
IV_OUTER_PROFILE
 10
-850.39962069544697
 20
914.10178193259856
 30
0.0
 11
-851.84050320666745
 21
897.8664094669499
 31
0.0
  0
LINE
  5
BC
  8
IV_OUTER_PROFILE
 10
-851.84050320666745
 20
897.8664094669499
 30
0.0
 11
-852.98836307438091
 21
881.60727889025316
 31
0.0
  0
LINE
  5
BD
  8
IV_OUTER_PROFILE
 10
-852.98836307438091
 20
881.60727889025316
 30
0.0
 11
-853.84456891481307
 21
865.33023872077251
 31
0.0
  0
LINE
  5
BE
  8
IV_OUTER_PROFILE
 10
-853.84456891481307
 20
865.33023872077251
 30
0.0
 11
-854.42279446100099
 21
849.04090887332188
 31
0.0
  0
LINE
  5
BF
  8
IV_OUTER_PROFILE
 10
-854.42279446100099
 20
849.04090887332188
 30
0.0
 11
-854.73677411985818
 21
832.7445430852963
 31
0.0
  0
LINE
  5
C0
  8
IV_OUTER_PROFILE
 10
-854.73677411985818
 20
832.7445430852963
 30
0.0
 11
-854.35520734892725
 21
763.49548815384094
 31
0.0
  0
LINE
  5
C1
  8
IV_OUTER_PROFILE
 10
-854.35520734892725
 20
763.49548815384094
 30
0.0
 11
-855.13616666589246
 21
710.74762963546209
 31
0.0
  0
LINE
  5
C2
  8
IV_OUTER_PROFILE
 10
-855.13616666589246
 20
710.74762963546209
 30
0.0
 11
-856.31637268036468
 21
658.00710259749712
 31
0.0
  0
LINE
  5
C3
  8
IV_OUTER_PROFILE
 10
-856.31637268036468
 20
658.00710259749712
 30
0.0
 11
-857.91779289815338
 21
605.27777527492344
 31
0.0
  0
LINE
  5
C4
  8
IV_OUTER_PROFILE
 10
-857.91779289815338
 20
605.27777527492344
 30
0.0
 11
-859.95671669001058
 21
552.56370894868678
 31
0.0
  0
LINE
  5
C5
  8
IV_OUTER_PROFILE
 10
-859.95671669001058
 20
552.56370894868678
 30
0.0
 11
-862.39582621163163
 21
499.8668509856044
 31
0.0
  0
LINE
  5
C6
  8
IV_OUTER_PROFILE
 10
-862.39582621163163
 20
499.8668509856044
 30
0.0
 11
-865.16832052438315
 21
447.1862593463685
 31
0.0
  0
LINE
  5
C7
  8
IV_OUTER_PROFILE
 10
-865.16832052438315
 20
447.1862593463685
 30
0.0
 11
-871.39471352173859
 21
341.86437844029291
 31
0.0
  0
LINE
  5
C8
  8
IV_OUTER_PROFILE
 10
-871.39471352173859
 20
341.86437844029291
 30
0.0
 11
-877.58874625189389
 21
236.54032645880079
 31
0.0
  0
LINE
  5
C9
  8
IV_OUTER_PROFILE
 10
-877.58874625189389
 20
236.54032645880079
 30
0.0
 11
-881.01203500161091
 21
183.89865035852651
 31
0.0
  0
LINE
  5
CA
  8
IV_OUTER_PROFILE
 10
-881.01203500161091
 20
183.89865035852651
 30
0.0
 11
-884.78742656712416
 21
131.28041664071509
 31
0.0
  0
LINE
  5
CB
  8
IV_OUTER_PROFILE
 10
-884.78742656712416
 20
131.28041664071509
 30
0.0
 11
-888.96277460972794
 21
78.692156103412174
 31
0.0
  0
LINE
  5
CC
  8
IV_OUTER_PROFILE
 10
-888.96277460972794
 20
78.692156103412174
 30
0.0
 11
-893.554852786433
 21
26.138716124047718
 31
0.0
  0
LINE
  5
CD
  8
IV_OUTER_PROFILE
 10
-893.554852786433
 20
26.138716124047718
 30
0.0
 11
-898.57743763407075
 21
-26.37532009007629
 31
0.0
  0
LINE
  5
CE
  8
IV_OUTER_PROFILE
 10
-898.57743763407075
 20
-26.37532009007629
 30
0.0
 11
-904.00402825601304
 21
-78.849027623089455
 31
0.0
  0
LINE
  5
CF
  8
IV_OUTER_PROFILE
 10
-904.00402825601304
 20
-78.849027623089455
 30
0.0
 11
-912.51254111337164
 21
-147.5261061302474
 31
0.0
  0
LINE
  5
D0
  8
IV_OUTER_PROFILE
 10
-8.8701150961807151
 20
-87.484857721275844
 30
0.0
 11
-15.165722785727951
 21
-147.5237721005565
 31
0.0
  0
LINE
  5
D1
  8
IV_OUTER_PROFILE
 10
-8.8701150961807151
 20
-87.484857721275844
 30
0.0
 11
-2.9416475459992601
 21
-41.136705967791897
 31
0.0
  0
LINE
  5
D2
  8
IV_OUTER_PROFILE
 10
-2.9416475459992601
 20
-41.136705967791897
 30
0.0
 11
-1.8685207835144111
 21
-30.879478463514019
 31
0.0
  0
LINE
  5
D3
  8
IV_OUTER_PROFILE
 10
-1.8685207835144111
 20
-30.879478463514019
 30
0.0
 11
-1.0329178882489589
 21
-20.599993685582302
 31
0.0
  0
LINE
  5
D4
  8
IV_OUTER_PROFILE
 10
-1.0329178882489589
 20
-20.599993685582302
 30
0.0
 11
0.000000000000071
 21
-0.0000000000003284
 31
0.0
  0
LINE
  5
D5
  8
IV_OUTER_PROFILE
 10
34.126684930977667
 20
578.99513760965363
 30
0.0
 11
0.000000000000071
 21
-0.0000000000003284
 31
0.0
  0
LINE
  5
D6
  8
IV_OUTER_PROFILE
 10
34.126684930977667
 20
578.99513760965363
 30
0.0
 11
35.520902571884548
 21
599.57435119990805
 31
0.0
  0
LINE
  5
D7
  8
IV_OUTER_PROFILE
 10
35.520902571884548
 20
599.57435119990805
 30
0.0
 11
35.90527353592551
 21
609.88000667709161
 31
0.0
  0
LINE
  5
D8
  8
IV_OUTER_PROFILE
 10
35.90527353592551
 20
609.88000667709161
 30
0.0
 11
36.037913136616083
 21
620.19257775963717
 31
0.0
  0
LINE
  5
D9
  8
IV_OUTER_PROFILE
 10
36.037913136616083
 20
620.19257775963717
 30
0.0
 11
35.595213499521343
 21
666.9162539365924
 31
0.0
  0
LINE
  5
DA
  8
IV_OUTER_PROFILE
 10
37.187476689465221
 20
786.90568971297228
 30
0.0
 11
35.595213499521343
 21
666.9162539365924
 31
0.0
  0
LINE
  5
DB
  8
IV_OUTER_PROFILE
 10
37.187476689465221
 20
786.90568971297228
 30
0.0
 11
37.780997697448328
 21
808.89328880289622
 31
0.0
  0
LINE
  5
DC
  8
IV_OUTER_PROFILE
 10
37.780997697448328
 20
808.89328880289622
 30
0.0
 11
39.126024500848771
 21
830.84769019336272
 31
0.0
  0
LINE
  5
DD
  8
IV_OUTER_PROFILE
 10
39.126024500848771
 20
830.84769019336272
 30
0.0
 11
41.259394671126707
 21
852.73938257883174
 31
0.0
  0
LINE
  5
DE
  8
IV_OUTER_PROFILE
 10
41.259394671126707
 20
852.73938257883174
 30
0.0
 11
44.125821677300991
 21
874.54677569497869
 31
0.0
  0
LINE
  5
DF
  8
IV_OUTER_PROFILE
 10
126.5836837183387
 20
1448.6553899724699
 30
0.0
 11
44.125821677300991
 21
874.54677569497869
 31
0.0
  0
LINE
  5
E0
  8
IV_OUTER_PROFILE
 10
126.5836837183387
 20
1448.6553899724699
 30
0.0
 11
129.97742783437101
 21
1470.3874715972479
 31
0.0
  0
LINE
  5
E1
  8
IV_OUTER_PROFILE
 10
129.97742783437101
 20
1470.3874715972479
 30
0.0
 11
134.08508305688159
 21
1491.9957897924551
 31
0.0
  0
LINE
  5
E2
  8
IV_OUTER_PROFILE
 10
134.08508305688159
 20
1491.9957897924551
 30
0.0
 11
136.42737894282379
 21
1502.7415584732621
 31
0.0
  0
LINE
  5
E3
  8
IV_OUTER_PROFILE
 10
136.42737894282379
 20
1502.7415584732621
 30
0.0
 11
138.96686524509491
 21
1513.442655848397
 31
0.0
  0
LINE
  5
E4
  8
IV_OUTER_PROFILE
 10
138.96686524509491
 20
1513.442655848397
 30
0.0
 11
144.59233421127919
 21
1534.7064741649349
 31
0.0
  0
LINE
  5
E5
  8
IV_OUTER_PROFILE
 10
160.5879369849481
 20
1592.0486409441489
 30
0.0
 11
144.59233421127919
 21
1534.7064741649349
 31
0.0
  0
LINE
  5
E6
  8
IV_TANGENT
 62
     2
 10
144.59233421127919
 20
1534.7064741649349
 30
0.0
 11
-723.44512118854618
 21
1741.5773419638519
 31
0.0
  0
LINE
  5
E7
  8
IV_TANGENT
 62
     2
 10
-750.87885571070035
 20
1614.221621660749
 30
0.0
 11
126.5836837183387
 21
1448.6553899724699
 31
0.0
  0
LINE
  5
E8
  8
IV_TANGENT
 62
     2
 10
44.125821677300991
 20
874.54677569497869
 30
0.0
 11
-844.46476156936319
 21
962.63457588358369
 31
0.0
  0
LINE
  5
E9
  8
IV_TANGENT
 62
     2
 10
-854.73677411985818
 20
832.7445430852963
 30
0.0
 11
37.187476689465221
 21
786.90568971297228
 31
0.0
  0
LINE
  5
EA
  8
IV_TANGENT
 62
     2
 10
35.595213499521343
 20
666.9162539365924
 30
0.0
 11
-854.73677411985818
 21
832.7445430852963
 31
0.0
  0
LINE
  5
EB
  8
IV_TANGENT
 62
     2
 10
-911.76601474738038
 20
-147.52377210055619
 30
0.0
 11
-8.8701150961807151
 21
-87.484857721275844
 31
0.0
  0
LINE
  5
EC
  8
IV_TANGENT
 62
     2
 10
-854.35520734892725
 20
763.49548815384094
 30
0.0
 11
36.037913136616083
 21
620.19257775963717
 31
0.0
  0
LINE
  5
ED
  8
IV_TANGENT
 62
     2
 10
-904.00402825601304
 20
-78.849027623089455
 30
0.0
 11
-2.9416475459992601
 21
-41.136705967791897
 31
0.0
  0
LINE
  5
EE
  8
IV_TANGENT
 62
     2
 10
-871.39471352173859
 20
341.86437844029291
 30
0.0
 11
34.126684930977667
 21
578.99513760965363
 31
0.0
  0
LINE
  5
EF
  8
IV_TANGENT
 62
     2
 10
0.000000000000071
 20
-0.0000000000003284
 30
0.0
 11
-871.39471352173859
 21
341.86437844029291
 31
0.0
  0
LINE
  5
14E
  8
0
 62
     4
 10
-854.73677411985818
 20
832.7445430852963
 30
0.0
 11
36.391345094493282
 21
726.91097182478234
 31
0.0
  0
INSERT
  5
150
  8
0
  2
*U3
 10
0.0
 20
0.0
 30
0.0
  0
INSERT
  5
157
  8
0
  2
*U5
 10
0.0
 20
0.0
 30
0.0
  0
ENDSEC
  0
EOF
