  0
SECTION
  2
HEADER
  9
$ACADVER
  1
AC1014
  9
$HANDSEED
  5
FFFF
  9
$MEASUREMENT
 70
     1
  0
ENDSEC
  0
SECTION
  2
TABLES
  0
TABLE
  2
VPORT
  5
8
330
0
100
AcDbSymbolTable
 70
     4
  0
VPORT
  5
2E
330
8
100
AcDbSymbolTableRecord
100
AcDbViewportTableRecord
  2
*ACTIVE
 70
     0
 10
0.0
 20
0.0
 11
1.0
 21
1.0
 12
210.0
 22
148.5
 13
0.0
 23
0.0
 14
10.0
 24
10.0
 15
10.0
 25
10.0
 16
0.0
 26
0.0
 36
1.0
 17
0.0
 27
0.0
 37
0.0
 40
341.0
 41
1.24
 42
50.0
 43
0.0
 44
0.0
 50
0.0
 51
0.0
 71
     0
 72
   100
 73
     1
 74
     3
 75
     0
 76
     0
 77
     0
 78
     0
  0
ENDTAB
  0
TABLE
  2
LTYPE
  5
5
330
0
100
AcDbSymbolTable
 70
     1
  0
LTYPE
  5
14
330
5
100
AcDbSymbolTableRecord
100
AcDbLinetypeTableRecord
  2
BYBLOCK
 70
     0
  3

 72
    65
 73
     0
 40
0.0
  0
LTYPE
  5
15
330
5
100
AcDbSymbolTableRecord
100
AcDbLinetypeTableRecord
  2
BYLAYER
 70
     0
  3

 72
    65
 73
     0
 40
0.0
  0
LTYPE
  5
16
330
5
100
AcDbSymbolTableRecord
100
AcDbLinetypeTableRecord
  2
CONTINUOUS
 70
     0
  3
Solid line
 72
    65
 73
     0
 40
0.0
  0
ENDTAB
  0
TABLE
  2
LAYER
  5
2
100
AcDbSymbolTable
 70
1
  0
LAYER
  5
50
100
AcDbSymbolTableRecord
100
AcDbLayerTableRecord
  2
0
 70
0
  6
CONTINUOUS
  0
ENDTAB
  0
TABLE
  2
STYLE
  5
3
330
0
100
AcDbSymbolTable
 70
     1
  0
STYLE
  5
11
330
3
100
AcDbSymbolTableRecord
100
AcDbTextStyleTableRecord
  2
STANDARD
 70
     0
 40
0.0
 41
1.0
 50
0.0
 71
     0
 42
2.5
  3
txt
  4

  0
ENDTAB
  0
TABLE
  2
VIEW
  5
6
330
0
100
AcDbSymbolTable
 70
     0
  0
ENDTAB
  0
TABLE
  2
UCS
  5
7
330
0
100
AcDbSymbolTable
 70
     0
  0
ENDTAB
  0
TABLE
  2
APPID
  5
9
330
0
100
AcDbSymbolTable
 70
     2
  0
APPID
  5
12
330
9
100
AcDbSymbolTableRecord
100
AcDbRegAppTableRecord
  2
ACAD
 70
     0
  0
ENDTAB
  0
TABLE
  2
DIMSTYLE
  5
A
330
0
100
AcDbSymbolTable
 70
     1
  0
DIMSTYLE
105
27
330
A
100
AcDbSymbolTableRecord
100
AcDbDimStyleTableRecord
  2
ISO-25
 70
     0
  3

  4

  5

  6

  7

 40
1.0
 41
2.5
 42
0.625
 43
3.75
 44
1.25
 45
0.0
 46
0.0
 47
0.0
 48
0.0
140
2.5
141
2.5
142
0.0
143
0.03937007874016
144
1.0
145
0.0
146
1.0
147
0.625
 71
     0
 72
     0
 73
     0
 74
     0
 75
     0
 76
     0
 77
     1
 78
     8
170
     0
171
     3
172
     1
173
     0
174
     0
175
     0
176
     0
177
     0
178
     0
270
     2
271
     2
272
     2
273
     2
274
     3
340
11
275
     0
280
     0
281
     0
282
     0
283
     0
284
     8
285
     0
286
     0
287
     3
288
     0
  0
ENDTAB
  0
TABLE
  2
BLOCK_RECORD
  5
1
330
0
100
AcDbSymbolTable
 70
     1
  0
BLOCK_RECORD
  5
1F
330
1
100
AcDbSymbolTableRecord
100
AcDbBlockTableRecord
  2
*MODEL_SPACE
  0
BLOCK_RECORD
  5
1B
330
1
100
AcDbSymbolTableRecord
100
AcDbBlockTableRecord
  2
*PAPER_SPACE
  0
ENDTAB
  0
ENDSEC
  0
SECTION
  2
BLOCKS
  0
BLOCK
  5
20
330
1F
100
AcDbEntity
  8
0
100
AcDbBlockBegin
  2
*MODEL_SPACE
 70
     0
 10
0.0
 20
0.0
 30
0.0
  3
*MODEL_SPACE
  1

  0
ENDBLK
  5
21
330
1F
100
AcDbEntity
  8
0
100
AcDbBlockEnd
  0
BLOCK
  5
1C
330
1B
100
AcDbEntity
 67
     1
  8
0
100
AcDbBlockBegin
  2
*PAPER_SPACE
  1

  0
ENDBLK
  5
1D
330
1B
100
AcDbEntity
 67
     1
  8
0
100
AcDbBlockEnd
  0
ENDSEC
  0
SECTION
  2
ENTITIES
  0
LWPOLYLINE
  5
100
100
AcDbEntity
  8
0
 62
7
100
AcDbPolyline
 90
47
 70
0
 10
1703.251054
 20
1865.427820
 30
0.0
 10
1702.939144
 20
1865.787676
 30
0.0
 10
1696.338930
 20
1872.431289
 30
0.0
 10
1689.366966
 20
1877.711882
 30
0.0
 10
1685.666421
 20
1879.908641
 30
0.0
 10
1681.853695
 20
1881.792266
 30
0.0
 10
1673.805606
 20
1884.687525
 30
0.0
 10
1665.370074
 20
1886.452458
 30
0.0
 10
1656.628393
 20
1887.259589
 30
0.0
 10
1647.678402
 20
1887.318439
 30
0.0
 10
1638.622108
 20
1886.849833
 30
0.0
 10
1629.553550
 20
1886.061467
 30
0.0
 10
1620.545814
 20
1885.121793
 30
0.0
 10
1611.640330
 20
1884.136896
 30
0.0
 10
1602.842610
 20
1883.143525
 30
0.0
 10
1594.133056
 20
1882.126981
 30
0.0
 10
1585.478798
 20
1881.043747
 30
0.0
 10
1576.845746
 20
1879.844644
 30
0.0
 10
1568.207784
 20
1878.490565
 30
0.0
 10
1559.547026
 20
1876.955517
 30
0.0
 10
1550.852555
 20
1875.223188
 30
0.0
 10
1542.118963
 20
1873.285495
 30
0.0
 10
1533.344049
 20
1871.139249
 30
0.0
 10
1533.344049
 20
1835.442893
 30
0.0
 10
1542.169842
 20
1836.030425
 30
0.0
 10
1550.915694
 20
1836.939192
 30
0.0
 10
1559.582833
 20
1838.162081
 30
0.0
 10
1568.176027
 20
1839.680206
 30
0.0
 10
1576.703764
 20
1841.457773
 30
0.0
 10
1585.180001
 20
1843.435440
 30
0.0
 10
1593.625830
 20
1845.525407
 30
0.0
 10
1602.070066
 20
1847.604952
 30
0.0
 10
1610.551083
 20
1849.513340
 30
0.0
 10
1619.111546
 20
1851.069362
 30
0.0
 10
1627.787024
 20
1852.116429
 30
0.0
 10
1636.593194
 20
1852.573263
 30
0.0
 10
1645.512781
 20
1852.484372
 30
0.0
 10
1654.484839
 20
1852.064073
 30
0.0
 10
1663.406510
 20
1851.688653
 30
0.0
 10
1672.152361
 20
1851.823641
 30
0.0
 10
1680.595982
 20
1852.941705
 30
0.0
 10
1684.442670
 20
1853.929182
 30
0.0
 10
1688.189686
 20
1855.257517
 30
0.0
 10
1691.563118
 20
1856.809726
 30
0.0
 10
1694.842991
 20
1858.684153
 30
0.0
 10
1701.051849
 20
1863.367027
 30
0.0
 10
1703.251054
 20
1865.427820
 30
0.0
  0
LWPOLYLINE
  5
101
100
AcDbEntity
  8
0
 62
7
100
AcDbPolyline
 90
29
 70
0
 10
1885.980988
 20
1041.328905
 30
0.0
 10
1879.557454
 20
1042.240374
 30
0.0
 10
1873.385870
 20
1043.442539
 30
0.0
 10
1865.547445
 20
1045.496154
 30
0.0
 10
1858.148929
 20
1048.060190
 30
0.0
 10
1851.176597
 20
1051.123547
 30
0.0
 10
1846.212826
 20
1053.737601
 30
0.0
 10
1841.460429
 20
1056.609870
 30
0.0
 10
1832.503572
 20
1063.061113
 30
0.0
 10
1826.028419
 20
1068.532115
 30
0.0
 10
1821.815490
 20
1072.378990
 30
0.0
 10
1813.427538
 20
1080.380242
 30
0.0
 10
1804.782473
 20
1088.531390
 30
0.0
 10
1793.173609
 20
1098.518947
 30
0.0
 10
1780.183446
 20
1108.215740
 30
0.0
 10
1769.210306
 20
1115.599847
 30
0.0
 10
1758.168382
 20
1122.827757
 30
0.0
 10
1752.794118
 20
1126.462703
 30
0.0
 10
1745.134571
 20
1132.048834
 30
0.0
 10
1741.126774
 20
1135.306519
 30
0.0
 10
1737.396074
 20
1138.678721
 30
0.0
 10
1733.988923
 20
1142.189711
 30
0.0
 10
1730.949234
 20
1145.862553
 30
0.0
 10
1727.538043
 20
1151.048849
 30
0.0
 10
1724.936312
 20
1156.606657
 30
0.0
 10
1723.211096
 20
1162.571769
 30
0.0
 10
1722.446640
 20
1168.298524
 30
0.0
 10
1722.444432
 20
1174.383913
 30
0.0
 10
1723.211096
 20
1180.831481
 30
0.0
  0
LWPOLYLINE
  5
102
100
AcDbEntity
  8
0
 62
7
100
AcDbPolyline
 90
26
 70
0
 10
1255.109250
 20
938.640629
 30
0.0
 10
1258.959622
 20
945.582125
 30
0.0
 10
1262.956017
 20
950.842177
 30
0.0
 10
1265.008586
 20
952.846756
 30
0.0
 10
1267.097335
 20
954.440410
 30
0.0
 10
1269.937661
 20
955.939349
 30
0.0
 10
1272.840282
 20
956.747395
 30
0.0
 10
1275.802968
 20
956.902065
 30
0.0
 10
1278.890226
 20
956.437991
 30
0.0
 10
1282.034625
 20
955.414465
 30
0.0
 10
1286.308482
 20
953.325477
 30
0.0
 10
1289.204478
 20
951.574329
 30
0.0
 10
1295.092590
 20
947.541640
 30
0.0
 10
1301.083934
 20
943.309653
 30
0.0
 10
1304.109406
 20
941.306737
 30
0.0
 10
1308.674702
 20
938.640629
 30
0.0
 10
1312.208861
 20
936.978931
 30
0.0
 10
1315.753203
 20
935.748626
 30
0.0
 10
1320.489295
 20
934.893624
 30
0.0
 10
1325.231513
 20
935.049818
 30
0.0
 10
1329.975445
 20
936.310289
 30
0.0
 10
1332.643266
 20
937.529929
 30
0.0
 10
1335.310356
 20
939.127941
 30
0.0
 10
1340.640357
 20
943.482169
 30
0.0
 10
1345.964346
 20
949.403013
 30
0.0
 10
1351.281473
 20
956.902065
 30
0.0
  0
LWPOLYLINE
  5
103
100
AcDbEntity
  8
0
 62
7
100
AcDbPolyline
 90
104
 70
0
 10
1294.065873
 20
799.853783
 30
0.0
 10
1298.425926
 20
808.374583
 30
0.0
 10
1302.572268
 20
815.730678
 30
0.0
 10
1305.867470
 20
820.976814
 30
0.0
 10
1309.014445
 20
825.416929
 30
0.0
 10
1312.303765
 20
829.374395
 30
0.0
 10
1315.415548
 20
832.374360
 30
0.0
 10
1318.917342
 20
834.733579
 30
0.0
 10
1322.169267
 20
835.777338
 30
0.0
 10
1325.176342
 20
835.561239
 30
0.0
 10
1327.945309
 20
834.159285
 30
0.0
 10
1329.663535
 20
832.611671
 30
0.0
 10
1331.282818
 20
830.612492
 30
0.0
 10
1334.239994
 20
825.419749
 30
0.0
 10
1336.229175
 20
820.667290
 30
0.0
 10
1338.041566
 20
815.389824
 30
0.0
 10
1340.166110
 20
808.099271
 30
0.0
 10
1343.823500
 20
793.945689
 30
0.0
 10
1346.000150
 20
786.400285
 30
0.0
 10
1347.061074
 20
783.579631
 30
0.0
 10
1347.858510
 20
781.963912
 30
0.0
 10
1348.665642
 20
780.812439
 30
0.0
 10
1349.297433
 20
780.257336
 30
0.0
 10
1349.942108
 20
779.997895
 30
0.0
 10
1350.602473
 20
780.037317
 30
0.0
 10
1351.281473
 20
780.374979
 30
0.0
 10
1352.339943
 20
781.427874
 30
0.0
 10
1353.455314
 20
783.105514
 30
0.0
 10
1355.888826
 20
788.108273
 30
0.0
 10
1358.638180
 20
794.781317
 30
0.0
 10
1363.443423
 20
806.198051
 30
0.0
 10
1367.292444
 20
813.763006
 30
0.0
 10
1369.376651
 20
817.087578
 30
0.0
 10
1372.428604
 20
820.931020
 30
0.0
 10
1375.667405
 20
823.699131
 30
0.0
 10
1377.463728
 20
824.677231
 30
0.0
 10
1379.304933
 20
825.288985
 30
0.0
 10
1381.103702
 20
825.524700
 30
0.0
 10
1382.935830
 20
825.419749
 30
0.0
 10
1385.893497
 20
824.580496
 30
0.0
 10
1388.903391
 20
822.983409
 30
0.0
 10
1392.958644
 20
819.878063
 30
0.0
 10
1395.663982
 20
817.348663
 30
0.0
 10
1401.002805
 20
811.750705
 30
0.0
 10
1406.142031
 20
806.330778
 30
0.0
 10
1408.603008
 20
804.017784
 30
0.0
 10
1412.130926
 20
801.374791
 30
0.0
 10
1414.637513
 20
800.211059
 30
0.0
 10
1417.022847
 20
799.853783
 30
0.0
 10
1419.636478
 20
800.500777
 30
0.0
 10
1422.115600
 20
802.263574
 30
0.0
 10
1423.709014
 20
804.010859
 30
0.0
 10
1425.268216
 20
806.161765
 30
0.0
 10
1427.316497
 20
809.553580
 30
0.0
 10
1431.435750
 20
817.489114
 30
0.0
 10
1435.819218
 20
825.675446
 30
0.0
 10
1438.193634
 20
829.371640
 30
0.0
 10
1440.078117
 20
831.820232
 30
0.0
 10
1442.062154
 20
833.917136
 30
0.0
 10
1445.240999
 20
836.282599
 30
0.0
 10
1448.675122
 20
837.594077
 30
0.0
 10
1451.101283
 20
837.848736
 30
0.0
 10
1453.636315
 20
837.610813
 30
0.0
 10
1457.173054
 20
836.562458
 30
0.0
 10
1460.865628
 20
834.758465
 30
0.0
 10
1464.682535
 20
832.321333
 30
0.0
 10
1467.420976
 20
830.309590
 30
0.0
 10
1472.968851
 20
825.815951
 30
0.0
 10
1482.311557
 20
818.045141
 30
0.0
 10
1488.226022
 20
813.877589
 30
0.0
 10
1491.026134
 20
812.371161
 30
0.0
 10
1493.490181
 20
811.414032
 30
0.0
 10
1495.833460
 20
810.919432
 30
0.0
 10
1498.405524
 20
810.978344
 30
0.0
 10
1500.788287
 20
811.760888
 30
0.0
 10
1502.975602
 20
813.280669
 30
0.0
 10
1504.487846
 20
814.895713
 30
0.0
 10
1505.892682
 20
816.897841
 30
0.0
 10
1507.620719
 20
820.143692
 30
0.0
 10
1509.182002
 20
823.925529
 30
0.0
 10
1511.047482
 20
829.558673
 30
0.0
 10
1514.323681
 20
841.338638
 30
0.0
 10
1516.466616
 20
848.248866
 30
0.0
 10
1517.599021
 20
851.029670
 30
0.0
 10
1519.441566
 20
854.078491
 30
0.0
 10
1521.206631
 20
855.465125
 30
0.0
 10
1523.176569
 20
855.642481
 30
0.0
 10
1525.370995
 20
854.638078
 30
0.0
 10
1527.266390
 20
853.095790
 30
0.0
 10
1531.457978
 20
848.550912
 30
0.0
 10
1536.029161
 20
843.137289
 30
0.0
 10
1538.456304
 20
840.404792
 30
0.0
 10
1542.250275
 20
836.574656
 30
0.0
 10
1545.870631
 20
833.571992
 30
0.0
 10
1549.613234
 20
831.248762
 30
0.0
 10
1552.993892
 20
829.887386
 30
0.0
 10
1556.453386
 20
829.247493
 30
0.0
 10
1559.986455
 20
829.391621
 30
0.0
 10
1563.589528
 20
830.366904
 30
0.0
 10
1567.260028
 20
832.207002
 30
0.0
 10
1570.995885
 20
834.934714
 30
0.0
 10
1573.840262
 20
837.571575
 30
0.0
 10
1576.720556
 20
840.718979
 30
0.0
 10
1582.588562
 20
848.550912
 30
0.0
  0
SPLINE
  5
104
100
AcDbEntity
  8
0
 62
7
100
AcDbSpline
 70
8
 71
3
 72
8
 73
4
 74
0
 40
0
 40
0
 40
0
 40
0
 40
1
 40
1
 40
1
 40
1
 10
1544.029753
 20
1534.586613
 30
0.0
 10
1571.335940
 20
1542.035894
 30
0.0
 10
1597.687858
 20
1552.621575
 30
0.0
 10
1622.559169
 20
1566.132225
 30
0.0
  0
LWPOLYLINE
  5
105
100
AcDbEntity
  8
0
 62
7
100
AcDbPolyline
 90
296
 70
0
 10
1369.544378
 20
679.328481
 30
0.0
 10
1372.553662
 20
671.695299
 30
0.0
 10
1375.589182
 20
664.913744
 30
0.0
 10
1378.240942
 20
659.724553
 30
0.0
 10
1380.912313
 20
655.172632
 30
0.0
 10
1384.782548
 20
649.744478
 30
0.0
 10
1388.692258
 20
645.608551
 30
0.0
 10
1392.640594
 20
642.739845
 30
0.0
 10
1396.626327
 20
641.101070
 30
0.0
 10
1400.647487
 20
640.640369
 30
0.0
 10
1404.701388
 20
641.288900
 30
0.0
 10
1407.373382
 20
642.273505
 30
0.0
 10
1410.056895
 20
643.666753
 30
0.0
 10
1413.532942
 20
646.011011
 30
0.0
 10
1417.022847
 20
648.892724
 30
0.0
 10
1421.318160
 20
653.016265
 30
0.0
 10
1429.922647
 20
662.378890
 30
0.0
 10
1435.639230
 20
668.677924
 30
0.0
 10
1438.482620
 20
671.626083
 30
0.0
 10
1442.720551
 20
675.600109
 30
0.0
 10
1446.004114
 20
678.208709
 30
0.0
 10
1449.257266
 20
680.280590
 30
0.0
 10
1452.216523
 20
681.646136
 30
0.0
 10
1455.142674
 20
682.447865
 30
0.0
 10
1459.154401
 20
682.570105
 30
0.0
 10
1463.087647
 20
681.514824
 30
0.0
 10
1466.936059
 20
679.328481
 30
0.0
 10
1469.712025
 20
677.068883
 30
0.0
 10
1472.437715
 20
674.348833
 30
0.0
 10
1475.992848
 20
670.191083
 30
0.0
 10
1482.838892
 20
661.196461
 30
0.0
 10
1487.230330
 20
655.742327
 30
0.0
 10
1489.386138
 20
653.455261
 30
0.0
 10
1492.587057
 20
650.793572
 30
0.0
 10
1494.976190
 20
649.508213
 30
0.0
 10
1497.370966
 20
648.892724
 30
0.0
 10
1499.683470
 20
648.947773
 30
0.0
 10
1502.033242
 20
649.616295
 30
0.0
 10
1505.255618
 20
651.380063
 30
0.0
 10
1507.481436
 20
653.033310
 30
0.0
 10
1512.178784
 20
657.187622
 30
0.0
 10
1517.286620
 20
661.956449
 30
0.0
 10
1520.020522
 20
664.366918
 30
0.0
 10
1524.366720
 20
667.790121
 30
0.0
 10
1527.826459
 20
670.076564
 30
0.0
 10
1531.457978
 20
672.023829
 30
0.0
 10
1534.691015
 20
673.366680
 30
0.0
 10
1538.037836
 20
674.383473
 30
0.0
 10
1541.399378
 20
675.044322
 30
0.0
 10
1544.847225
 20
675.373654
 30
0.0
 10
1548.413513
 20
675.372915
 30
0.0
 10
1552.036814
 20
675.047945
 30
0.0
 10
1556.419062
 20
674.262519
 30
0.0
 10
1560.822024
 20
673.090574
 30
0.0
 10
1567.421626
 20
670.727064
 30
0.0
 10
1573.854724
 20
667.869693
 30
0.0
 10
1585.700345
 20
661.818388
 30
0.0
 10
1592.081705
 20
658.665473
 30
0.0
 10
1594.892367
 20
657.494206
 30
0.0
 10
1597.499495
 20
656.658139
 30
0.0
 10
1599.792746
 20
656.259851
 30
0.0
 10
1602.345929
 20
656.494279
 30
0.0
 10
1604.316356
 20
657.678177
 30
0.0
 10
1605.719114
 20
659.849559
 30
0.0
 10
1606.619790
 20
663.143901
 30
0.0
 10
1607.022674
 20
667.406968
 30
0.0
 10
1606.985770
 20
673.766079
 30
0.0
 10
1606.738838
 20
678.518410
 30
0.0
 10
1606.049297
 20
688.669900
 30
0.0
 10
1605.617104
 20
698.736107
 30
0.0
 10
1605.684169
 20
703.379942
 30
0.0
 10
1606.323322
 20
709.487090
 30
0.0
 10
1607.490057
 20
713.617617
 30
0.0
 10
1608.314474
 20
715.255409
 30
0.0
 10
1609.307592
 20
716.585706
 30
0.0
 10
1610.471630
 20
717.597765
 30
0.0
 10
1611.806094
 20
718.286150
 30
0.0
 10
1613.993658
 20
718.710001
 30
0.0
 10
1616.493631
 20
718.500651
 30
0.0
 10
1620.248607
 20
717.316999
 30
0.0
 10
1624.381962
 20
715.246339
 30
0.0
 10
1628.765671
 20
712.487296
 30
0.0
 10
1631.821062
 20
710.332041
 30
0.0
 10
1637.934769
 20
705.671535
 30
0.0
 10
1645.002363
 20
700.104047
 30
0.0
 10
1648.327975
 20
697.589788
 30
0.0
 10
1653.049106
 20
694.365327
 30
0.0
 10
1657.553834
 20
691.903001
 30
0.0
 10
1661.984997
 20
690.231489
 30
0.0
 10
1666.654512
 20
689.236104
 30
0.0
 10
1674.246626
 20
688.712386
 30
0.0
 10
1680.190274
 20
688.735985
 30
0.0
 10
1694.588947
 20
689.067822
 30
0.0
 10
1719.074318
 20
689.364899
 30
0.0
 10
1730.738350
 20
689.665845
 30
0.0
 10
1735.810138
 20
689.982968
 30
0.0
 10
1740.143707
 20
690.469106
 30
0.0
 10
1743.587263
 20
691.164901
 30
0.0
 10
1745.510000
 20
691.845741
 30
0.0
 10
1746.822393
 20
692.676099
 30
0.0
 10
1747.486922
 20
693.627052
 30
0.0
 10
1747.550801
 20
694.728615
 30
0.0
 10
1746.960695
 20
696.076379
 30
0.0
 10
1745.719534
 20
697.589788
 30
0.0
 10
1741.671400
 20
700.952363
 30
0.0
 10
1738.058397
 20
703.424134
 30
0.0
 10
1729.868819
 20
708.587209
 30
0.0
 10
1722.450932
 20
713.482625
 30
0.0
 10
1719.774400
 20
715.627465
 30
0.0
 10
1718.113564
 20
717.482211
 30
0.0
 10
1717.719500
 20
718.286150
 30
0.0
 10
1717.668003
 20
719.180019
 30
0.0
 10
1718.130484
 20
719.930438
 30
0.0
 10
1719.107662
 20
720.538268
 30
0.0
 10
1720.586803
 20
721.008040
 30
0.0
 10
1723.297408
 20
721.433729
 30
0.0
 10
1726.772360
 20
721.654980
 30
0.0
 10
1732.397477
 20
721.692374
 30
0.0
 10
1745.773855
 20
721.268700
 30
0.0
 10
1759.400102
 20
720.953478
 30
0.0
 10
1765.325358
 20
721.128929
 30
0.0
 10
1769.090026
 20
721.492773
 30
0.0
 10
1772.135725
 20
722.096609
 30
0.0
 10
1774.028171
 20
722.791301
 30
0.0
 10
1775.334073
 20
723.678494
 30
0.0
 10
1775.955442
 20
724.565319
 30
0.0
 10
1776.154434
 20
725.590684
 30
0.0
 10
1775.787965
 20
727.136893
 30
0.0
 10
1774.747270
 20
728.907097
 30
0.0
 10
1773.093901
 20
730.884084
 30
0.0
 10
1769.194859
 20
734.585185
 30
0.0
 10
1766.013188
 20
737.267958
 30
0.0
 10
1759.010578
 20
742.930600
 30
0.0
 10
1752.353345
 20
748.636631
 30
0.0
 10
1749.592341
 20
751.374953
 30
0.0
 10
1746.594215
 20
755.205588
 30
0.0
 10
1745.792118
 20
756.784774
 30
0.0
 10
1745.367287
 20
758.264100
 30
0.0
 10
1745.339332
 20
759.636255
 30
0.0
 10
1745.719534
 20
760.896113
 30
0.0
 10
1746.524086
 20
762.057145
 30
0.0
 10
1747.741822
 20
763.100229
 30
0.0
 10
1751.333862
 20
764.845985
 30
0.0
 10
1754.482671
 20
765.778417
 30
0.0
 10
1758.118975
 20
766.551144
 30
0.0
 10
1763.518978
 20
767.380773
 30
0.0
 10
1775.007198
 20
768.638358
 30
0.0
 10
1783.915747
 20
769.698363
 30
0.0
 10
1787.518326
 20
770.354005
 30
0.0
 10
1789.711042
 20
770.935722
 30
0.0
 10
1791.405972
 20
771.610737
 30
0.0
 10
1792.929742
 20
772.821425
 30
0.0
 10
1793.173609
 20
774.287813
 30
0.0
 10
1792.621502
 20
775.422057
 30
0.0
 10
1791.526986
 20
776.666279
 30
0.0
 10
1789.315509
 20
778.476089
 30
0.0
 10
1782.982576
 20
782.461885
 30
0.0
 10
1772.051374
 20
788.589261
 30
0.0
 10
1767.632590
 20
791.331752
 30
0.0
 10
1764.749838
 20
793.695438
 30
0.0
 10
1764.050482
 20
794.689365
 30
0.0
 10
1763.882515
 20
795.484899
 30
0.0
 10
1764.182654
 20
796.165560
 30
0.0
 10
1764.954839
 20
796.731514
 30
0.0
 10
1766.934706
 20
797.360681
 30
0.0
 10
1769.879254
 20
797.762279
 30
0.0
 10
1773.713191
 20
797.958385
 30
0.0
 10
1782.743250
 20
797.880960
 30
0.0
 10
1789.841250
 20
797.604911
 30
0.0
 10
1805.322189
 20
796.854677
 30
0.0
 10
1820.429906
 20
796.373320
 30
0.0
 10
1827.076467
 20
796.425605
 30
0.0
 10
1835.150428
 20
797.055814
 30
0.0
 10
1838.355880
 20
797.728380
 30
0.0
 10
1840.620444
 20
798.657925
 30
0.0
 10
1841.893727
 20
799.853783
 30
0.0
 10
1842.177563
 20
800.737350
 30
0.0
 10
1842.070527
 20
801.723240
 30
0.0
 10
1841.329607
 20
803.200604
 30
0.0
 10
1839.938253
 20
804.843916
 30
0.0
 10
1837.569110
 20
806.943750
 30
0.0
 10
1834.490554
 20
809.216657
 30
0.0
 10
1829.493309
 20
812.455515
 30
0.0
 10
1817.700905
 20
819.296963
 30
0.0
 10
1805.937069
 20
825.976327
 30
0.0
 10
1800.960055
 20
829.029257
 30
0.0
 10
1797.883948
 20
831.132717
 30
0.0
 10
1795.493713
 20
833.051277
 30
0.0
 10
1793.876150
 20
834.770049
 30
0.0
 10
1793.092317
 20
836.283098
 30
0.0
 10
1793.173609
 20
837.594077
 30
0.0
 10
1793.762734
 20
838.416464
 30
0.0
 10
1794.782098
 20
839.151686
 30
0.0
 10
1796.771650
 20
840.017415
 30
0.0
 10
1802.615502
 20
841.493676
 30
0.0
 10
1811.278350
 20
843.112644
 30
0.0
 10
1820.783874
 20
845.203417
 30
0.0
 10
1825.885695
 20
846.756117
 30
0.0
 10
1830.563302
 20
848.679891
 30
0.0
 10
1834.620273
 20
851.026176
 30
0.0
 10
1837.907626
 20
853.822489
 30
0.0
 10
1840.336727
 20
857.067542
 30
0.0
 10
1841.893727
 20
860.725669
 30
0.0
 10
1842.628025
 20
864.489107
 30
0.0
 10
1842.786672
 20
867.119227
 30
0.0
 10
1842.563038
 20
872.512005
 30
0.0
 10
1841.885997
 20
880.341545
 30
0.0
 10
1841.893727
 20
883.856767
 30
0.0
 10
1842.198157
 20
886.148305
 30
0.0
 10
1842.816104
 20
888.192666
 30
0.0
 10
1844.192498
 20
890.496955
 30
0.0
 10
1846.246050
 20
892.292057
 30
0.0
 10
1848.989154
 20
893.568458
 30
0.0
 10
1852.764491
 20
894.384845
 30
0.0
 10
1857.267499
 20
894.626136
 30
0.0
 10
1862.656228
 20
894.324580
 30
0.0
 10
1868.557090
 20
893.541614
 30
0.0
 10
1876.681199
 20
891.976096
 30
0.0
 10
1882.162865
 20
890.705937
 30
0.0
 10
1892.627671
 20
887.988217
 30
0.0
 10
1905.004678
 20
884.665182
 30
0.0
 10
1908.855411
 20
883.856767
 30
0.0
 10
1910.529870
 20
883.773641
 30
0.0
 10
1910.831848
 20
883.859162
 30
0.0
 10
1910.934346
 20
883.923957
 30
0.0
 10
1911.049472
 20
884.150719
 30
0.0
 10
1910.996756
 20
884.399609
 30
0.0
 10
1910.679443
 20
884.886305
 30
0.0
 10
1909.211465
 20
886.266811
 30
0.0
 10
1906.698991
 20
888.178629
 30
0.0
 10
1899.003521
 20
893.468228
 30
0.0
 10
1883.141521
 20
904.258687
 30
0.0
 10
1874.617716
 20
910.426093
 30
0.0
 10
1867.509779
 20
915.980162
 30
0.0
 10
1861.201003
 20
921.472861
 30
0.0
 10
1856.534428
 20
926.212141
 30
0.0
 10
1853.063770
 20
930.650105
 30
0.0
 10
1851.664694
 20
933.068109
 30
0.0
 10
1850.767090
 20
935.334822
 30
0.0
 10
1850.421824
 20
937.043365
 30
0.0
 10
1850.420472
 20
938.640629
 30
0.0
 10
1850.752865
 20
940.091267
 30
0.0
 10
1851.412615
 20
941.430937
 30
0.0
 10
1852.392991
 20
942.659467
 30
0.0
 10
1853.683920
 20
943.778202
 30
0.0
 10
1857.141088
 20
945.697382
 30
0.0
 10
1860.782536
 20
946.980284
 30
0.0
 10
1865.034329
 20
948.021832
 30
0.0
 10
1871.452596
 20
949.092630
 30
0.0
 10
1876.072082
 20
949.645403
 30
0.0
 10
1885.696662
 20
950.498881
 30
0.0
 10
1898.805387
 20
951.547422
 30
0.0
 10
1904.587682
 20
952.199878
 30
0.0
 10
1908.388644
 20
952.812788
 30
0.0
 10
1911.633335
 20
953.565545
 30
0.0
 10
1914.248560
 20
954.484549
 30
0.0
 10
1916.176439
 20
955.591393
 30
0.0
 10
1917.377135
 20
956.902065
 30
0.0
 10
1917.787379
 20
958.021844
 30
0.0
 10
1917.778921
 20
959.262568
 30
0.0
 10
1917.253545
 20
960.851934
 30
0.0
 10
1916.193971
 20
962.598597
 30
0.0
 10
1914.180998
 20
964.974305
 30
0.0
 10
1911.467809
 20
967.559984
 30
0.0
 10
1906.926177
 20
971.287254
 30
0.0
 10
1895.702797
 20
979.401433
 30
0.0
 10
1883.694722
 20
987.778105
 30
0.0
 10
1878.199694
 20
991.821401
 30
0.0
 10
1871.440084
 20
997.444743
 30
0.0
 10
1868.964886
 20
999.983705
 30
0.0
 10
1867.211722
 20
1002.303253
 30
0.0
 10
1866.246548
 20
1004.382133
 30
0.0
 10
1866.166242
 20
1006.461371
 30
0.0
 10
1867.213922
 20
1008.192036
 30
0.0
 10
1869.373661
 20
1009.576588
 30
0.0
 10
1872.595670
 20
1010.629783
 30
0.0
 10
1876.791427
 20
1011.373708
 30
0.0
 10
1883.683449
 20
1011.941260
 30
0.0
 10
1888.955578
 20
1012.094637
 30
0.0
 10
1900.598887
 20
1012.013351
 30
0.0
 10
1914.352285
 20
1011.620823
 30
0.0
 10
1927.277952
 20
1011.352189
 30
0.0
 10
1934.668613
 20
1011.469705
 30
0.0
 10
1937.824662
 20
1011.666376
 30
0.0
 10
1942.736573
 20
1012.392457
 30
0.0
 10
1944.464482
 20
1012.949465
 30
0.0
 10
1945.449142
 20
1013.488569
 30
0.0
 10
1946.086214
 20
1014.121593
 30
0.0
 10
1946.361589
 20
1014.850741
 30
0.0
 10
1946.265585
 20
1015.680793
 30
0.0
 10
1945.788276
 20
1016.614630
 30
0.0
 10
1944.921926
 20
1017.654653
 30
0.0
 10
1942.278880
 20
1019.859877
 30
0.0
 10
1938.259791
 20
1022.441505
 30
0.0
 10
1931.813572
 20
1025.934044
 30
0.0
 10
1923.464114
 20
1029.947732
 30
0.0
  0
SPLINE
  5
106
100
AcDbEntity
  8
0
 62
7
100
AcDbSpline
 70
8
 71
3
 72
8
 73
4
 74
0
 40
0
 40
0
 40
0
 40
0
 40
1
 40
1
 40
1
 40
1
 10
1852.439261
 20
1614.782115
 30
0.0
 10
1833.194242
 20
1606.788589
 30
0.0
 10
1815.724350
 20
1595.060022
 30
0.0
 10
1801.039329
 20
1580.274303
 30
0.0
  0
LWPOLYLINE
  5
107
100
AcDbEntity
  8
0
 62
7
100
AcDbPolyline
 90
64
 70
0
 10
1214.935251
 20
1029.947732
 30
0.0
 10
1218.444897
 20
1026.188575
 30
0.0
 10
1221.498558
 20
1022.449042
 30
0.0
 10
1224.862180
 20
1017.493481
 30
0.0
 10
1227.422474
 20
1012.572749
 30
0.0
 10
1229.192680
 20
1007.686647
 30
0.0
 10
1230.195611
 20
1002.835063
 30
0.0
 10
1230.466697
 20
998.017685
 30
0.0
 10
1230.057312
 20
993.234025
 30
0.0
 10
1229.344475
 20
989.667978
 30
0.0
 10
1228.324621
 20
986.120325
 30
0.0
 10
1226.462459
 20
981.174209
 30
0.0
 10
1225.005386
 20
977.895681
 30
0.0
 10
1221.791714
 20
971.381724
 30
0.0
 10
1216.984269
 20
961.705959
 30
0.0
 10
1214.935251
 20
956.902065
 30
0.0
 10
1213.554319
 20
952.963291
 30
0.0
 10
1212.503329
 20
949.030404
 30
0.0
 10
1211.816727
 20
945.098445
 30
0.0
 10
1211.513638
 20
941.162054
 30
0.0
 10
1211.584138
 20
937.443614
 30
0.0
 10
1211.994507
 20
933.711193
 30
0.0
 10
1213.770234
 20
926.184245
 30
0.0
 10
1215.830656
 20
920.478333
 30
0.0
 10
1217.489292
 20
916.630781
 30
0.0
 10
1221.310480
 20
908.812701
 30
0.0
 10
1226.046574
 20
899.795214
 30
0.0
 10
1230.758631
 20
890.522461
 30
0.0
 10
1234.559715
 20
882.047205
 30
0.0
 10
1237.714775
 20
873.390673
 30
0.0
 10
1240.181034
 20
864.052747
 30
0.0
 10
1241.717913
 20
854.638078
 30
0.0
 10
1242.646668
 20
842.887845
 30
0.0
 10
1243.272580
 20
831.492261
 30
0.0
 10
1244.329582
 20
822.585183
 30
0.0
 10
1245.235158
 20
818.333269
 30
0.0
 10
1246.367072
 20
814.508955
 30
0.0
 10
1247.805020
 20
810.810675
 30
0.0
 10
1249.724812
 20
806.927261
 30
0.0
 10
1252.001880
 20
803.171115
 30
0.0
 10
1255.524888
 20
798.320934
 30
0.0
 10
1258.119998
 20
795.157359
 30
0.0
 10
1263.666280
 20
788.894799
 30
0.0
 10
1269.301578
 20
782.560888
 30
0.0
 10
1272.010958
 20
779.312339
 30
0.0
 10
1275.802968
 20
774.287813
 30
0.0
 10
1278.530989
 20
770.113817
 30
0.0
 10
1280.948808
 20
765.792757
 30
0.0
 10
1283.046877
 20
761.326407
 30
0.0
 10
1284.837315
 20
756.725859
 30
0.0
 10
1287.630318
 20
747.202793
 30
0.0
 10
1289.730835
 20
737.439061
 30
0.0
 10
1292.400615
 20
724.517869
 30
0.0
 10
1294.065873
 20
718.286150
 30
0.0
 10
1295.505527
 20
713.995673
 30
0.0
 10
1297.208302
 20
709.855152
 30
0.0
 10
1299.953004
 20
704.598474
 30
0.0
 10
1303.304604
 20
699.674493
 30
0.0
 10
1307.315713
 20
695.108336
 30
0.0
 10
1312.661775
 20
690.420671
 30
0.0
 10
1318.921634
 20
686.223573
 30
0.0
 10
1326.112084
 20
682.525109
 30
0.0
 10
1334.239994
 20
679.328481
 30
0.0
 10
1325.811938
 20
629.355495
 30
0.0
  0
LWPOLYLINE
  5
108
100
AcDbEntity
  8
0
 62
7
100
AcDbPolyline
 90
97
 70
0
 10
1622.559169
 20
1566.132225
 30
0.0
 10
1622.559634
 20
1566.132480
 30
0.0
 10
1621.269202
 20
1578.327749
 30
0.0
 10
1620.841782
 20
1590.508814
 30
0.0
 10
1621.274842
 20
1602.667573
 30
0.0
 10
1622.559770
 20
1614.785377
 30
0.0
 10
1624.610750
 20
1626.492569
 30
0.0
 10
1627.429255
 20
1638.079118
 30
0.0
 10
1630.985119
 20
1649.484326
 30
0.0
 10
1635.241816
 20
1660.643957
 30
0.0
 10
1638.448254
 20
1667.917289
 30
0.0
 10
1641.934225
 20
1675.039938
 30
0.0
 10
1649.688185
 20
1688.793945
 30
0.0
 10
1658.528201
 20
1702.076150
 30
0.0
 10
1668.219355
 20
1714.737971
 30
0.0
 10
1678.639405
 20
1726.904455
 30
0.0
 10
1686.861110
 20
1735.780266
 30
0.0
 10
1695.378297
 20
1744.480259
 30
0.0
 10
1704.467571
 20
1753.308014
 30
0.0
 10
1713.781222
 20
1761.897047
 30
0.0
 10
1723.132752
 20
1770.031329
 30
0.0
 10
1732.658389
 20
1777.747275
 30
0.0
 10
1742.453150
 20
1784.992042
 30
0.0
 10
1752.490789
 20
1791.599369
 30
0.0
 10
1761.458066
 20
1796.750609
 30
0.0
 10
1770.761534
 20
1801.339078
 30
0.0
 10
1780.485794
 20
1805.363549
 30
0.0
 10
1788.091889
 20
1808.025849
 30
0.0
 10
1795.973842
 20
1810.405423
 30
0.0
 10
1812.459058
 20
1814.445105
 30
0.0
 10
1831.941292
 20
1818.320479
 30
0.0
 10
1866.713321
 20
1825.867845
 30
0.0
 10
1875.889522
 20
1828.210136
 30
0.0
 10
1880.413991
 20
1829.248750
 30
0.0
 10
1887.419052
 20
1830.490764
 30
0.0
 10
1893.040617
 20
1831.070086
 30
0.0
 10
1899.131771
 20
1831.258046
 30
0.0
 10
1907.589734
 20
1830.832716
 30
0.0
 10
1917.018998
 20
1829.575006
 30
0.0
 10
1927.308725
 20
1827.435631
 30
0.0
 10
1938.106778
 20
1824.439955
 30
0.0
 10
1945.177937
 20
1822.059521
 30
0.0
 10
1951.940358
 20
1819.416717
 30
0.0
 10
1956.927181
 20
1817.163556
 30
0.0
 10
1961.372078
 20
1814.830209
 30
0.0
 10
1966.692518
 20
1811.271892
 30
0.0
 10
1968.619419
 20
1809.505726
 30
0.0
 10
1969.992621
 20
1807.770586
 30
0.0
 10
1970.775476
 20
1806.081046
 30
0.0
 10
1970.943693
 20
1804.450125
 30
0.0
 10
1970.588985
 20
1803.102905
 30
0.0
 10
1969.774997
 20
1801.811605
 30
0.0
 10
1968.308969
 20
1800.418292
 30
0.0
 10
1966.291954
 20
1799.103937
 30
0.0
 10
1962.114100
 20
1797.205722
 30
0.0
 10
1956.850430
 20
1795.498291
 30
0.0
 10
1951.128698
 20
1794.063047
 30
0.0
 10
1938.106778
 20
1791.599369
 30
0.0
 10
1921.019930
 20
1789.158985
 30
0.0
 10
1904.404019
 20
1787.125417
 30
0.0
 10
1889.458022
 20
1785.302974
 30
0.0
 10
1871.307422
 20
1782.618480
 30
0.0
 10
1863.583146
 20
1781.048736
 30
0.0
 10
1857.133616
 20
1779.333211
 30
0.0
 10
1850.776038
 20
1777.085068
 30
0.0
 10
1846.968706
 20
1775.415649
 30
0.0
 10
1839.584778
 20
1771.609417
 30
0.0
 10
1821.512654
 20
1761.601929
 30
0.0
 10
1796.765150
 20
1748.304397
 30
0.0
 10
1780.794522
 20
1739.427474
 30
0.0
 10
1772.566937
 20
1734.596124
 30
0.0
 10
1760.282875
 20
1726.869629
 30
0.0
 10
1749.640779
 20
1719.469035
 30
0.0
 10
1739.637825
 20
1711.639550
 30
0.0
 10
1729.352026
 20
1702.280174
 30
0.0
 10
1724.689134
 20
1697.416328
 30
0.0
 10
1720.367087
 20
1692.436734
 30
0.0
 10
1715.146452
 20
1685.625636
 30
0.0
 10
1710.546704
 20
1678.630136
 30
0.0
 10
1706.555707
 20
1671.462734
 30
0.0
 10
1703.948448
 20
1665.981677
 30
0.0
 10
1701.658389
 20
1660.415661
 30
0.0
 10
1697.971822
 20
1649.047354
 30
0.0
 10
1695.378297
 20
1637.391294
 30
0.0
 10
1694.335278
 20
1630.531392
 30
0.0
 10
1693.606498
 20
1623.587749
 30
0.0
 10
1693.048138
 20
1609.459793
 30
0.0
 10
1693.646096
 20
1595.021273
 30
0.0
 10
1695.378297
 20
1580.277206
 30
0.0
 10
1742.496177
 20
1588.844296
 30
0.0
 10
1752.131670
 20
1589.677537
 30
0.0
 10
1761.650445
 20
1589.677537
 30
0.0
 10
1771.052482
 20
1588.844296
 30
0.0
 10
1781.186378
 20
1586.982376
 30
0.0
 10
1791.181108
 20
1584.126595
 30
0.0
 10
1801.036556
 20
1580.277206
 30
0.0
 10
1801.039329
 20
1580.274303
 30
0.0
  0
LWPOLYLINE
  5
109
100
AcDbEntity
  8
0
 62
7
100
AcDbPolyline
 90
616
 70
0
 10
1852.439261
 20
1614.782115
 30
0.0
 10
1852.437858
 20
1614.785377
 30
0.0
 10
1866.230493
 20
1623.209139
 30
0.0
 10
1880.217329
 20
1630.531879
 30
0.0
 10
1894.398378
 20
1636.753853
 30
0.0
 10
1908.773637
 20
1641.874808
 30
0.0
 10
1923.343104
 20
1645.894868
 30
0.0
 10
1938.106778
 20
1648.814037
 30
0.0
 10
1953.393262
 20
1650.659647
 30
0.0
 10
1968.882531
 20
1651.355819
 30
0.0
 10
1984.574594
 20
1650.902536
 30
0.0
 10
2000.469455
 20
1649.299685
 30
0.0
 10
2016.567105
 20
1646.547384
 30
0.0
 10
1964.596779
 20
1625.462053
 30
0.0
 10
1938.106778
 20
1614.785377
 30
0.0
 10
1922.982877
 20
1608.368094
 30
0.0
 10
1915.501362
 20
1605.011094
 30
0.0
 10
1904.443617
 20
1599.718369
 30
0.0
 10
1895.018037
 20
1594.792364
 30
0.0
 10
1885.843429
 20
1589.520844
 30
0.0
 10
1873.836950
 20
1581.720055
 30
0.0
 10
1862.432592
 20
1573.137762
 30
0.0
 10
1853.305189
 20
1565.308037
 30
0.0
 10
1844.578710
 20
1556.973905
 30
0.0
 10
1833.466660
 20
1545.214601
 30
0.0
 10
1826.318746
 20
1537.064873
 30
0.0
 10
1812.459058
 20
1520.307340
 30
0.0
 10
1802.509197
 20
1507.687095
 30
0.0
 10
1792.863040
 20
1494.910763
 30
0.0
 10
1783.657165
 20
1481.914718
 30
0.0
 10
1777.146083
 20
1471.957872
 30
0.0
 10
1771.052482
 20
1461.765368
 30
0.0
 10
1764.026818
 20
1448.463302
 30
0.0
 10
1757.830598
 20
1434.667357
 30
0.0
 10
1752.490789
 20
1420.357578
 30
0.0
 10
1776.707524
 20
1413.626901
 30
0.0
 10
1801.036556
 20
1407.506817
 30
0.0
 10
1817.274966
 20
1403.831044
 30
0.0
 10
1833.611332
 20
1400.544913
 30
0.0
 10
1847.971508
 20
1398.078782
 30
0.0
 10
1862.432592
 20
1396.083954
 30
0.0
 10
1878.853193
 20
1394.539464
 30
0.0
 10
1895.329457
 20
1393.917233
 30
0.0
 10
1911.779359
 20
1394.389519
 30
0.0
 10
1919.966242
 20
1395.078812
 30
0.0
 10
1928.113767
 20
1396.083954
 30
0.0
 10
1941.152108
 20
1398.376593
 30
0.0
 10
1954.035966
 20
1401.472681
 30
0.0
 10
1966.747566
 20
1405.310791
 30
0.0
 10
1976.162607
 20
1408.624637
 30
0.0
 10
1985.474169
 20
1412.265342
 30
0.0
 10
2003.787830
 20
1420.357578
 30
0.0
 10
2015.921458
 20
1426.306867
 30
0.0
 10
2027.872635
 20
1432.564758
 30
0.0
 10
2040.597720
 20
1439.627457
 30
0.0
 10
2053.112650
 20
1446.959021
 30
0.0
 10
2076.606366
 20
1461.765368
 30
0.0
 10
2070.559842
 20
1449.477136
 30
0.0
 10
2063.669539
 20
1437.905670
 30
0.0
 10
2055.941705
 20
1427.051588
 30
0.0
 10
2047.393003
 20
1416.917202
 30
0.0
 10
2038.055448
 20
1407.506817
 30
0.0
 10
2028.046493
 20
1398.879405
 30
0.0
 10
2017.383426
 20
1390.983843
 30
0.0
 10
2006.154283
 20
1383.832137
 30
0.0
 10
1994.453218
 20
1377.436924
 30
0.0
 10
1982.370597
 20
1371.810458
 30
0.0
 10
1967.813150
 20
1366.204096
 30
0.0
 10
1952.924658
 20
1361.681713
 30
0.0
 10
1937.759681
 20
1358.250783
 30
0.0
 10
1922.346666
 20
1355.915103
 30
0.0
 10
1906.696539
 20
1354.676157
 30
0.0
 10
1921.934217
 20
1352.535919
 30
0.0
 10
1937.134993
 20
1351.461875
 30
0.0
 10
1952.291265
 20
1351.456353
 30
0.0
 10
1967.382669
 20
1352.524388
 30
0.0
 10
1982.370597
 20
1354.676157
 30
0.0
 10
1995.367873
 20
1357.464994
 30
0.0
 10
2008.178779
 20
1361.111590
 30
0.0
 10
2020.737115
 20
1365.623549
 30
0.0
 10
2032.979981
 20
1370.992048
 30
0.0
 10
2040.348458
 20
1374.714417
 30
0.0
 10
2047.570665
 20
1378.734233
 30
0.0
 10
2055.781086
 20
1383.753546
 30
0.0
 10
2063.795822
 20
1389.099728
 30
0.0
 10
2074.036142
 20
1396.497631
 30
0.0
 10
2080.727331
 20
1401.595781
 30
0.0
 10
2093.914642
 20
1411.919099
 30
0.0
 10
2107.067630
 20
1421.998552
 30
0.0
 10
2113.717374
 20
1426.805019
 30
0.0
 10
2123.870882
 20
1433.600915
 30
0.0
 10
2135.819979
 20
1440.665575
 30
0.0
 10
2148.208257
 20
1446.982075
 30
0.0
 10
2161.050310
 20
1452.651696
 30
0.0
 10
2176.782715
 20
1458.760505
 30
0.0
 10
2187.547172
 20
1462.631468
 30
0.0
 10
2209.533678
 20
1470.314557
 30
0.0
 10
2252.387999
 20
1486.081539
 30
0.0
 10
2293.372794
 20
1501.981914
 30
0.0
 10
2318.917862
 20
1511.752269
 30
0.0
 10
2331.218347
 20
1516.596013
 30
0.0
 10
2344.186809
 20
1522.188145
 30
0.0
 10
2350.655833
 20
1525.313169
 30
0.0
 10
2360.418106
 20
1530.614973
 30
0.0
 10
2370.996692
 20
1537.263005
 30
0.0
 10
2378.183953
 20
1542.304389
 30
0.0
 10
2392.938071
 20
1553.628923
 30
0.0
 10
2403.035300
 20
1561.626255
 30
0.0
 10
2408.140194
 20
1565.542956
 30
0.0
 10
2415.834564
 20
1571.046443
 30
0.0
 10
2421.608896
 20
1574.693283
 30
0.0
 10
2427.361883
 20
1577.756639
 30
0.0
 10
2433.976571
 20
1580.378238
 30
0.0
 10
2437.251911
 20
1581.248990
 30
0.0
 10
2440.501013
 20
1581.792149
 30
0.0
 10
2444.786153
 20
1581.968217
 30
0.0
 10
2449.011705
 20
1581.475448
 30
0.0
 10
2453.171536
 20
1580.277206
 30
0.0
 10
2456.003775
 20
1579.024401
 30
0.0
 10
2458.802174
 20
1577.418242
 30
0.0
 10
2464.296471
 20
1573.137762
 30
0.0
 10
2462.590256
 20
1564.670965
 30
0.0
 10
2460.161645
 20
1556.577879
 30
0.0
 10
2457.017005
 20
1548.859357
 30
0.0
 10
2453.171536
 20
1541.516510
 30
0.0
 10
2448.687773
 20
1534.597515
 30
0.0
 10
2443.588030
 20
1528.055660
 30
0.0
 10
2437.932628
 20
1521.894866
 30
0.0
 10
2433.368191
 20
1517.526360
 30
0.0
 10
2428.561967
 20
1513.374001
 30
0.0
 10
2418.354391
 20
1505.714085
 30
0.0
 10
2407.559031
 20
1498.889506
 30
0.0
 10
2396.580497
 20
1492.938865
 30
0.0
 10
2385.381022
 20
1487.645272
 30
0.0
 10
2370.255653
 20
1481.392043
 30
0.0
 10
2360.100795
 20
1477.578818
 30
0.0
 10
2339.696182
 20
1470.314557
 30
0.0
 10
2317.279085
 20
1462.080719
 30
0.0
 10
2306.147534
 20
1457.610197
 30
0.0
 10
2289.633750
 20
1450.342505
 30
0.0
 10
2267.542304
 20
1439.704080
 30
0.0
 10
2247.930224
 20
1430.395217
 30
0.0
 10
2238.008082
 20
1426.111795
 30
0.0
 10
2222.883692
 20
1420.357578
 30
0.0
 10
2206.576131
 20
1415.066074
 30
0.0
 10
2190.112126
 20
1410.066130
 30
0.0
 10
2178.898676
 20
1406.392807
 30
0.0
 10
2173.349452
 20
1404.378360
 30
0.0
 10
2165.134246
 20
1401.050305
 30
0.0
 10
2153.751721
 20
1395.559188
 30
0.0
 10
2142.783363
 20
1389.099728
 30
0.0
 10
2134.877986
 20
1383.699847
 30
0.0
 10
2127.210350
 20
1377.949297
 30
0.0
 10
2117.308430
 20
1370.038893
 30
0.0
 10
2098.283403
 20
1354.676157
 30
0.0
 10
2088.690576
 20
1347.030830
 30
0.0
 10
2083.957923
 20
1343.088995
 30
0.0
 10
2076.989879
 20
1336.739269
 30
0.0
 10
2071.940896
 20
1331.453897
 30
0.0
 10
2067.150251
 20
1325.597913
 30
0.0
 10
2062.760034
 20
1319.122140
 30
0.0
 10
2058.962751
 20
1312.059078
 30
0.0
 10
2056.008274
 20
1304.547276
 30
0.0
 10
2054.458026
 20
1298.376802
 30
0.0
 10
2053.834685
 20
1292.283321
 30
0.0
 10
2053.926147
 20
1289.334115
 30
0.0
 10
2054.311141
 20
1286.485696
 30
0.0
 10
2055.002771
 20
1283.762214
 30
0.0
 10
2056.008274
 20
1281.184019
 30
0.0
 10
2058.060855
 20
1277.680745
 30
0.0
 10
2060.764231
 20
1274.552410
 30
0.0
 10
2064.042632
 20
1271.813607
 30
0.0
 10
2067.825322
 20
1269.434525
 30
0.0
 10
2072.057374
 20
1267.370671
 30
0.0
 10
2076.606366
 20
1265.608548
 30
0.0
 10
2082.120645
 20
1263.902462
 30
0.0
 10
2087.800934
 20
1262.494074
 30
0.0
 10
2097.409941
 20
1260.674572
 30
0.0
 10
2106.826824
 20
1259.375672
 30
0.0
 10
2114.128602
 20
1258.607897
 30
0.0
 10
2127.695258
 20
1257.590747
 30
0.0
 10
2142.541953
 20
1256.940681
 30
0.0
 10
2156.133376
 20
1256.708341
 30
0.0
 10
2170.543822
 20
1256.819179
 30
0.0
 10
2201.964857
 20
1257.945202
 30
0.0
 10
2228.824270
 20
1259.402029
 30
0.0
 10
2257.809954
 20
1261.240285
 30
0.0
 10
2316.333776
 20
1265.608548
 30
0.0
 10
2350.407920
 20
1268.483213
 30
0.0
 10
2383.083842
 20
1271.171265
 30
0.0
 10
2425.756955
 20
1274.009873
 30
0.0
 10
2469.470508
 20
1275.882466
 30
0.0
 10
2503.127786
 20
1276.664579
 30
0.0
 10
2525.366852
 20
1276.932226
 30
0.0
 10
2569.456574
 20
1277.116993
 30
0.0
 10
2634.190475
 20
1277.302385
 30
0.0
 10
2716.349386
 20
1278.351414
 30
0.0
 10
2719.327768
 20
1276.376326
 30
0.0
 10
2721.564380
 20
1274.471986
 30
0.0
 10
2722.964562
 20
1272.792016
 30
0.0
 10
2723.755870
 20
1271.171265
 30
0.0
 10
2723.902755
 20
1269.167609
 30
0.0
 10
2723.113899
 20
1267.262895
 30
0.0
 10
2721.462372
 20
1265.457251
 30
0.0
 10
2717.912880
 20
1263.117285
 30
0.0
 10
2713.152512
 20
1260.968828
 30
0.0
 10
2706.492218
 20
1258.710894
 30
0.0
 10
2699.068079
 20
1256.708341
 30
0.0
 10
2687.320794
 20
1254.152089
 30
0.0
 10
2675.905042
 20
1252.129065
 30
0.0
 10
2665.539051
 20
1250.587644
 30
0.0
 10
2649.161362
 20
1248.685750
 30
0.0
 10
2641.349290
 20
1248.051745
 30
0.0
 10
2629.941880
 20
1247.490694
 30
0.0
 10
2610.682665
 20
1246.321998
 30
0.0
 10
2596.821625
 20
1245.070296
 30
0.0
 10
2570.854788
 20
1242.333694
 30
0.0
 10
2541.740130
 20
1238.975592
 30
0.0
 10
2490.455299
 20
1232.677485
 30
0.0
 10
2466.694670
 20
1229.518737
 30
0.0
 10
2454.800990
 20
1227.732097
 30
0.0
 10
2441.161627
 20
1225.350082
 30
0.0
 10
2433.429494
 20
1223.795044
 30
0.0
 10
2418.500784
 20
1220.261984
 30
0.0
 10
2410.496954
 20
1218.004897
 30
0.0
 10
2401.655227
 20
1215.113321
 30
0.0
 10
2392.938071
 20
1211.692201
 30
0.0
 10
2387.531318
 20
1209.152013
 30
0.0
 10
2382.488705
 20
1206.340497
 30
0.0
 10
2379.060845
 20
1204.063302
 30
0.0
 10
2375.979225
 20
1201.625249
 30
0.0
 10
2372.888287
 20
1198.565453
 30
0.0
 10
2370.442502
 20
1195.297469
 30
0.0
 10
2369.207112
 20
1193.013777
 30
0.0
 10
2368.308398
 20
1190.657869
 30
0.0
 10
2367.654894
 20
1187.427649
 30
0.0
 10
2367.636998
 20
1184.134286
 30
0.0
 10
2368.250039
 20
1180.831481
 30
0.0
 10
2369.122022
 20
1178.356893
 30
0.0
 10
2370.322102
 20
1175.950225
 30
0.0
 10
2371.899818
 20
1173.544297
 30
0.0
 10
2373.769341
 20
1171.298245
 30
0.0
 10
2378.107690
 20
1167.527078
 30
0.0
 10
2383.083842
 20
1164.783974
 30
0.0
 10
2385.802789
 20
1163.819421
 30
0.0
 10
2388.584758
 20
1163.162001
 30
0.0
 10
2394.248253
 20
1162.701978
 30
0.0
 10
2398.704551
 20
1163.013279
 30
0.0
 10
2401.668720
 20
1163.471213
 30
0.0
 10
2407.559031
 20
1164.783974
 30
0.0
 10
2418.865424
 20
1167.849289
 30
0.0
 10
2429.995989
 20
1170.458629
 30
0.0
 10
2441.079476
 20
1172.190580
 30
0.0
 10
2447.350367
 20
1172.824954
 30
0.0
 10
2460.021381
 20
1173.593707
 30
0.0
 10
2472.591611
 20
1174.021365
 30
0.0
 10
2485.285676
 20
1174.478077
 30
0.0
 10
2500.270534
 20
1175.437352
 30
0.0
 10
2515.143093
 20
1177.128238
 30
0.0
 10
2529.665484
 20
1179.571198
 30
0.0
 10
2539.254382
 20
1181.530097
 30
0.0
 10
2558.346851
 20
1185.769261
 30
0.0
 10
2576.360118
 20
1189.515785
 30
0.0
 10
2585.422539
 20
1191.142173
 30
0.0
 10
2599.082019
 20
1193.175865
 30
0.0
 10
2619.040340
 20
1195.145311
 30
0.0
 10
2629.052238
 20
1195.656834
 30
0.0
 10
2639.080565
 20
1195.838663
 30
0.0
 10
2652.472262
 20
1195.557889
 30
0.0
 10
2665.885294
 20
1194.671316
 30
0.0
 10
2679.317705
 20
1193.175865
 30
0.0
 10
2680.277720
 20
1189.958394
 30
0.0
 10
2680.849559
 20
1186.960153
 30
0.0
 10
2681.010176
 20
1183.301781
 30
0.0
 10
2680.492524
 20
1180.027423
 30
0.0
 10
2679.317705
 20
1177.128238
 30
0.0
 10
2677.007531
 20
1174.032765
 30
0.0
 10
2673.853812
 20
1171.441449
 30
0.0
 10
2671.352127
 20
1169.964400
 30
0.0
 10
2668.585603
 20
1168.663529
 30
0.0
 10
2664.571674
 20
1167.165389
 30
0.0
 10
2655.864323
 20
1164.783974
 30
0.0
 10
2649.446546
 20
1163.408565
 30
0.0
 10
2637.058269
 20
1161.020537
 30
0.0
 10
2619.082758
 20
1157.085933
 30
0.0
 10
2606.488257
 20
1153.674133
 30
0.0
 10
2592.959975
 20
1149.951512
 30
0.0
 10
2574.443268
 20
1145.585699
 30
0.0
 10
2555.925100
 20
1142.089665
 30
0.0
 10
2541.219778
 20
1139.749577
 30
0.0
 10
2526.252814
 20
1137.626504
 30
0.0
 10
2499.862258
 20
1134.264722
 30
0.0
 10
2453.171536
 20
1128.985602
 30
0.0
 10
2470.062702
 20
1121.392757
 30
0.0
 10
2487.463920
 20
1114.939361
 30
0.0
 10
2496.349791
 20
1112.148876
 30
0.0
 10
2505.352382
 20
1109.659876
 30
0.0
 10
2517.521675
 20
1106.833468
 30
0.0
 10
2529.851845
 20
1104.612426
 30
0.0
 10
2542.299954
 20
1103.062541
 30
0.0
 10
2555.333146
 20
1102.257564
 30
0.0
 10
2568.347215
 20
1102.398437
 30
0.0
 10
2581.255355
 20
1103.592325
 30
0.0
 10
2593.983747
 20
1105.888777
 30
0.0
 10
2606.488257
 20
1109.234670
 30
0.0
 10
2615.864797
 20
1112.371282
 30
0.0
 10
2622.054280
 20
1114.664539
 30
0.0
 10
2634.336867
 20
1119.475539
 30
0.0
 10
2646.585624
 20
1124.147013
 30
0.0
 10
2652.736116
 20
1126.262611
 30
0.0
 10
2662.036146
 20
1128.985602
 30
0.0
 10
2672.466877
 20
1131.181875
 30
0.0
 10
2683.093770
 20
1132.360503
 30
0.0
 10
2693.942342
 20
1132.417885
 30
0.0
 10
2705.025833
 20
1131.299821
 30
0.0
 10
2716.349386
 20
1128.985602
 30
0.0
 10
2698.046754
 20
1115.681695
 30
0.0
 10
2679.317705
 20
1103.062541
 30
0.0
 10
2663.487819
 20
1093.368444
 30
0.0
 10
2655.371690
 20
1088.847777
 30
0.0
 10
2647.088067
 20
1084.605305
 30
0.0
 10
2638.616128
 20
1080.688053
 30
0.0
 10
2629.941880
 20
1077.139480
 30
0.0
 10
2619.487854
 20
1073.489513
 30
0.0
 10
2608.769744
 20
1070.438969
 30
0.0
 10
2597.827498
 20
1068.009007
 30
0.0
 10
2589.766288
 20
1066.634702
 30
0.0
 10
2581.641320
 20
1065.585546
 30
0.0
 10
2572.957998
 20
1064.816365
 30
0.0
 10
2564.265606
 20
1064.389510
 30
0.0
 10
2551.706414
 20
1064.335989
 30
0.0
 10
2539.278414
 20
1064.880550
 30
0.0
 10
2525.628254
 20
1066.078737
 30
0.0
 10
2516.679119
 20
1067.151801
 30
0.0
 10
2499.101104
 20
1069.732939
 30
0.0
 10
2481.697927
 20
1072.536905
 30
0.0
 10
2472.908922
 20
1073.879037
 30
0.0
 10
2459.438997
 20
1075.633736
 30
0.0
 10
2449.404538
 20
1076.582044
 30
0.0
 10
2439.143504
 20
1077.129425
 30
0.0
 10
2428.740485
 20
1077.139480
 30
0.0
 10
2421.669705
 20
1076.759147
 30
0.0
 10
2414.695289
 20
1076.001009
 30
0.0
 10
2409.192652
 20
1075.071212
 30
0.0
 10
2403.873935
 20
1073.824172
 30
0.0
 10
2398.215591
 20
1072.016257
 30
0.0
 10
2392.938071
 20
1069.732939
 30
0.0
 10
2387.498213
 20
1066.518899
 30
0.0
 10
2382.729015
 20
1062.601401
 30
0.0
 10
2378.701605
 20
1057.945002
 30
0.0
 10
2375.470890
 20
1052.521945
 30
0.0
 10
2373.078075
 20
1046.311376
 30
0.0
 10
2371.746314
 20
1040.523378
 30
0.0
 10
2371.029307
 20
1034.172051
 30
0.0
 10
2370.934890
 20
1027.253361
 30
0.0
 10
2371.275990
 20
1021.690403
 30
0.0
 10
2371.971418
 20
1015.806401
 30
0.0
 10
2374.427254
 20
1003.073783
 30
0.0
 10
2339.696182
 20
1037.637868
 30
0.0
 10
2314.329633
 20
1061.898120
 30
0.0
 10
2301.386185
 20
1073.711432
 30
0.0
 10
2283.839563
 20
1088.835145
 30
0.0
 10
2265.800536
 20
1103.062541
 30
0.0
 10
2248.382404
 20
1115.360334
 30
0.0
 10
2239.447983
 20
1121.100829
 30
0.0
 10
2230.350245
 20
1126.556620
 30
0.0
 10
2221.080372
 20
1131.724661
 30
0.0
 10
2211.632717
 20
1136.606528
 30
0.0
 10
2202.002864
 20
1141.208972
 30
0.0
 10
2192.189839
 20
1145.544013
 30
0.0
 10
2172.028230
 20
1153.487033
 30
0.0
 10
2148.868993
 20
1161.399149
 30
0.0
 10
2129.899255
 20
1167.303563
 30
0.0
 10
2101.119072
 20
1176.118075
 30
0.0
 10
2086.813332
 20
1180.831481
 30
0.0
 10
2075.434727
 20
1184.948399
 30
0.0
 10
2064.300353
 20
1189.456073
 30
0.0
 10
2056.938375
 20
1192.786710
 30
0.0
 10
2049.757367
 20
1196.374700
 30
0.0
 10
2043.046934
 20
1200.091921
 30
0.0
 10
2036.546025
 20
1204.091017
 30
0.0
 10
2030.695920
 20
1208.079689
 30
0.0
 10
2025.048861
 20
1212.331354
 30
0.0
 10
2019.411360
 20
1217.019133
 30
0.0
 10
2013.995166
 20
1221.984253
 30
0.0
 10
2008.792556
 20
1227.211756
 30
0.0
 10
2003.787830
 20
1232.677485
 30
0.0
 10
1997.441538
 20
1240.199459
 30
0.0
 10
1993.341416
 20
1245.359891
 30
0.0
 10
1985.327283
 20
1255.859895
 30
0.0
 10
1976.337077
 20
1267.605221
 30
0.0
 10
1970.178860
 20
1275.165938
 30
0.0
 10
1963.765137
 20
1282.357250
 30
0.0
 10
1957.006505
 20
1289.072103
 30
0.0
 10
1951.670503
 20
1293.749836
 30
0.0
 10
1946.086214
 20
1298.102040
 30
0.0
 10
1938.274506
 20
1303.386551
 30
0.0
 10
1930.040297
 20
1308.148877
 30
0.0
 10
1918.501937
 20
1313.844988
 30
0.0
 10
1910.538320
 20
1317.349724
 30
0.0
 10
1894.241682
 20
1324.024980
 30
0.0
 10
1859.968914
 20
1338.091260
 30
0.0
 10
1843.336942
 20
1345.107609
 30
0.0
 10
1827.036371
 20
1351.677421
 30
0.0
 10
1818.943534
 20
1354.676157
 30
0.0
 10
1807.199314
 20
1358.589056
 30
0.0
 10
1795.251926
 20
1361.978793
 30
0.0
 10
1778.709578
 20
1365.754371
 30
0.0
 10
1767.139591
 20
1367.904909
 30
0.0
 10
1742.496177
 20
1371.810458
 30
0.0
 10
1725.295430
 20
1374.519348
 30
0.0
 10
1716.542708
 20
1376.040050
 30
0.0
 10
1703.419523
 20
1378.651592
 30
0.0
 10
1693.733391
 20
1380.948772
 30
0.0
 10
1684.329142
 20
1383.603962
 30
0.0
 10
1677.255534
 20
1385.971271
 30
0.0
 10
1670.511135
 20
1388.622050
 30
0.0
 10
1664.680405
 20
1391.321506
 30
0.0
 10
1659.236626
 20
1394.300016
 30
0.0
 10
1655.102908
 20
1396.959004
 30
0.0
 10
1651.289193
 20
1399.826185
 30
0.0
 10
1648.098941
 20
1402.641992
 30
0.0
 10
1645.216435
 20
1405.645387
 30
0.0
 10
1641.741735
 20
1410.157593
 30
0.0
 10
1638.937820
 20
1415.058225
 30
0.0
 10
1636.837923
 20
1420.357578
 30
0.0
 10
1635.316356
 20
1427.017252
 30
0.0
 10
1634.801652
 20
1434.232346
 30
0.0
 10
1635.307166
 20
1442.006901
 30
0.0
 10
1636.837923
 20
1450.342505
 30
0.0
 10
1636.837923
 20
1508.884478
 30
0.0
 10
1591.147803
 20
1498.889506
 30
0.0
 10
1564.019269
 20
1488.894522
 30
0.0
 10
1548.401990
 20
1496.050648
 30
0.0
 10
1538.220776
 20
1501.256569
 30
0.0
 10
1528.207650
 20
1506.779309
 30
0.0
 10
1518.329270
 20
1512.554859
 30
0.0
 10
1505.797055
 20
1520.124902
 30
0.0
 10
1493.211866
 20
1527.582274
 30
0.0
 10
1480.396669
 20
1534.585745
 30
0.0
 10
1465.258788
 20
1541.847552
 30
0.0
 10
1454.953125
 20
1546.265347
 30
0.0
 10
1434.088238
 20
1554.575697
 30
0.0
 10
1405.417416
 20
1566.131225
 30
0.0
 10
1403.139486
 20
1578.868815
 30
0.0
 10
1399.875063
 20
1591.211849
 30
0.0
 10
1395.658582
 20
1603.172837
 30
0.0
 10
1390.579931
 20
1614.785377
 30
0.0
 10
1386.249423
 20
1623.409359
 30
0.0
 10
1376.859398
 20
1640.339513
 30
0.0
 10
1367.426696
 20
1657.207630
 30
0.0
 10
1363.024958
 20
1665.756209
 30
0.0
 10
1356.844671
 20
1679.400354
 30
0.0
 10
1351.629439
 20
1693.492146
 30
0.0
 10
1347.391256
 20
1708.064065
 30
0.0
 10
1344.133199
 20
1723.062413
 30
0.0
 10
1342.826941
 20
1731.223063
 30
0.0
 10
1341.877465
 20
1739.432874
 30
0.0
 10
1341.391079
 20
1746.473122
 30
0.0
 10
1341.249474
 20
1753.493885
 30
0.0
 10
1341.737453
 20
1763.548693
 30
0.0
 10
1343.146581
 20
1773.420817
 30
0.0
 10
1345.561090
 20
1783.032279
 30
0.0
 10
1348.137814
 20
1790.233639
 30
0.0
 10
1351.326591
 20
1797.215777
 30
0.0
 10
1355.098008
 20
1803.960422
 30
0.0
 10
1358.282132
 20
1808.854563
 30
0.0
 10
1361.745303
 20
1813.603150
 30
0.0
 10
1369.404847
 20
1822.652087
 30
0.0
 10
1377.862327
 20
1831.091420
 30
0.0
 10
1388.817318
 20
1840.427136
 30
0.0
 10
1400.372850
 20
1848.860337
 30
0.0
 10
1412.347454
 20
1856.385258
 30
0.0
 10
1424.630775
 20
1862.998716
 30
0.0
 10
1437.165575
 20
1868.698865
 30
0.0
 10
1449.929517
 20
1873.485108
 30
0.0
 10
1453.819002
 20
1863.945249
 30
0.0
 10
1455.207656
 20
1859.388902
 30
0.0
 10
1456.161789
 20
1855.113324
 30
0.0
 10
1456.657861
 20
1851.425779
 30
0.0
 10
1456.792242
 20
1847.969963
 30
0.0
 10
1456.387637
 20
1843.536957
 30
0.0
 10
1455.314323
 20
1839.521679
 30
0.0
 10
1453.602234
 20
1835.894696
 30
0.0
 10
1451.923246
 20
1833.405641
 30
0.0
 10
1449.929517
 20
1831.091420
 30
0.0
 10
1446.675880
 20
1828.108497
 30
0.0
 10
1442.947748
 20
1825.332661
 30
0.0
 10
1434.488185
 20
1820.029385
 30
0.0
 10
1425.521398
 20
1814.445105
 30
0.0
 10
1420.806889
 20
1811.056717
 30
0.0
 10
1416.476390
 20
1807.357643
 30
0.0
 10
1413.576349
 20
1804.347865
 30
0.0
 10
1411.065465
 20
1801.149032
 30
0.0
 10
1408.698156
 20
1797.201193
 30
0.0
 10
1406.957125
 20
1793.027259
 30
0.0
 10
1405.656014
 20
1787.711352
 30
0.0
 10
1405.094842
 20
1782.157966
 30
0.0
 10
1405.019682
 20
1779.162044
 30
0.0
 10
1405.134439
 20
1773.057897
 30
0.0
 10
1405.424778
 20
1763.531042
 30
0.0
 10
1405.167055
 20
1751.655997
 30
0.0
 10
1404.862747
 20
1744.669568
 30
0.0
 10
1404.988538
 20
1736.878093
 30
0.0
 10
1405.417416
 20
1733.057397
 30
0.0
 10
1406.881602
 20
1726.515782
 30
0.0
 10
1409.170442
 20
1720.074223
 30
0.0
 10
1412.292646
 20
1713.005402
 30
0.0
 10
1415.526664
 20
1705.928241
 30
0.0
 10
1419.478433
 20
1696.025463
 30
0.0
 10
1421.667105
 20
1689.357197
 30
0.0
 10
1425.521398
 20
1675.943311
 30
0.0
 10
1429.654385
 20
1662.375665
 30
0.0
 10
1434.088238
 20
1648.814037
 30
0.0
 10
1438.524437
 20
1633.824879
 30
0.0
 10
1440.386594
 20
1626.252880
 30
0.0
 10
1442.655082
 20
1614.785377
 30
0.0
 10
1448.503104
 20
1621.316562
 30
0.0
 10
1452.955722
 20
1627.987649
 30
0.0
 10
1454.664510
 20
1631.375175
 30
0.0
 10
1456.035259
 20
1634.797159
 30
0.0
 10
1457.076447
 20
1638.252975
 30
0.0
 10
1457.799823
 20
1641.741656
 30
0.0
 10
1458.361126
 20
1648.814037
 30
0.0
 10
1458.170594
 20
1653.392327
 30
0.0
 10
1457.626706
 20
1658.014143
 30
0.0
 10
1456.483022
 20
1664.235749
 30
0.0
 10
1453.497282
 20
1676.834546
 30
0.0
 10
1451.596864
 20
1685.307104
 30
0.0
 10
1449.929517
 20
1695.933266
 30
0.0
 10
1449.334630
 20
1704.440520
 30
0.0
 10
1449.298335
 20
1712.946793
 30
0.0
 10
1449.628146
 20
1722.997805
 30
0.0
 10
1449.944475
 20
1743.126670
 30
0.0
 10
1449.769391
 20
1753.193494
 30
0.0
 10
1449.749406
 20
1763.577879
 30
0.0
 10
1450.532132
 20
1776.440645
 30
0.0
 10
1451.556890
 20
1784.095288
 30
0.0
 10
1453.490538
 20
1794.253825
 30
0.0
 10
1455.032208
 20
1801.000188
 30
0.0
 10
1458.361126
 20
1814.445105
 30
0.0
 10
1463.470920
 20
1834.944120
 30
0.0
 10
1466.206299
 20
1845.117613
 30
0.0
 10
1468.530204
 20
1852.677360
 30
0.0
 10
1471.211388
 20
1860.136317
 30
0.0
 10
1473.708172
 20
1866.069181
 30
0.0
 10
1476.529866
 20
1871.867668
 30
0.0
 10
1480.822727
 20
1879.323928
 30
0.0
 10
1485.722256
 20
1886.384659
 30
0.0
 10
1491.200853
 20
1892.976902
 30
0.0
 10
1497.928827
 20
1899.719589
 30
0.0
 10
1505.236978
 20
1905.828024
 30
0.0
 10
1513.037523
 20
1911.348196
 30
0.0
 10
1519.157610
 20
1915.143877
 30
0.0
 10
1525.468470
 20
1918.678289
 30
0.0
 10
1537.719185
 20
1924.686437
 30
0.0
 10
1550.349734
 20
1929.923992
 30
0.0
 10
1563.227339
 20
1934.354174
 30
0.0
 10
1576.259680
 20
1937.866272
 30
0.0
 10
1589.386298
 20
1940.308855
 30
0.0
 10
1595.972662
 20
1941.079082
 30
0.0
 10
1602.570305
 20
1941.523903
 30
0.0
 10
1614.321510
 20
1941.466153
 30
0.0
 10
1626.093930
 20
1940.274530
 30
0.0
 10
1637.883272
 20
1937.918009
 30
0.0
 10
1649.688185
 20
1934.384701
 30
0.0
 10
1646.067824
 20
1928.152675
 30
0.0
 10
1641.778758
 20
1922.924321
 30
0.0
 10
1636.837923
 20
1918.678289
 30
0.0
 10
1633.688124
 20
1916.644839
 30
0.0
 10
1630.346576
 20
1914.906269
 30
0.0
 10
1623.162016
 20
1912.217604
 30
0.0
 10
1618.938674
 20
1911.111066
 30
0.0
 10
1610.144269
 20
1909.505279
 30
0.0
 10
1600.638004
 20
1908.332898
 30
0.0
 10
1591.147803
 20
1907.255424
 30
0.0
 10
1578.838728
 20
1905.320551
 30
0.0
 10
1572.879016
 20
1903.958013
 30
0.0
 10
1566.832008
 20
1902.190997
 30
0.0
 10
1560.908217
 20
1900.028189
 30
0.0
 10
1553.813161
 20
1896.817340
 30
0.0
 10
1546.885574
 20
1892.976902
 30
0.0
 10
1538.714386
 20
1887.446809
 30
0.0
 10
1531.063304
 20
1881.052205
 30
0.0
 10
1527.519940
 20
1877.555554
 30
0.0
 10
1524.215667
 20
1873.875240
 30
0.0
 10
1519.789774
 20
1868.039241
 30
0.0
 10
1516.098305
 20
1861.867043
 30
0.0
 10
1513.221194
 20
1855.408442
 30
0.0
 10
1511.190318
 20
1848.713451
 30
0.0
 10
1509.941685
 20
1841.567389
 30
0.0
 10
1509.452475
 20
1834.271124
 30
0.0
 10
1509.666061
 20
1824.391029
 30
0.0
 10
1510.404650
 20
1814.425481
 30
0.0
 10
1511.190318
 20
1804.450125
 30
0.0
 10
1511.739845
 20
1792.917402
 30
0.0
 10
1511.786432
 20
1781.468294
 30
0.0
 10
1511.505907
 20
1770.093490
 30
0.0
 10
1511.111364
 20
1736.041178
 30
0.0
 10
1510.336477
 20
1687.463773
 30
0.0
 10
1509.740362
 20
1672.369299
 30
0.0
 10
1509.614561
 20
1664.892921
 30
0.0
 10
1509.811226
 20
1653.793622
 30
0.0
 10
1510.333047
 20
1645.560885
 30
0.0
 10
1511.190318
 20
1637.391294
 30
0.0
 10
1513.589993
 20
1621.539589
 30
0.0
 10
1518.329270
 20
1588.844296
 30
0.0
 10
1519.559767
 20
1578.233823
 30
0.0
 10
1520.302397
 20
1572.992838
 30
0.0
 10
1521.799929
 20
1565.330842
 30
0.0
 10
1523.377032
 20
1559.820113
 30
0.0
 10
1525.468470
 20
1554.575697
 30
0.0
 10
1528.684838
 20
1548.844033
 30
0.0
 10
1532.822354
 20
1543.587355
 30
0.0
 10
1537.931050
 20
1538.831398
 30
0.0
 10
1544.030045
 20
1534.585745
 30
0.0
  0
LWPOLYLINE
  5
10a
100
AcDbEntity
  8
0
 62
7
100
AcDbPolyline
 90
28
 70
0
 10
1783.902753
 20
1547.436498
 30
0.0
 10
1762.254042
 20
1528.916859
 30
0.0
 10
1752.490789
 20
1520.307340
 30
0.0
 10
1742.023040
 20
1510.389119
 30
0.0
 10
1731.070982
 20
1498.889506
 30
0.0
 10
1722.375771
 20
1489.480348
 30
0.0
 10
1718.191666
 20
1485.224141
 30
0.0
 10
1715.238408
 20
1482.496733
 30
0.0
 10
1712.512108
 20
1480.327433
 30
0.0
 10
1710.664532
 20
1479.154573
 30
0.0
 10
1708.995231
 20
1478.413533
 30
0.0
 10
1707.078382
 20
1478.169785
 30
0.0
 10
1705.548115
 20
1478.854913
 30
0.0
 10
1704.434837
 20
1480.539915
 30
0.0
 10
1703.888618
 20
1482.494403
 30
0.0
 10
1703.599022
 20
1485.062785
 30
0.0
 10
1703.815546
 20
1492.100099
 30
0.0
 10
1704.746746
 20
1499.434124
 30
0.0
 10
1706.359289
 20
1508.393801
 30
0.0
 10
1708.998174
 20
1520.446382
 30
0.0
 10
1712.512108
 20
1534.585745
 30
0.0
 10
1722.248510
 20
1540.127857
 30
0.0
 10
1732.243113
 20
1544.411277
 30
0.0
 10
1742.496177
 20
1547.436498
 30
0.0
 10
1752.496676
 20
1549.147121
 30
0.0
 10
1762.731349
 20
1549.717242
 30
0.0
 10
1773.199958
 20
1549.147121
 30
0.0
 10
1783.902753
 20
1547.436498
 30
0.0
  0
LWPOLYLINE
  5
10b
100
AcDbEntity
  8
0
 62
7
100
AcDbPolyline
 90
182
 70
0
 10
997.329572
 20
1370.697299
 30
0.0
 10
989.891822
 20
1371.436376
 30
0.0
 10
982.563318
 20
1372.968975
 30
0.0
 10
975.095034
 20
1375.365461
 30
0.0
 10
967.817902
 20
1378.504709
 30
0.0
 10
960.807442
 20
1382.271834
 30
0.0
 10
955.776240
 20
1385.431067
 30
0.0
 10
950.978724
 20
1388.815892
 30
0.0
 10
942.201238
 20
1396.083954
 30
0.0
 10
934.582031
 20
1403.895041
 30
0.0
 10
928.119135
 20
1412.272576
 30
0.0
 10
922.638084
 20
1421.468030
 30
0.0
 10
917.930685
 20
1431.787921
 30
0.0
 10
913.853367
 20
1443.447295
 30
0.0
 10
910.426853
 20
1456.424215
 30
0.0
 10
909.033046
 20
1463.299435
 30
0.0
 10
907.933992
 20
1470.314557
 30
0.0
 10
907.264182
 20
1476.750974
 30
0.0
 10
907.008304
 20
1483.062321
 30
0.0
 10
907.188043
 20
1488.196151
 30
0.0
 10
907.793969
 20
1493.043321
 30
0.0
 10
908.533418
 20
1496.337792
 30
0.0
 10
909.544442
 20
1499.402248
 30
0.0
 10
911.337950
 20
1503.083421
 30
0.0
 10
913.656824
 20
1506.254791
 30
0.0
 10
916.500833
 20
1508.884478
 30
0.0
 10
920.557548
 20
1511.309409
 30
0.0
 10
925.243985
 20
1512.985709
 30
0.0
 10
930.433351
 20
1513.994763
 30
0.0
 10
935.049776
 20
1514.406849
 30
0.0
 10
939.814926
 20
1514.504325
 30
0.0
 10
944.633410
 20
1514.363080
 30
0.0
 10
951.259130
 20
1513.902566
 30
0.0
 10
963.618344
 20
1512.554859
 30
0.0
 10
971.611753
 20
1511.310759
 30
0.0
 10
975.440180
 20
1510.480094
 30
0.0
 10
981.195259
 20
1508.766897
 30
0.0
 10
987.214930
 20
1506.297212
 30
0.0
 10
991.485349
 20
1504.170578
 30
0.0
 10
1000.741374
 20
1498.889506
 30
0.0
 10
1010.774970
 20
1492.989134
 30
0.0
 10
1015.660029
 20
1490.444283
 30
0.0
 10
1019.104203
 20
1488.956933
 30
0.0
 10
1022.264045
 20
1487.965654
 30
0.0
 10
1024.530199
 20
1487.601505
 30
0.0
 10
1026.527360
 20
1487.665386
 30
0.0
 10
1028.034454
 20
1488.098066
 30
0.0
 10
1029.297435
 20
1488.894522
 30
0.0
 10
1030.845106
 20
1491.036239
 30
0.0
 10
1031.689142
 20
1494.124106
 30
0.0
 10
1031.880286
 20
1497.703153
 30
0.0
 10
1031.564693
 20
1501.824481
 30
0.0
 10
1030.659726
 20
1507.070134
 30
0.0
 10
1029.297435
 20
1512.554859
 30
0.0
 10
1025.967410
 20
1522.587109
 30
0.0
 10
1022.108828
 20
1531.618393
 30
0.0
 10
1018.551734
 20
1538.495946
 30
0.0
 10
1015.122521
 20
1544.177461
 30
0.0
 10
1011.264908
 20
1549.812881
 30
0.0
 10
1007.880324
 20
1554.575697
 30
0.0
 10
1005.298206
 20
1558.634743
 30
0.0
 10
1002.653192
 20
1564.135418
 30
0.0
 10
1001.327806
 20
1568.105450
 30
0.0
 10
1000.268354
 20
1572.615947
 30
0.0
 10
999.122582
 20
1581.301228
 30
0.0
 10
998.688679
 20
1591.921749
 30
0.0
 10
998.971047
 20
1604.636405
 30
0.0
 10
999.654086
 20
1615.592628
 30
0.0
 10
1000.741374
 20
1627.779214
 30
0.0
 10
1005.035216
 20
1636.340295
 30
0.0
 10
1010.050112
 20
1644.434612
 30
0.0
 10
1015.779566
 20
1652.053700
 30
0.0
 10
1022.206294
 20
1659.175121
 30
0.0
 10
1029.297435
 20
1665.756209
 30
0.0
 10
1033.938505
 20
1669.485322
 30
0.0
 10
1038.791560
 20
1672.965173
 30
0.0
 10
1043.753369
 20
1676.121092
 30
0.0
 10
1048.880455
 20
1678.986433
 30
0.0
 10
1056.898749
 20
1682.710637
 30
0.0
 10
1065.163853
 20
1685.627357
 30
0.0
 10
1073.597182
 20
1687.669016
 30
0.0
 10
1082.126259
 20
1688.793945
 30
0.0
 10
1091.791789
 20
1688.958723
 30
0.0
 10
1101.438193
 20
1688.010721
 30
0.0
 10
1110.898108
 20
1686.098903
 30
0.0
 10
1120.275632
 20
1683.370142
 30
0.0
 10
1129.806845
 20
1679.900352
 30
0.0
 10
1139.238502
 20
1675.943311
 30
0.0
 10
1153.575876
 20
1669.292825
 30
0.0
 10
1181.595163
 20
1655.601474
 30
0.0
 10
1202.056424
 20
1646.009875
 30
0.0
 10
1222.051278
 20
1637.391294
 30
0.0
 10
1258.346823
 20
1619.345404
 30
0.0
 10
1294.027126
 20
1600.291562
 30
0.0
 10
1329.136690
 20
1580.277206
 30
0.0
 10
1369.108137
 20
1556.192650
 30
0.0
 10
1393.212067
 20
1541.597675
 30
0.0
 10
1405.417416
 20
1534.585745
 30
0.0
 10
1413.823153
 20
1530.062501
 30
0.0
 10
1422.368668
 20
1525.817580
 30
0.0
 10
1431.087296
 20
1521.922331
 30
0.0
 10
1439.999643
 20
1518.423355
 30
0.0
 10
1449.103022
 20
1515.321995
 30
0.0
 10
1458.361126
 20
1512.554859
 30
0.0
 10
1473.778791
 20
1508.279530
 30
0.0
 10
1481.386107
 20
1505.988119
 30
0.0
 10
1490.397531
 20
1502.775303
 30
0.0
 10
1499.045539
 20
1498.889506
 30
0.0
 10
1505.933518
 20
1495.062918
 30
0.0
 10
1512.556656
 20
1490.720029
 30
0.0
 10
1521.067470
 20
1484.281780
 30
0.0
 10
1526.611785
 20
1479.711824
 30
0.0
 10
1537.596334
 20
1470.314557
 30
0.0
 10
1556.377866
 20
1454.367473
 30
0.0
 10
1565.497666
 20
1446.342432
 30
0.0
 10
1572.051172
 20
1440.111385
 30
0.0
 10
1578.294720
 20
1433.600915
 30
0.0
 10
1583.558759
 20
1427.585295
 30
0.0
 10
1593.599349
 20
1414.987602
 30
0.0
 10
1603.665065
 20
1402.236896
 30
0.0
 10
1608.986610
 20
1396.083954
 30
0.0
 10
1613.842362
 20
1390.988872
 30
0.0
 10
1618.968461
 20
1386.161433
 30
0.0
 10
1623.853888
 20
1382.055922
 30
0.0
 10
1628.974596
 20
1378.220633
 30
0.0
 10
1636.539372
 20
1373.314481
 30
0.0
 10
1644.500160
 20
1368.971969
 30
0.0
 10
1652.786475
 20
1365.179958
 30
0.0
 10
1660.456080
 20
1362.210639
 30
0.0
 10
1668.258590
 20
1359.627911
 30
0.0
 10
1677.881815
 20
1356.936801
 30
0.0
 10
1687.515959
 20
1354.676157
 30
0.0
 10
1703.467582
 20
1351.618571
 30
0.0
 10
1713.978374
 20
1349.908186
 30
0.0
 10
1734.881754
 20
1346.772869
 30
0.0
 10
1756.122554
 20
1343.379824
 30
0.0
 10
1767.047874
 20
1341.396890
 30
0.0
 10
1783.902753
 20
1337.926722
 30
0.0
 10
1805.260882
 20
1332.746309
 30
0.0
 10
1826.430074
 20
1326.650374
 30
0.0
 10
1836.585422
 20
1323.318997
 30
0.0
 10
1846.268124
 20
1319.833265
 30
0.0
 10
1858.260007
 20
1314.977752
 30
0.0
 10
1869.092274
 20
1309.895421
 30
0.0
 10
1878.841916
 20
1304.547276
 30
0.0
 10
1885.049047
 20
1300.685256
 30
0.0
 10
1897.224483
 20
1292.197986
 30
0.0
 10
1918.374794
 20
1276.571637
 30
0.0
 10
1946.086214
 20
1256.708341
 30
0.0
 10
1962.821424
 20
1244.410549
 30
0.0
 10
1970.636066
 20
1238.211989
 30
0.0
 10
1975.934928
 20
1233.644732
 30
0.0
 10
1980.563607
 20
1229.209648
 30
0.0
 10
1983.782673
 20
1225.665425
 30
0.0
 10
1986.343580
 20
1222.280348
 30
0.0
 10
1988.167612
 20
1219.093044
 30
0.0
 10
1989.207082
 20
1216.114416
 30
0.0
 10
1989.420293
 20
1213.359421
 30
0.0
 10
1988.782982
 20
1210.848534
 30
0.0
 10
1987.931353
 20
1209.377857
 30
0.0
 10
1986.739112
 20
1208.011516
 30
0.0
 10
1984.867138
 20
1206.505403
 30
0.0
 10
1982.540654
 20
1205.148748
 30
0.0
 10
1977.208696
 20
1203.039165
 30
0.0
 10
1968.812399
 20
1201.016140
 30
0.0
 10
1959.087402
 20
1199.616933
 30
0.0
 10
1949.520328
 20
1198.781237
 30
0.0
 10
1943.020899
 20
1198.411701
 30
0.0
 10
1930.242846
 20
1197.998025
 30
0.0
 10
1913.434687
 20
1197.850408
 30
0.0
 10
1885.980988
 20
1197.998025
 30
0.0
 10
1845.598195
 20
1197.850898
 30
0.0
 10
1793.173609
 20
1196.570134
 30
0.0
 10
1787.301924
 20
1195.737137
 30
0.0
 10
1781.494495
 20
1195.237267
 30
0.0
 10
1773.851003
 20
1195.089281
 30
0.0
 10
1766.321668
 20
1195.533485
 30
0.0
 10
1758.906363
 20
1196.570134
 30
0.0
 10
1749.709927
 20
1198.724230
 30
0.0
 10
1740.695193
 20
1201.822038
 30
0.0
 10
1731.862290
 20
1205.863429
 30
0.0
 10
1723.211096
 20
1210.848534
 30
0.0
  0
LWPOLYLINE
  5
10c
100
AcDbEntity
  8
0
 62
7
100
AcDbPolyline
 90
129
 70
0
 10
1044.133314
 20
1670.465497
 30
0.0
 10
1044.125280
 20
1670.015525
 30
0.0
 10
1044.141350
 20
1669.557518
 30
0.0
 10
1044.181525
 20
1669.115580
 30
0.0
 10
1044.253842
 20
1668.665608
 30
0.0
 10
1044.342230
 20
1668.223673
 30
0.0
 10
1044.454722
 20
1667.781734
 30
0.0
 10
1044.599358
 20
1667.347835
 30
0.0
 10
1044.760062
 20
1666.913933
 30
0.0
 10
1044.944873
 20
1666.496101
 30
0.0
 10
1045.161822
 20
1666.078268
 30
0.0
 10
1045.394844
 20
1665.676508
 30
0.0
 10
1045.643936
 20
1665.282785
 30
0.0
 10
1045.925166
 20
1664.905127
 30
0.0
 10
1046.222470
 20
1664.535506
 30
0.0
 10
1046.543879
 20
1664.173922
 30
0.0
 10
1046.873325
 20
1663.836446
 30
0.0
 10
1047.234906
 20
1663.507001
 30
0.0
 10
1047.604530
 20
1663.193628
 30
0.0
 10
1047.998254
 20
1662.896325
 30
0.0
 10
1048.400014
 20
1662.615091
 30
0.0
 10
1048.825879
 20
1662.357965
 30
0.0
 10
1049.259782
 20
1662.108874
 30
0.0
 10
1049.701720
 20
1661.891921
 30
0.0
 10
1050.167761
 20
1661.683005
 30
0.0
 10
1050.633802
 20
1661.498195
 30
0.0
 10
1051.115918
 20
1661.337493
 30
0.0
 10
1051.598030
 20
1661.192858
 30
0.0
 10
1052.096213
 20
1661.064296
 30
0.0
 10
1052.594396
 20
1660.967873
 30
0.0
 10
1053.100616
 20
1660.887521
 30
0.0
 10
1053.606835
 20
1660.831273
 30
0.0
 10
1054.121088
 20
1660.791098
 30
0.0
 10
1054.635341
 20
1660.783062
 30
0.0
 10
1055.149597
 20
1660.791098
 30
0.0
 10
1055.655814
 20
1660.815204
 30
0.0
 10
1056.162033
 20
1660.871449
 30
0.0
 10
1056.668253
 20
1660.943767
 30
0.0
 10
1057.166436
 20
1661.040190
 30
0.0
 10
1057.664619
 20
1661.160717
 30
0.0
 10
1058.146730
 20
1661.297315
 30
0.0
 10
1058.620810
 20
1661.458022
 30
0.0
 10
1059.086852
 20
1661.634793
 30
0.0
 10
1059.544859
 20
1661.835677
 30
0.0
 10
1059.986795
 20
1662.060662
 30
0.0
 10
1060.420697
 20
1662.293685
 30
0.0
 10
1060.838526
 20
1662.550809
 30
0.0
 10
1061.240290
 20
1662.832043
 30
0.0
 10
1061.625980
 20
1663.121310
 30
0.0
 10
1061.995601
 20
1663.426649
 30
0.0
 10
1062.341115
 20
1663.756093
 30
0.0
 10
1062.678594
 20
1664.093571
 30
0.0
 10
1062.991967
 20
1664.447122
 30
0.0
 10
1063.281234
 20
1664.816740
 30
0.0
 10
1063.554432
 20
1665.194394
 30
0.0
 10
1063.803523
 20
1665.588121
 30
0.0
 10
1064.028510
 20
1665.989884
 30
0.0
 10
1064.237426
 20
1666.399677
 30
0.0
 10
1064.414200
 20
1666.817509
 30
0.0
 10
1064.574904
 20
1667.243376
 30
0.0
 10
1064.703466
 20
1667.677277
 30
0.0
 10
1064.815960
 20
1668.119213
 30
0.0
 10
1064.896310
 20
1668.561151
 30
0.0
 10
1064.960594
 20
1669.003089
 30
0.0
 10
1064.992734
 20
1669.453061
 30
0.0
 10
1065.000770
 20
1669.903033
 30
0.0
 10
1064.984701
 20
1670.353005
 30
0.0
 10
1064.944522
 20
1670.802976
 30
0.0
 10
1064.880244
 20
1671.252948
 30
0.0
 10
1064.783821
 20
1671.694886
 30
0.0
 10
1064.671327
 20
1672.136825
 30
0.0
 10
1064.534729
 20
1672.570724
 30
0.0
 10
1064.365988
 20
1673.004625
 30
0.0
 10
1064.181178
 20
1673.422458
 30
0.0
 10
1063.972262
 20
1673.832254
 30
0.0
 10
1063.739242
 20
1674.242048
 30
0.0
 10
1063.482114
 20
1674.635774
 30
0.0
 10
1063.200883
 20
1675.013431
 30
0.0
 10
1062.903578
 20
1675.383049
 30
0.0
 10
1062.590205
 20
1675.744637
 30
0.0
 10
1062.252726
 20
1676.082115
 30
0.0
 10
1061.899178
 20
1676.411558
 30
0.0
 10
1061.521520
 20
1676.724931
 30
0.0
 10
1061.127797
 20
1677.022234
 30
0.0
 10
1060.726037
 20
1677.303465
 30
0.0
 10
1060.308204
 20
1677.560593
 30
0.0
 10
1059.874302
 20
1677.801649
 30
0.0
 10
1059.424330
 20
1678.026637
 30
0.0
 10
1058.966322
 20
1678.235553
 30
0.0
 10
1058.492245
 20
1678.420361
 30
0.0
 10
1058.018167
 20
1678.581065
 30
0.0
 10
1057.528021
 20
1678.725700
 30
0.0
 10
1057.029837
 20
1678.846226
 30
0.0
 10
1056.531654
 20
1678.950686
 30
0.0
 10
1056.025434
 20
1679.031037
 30
0.0
 10
1055.519215
 20
1679.087285
 30
0.0
 10
1055.004962
 20
1679.127460
 30
0.0
 10
1054.490709
 20
1679.135497
 30
0.0
 10
1053.984490
 20
1679.127460
 30
0.0
 10
1053.470237
 20
1679.095321
 30
0.0
 10
1052.964017
 20
1679.047109
 30
0.0
 10
1052.457798
 20
1678.974792
 30
0.0
 10
1051.959614
 20
1678.878369
 30
0.0
 10
1051.469467
 20
1678.757842
 30
0.0
 10
1050.979320
 20
1678.621244
 30
0.0
 10
1050.505240
 20
1678.460536
 30
0.0
 10
1050.039198
 20
1678.275725
 30
0.0
 10
1049.581190
 20
1678.074849
 30
0.0
 10
1049.139252
 20
1677.857896
 30
0.0
 10
1048.705353
 20
1677.616841
 30
0.0
 10
1048.287521
 20
1677.359713
 30
0.0
 10
1047.885761
 20
1677.086515
 30
0.0
 10
1047.500070
 20
1676.797249
 30
0.0
 10
1047.130450
 20
1676.483875
 30
0.0
 10
1046.784934
 20
1676.162466
 30
0.0
 10
1046.455492
 20
1675.824988
 30
0.0
 10
1046.142119
 20
1675.471437
 30
0.0
 10
1045.844816
 20
1675.101818
 30
0.0
 10
1045.579652
 20
1674.724164
 30
0.0
 10
1045.322526
 20
1674.330437
 30
0.0
 10
1045.097541
 20
1673.928675
 30
0.0
 10
1044.896661
 20
1673.518881
 30
0.0
 10
1044.711850
 20
1673.101049
 30
0.0
 10
1044.559179
 20
1672.675180
 30
0.0
 10
1044.422583
 20
1672.241281
 30
0.0
 10
1044.310090
 20
1671.799343
 30
0.0
 10
1044.229737
 20
1671.357407
 30
0.0
 10
1044.173489
 20
1670.907436
 30
0.0
 10
1044.133314
 20
1670.465497
 30
0.0
  0
LWPOLYLINE
  5
10d
100
AcDbEntity
  8
0
 62
7
100
AcDbPolyline
 90
31
 70
0
 10
1144.486967
 20
1630.647136
 30
0.0
 10
1143.825194
 20
1628.119329
 30
0.0
 10
1142.055904
 20
1625.943660
 30
0.0
 10
1139.265474
 20
1624.169282
 30
0.0
 10
1136.593548
 20
1623.113385
 30
0.0
 10
1133.515298
 20
1622.291669
 30
0.0
 10
1126.502450
 20
1621.321594
 30
0.0
 10
1118.090279
 20
1621.213458
 30
0.0
 10
1109.817077
 20
1622.028549
 30
0.0
 10
1102.302822
 20
1623.689397
 30
0.0
 10
1098.975498
 20
1624.819099
 30
0.0
 10
1095.992816
 20
1626.140934
 30
0.0
 10
1092.017015
 20
1628.645684
 30
0.0
 10
1089.103864
 20
1631.620145
 30
0.0
 10
1087.312805
 20
1635.056838
 30
0.0
 10
1086.675123
 20
1638.951597
 30
0.0
 10
1087.202829
 20
1643.303308
 30
0.0
 10
1102.561894
 20
1647.230063
 30
0.0
 10
1109.850061
 20
1648.814037
 30
0.0
 10
1116.041749
 20
1649.533374
 30
0.0
 10
1119.204658
 20
1649.512041
 30
0.0
 10
1123.025114
 20
1649.039264
 30
0.0
 10
1126.943530
 20
1647.995137
 30
0.0
 10
1131.447895
 20
1646.047513
 30
0.0
 10
1135.827746
 20
1643.303308
 30
0.0
 10
1138.396677
 20
1641.208802
 30
0.0
 10
1140.670137
 20
1638.913952
 30
0.0
 10
1142.226026
 20
1636.936903
 30
0.0
 10
1143.422736
 20
1634.932638
 30
0.0
 10
1144.250708
 20
1632.741885
 30
0.0
 10
1144.486967
 20
1630.647136
 30
0.0
  0
LWPOLYLINE
  5
10e
100
AcDbEntity
  8
0
 62
7
100
AcDbPolyline
 90
129
 70
0
 10
1451.044692
 20
1444.402729
 30
0.0
 10
1450.932199
 20
1444.041141
 30
0.0
 10
1450.851846
 20
1443.663488
 30
0.0
 10
1450.811670
 20
1443.269764
 30
0.0
 10
1450.803634
 20
1442.868004
 30
0.0
 10
1450.827740
 20
1442.458208
 30
0.0
 10
1450.892021
 20
1442.040375
 30
0.0
 10
1450.996481
 20
1441.614509
 30
0.0
 10
1451.133077
 20
1441.188641
 30
0.0
 10
1451.301818
 20
1440.746705
 30
0.0
 10
1451.510734
 20
1440.312803
 30
0.0
 10
1451.743755
 20
1439.862832
 30
0.0
 10
1452.016953
 20
1439.420896
 30
0.0
 10
1452.330326
 20
1438.970925
 30
0.0
 10
1452.667805
 20
1438.520953
 30
0.0
 10
1453.037426
 20
1438.079014
 30
0.0
 10
1453.439186
 20
1437.637077
 30
0.0
 10
1453.865051
 20
1437.195141
 30
0.0
 10
1454.323059
 20
1436.761239
 30
0.0
 10
1454.813206
 20
1436.327337
 30
0.0
 10
1455.327462
 20
1435.901468
 30
0.0
 10
1455.857785
 20
1435.483638
 30
0.0
 10
1456.420249
 20
1435.081878
 30
0.0
 10
1457.006822
 20
1434.680118
 30
0.0
 10
1457.609462
 20
1434.294428
 30
0.0
 10
1458.236211
 20
1433.916774
 30
0.0
 10
1458.879026
 20
1433.547150
 30
0.0
 10
1459.537914
 20
1433.201638
 30
0.0
 10
1460.212872
 20
1432.864157
 30
0.0
 10
1460.895868
 20
1432.534714
 30
0.0
 10
1461.594929
 20
1432.229377
 30
0.0
 10
1462.302028
 20
1431.940108
 30
0.0
 10
1463.017164
 20
1431.666913
 30
0.0
 10
1463.740334
 20
1431.409785
 30
0.0
 10
1464.471536
 20
1431.168729
 30
0.0
 10
1465.202741
 20
1430.951777
 30
0.0
 10
1465.933946
 20
1430.750897
 30
0.0
 10
1466.665152
 20
1430.574123
 30
0.0
 10
1467.396357
 20
1430.413418
 30
0.0
 10
1468.119526
 20
1430.276817
 30
0.0
 10
1468.842695
 20
1430.156290
 30
0.0
 10
1469.557831
 20
1430.059867
 30
0.0
 10
1470.256892
 20
1429.987549
 30
0.0
 10
1470.947922
 20
1429.931305
 30
0.0
 10
1471.630915
 20
1429.899162
 30
0.0
 10
1472.297837
 20
1429.891129
 30
0.0
 10
1472.940655
 20
1429.907199
 30
0.0
 10
1473.575437
 20
1429.939341
 30
0.0
 10
1474.186113
 20
1429.995586
 30
0.0
 10
1474.780720
 20
1430.075940
 30
0.0
 10
1475.351221
 20
1430.172360
 30
0.0
 10
1475.897615
 20
1430.292889
 30
0.0
 10
1476.419905
 20
1430.437524
 30
0.0
 10
1476.918088
 20
1430.598229
 30
0.0
 10
1477.392166
 20
1430.783039
 30
0.0
 10
1477.834101
 20
1430.983917
 30
0.0
 10
1478.243900
 20
1431.200869
 30
0.0
 10
1478.629587
 20
1431.441924
 30
0.0
 10
1478.983138
 20
1431.707089
 30
0.0
 10
1479.296511
 20
1431.980285
 30
0.0
 10
1479.585778
 20
1432.269553
 30
0.0
 10
1479.842906
 20
1432.582925
 30
0.0
 10
1480.059856
 20
1432.904335
 30
0.0
 10
1480.244666
 20
1433.249849
 30
0.0
 10
1480.397335
 20
1433.603398
 30
0.0
 10
1480.509828
 20
1433.964983
 30
0.0
 10
1480.590182
 20
1434.342640
 30
0.0
 10
1480.630357
 20
1434.736364
 30
0.0
 10
1480.638393
 20
1435.138124
 30
0.0
 10
1480.614287
 20
1435.547920
 30
0.0
 10
1480.550006
 20
1435.965752
 30
0.0
 10
1480.445546
 20
1436.391618
 30
0.0
 10
1480.316984
 20
1436.817484
 30
0.0
 10
1480.140210
 20
1437.259422
 30
0.0
 10
1479.939327
 20
1437.701357
 30
0.0
 10
1479.698271
 20
1438.143296
 30
0.0
 10
1479.425074
 20
1438.585231
 30
0.0
 10
1479.119738
 20
1439.035203
 30
0.0
 10
1478.782256
 20
1439.485174
 30
0.0
 10
1478.412638
 20
1439.927113
 30
0.0
 10
1478.010878
 20
1440.369051
 30
0.0
 10
1477.576976
 20
1440.810986
 30
0.0
 10
1477.118968
 20
1441.244889
 30
0.0
 10
1476.636854
 20
1441.678790
 30
0.0
 10
1476.122598
 20
1442.104657
 30
0.0
 10
1475.584242
 20
1442.522486
 30
0.0
 10
1475.021775
 20
1442.932285
 30
0.0
 10
1474.435205
 20
1443.326009
 30
0.0
 10
1473.832565
 20
1443.711699
 30
0.0
 10
1473.205816
 20
1444.089353
 30
0.0
 10
1472.571037
 20
1444.458974
 30
0.0
 10
1471.912149
 20
1444.812525
 30
0.0
 10
1471.237189
 20
1445.150004
 30
0.0
 10
1470.546158
 20
1445.471413
 30
0.0
 10
1469.847098
 20
1445.776750
 30
0.0
 10
1469.139998
 20
1446.066020
 30
0.0
 10
1468.424863
 20
1446.339214
 30
0.0
 10
1467.701694
 20
1446.596342
 30
0.0
 10
1466.970491
 20
1446.837398
 30
0.0
 10
1466.239286
 20
1447.054350
 30
0.0
 10
1465.508081
 20
1447.255230
 30
0.0
 10
1464.776875
 20
1447.432005
 30
0.0
 10
1464.045670
 20
1447.592709
 30
0.0
 10
1463.322501
 20
1447.729308
 30
0.0
 10
1462.599332
 20
1447.849837
 30
0.0
 10
1461.892235
 20
1447.946260
 30
0.0
 10
1461.185135
 20
1448.018575
 30
0.0
 10
1460.494106
 20
1448.074823
 30
0.0
 10
1459.819145
 20
1448.106965
 30
0.0
 10
1459.152224
 20
1448.114998
 30
0.0
 10
1458.501372
 20
1448.106965
 30
0.0
 10
1457.866590
 20
1448.066786
 30
0.0
 10
1457.255911
 20
1448.010541
 30
0.0
 10
1456.661307
 20
1447.938224
 30
0.0
 10
1456.090806
 20
1447.833765
 30
0.0
 10
1455.544412
 20
1447.713238
 30
0.0
 10
1455.022122
 20
1447.568603
 30
0.0
 10
1454.523939
 20
1447.407899
 30
0.0
 10
1454.057898
 20
1447.231125
 30
0.0
 10
1453.615960
 20
1447.022209
 30
0.0
 10
1453.198127
 20
1446.805259
 30
0.0
 10
1452.812440
 20
1446.564203
 30
0.0
 10
1452.466925
 20
1446.307075
 30
0.0
 10
1452.145515
 20
1446.025841
 30
0.0
 10
1451.856249
 20
1445.736574
 30
0.0
 10
1451.607157
 20
1445.423201
 30
0.0
 10
1451.382171
 20
1445.101793
 30
0.0
 10
1451.197361
 20
1444.756277
 30
0.0
 10
1451.044692
 20
1444.402729
 30
0.0
  0
LWPOLYLINE
  5
10f
100
AcDbEntity
  8
0
 62
7
100
AcDbPolyline
 90
79
 70
0
 10
1064.992575
 20
1488.894522
 30
0.0
 10
1065.666914
 20
1491.729211
 30
0.0
 10
1065.998937
 20
1494.578369
 30
0.0
 10
1065.985574
 20
1497.533094
 30
0.0
 10
1065.623876
 20
1500.486590
 30
0.0
 10
1064.663493
 20
1504.343826
 30
0.0
 10
1063.220769
 20
1508.170654
 30
0.0
 10
1060.705965
 20
1513.206034
 30
0.0
 10
1058.762390
 20
1516.512518
 30
0.0
 10
1054.564174
 20
1523.000665
 30
0.0
 10
1050.084950
 20
1529.845730
 30
0.0
 10
1048.025386
 20
1533.243677
 30
0.0
 10
1045.297738
 20
1538.363773
 30
0.0
 10
1043.598025
 20
1542.258901
 30
0.0
 10
1042.232422
 20
1546.233225
 30
0.0
 10
1040.851610
 20
1552.395365
 30
0.0
 10
1040.290070
 20
1558.842937
 30
0.0
 10
1040.555024
 20
1565.823971
 30
0.0
 10
1041.632626
 20
1573.031095
 30
0.0
 10
1043.456661
 20
1580.277206
 30
0.0
 10
1046.373982
 20
1588.203303
 30
0.0
 10
1048.139289
 20
1591.823665
 30
0.0
 10
1050.097331
 20
1595.088703
 30
0.0
 10
1052.241010
 20
1597.901077
 30
0.0
 10
1054.564174
 20
1600.168343
 30
0.0
 10
1057.734686
 20
1602.119885
 30
0.0
 10
1061.173468
 20
1602.943929
 30
0.0
 10
1064.874376
 20
1602.539085
 30
0.0
 10
1068.833013
 20
1600.833118
 30
0.0
 10
1071.496295
 20
1599.038138
 30
0.0
 10
1074.263182
 20
1596.682849
 30
0.0
 10
1077.386366
 20
1593.482295
 30
0.0
 10
1080.631179
 20
1589.608998
 30
0.0
 10
1087.202829
 20
1580.277206
 30
0.0
 10
1086.225030
 20
1575.536950
 30
0.0
 10
1085.932491
 20
1570.520821
 30
0.0
 10
1086.320426
 20
1565.230428
 30
0.0
 10
1087.050552
 20
1561.084328
 30
0.0
 10
1088.146910
 20
1556.788033
 30
0.0
 10
1091.375291
 20
1547.761289
 30
0.0
 10
1094.218560
 20
1541.441228
 30
0.0
 10
1101.169310
 20
1528.176668
 30
0.0
 10
1109.850061
 20
1512.554859
 30
0.0
 10
1113.567030
 20
1505.270744
 30
0.0
 10
1115.232781
 20
1501.638120
 30
0.0
 10
1117.379764
 20
1496.230387
 30
0.0
 10
1119.083641
 20
1490.497622
 30
0.0
 10
1119.997678
 20
1484.910632
 30
0.0
 10
1119.998418
 20
1479.748119
 30
0.0
 10
1119.038273
 20
1474.809843
 30
0.0
 10
1117.042962
 20
1470.139229
 30
0.0
 10
1113.976666
 20
1465.778075
 30
0.0
 10
1109.850061
 20
1461.765368
 30
0.0
 10
1106.469516
 20
1459.254243
 30
0.0
 10
1102.663780
 20
1456.930706
 30
0.0
 10
1098.222565
 20
1454.684533
 30
0.0
 10
1093.426883
 20
1452.668249
 30
0.0
 10
1083.395123
 20
1449.436927
 30
0.0
 10
1072.992844
 20
1447.153849
 30
0.0
 10
1062.937794
 20
1445.849669
 30
0.0
 10
1053.942554
 20
1445.538121
 30
0.0
 10
1050.048414
 20
1445.754285
 30
0.0
 10
1046.652917
 20
1446.215899
 30
0.0
 10
1042.622677
 20
1447.361793
 30
0.0
 10
1041.127977
 20
1448.134829
 30
0.0
 10
1039.997894
 20
1449.037965
 30
0.0
 10
1039.239810
 20
1450.068970
 30
0.0
 10
1038.854948
 20
1451.224417
 30
0.0
 10
1038.838887
 20
1452.501133
 30
0.0
 10
1039.180842
 20
1453.895428
 30
0.0
 10
1040.185605
 20
1455.971423
 30
0.0
 10
1041.751797
 20
1458.245920
 30
0.0
 10
1044.561719
 20
1461.566376
 30
0.0
 10
1051.691111
 20
1469.074507
 30
0.0
 10
1056.649000
 20
1474.611469
 30
0.0
 10
1058.937469
 20
1477.506969
 30
0.0
 10
1061.920760
 20
1481.977489
 30
0.0
 10
1063.693423
 20
1485.410502
 30
0.0
 10
1064.992575
 20
1488.894522
 30
0.0
  0
LWPOLYLINE
  5
110
100
AcDbEntity
  8
0
 62
7
100
AcDbPolyline
 90
13
 70
0
 10
1415.526664
 20
1433.600915
 30
0.0
 10
1419.223414
 20
1425.689779
 30
0.0
 10
1423.549250
 20
1418.703602
 30
0.0
 10
1428.504199
 20
1412.642613
 30
0.0
 10
1434.088238
 20
1407.506817
 30
0.0
 10
1439.610979
 20
1403.699851
 30
0.0
 10
1445.636041
 20
1400.631837
 30
0.0
 10
1452.163555
 20
1398.302660
 30
0.0
 10
1459.193630
 20
1396.712444
 30
0.0
 10
1464.048530
 20
1396.073413
 30
0.0
 10
1469.117250
 20
1395.748500
 30
0.0
 10
1474.640240
 20
1395.744820
 30
0.0
 10
1480.396669
 20
1396.083954
 30
0.0
  0
LWPOLYLINE
  5
111
100
AcDbEntity
  8
0
 62
7
100
AcDbPolyline
 90
15
 70
0
 10
1405.417416
 20
1488.894522
 30
0.0
 10
1434.765280
 20
1483.454426
 30
0.0
 10
1449.929517
 20
1480.327433
 30
0.0
 10
1465.510138
 20
1476.507717
 30
0.0
 10
1473.129709
 20
1474.216427
 30
0.0
 10
1478.724298
 20
1472.259849
 30
0.0
 10
1484.153124
 20
1470.066885
 30
0.0
 10
1491.883781
 20
1466.271204
 30
0.0
 10
1499.045539
 20
1461.765368
 30
0.0
 10
1505.144902
 20
1456.829192
 30
0.0
 10
1510.604252
 20
1451.141663
 30
0.0
 10
1515.384604
 20
1444.667732
 30
0.0
 10
1519.462412
 20
1437.385325
 30
0.0
 10
1522.825294
 20
1429.283409
 30
0.0
 10
1525.468470
 20
1420.357578
 30
0.0
  0
LWPOLYLINE
  5
112
100
AcDbEntity
  8
0
 62
7
100
AcDbPolyline
 90
41
 70
0
 10
984.845656
 20
1354.676157
 30
0.0
 10
988.751327
 20
1343.216997
 30
0.0
 10
993.305092
 20
1332.153861
 30
0.0
 10
998.501088
 20
1321.483320
 30
0.0
 10
1002.779110
 20
1313.786869
 30
0.0
 10
1007.394185
 20
1306.297012
 30
0.0
 10
1012.401972
 20
1298.901688
 30
0.0
 10
1017.715300
 20
1291.694925
 30
0.0
 10
1026.262528
 20
1281.105916
 30
0.0
 10
1032.236952
 20
1274.221006
 30
0.0
 10
1044.613587
 20
1260.732203
 30
0.0
 10
1063.376234
 20
1240.688418
 30
0.0
 10
1072.428114
 20
1230.501807
 30
0.0
 10
1078.934905
 20
1222.705188
 30
0.0
 10
1085.140692
 20
1214.736542
 30
0.0
 10
1090.675449
 20
1207.056895
 30
0.0
 10
1095.899638
 20
1199.191615
 30
0.0
 10
1101.413792
 20
1190.121582
 30
0.0
 10
1106.585144
 20
1180.831481
 30
0.0
 10
1114.614099
 20
1165.101038
 30
0.0
 10
1121.617449
 20
1150.938992
 30
0.0
 10
1125.226902
 20
1143.882065
 30
0.0
 10
1130.932998
 20
1133.429275
 30
0.0
 10
1135.568426
 20
1125.683657
 30
0.0
 10
1140.522939
 20
1118.140220
 30
0.0
 10
1147.663369
 20
1108.474019
 30
0.0
 10
1155.427316
 20
1099.340790
 30
0.0
 10
1163.802702
 20
1090.819304
 30
0.0
 10
1173.075030
 20
1082.723032
 30
0.0
 10
1182.954271
 20
1075.397105
 30
0.0
 10
1193.425821
 20
1068.875357
 30
0.0
 10
1204.480613
 20
1063.178637
 30
0.0
 10
1216.114248
 20
1058.317611
 30
0.0
 10
1228.324621
 20
1054.296445
 30
0.0
 10
1244.130710
 20
1051.412284
 30
0.0
 10
1259.956783
 20
1049.383245
 30
0.0
 10
1275.802968
 20
1048.209279
 30
0.0
 10
1294.630115
 20
1047.925505
 30
0.0
 10
1313.485699
 20
1048.845433
 30
0.0
 10
1332.369494
 20
1050.969115
 30
0.0
 10
1351.281473
 20
1054.296445
 30
0.0
  0
LWPOLYLINE
  5
113
100
AcDbEntity
  8
0
 62
7
100
AcDbPolyline
 90
44
 70
0
 10
1841.893727
 20
741.200666
 30
0.0
 10
1854.138064
 20
742.310263
 30
0.0
 10
1866.369648
 20
743.750105
 30
0.0
 10
1878.700425
 20
745.536623
 30
0.0
 10
1891.018692
 20
747.654367
 30
0.0
 10
1907.349545
 20
750.964218
 30
0.0
 10
1923.660658
 20
754.815325
 30
0.0
 10
1945.382811
 20
760.705583
 30
0.0
 10
1959.852234
 20
765.031977
 30
0.0
 10
1988.782982
 20
774.287813
 30
0.0
 10
2015.565160
 20
782.905904
 30
0.0
 10
2028.982975
 20
786.939945
 30
0.0
 10
2049.163092
 20
792.292507
 30
0.0
 10
2064.351481
 20
795.545957
 30
0.0
 10
2079.593331
 20
797.991863
 30
0.0
 10
2094.892685
 20
799.536407
 30
0.0
 10
2110.249542
 20
800.144425
 30
0.0
 10
2125.659118
 20
799.853783
 30
0.0
 10
2143.566578
 20
798.563761
 30
0.0
 10
2155.523646
 20
797.295265
 30
0.0
 10
2179.438514
 20
794.385536
 30
0.0
 10
2195.348701
 20
792.651561
 30
0.0
 10
2203.285099
 20
791.977952
 30
0.0
 10
2215.158664
 20
791.319733
 30
0.0
 10
2224.035955
 20
791.161815
 30
0.0
 10
2232.887003
 20
791.331752
 30
0.0
 10
2244.892252
 20
792.129311
 30
0.0
 10
2256.847727
 20
793.592637
 30
0.0
 10
2268.756610
 20
795.696826
 30
0.0
 10
2283.220394
 20
799.039052
 30
0.0
 10
2297.639790
 20
803.079896
 30
0.0
 10
2311.658991
 20
807.493158
 30
0.0
 10
2339.696182
 20
816.897841
 30
0.0
 10
2358.441666
 20
822.958883
 30
0.0
 10
2367.843222
 20
825.777822
 30
0.0
 10
2381.991166
 20
829.633586
 30
0.0
 10
2397.992446
 20
833.326106
 30
0.0
 10
2414.082492
 20
836.225099
 30
0.0
 10
2432.967998
 20
838.499780
 30
0.0
 10
2442.461757
 20
839.166026
 30
0.0
 10
2451.990087
 20
839.509390
 30
0.0
 10
2464.749134
 20
839.458205
 30
0.0
 10
2477.570712
 20
838.820457
 30
0.0
 10
2490.455299
 20
837.594077
 30
0.0
  0
LWPOLYLINE
  5
114
100
AcDbEntity
  8
0
 62
7
100
AcDbPolyline
 90
34
 70
0
 10
2542.299954
 20
837.594077
 30
0.0
 10
2537.855677
 20
852.649988
 30
0.0
 10
2532.526894
 20
866.531571
 30
0.0
 10
2529.519823
 20
873.056503
 30
0.0
 10
2526.291071
 20
879.286995
 30
0.0
 10
2522.868358
 20
885.181178
 30
0.0
 10
2519.229362
 20
890.787960
 30
0.0
 10
2514.023932
 20
897.845627
 30
0.0
 10
2508.440372
 20
904.398820
 30
0.0
 10
2502.485320
 20
910.456194
 30
0.0
 10
2497.781112
 20
914.680338
 30
0.0
 10
2492.878031
 20
918.637441
 30
0.0
 10
2487.781718
 20
922.334057
 30
0.0
 10
2482.498797
 20
925.777985
 30
0.0
 10
2472.107553
 20
931.589408
 30
0.0
 10
2461.142753
 20
936.610186
 30
0.0
 10
2449.670602
 20
940.919482
 30
0.0
 10
2435.100642
 20
945.338993
 30
0.0
 10
2420.026271
 20
948.998345
 30
0.0
 10
2405.005118
 20
951.992484
 30
0.0
 10
2394.863252
 20
953.753930
 30
0.0
 10
2374.427254
 20
956.902065
 30
0.0
 10
2330.939540
 20
963.019636
 30
0.0
 10
2288.615862
 20
969.558180
 30
0.0
 10
2259.044612
 20
974.804131
 30
0.0
 10
2239.644646
 20
978.509829
 30
0.0
 10
2201.245880
 20
986.120325
 30
0.0
 10
2162.829835
 20
993.493216
 30
0.0
 10
2143.445808
 20
996.933897
 30
0.0
 10
2114.016293
 20
1001.663793
 30
0.0
 10
2088.540992
 20
1005.217696
 30
0.0
 10
2062.643806
 20
1008.290613
 30
0.0
 10
2026.154290
 20
1011.700276
 30
0.0
 10
1988.782982
 20
1014.121593
 30
0.0
  0
ENDSEC
  0
SECTION
  2
OBJECTS
  0
DICTIONARY
  5
C
330
0
100
AcDbDictionary
  3
ACAD_GROUP
350
D
  3
ACAD_MLINESTYLE
350
17
  0
DICTIONARY
  5
D
330
C
100
AcDbDictionary
  0
DICTIONARY
  5
1A
330
C
100
AcDbDictionary
  0
DICTIONARY
  5
17
330
C
100
AcDbDictionary
  3
STANDARD
350
18
  0
DICTIONARY
  5
19
330
C
100
AcDbDictionary
  0
ENDSEC
  0
EOF
