ISO-10303-21;
HEADER;
/* Generated by software containing ST-Developer
 * from STEP Tools, Inc. (www.steptools.com) 
 */

FILE_DESCRIPTION(
/* description */ (''),
/* implementation_level */ '2;1');

FILE_NAME(
/* name */ 'E:\\Dropbox\\moped\\rahmen\\profile\\gabelkopf.stp',
/* time_stamp */ '2017-05-12T13:40:02+02:00',
/* author */ ('Thierry'),
/* organization */ (''),
/* preprocessor_version */ 'ST-DEVELOPER v16.1',
/* originating_system */ 'Autodesk Inventor 2016',
/* authorisation */ '');

FILE_SCHEMA (('AUTOMOTIVE_DESIGN { 1 0 10303 214 3 1 1 }'));
ENDSEC;

DATA;
#10=MECHANICAL_DESIGN_GEOMETRIC_PRESENTATION_REPRESENTATION('',(#13),#317);
#11=SHAPE_REPRESENTATION_RELATIONSHIP('SRR','None',#326,#12);
#12=ADVANCED_BREP_SHAPE_REPRESENTATION('',(#14),#316);
#13=STYLED_ITEM('',(#335),#14);
#14=MANIFOLD_SOLID_BREP('Volumenk\X\F6rper1',#185);
#15=LINE('',#276,#27);
#16=LINE('',#279,#28);
#17=LINE('',#284,#29);
#18=LINE('',#291,#30);
#19=LINE('',#299,#31);
#20=LINE('',#301,#32);
#21=LINE('',#302,#33);
#22=LINE('',#305,#34);
#23=LINE('',#307,#35);
#24=LINE('',#308,#36);
#25=LINE('',#310,#37);
#26=LINE('',#311,#38);
#27=VECTOR('',#222,30.);
#28=VECTOR('',#225,30.);
#29=VECTOR('',#230,30.);
#30=VECTOR('',#239,30.);
#31=VECTOR('',#248,47.6393202250021);
#32=VECTOR('',#249,30.);
#33=VECTOR('',#250,47.6393202250021);
#34=VECTOR('',#253,47.6393202250021);
#35=VECTOR('',#254,30.);
#36=VECTOR('',#255,47.6393202250021);
#37=VECTOR('',#258,30.);
#38=VECTOR('',#259,30.);
#39=PLANE('',#190);
#40=PLANE('',#203);
#41=PLANE('',#204);
#42=PLANE('',#205);
#43=PLANE('',#206);
#44=PLANE('',#207);
#45=FACE_BOUND('',#62,.T.);
#46=FACE_BOUND('',#68,.T.);
#47=FACE_BOUND('',#70,.T.);
#48=FACE_BOUND('',#72,.T.);
#49=FACE_BOUND('',#74,.T.);
#50=FACE_OUTER_BOUND('',#61,.T.);
#51=FACE_OUTER_BOUND('',#63,.T.);
#52=FACE_OUTER_BOUND('',#64,.T.);
#53=FACE_OUTER_BOUND('',#65,.T.);
#54=FACE_OUTER_BOUND('',#66,.T.);
#55=FACE_OUTER_BOUND('',#67,.T.);
#56=FACE_OUTER_BOUND('',#69,.T.);
#57=FACE_OUTER_BOUND('',#71,.T.);
#58=FACE_OUTER_BOUND('',#73,.T.);
#59=FACE_OUTER_BOUND('',#75,.T.);
#60=FACE_OUTER_BOUND('',#76,.T.);
#61=EDGE_LOOP('',(#125));
#62=EDGE_LOOP('',(#126));
#63=EDGE_LOOP('',(#127));
#64=EDGE_LOOP('',(#128,#129,#130,#131));
#65=EDGE_LOOP('',(#132,#133,#134,#135));
#66=EDGE_LOOP('',(#136,#137,#138,#139));
#67=EDGE_LOOP('',(#140));
#68=EDGE_LOOP('',(#141));
#69=EDGE_LOOP('',(#142,#143,#144,#145,#146,#147));
#70=EDGE_LOOP('',(#148));
#71=EDGE_LOOP('',(#149,#150,#151,#152,#153,#154));
#72=EDGE_LOOP('',(#155));
#73=EDGE_LOOP('',(#156,#157,#158,#159));
#74=EDGE_LOOP('',(#160));
#75=EDGE_LOOP('',(#161,#162,#163,#164));
#76=EDGE_LOOP('',(#165,#166,#167,#168));
#77=CIRCLE('',#188,8.);
#78=CIRCLE('',#189,8.);
#79=CIRCLE('',#192,5.);
#80=CIRCLE('',#193,5.);
#81=CIRCLE('',#195,25.);
#82=CIRCLE('',#196,25.);
#83=CIRCLE('',#198,5.);
#84=CIRCLE('',#199,5.);
#85=CIRCLE('',#201,15.);
#86=CIRCLE('',#202,15.);
#87=VERTEX_POINT('',#266);
#88=VERTEX_POINT('',#268);
#89=VERTEX_POINT('',#272);
#90=VERTEX_POINT('',#273);
#91=VERTEX_POINT('',#275);
#92=VERTEX_POINT('',#277);
#93=VERTEX_POINT('',#281);
#94=VERTEX_POINT('',#283);
#95=VERTEX_POINT('',#287);
#96=VERTEX_POINT('',#289);
#97=VERTEX_POINT('',#293);
#98=VERTEX_POINT('',#295);
#99=VERTEX_POINT('',#298);
#100=VERTEX_POINT('',#300);
#101=VERTEX_POINT('',#304);
#102=VERTEX_POINT('',#306);
#103=EDGE_CURVE('',#87,#87,#77,.T.);
#104=EDGE_CURVE('',#88,#88,#78,.T.);
#105=EDGE_CURVE('',#89,#90,#79,.T.);
#106=EDGE_CURVE('',#90,#91,#15,.T.);
#107=EDGE_CURVE('',#91,#92,#80,.T.);
#108=EDGE_CURVE('',#92,#89,#16,.T.);
#109=EDGE_CURVE('',#93,#90,#81,.T.);
#110=EDGE_CURVE('',#94,#93,#17,.T.);
#111=EDGE_CURVE('',#91,#94,#82,.T.);
#112=EDGE_CURVE('',#95,#94,#83,.T.);
#113=EDGE_CURVE('',#93,#96,#84,.T.);
#114=EDGE_CURVE('',#96,#95,#18,.T.);
#115=EDGE_CURVE('',#97,#97,#85,.T.);
#116=EDGE_CURVE('',#98,#98,#86,.T.);
#117=EDGE_CURVE('',#95,#99,#19,.T.);
#118=EDGE_CURVE('',#99,#100,#20,.T.);
#119=EDGE_CURVE('',#100,#92,#21,.T.);
#120=EDGE_CURVE('',#89,#101,#22,.T.);
#121=EDGE_CURVE('',#101,#102,#23,.T.);
#122=EDGE_CURVE('',#102,#96,#24,.T.);
#123=EDGE_CURVE('',#102,#99,#25,.T.);
#124=EDGE_CURVE('',#101,#100,#26,.T.);
#125=ORIENTED_EDGE('',*,*,#103,.T.);
#126=ORIENTED_EDGE('',*,*,#104,.F.);
#127=ORIENTED_EDGE('',*,*,#103,.F.);
#128=ORIENTED_EDGE('',*,*,#105,.T.);
#129=ORIENTED_EDGE('',*,*,#106,.T.);
#130=ORIENTED_EDGE('',*,*,#107,.T.);
#131=ORIENTED_EDGE('',*,*,#108,.T.);
#132=ORIENTED_EDGE('',*,*,#106,.F.);
#133=ORIENTED_EDGE('',*,*,#109,.F.);
#134=ORIENTED_EDGE('',*,*,#110,.F.);
#135=ORIENTED_EDGE('',*,*,#111,.F.);
#136=ORIENTED_EDGE('',*,*,#112,.T.);
#137=ORIENTED_EDGE('',*,*,#110,.T.);
#138=ORIENTED_EDGE('',*,*,#113,.T.);
#139=ORIENTED_EDGE('',*,*,#114,.T.);
#140=ORIENTED_EDGE('',*,*,#115,.F.);
#141=ORIENTED_EDGE('',*,*,#116,.F.);
#142=ORIENTED_EDGE('',*,*,#111,.T.);
#143=ORIENTED_EDGE('',*,*,#112,.F.);
#144=ORIENTED_EDGE('',*,*,#117,.T.);
#145=ORIENTED_EDGE('',*,*,#118,.T.);
#146=ORIENTED_EDGE('',*,*,#119,.T.);
#147=ORIENTED_EDGE('',*,*,#107,.F.);
#148=ORIENTED_EDGE('',*,*,#115,.T.);
#149=ORIENTED_EDGE('',*,*,#109,.T.);
#150=ORIENTED_EDGE('',*,*,#105,.F.);
#151=ORIENTED_EDGE('',*,*,#120,.T.);
#152=ORIENTED_EDGE('',*,*,#121,.T.);
#153=ORIENTED_EDGE('',*,*,#122,.T.);
#154=ORIENTED_EDGE('',*,*,#113,.F.);
#155=ORIENTED_EDGE('',*,*,#116,.T.);
#156=ORIENTED_EDGE('',*,*,#123,.F.);
#157=ORIENTED_EDGE('',*,*,#121,.F.);
#158=ORIENTED_EDGE('',*,*,#124,.T.);
#159=ORIENTED_EDGE('',*,*,#118,.F.);
#160=ORIENTED_EDGE('',*,*,#104,.T.);
#161=ORIENTED_EDGE('',*,*,#108,.F.);
#162=ORIENTED_EDGE('',*,*,#119,.F.);
#163=ORIENTED_EDGE('',*,*,#124,.F.);
#164=ORIENTED_EDGE('',*,*,#120,.F.);
#165=ORIENTED_EDGE('',*,*,#114,.F.);
#166=ORIENTED_EDGE('',*,*,#122,.F.);
#167=ORIENTED_EDGE('',*,*,#123,.T.);
#168=ORIENTED_EDGE('',*,*,#117,.F.);
#169=CYLINDRICAL_SURFACE('',#187,8.);
#170=CYLINDRICAL_SURFACE('',#191,5.);
#171=CYLINDRICAL_SURFACE('',#194,25.);
#172=CYLINDRICAL_SURFACE('',#197,5.);
#173=CYLINDRICAL_SURFACE('',#200,15.);
#174=ADVANCED_FACE('',(#50,#45),#169,.F.);
#175=ADVANCED_FACE('',(#51),#39,.T.);
#176=ADVANCED_FACE('',(#52),#170,.F.);
#177=ADVANCED_FACE('',(#53),#171,.T.);
#178=ADVANCED_FACE('',(#54),#172,.F.);
#179=ADVANCED_FACE('',(#55,#46),#173,.F.);
#180=ADVANCED_FACE('',(#56,#47),#40,.F.);
#181=ADVANCED_FACE('',(#57,#48),#41,.T.);
#182=ADVANCED_FACE('',(#58,#49),#42,.T.);
#183=ADVANCED_FACE('',(#59),#43,.T.);
#184=ADVANCED_FACE('',(#60),#44,.T.);
#185=CLOSED_SHELL('',(#174,#175,#176,#177,#178,#179,#180,#181,#182,#183,
#184));
#186=AXIS2_PLACEMENT_3D('placement',#264,#208,#209);
#187=AXIS2_PLACEMENT_3D('',#265,#210,#211);
#188=AXIS2_PLACEMENT_3D('',#267,#212,#213);
#189=AXIS2_PLACEMENT_3D('',#269,#214,#215);
#190=AXIS2_PLACEMENT_3D('',#270,#216,#217);
#191=AXIS2_PLACEMENT_3D('',#271,#218,#219);
#192=AXIS2_PLACEMENT_3D('',#274,#220,#221);
#193=AXIS2_PLACEMENT_3D('',#278,#223,#224);
#194=AXIS2_PLACEMENT_3D('',#280,#226,#227);
#195=AXIS2_PLACEMENT_3D('',#282,#228,#229);
#196=AXIS2_PLACEMENT_3D('',#285,#231,#232);
#197=AXIS2_PLACEMENT_3D('',#286,#233,#234);
#198=AXIS2_PLACEMENT_3D('',#288,#235,#236);
#199=AXIS2_PLACEMENT_3D('',#290,#237,#238);
#200=AXIS2_PLACEMENT_3D('',#292,#240,#241);
#201=AXIS2_PLACEMENT_3D('',#294,#242,#243);
#202=AXIS2_PLACEMENT_3D('',#296,#244,#245);
#203=AXIS2_PLACEMENT_3D('',#297,#246,#247);
#204=AXIS2_PLACEMENT_3D('',#303,#251,#252);
#205=AXIS2_PLACEMENT_3D('',#309,#256,#257);
#206=AXIS2_PLACEMENT_3D('',#312,#260,#261);
#207=AXIS2_PLACEMENT_3D('',#313,#262,#263);
#208=DIRECTION('axis',(0.,0.,1.));
#209=DIRECTION('refdir',(1.,0.,0.));
#210=DIRECTION('center_axis',(-1.,0.,0.));
#211=DIRECTION('ref_axis',(0.,0.,1.));
#212=DIRECTION('center_axis',(-1.,0.,0.));
#213=DIRECTION('ref_axis',(0.,0.,1.));
#214=DIRECTION('center_axis',(-1.,0.,0.));
#215=DIRECTION('ref_axis',(0.,0.,1.));
#216=DIRECTION('center_axis',(1.,0.,0.));
#217=DIRECTION('ref_axis',(0.,0.,-1.));
#218=DIRECTION('center_axis',(0.,0.,-1.));
#219=DIRECTION('ref_axis',(-0.408248290463863,0.912870929175277,0.));
#220=DIRECTION('center_axis',(0.,0.,1.));
#221=DIRECTION('ref_axis',(-0.408248290463863,0.912870929175277,0.));
#222=DIRECTION('',(0.,0.,-1.));
#223=DIRECTION('center_axis',(0.,0.,-1.));
#224=DIRECTION('ref_axis',(-0.408248290463863,0.912870929175277,0.));
#225=DIRECTION('',(0.,0.,1.));
#226=DIRECTION('center_axis',(0.,0.,1.));
#227=DIRECTION('ref_axis',(-1.,0.,0.));
#228=DIRECTION('center_axis',(0.,0.,1.));
#229=DIRECTION('ref_axis',(-1.,0.,0.));
#230=DIRECTION('',(0.,0.,1.));
#231=DIRECTION('center_axis',(0.,0.,-1.));
#232=DIRECTION('ref_axis',(-1.,0.,0.));
#233=DIRECTION('center_axis',(0.,0.,1.));
#234=DIRECTION('ref_axis',(-0.408248290463863,-0.912870929175277,0.));
#235=DIRECTION('center_axis',(0.,0.,-1.));
#236=DIRECTION('ref_axis',(-0.408248290463863,-0.912870929175277,0.));
#237=DIRECTION('center_axis',(0.,0.,1.));
#238=DIRECTION('ref_axis',(-0.408248290463863,-0.912870929175277,0.));
#239=DIRECTION('',(0.,0.,-1.));
#240=DIRECTION('center_axis',(0.,0.,1.));
#241=DIRECTION('ref_axis',(-1.,0.,0.));
#242=DIRECTION('center_axis',(0.,0.,1.));
#243=DIRECTION('ref_axis',(-1.,0.,0.));
#244=DIRECTION('center_axis',(0.,0.,-1.));
#245=DIRECTION('ref_axis',(-1.,0.,0.));
#246=DIRECTION('center_axis',(0.,0.,1.));
#247=DIRECTION('ref_axis',(1.,0.,0.));
#248=DIRECTION('',(1.,0.,0.));
#249=DIRECTION('',(0.,-1.,0.));
#250=DIRECTION('',(-1.,4.44089209850063E-17,0.));
#251=DIRECTION('center_axis',(0.,0.,1.));
#252=DIRECTION('ref_axis',(1.,0.,0.));
#253=DIRECTION('',(1.,-4.44089209850063E-17,0.));
#254=DIRECTION('',(0.,1.,0.));
#255=DIRECTION('',(-1.,0.,0.));
#256=DIRECTION('center_axis',(1.,0.,0.));
#257=DIRECTION('ref_axis',(0.,1.,0.));
#258=DIRECTION('',(0.,0.,-1.));
#259=DIRECTION('',(0.,0.,-1.));
#260=DIRECTION('center_axis',(-4.44089209850063E-17,-1.,0.));
#261=DIRECTION('ref_axis',(1.,0.,0.));
#262=DIRECTION('center_axis',(0.,1.,0.));
#263=DIRECTION('ref_axis',(-1.,0.,0.));
#264=CARTESIAN_POINT('',(0.,0.,0.));
#265=CARTESIAN_POINT('Origin',(70.,0.,0.));
#266=CARTESIAN_POINT('',(30.,9.79717439317883E-16,-8.));
#267=CARTESIAN_POINT('Origin',(30.,0.,0.));
#268=CARTESIAN_POINT('',(70.,9.79717439317883E-16,-8.));
#269=CARTESIAN_POINT('Origin',(70.,0.,0.));
#270=CARTESIAN_POINT('Origin',(30.,0.,5.44236046870305E-16));
#271=CARTESIAN_POINT('Origin',(22.3606797749979,-20.,0.));
#272=CARTESIAN_POINT('',(22.3606797749979,-15.,15.));
#273=CARTESIAN_POINT('',(18.6338998124983,-16.6666666666667,15.));
#274=CARTESIAN_POINT('Origin',(22.3606797749979,-20.,15.));
#275=CARTESIAN_POINT('',(18.6338998124983,-16.6666666666667,-15.));
#276=CARTESIAN_POINT('',(18.6338998124983,-16.6666666666667,0.));
#277=CARTESIAN_POINT('',(22.3606797749979,-15.,-15.));
#278=CARTESIAN_POINT('Origin',(22.3606797749979,-20.,-15.));
#279=CARTESIAN_POINT('',(22.3606797749979,-15.,0.));
#280=CARTESIAN_POINT('Origin',(0.,0.,0.));
#281=CARTESIAN_POINT('',(18.6338998124983,16.6666666666667,15.));
#282=CARTESIAN_POINT('Origin',(0.,0.,15.));
#283=CARTESIAN_POINT('',(18.6338998124983,16.6666666666667,-15.));
#284=CARTESIAN_POINT('',(18.6338998124983,16.6666666666667,0.));
#285=CARTESIAN_POINT('Origin',(0.,0.,-15.));
#286=CARTESIAN_POINT('Origin',(22.3606797749979,20.,0.));
#287=CARTESIAN_POINT('',(22.3606797749979,15.,-15.));
#288=CARTESIAN_POINT('Origin',(22.3606797749979,20.,-15.));
#289=CARTESIAN_POINT('',(22.3606797749979,15.,15.));
#290=CARTESIAN_POINT('Origin',(22.3606797749979,20.,15.));
#291=CARTESIAN_POINT('',(22.3606797749979,15.,0.));
#292=CARTESIAN_POINT('Origin',(0.,0.,0.));
#293=CARTESIAN_POINT('',(15.,1.83697019872103E-15,-15.));
#294=CARTESIAN_POINT('Origin',(0.,0.,-15.));
#295=CARTESIAN_POINT('',(15.,1.83697019872103E-15,15.));
#296=CARTESIAN_POINT('Origin',(0.,0.,15.));
#297=CARTESIAN_POINT('Origin',(-1.43937264275587E-15,-5.9211894646675E-16,
-15.));
#298=CARTESIAN_POINT('',(70.,15.,-15.));
#299=CARTESIAN_POINT('',(20.,15.,-15.));
#300=CARTESIAN_POINT('',(70.,-15.,-15.));
#301=CARTESIAN_POINT('',(70.,15.,-15.));
#302=CARTESIAN_POINT('',(70.,-15.,-15.));
#303=CARTESIAN_POINT('Origin',(-1.43937264275587E-15,-5.9211894646675E-16,
15.));
#304=CARTESIAN_POINT('',(70.,-15.,15.));
#305=CARTESIAN_POINT('',(70.,-15.,15.));
#306=CARTESIAN_POINT('',(70.,15.,15.));
#307=CARTESIAN_POINT('',(70.,15.,15.));
#308=CARTESIAN_POINT('',(20.,15.,15.));
#309=CARTESIAN_POINT('Origin',(70.,-15.,0.));
#310=CARTESIAN_POINT('',(70.,15.,0.));
#311=CARTESIAN_POINT('',(70.,-15.,0.));
#312=CARTESIAN_POINT('Origin',(20.,-15.,0.));
#313=CARTESIAN_POINT('Origin',(70.,15.,0.));
#314=UNCERTAINTY_MEASURE_WITH_UNIT(LENGTH_MEASURE(0.01),#318,
'DISTANCE_ACCURACY_VALUE',
'Maximum model space distance between geometric entities at asserted c
onnectivities');
#315=UNCERTAINTY_MEASURE_WITH_UNIT(LENGTH_MEASURE(1.E-6),#318,
'DISTANCE_ACCURACY_VALUE',
'Maximum model space distance between geometric entities at asserted c
onnectivities');
#316=(
GEOMETRIC_REPRESENTATION_CONTEXT(3)
GLOBAL_UNCERTAINTY_ASSIGNED_CONTEXT((#314))
GLOBAL_UNIT_ASSIGNED_CONTEXT((#318,#321,#319))
REPRESENTATION_CONTEXT('','3D')
);
#317=(
GEOMETRIC_REPRESENTATION_CONTEXT(3)
GLOBAL_UNCERTAINTY_ASSIGNED_CONTEXT((#315))
GLOBAL_UNIT_ASSIGNED_CONTEXT((#318,#321,#319))
REPRESENTATION_CONTEXT('','3D')
);
#318=(
LENGTH_UNIT()
NAMED_UNIT(*)
SI_UNIT(.MILLI.,.METRE.)
);
#319=(
NAMED_UNIT(*)
SI_UNIT($,.STERADIAN.)
SOLID_ANGLE_UNIT()
);
#320=DIMENSIONAL_EXPONENTS(0.,0.,0.,0.,0.,0.,0.);
#321=(
CONVERSION_BASED_UNIT('degree',#323)
NAMED_UNIT(#320)
PLANE_ANGLE_UNIT()
);
#322=(
NAMED_UNIT(*)
PLANE_ANGLE_UNIT()
SI_UNIT($,.RADIAN.)
);
#323=PLANE_ANGLE_MEASURE_WITH_UNIT(PLANE_ANGLE_MEASURE(0.01745329252),#322);
#324=SHAPE_DEFINITION_REPRESENTATION(#325,#326);
#325=PRODUCT_DEFINITION_SHAPE('',$,#328);
#326=SHAPE_REPRESENTATION('',(#186),#316);
#327=PRODUCT_DEFINITION_CONTEXT('part definition',#332,'design');
#328=PRODUCT_DEFINITION('gabelkopf','gabelkopf',#329,#327);
#329=PRODUCT_DEFINITION_FORMATION('',$,#334);
#330=PRODUCT_RELATED_PRODUCT_CATEGORY('gabelkopf','gabelkopf',(#334));
#331=APPLICATION_PROTOCOL_DEFINITION('international standard',
'automotive_design',2009,#332);
#332=APPLICATION_CONTEXT(
'Core Data for Automotive Mechanical Design Process');
#333=PRODUCT_CONTEXT('part definition',#332,'mechanical');
#334=PRODUCT('gabelkopf','gabelkopf',$,(#333));
#335=PRESENTATION_STYLE_ASSIGNMENT((#336));
#336=SURFACE_STYLE_USAGE(.BOTH.,#337);
#337=SURFACE_SIDE_STYLE('',(#338));
#338=SURFACE_STYLE_FILL_AREA(#339);
#339=FILL_AREA_STYLE('',(#340));
#340=FILL_AREA_STYLE_COLOUR('',#341);
#341=COLOUR_RGB('',0.749019607843137,0.749019607843137,0.749019607843137);
ENDSEC;
END-ISO-10303-21;
