  0
SECTION
  2
HEADER
  9
$ACADVER
  1
AC1009
  9
$DWGCODEPAGE
  3
ansi_1252
  9
$INSBASE
 10
0.0
 20
0.0
 30
0.0
  9
$EXTMIN
 10
0.0
 20
-30.0
 30
0.0
  9
$EXTMAX
 10
960.0000267028809
 20
30.0
 30
158.0
  9
$LIMMIN
 10
0.0
 20
0.0
  9
$LIMMAX
 10
420.0
 20
297.0
  9
$ORTHOMODE
 70
     0
  9
$REGENMODE
 70
     1
  9
$FILLMODE
 70
     1
  9
$QTEXTMODE
 70
     0
  9
$MIRRTEXT
 70
     1
  9
$DRAGMODE
 70
     2
  9
$LTSCALE
 40
1.0
  9
$OSMODE
 70
    37
  9
$ATTMODE
 70
     1
  9
$TEXTSIZE
 40
2.5
  9
$TRACEWID
 40
1.0
  9
$TEXTSTYLE
  7
STANDARD
  9
$CLAYER
  8
0
  9
$CELTYPE
  6
BYLAYER
  9
$CECOLOR
 62
   256
  9
$DIMSCALE
 40
1.0
  9
$DIMASZ
 40
2.5
  9
$DIMEXO
 40
0.625
  9
$DIMDLI
 40
3.75
  9
$DIMRND
 40
0.0
  9
$DIMDLE
 40
0.0
  9
$DIMEXE
 40
1.25
  9
$DIMTP
 40
0.0
  9
$DIMTM
 40
0.0
  9
$DIMTXT
 40
2.5
  9
$DIMCEN
 40
2.5
  9
$DIMTSZ
 40
0.0
  9
$DIMTOL
 70
     0
  9
$DIMLIM
 70
     0
  9
$DIMTIH
 70
     0
  9
$DIMTOH
 70
     0
  9
$DIMSE1
 70
     0
  9
$DIMSE2
 70
     0
  9
$DIMTAD
 70
     1
  9
$DIMZIN
 70
     8
  9
$DIMBLK
  1

  9
$DIMASO
 70
     1
  9
$DIMSHO
 70
     1
  9
$DIMPOST
  1

  9
$DIMAPOST
  1

  9
$DIMALT
 70
     0
  9
$DIMALTD
 70
     3
  9
$DIMALTF
 40
0.03937007874016
  9
$DIMLFAC
 40
1.0
  9
$DIMTOFL
 70
     1
  9
$DIMTVP
 40
0.0
  9
$DIMTIX
 70
     0
  9
$DIMSOXD
 70
     0
  9
$DIMSAH
 70
     0
  9
$DIMBLK1
  1

  9
$DIMBLK2
  1

  9
$DIMSTYLE
  2
ISO-25
  9
$DIMCLRD
 70
     0
  9
$DIMCLRE
 70
     0
  9
$DIMCLRT
 70
     0
  9
$DIMTFAC
 40
1.0
  9
$DIMGAP
 40
0.625
  9
$LUNITS
 70
     2
  9
$LUPREC
 70
     4
  9
$SKETCHINC
 40
1.0
  9
$FILLETRAD
 40
10.0
  9
$AUNITS
 70
     0
  9
$AUPREC
 70
     0
  9
$MENU
  1
.
  9
$ELEVATION
 40
0.0
  9
$PELEVATION
 40
0.0
  9
$THICKNESS
 40
0.0
  9
$LIMCHECK
 70
     0
  9
$CHAMFERA
 40
10.0
  9
$CHAMFERB
 40
10.0
  9
$SKPOLY
 70
     0
  9
$TDCREATE
 40
2305814.921273148
  9
$TDUPDATE
 40
2457335.879619653
  9
$TDINDWG
 40
0.0000000116
  9
$TDUSRTIMER
 40
0.0000000116
  9
$USRTIMER
 70
     1
  9
$ANGBASE
 50
0.0
  9
$ANGDIR
 70
     0
  9
$PDMODE
 70
     0
  9
$PDSIZE
 40
0.0
  9
$PLINEWID
 40
0.0
  9
$COORDS
 70
     1
  9
$SPLFRAME
 70
     0
  9
$SPLINETYPE
 70
     6
  9
$SPLINESEGS
 70
     8
  9
$ATTDIA
 70
     0
  9
$ATTREQ
 70
     1
  9
$HANDLING
 70
     1
  9
$HANDSEED
  5
D8A
  9
$SURFTAB1
 70
     6
  9
$SURFTAB2
 70
     6
  9
$SURFTYPE
 70
     6
  9
$SURFU
 70
     6
  9
$SURFV
 70
     6
  9
$UCSNAME
  2

  9
$UCSORG
 10
0.0
 20
0.0
 30
0.0
  9
$UCSXDIR
 10
1.0
 20
0.0
 30
0.0
  9
$UCSYDIR
 10
0.0
 20
1.0
 30
0.0
  9
$PUCSNAME
  2

  9
$PUCSORG
 10
0.0
 20
0.0
 30
0.0
  9
$PUCSXDIR
 10
1.0
 20
0.0
 30
0.0
  9
$PUCSYDIR
 10
0.0
 20
1.0
 30
0.0
  9
$USERI1
 70
     0
  9
$USERI2
 70
     0
  9
$USERI3
 70
     0
  9
$USERI4
 70
     0
  9
$USERI5
 70
     0
  9
$USERR1
 40
0.0
  9
$USERR2
 40
0.0
  9
$USERR3
 40
0.0
  9
$USERR4
 40
0.0
  9
$USERR5
 40
0.0
  9
$WORLDVIEW
 70
     1
  9
$SHADEDGE
 70
     3
  9
$SHADEDIF
 70
    70
  9
$TILEMODE
 70
     1
  9
$MAXACTVP
 70
    64
  9
$PLIMCHECK
 70
     0
  9
$PEXTMIN
 10
1.000000000000000E+20
 20
1.000000000000000E+20
 30
1.000000000000000E+20
  9
$PEXTMAX
 10
-1.000000000000000E+20
 20
-1.000000000000000E+20
 30
-1.000000000000000E+20
  9
$PLIMMIN
 10
0.0
 20
0.0
  9
$PLIMMAX
 10
420.0
 20
297.0
  9
$UNITMODE
 70
     0
  9
$VISRETAIN
 70
     1
  9
$PLINEGEN
 70
     0
  9
$PSLTSCALE
 70
     1
  0
ENDSEC
  0
SECTION
  2
TABLES
  0
TABLE
  2
VPORT
 70
     1
  0
VPORT
  2
*ACTIVE
 70
     0
 10
0.0
 20
0.0
 11
1.0
 21
1.0
 12
480.0000000000015
 22
0.0
 13
0.0
 23
0.0
 14
10.0
 24
10.0
 15
10.0
 25
10.0
 16
0.0
 26
0.0
 36
1.0
 17
0.0
 27
0.0
 37
0.0
 40
61.2
 41
16.00000000000005
 42
50.0
 43
0.0
 44
0.0
 50
0.0
 51
0.0
 71
     0
 72
   100
 73
     1
 74
     3
 75
     0
 76
     0
 77
     0
 78
     0
  0
ENDTAB
  0
TABLE
  2
LTYPE
 70
    12
  0
LTYPE
  2
CONTINUOUS
 70
     0
  3
Solid line
 72
    65
 73
     0
 40
0.0
  0
LTYPE
  2
VOLLINIE
 70
     0
  3
________________________
 72
    65
 73
     0
 40
0.0
  0
LTYPE
  2
BORDER
 70
     0
  3
__ __ . __ __ . __ 
 72
    65
 73
     6
 40
0.875
 49
0.25
 49
-0.125
 49
0.25
 49
-0.125
 49
0.0
 49
-0.125
  0
LTYPE
  2
CENTER
 70
     0
  3
___ _ ___ _ ___ _ _
 72
    65
 73
     4
 40
1.125
 49
0.75
 49
-0.125
 49
0.125
 49
-0.125
  0
LTYPE
  2
DASHDOT
 70
     0
  3
_._._._._._._._._._
 72
    65
 73
     4
 40
0.5
 49
0.25
 49
-0.125
 49
0.0
 49
-0.125
  0
LTYPE
  2
DASHED
 70
     0
  3
_ _ _ _ _ _ _ _ _ _
 72
    65
 73
     2
 40
0.375
 49
0.25
 49
-0.125
  0
LTYPE
  2
DIVIDE
 70
     0
  3
__..__..__..__..__.
 72
    65
 73
     6
 40
0.625
 49
0.25
 49
-0.125
 49
0.0
 49
-0.125
 49
0.0
 49
-0.125
  0
LTYPE
  2
DOT
 70
     0
  3
...................
 72
    65
 73
     2
 40
0.125
 49
0.0
 49
-0.125
  0
LTYPE
  2
HIDDEN
 70
     0
  3
__ __ __ __ __ __ _
 72
    65
 73
     2
 40
0.1875
 49
0.125
 49
-0.0625
  0
LTYPE
  2
PHANTOM
 70
     0
  3
___ _ _ ___ _ _ ___
 72
    65
 73
     6
 40
1.25
 49
0.625
 49
-0.125
 49
0.125
 49
-0.125
 49
0.125
 49
-0.125
  0
LTYPE
  2
CUTTING
 70
     0
  3
________ _ _ ______
 72
    65
 73
     6
 40
1.4675
 49
1.0
 49
-0.0725
 49
0.125
 49
-0.0725
 49
0.125
 49
-0.0725
  0
LTYPE
  2
STITCH
 70
     0
  3
_ _ _ _ _ _ _ _ _ _
 72
    65
 73
     2
 40
0.145
 49
0.0725
 49
-0.0725
  0
ENDTAB
  0
TABLE
  2
LAYER
 70
     2
  0
LAYER
  2
0
 70
     0
 62
     7
  6
CONTINUOUS
  0
LAYER
  2
LAYER1
 70
     0
 62
     7
  6
CONTINUOUS
  0
ENDTAB
  0
TABLE
  2
STYLE
 70
     1
  0
STYLE
  2
STANDARD
 70
     0
 40
0.0
 41
1.0
 50
0.0
 71
     0
 42
2.5
  3
txt
  4

  0
ENDTAB
  0
TABLE
  2
VIEW
 70
     0
  0
ENDTAB
  0
TABLE
  2
UCS
 70
     0
  0
ENDTAB
  0
TABLE
  2
APPID
 70
     2
  0
APPID
  2
ACAD
 70
     0
  0
APPID
  2
PUNCH__SOFTWARE
 70
     0
  0
ENDTAB
  0
TABLE
  2
DIMSTYLE
 70
     1
  0
DIMSTYLE
  2
ISO-25
 70
     0
  3

  4

  5

  6

  7

 40
1.0
 41
2.5
 42
0.625
 43
3.75
 44
1.25
 45
0.0
 46
0.0
 47
0.0
 48
0.0
140
2.5
141
2.5
142
0.0
143
0.03937007874016
144
1.0
145
0.0
146
1.0
147
0.625
 71
     0
 72
     0
 73
     0
 74
     0
 75
     0
 76
     0
 77
     1
 78
     8
170
     0
171
     3
172
     1
173
     0
174
     0
175
     0
176
     0
177
     0
178
     0
  0
ENDTAB
  0
ENDSEC
  0
SECTION
  2
BLOCKS
  0
BLOCK
  8
0
  2
$MODEL_SPACE
 70
     0
 10
0.0
 20
0.0
 30
0.0
  3
$MODEL_SPACE
  1

  0
ENDBLK
  5
21
  8
0
  0
BLOCK
 67
     1
  8
0
  2
$PAPER_SPACE
 70
     0
 10
0.0
 20
0.0
 30
0.0
  3
$PAPER_SPACE
  1

  0
ENDBLK
  5
1D
 67
     1
  8
0
  0
ENDSEC
  0
SECTION
  2
ENTITIES
  0
LINE
  5
4C
  8
LAYER1
  6
VOLLINIE
 62
    18
 10
0.0
 20
0.0
 30
0.0
 11
960.0
 21
0.0
 31
0.0
  0
LINE
  5
4D
  8
LAYER1
  6
VOLLINIE
 62
    18
 10
960.0
 20
0.0
 30
0.0
 11
960.0
 21
0.0
 31
37.99999999999999
  0
LINE
  5
4E
  8
LAYER1
  6
VOLLINIE
 62
    18
 10
960.0
 20
30.0
 30
37.99999999999999
 11
960.0
 21
-30.0
 31
37.99999999999999
  0
LINE
  5
4F
  8
LAYER1
  6
VOLLINIE
 62
    18
 10
960.0
 20
0.0
 30
37.99999999999999
 11
960.0
 21
0.0
 31
158.0
  0
LINE
  5
50
  8
LAYER1
  6
VOLLINIE
 62
    18
 10
960.0
 20
0.0
 30
158.0
 11
960.0
 21
0.0
 31
134.5
  0
POLYLINE
  5
51
  8
LAYER1
  6
VOLLINIE
 62
    18
 10
0.0
 20
0.0
 30
0.0
 66
     1
 70
     8
  0
VERTEX
  5
52
  8
LAYER1
  6
VOLLINIE
 62
    18
 10
960.0
 20
23.5
 30
134.5000000000002
 70
    32
  0
VERTEX
  5
53
  8
LAYER1
  6
VOLLINIE
 62
    18
 10
960.0
 20
23.47731934161705
 30
135.5322192265861
 70
    32
  0
VERTEX
  5
54
  8
LAYER1
  6
VOLLINIE
 62
    18
 10
960.0
 20
23.40932114623543
 30
136.5624459926056
 70
    32
  0
VERTEX
  5
55
  8
LAYER1
  6
VOLLINIE
 62
    18
 10
960.0
 20
23.29613666865003
 30
137.5886916834769
 70
    32
  0
VERTEX
  5
56
  8
LAYER1
  6
VOLLINIE
 62
    18
 10
960.0
 20
23.13798438532644
 30
138.6089753691632
 70
    32
  0
VERTEX
  5
57
  8
LAYER1
  6
VOLLINIE
 62
    18
 10
960.0
 20
22.93516957268255
 30
139.6213276279005
 70
    32
  0
VERTEX
  5
58
  8
LAYER1
  6
VOLLINIE
 62
    18
 10
960.0
 20
22.6880837178231
 30
140.6237943477104
 70
    32
  0
VERTEX
  5
59
  8
LAYER1
  6
VOLLINIE
 62
    18
 10
960.0
 20
22.3972037628643
 30
141.6144404983623
 70
    32
  0
VERTEX
  5
5A
  8
LAYER1
  6
VOLLINIE
 62
    18
 10
960.0
 20
22.06309118430732
 30
142.591353866501
 70
    32
  0
VERTEX
  5
5B
  8
LAYER1
  6
VOLLINIE
 62
    18
 10
960.0
 20
21.68639090923774
 30
143.5526487467332
 70
    32
  0
VERTEX
  5
5C
  8
LAYER1
  6
VOLLINIE
 62
    18
 10
960.0
 20
21.26783007044295
 30
144.4964695815454
 70
    32
  0
VERTEX
  5
5D
  8
LAYER1
  6
VOLLINIE
 62
    18
 10
960.0
 20
20.80821660285036
 30
145.4209945430287
 70
    32
  0
VERTEX
  5
5E
  8
LAYER1
  6
VOLLINIE
 62
    18
 10
960.0
 20
20.30843768399586
 30
146.3244390494964
 70
    32
  0
VERTEX
  5
5F
  8
LAYER1
  6
VOLLINIE
 62
    18
 10
960.0
 20
19.76945802153268
 30
147.2050592102067
 70
    32
  0
VERTEX
  5
60
  8
LAYER1
  6
VOLLINIE
 62
    18
 10
960.0
 20
19.19231799108633
 30
148.0611551915397
 70
    32
  0
VERTEX
  5
61
  8
LAYER1
  6
VOLLINIE
 62
    18
 10
960.0
 20
18.57813162804998
 30
148.8910744981342
 70
    32
  0
VERTEX
  5
62
  8
LAYER1
  6
VOLLINIE
 62
    18
 10
960.0
 20
17.92808447719668
 30
149.6932151626474
 70
    32
  0
VERTEX
  5
63
  8
LAYER1
  6
VOLLINIE
 62
    18
 10
960.0
 20
17.24343130425931
 30
150.4660288379825
 70
    32
  0
VERTEX
  5
64
  8
LAYER1
  6
VOLLINIE
 62
    18
 10
960.0
 20
16.52549367389543
 30
151.208023786015
 70
    32
  0
VERTEX
  5
65
  8
LAYER1
  6
VOLLINIE
 62
    18
 10
960.0
 20
15.77565739871222
 30
151.9177677570479
 70
    32
  0
VERTEX
  5
66
  8
LAYER1
  6
VOLLINIE
 62
    18
 10
960.0
 20
14.99536986427569
 30
152.593890754439
 70
    32
  0
VERTEX
  5
67
  8
LAYER1
  6
VOLLINIE
 62
    18
 10
960.0
 20
14.18613723526748
 30
153.2350876790624
 70
    32
  0
VERTEX
  5
68
  8
LAYER1
  6
VOLLINIE
 62
    18
 10
960.0
 20
13.34952154818209
 30
153.840120848501
 70
    32
  0
VERTEX
  5
69
  8
LAYER1
  6
VOLLINIE
 62
    18
 10
960.0
 20
12.48713769617671
 30
154.4078223861055
 70
    32
  0
VERTEX
  5
6A
  8
LAYER1
  6
VOLLINIE
 62
    18
 10
960.0
 20
11.60065031189322
 30
154.9370964753111
 70
    32
  0
VERTEX
  5
6B
  8
LAYER1
  6
VOLLINIE
 62
    18
 10
960.0
 20
10.69177055426982
 30
155.4269214748574
 70
    32
  0
VERTEX
  5
6C
  8
LAYER1
  6
VOLLINIE
 62
    18
 10
960.0
 20
9.762252805544279
 30
155.8763518908312
 70
    32
  0
VERTEX
  5
6D
  8
LAYER1
  6
VOLLINIE
 62
    18
 10
960.0
 20
8.813891284824658
 30
156.2845202017233
 70
    32
  0
VERTEX
  5
6E
  8
LAYER1
  6
VOLLINIE
 62
    18
 10
960.0
 20
7.84851658476414
 30
156.6506385329787
 70
    32
  0
VERTEX
  5
6F
  8
LAYER1
  6
VOLLINIE
 62
    18
 10
960.0
 20
6.867992138025171
 30
156.974000177806
 70
    32
  0
VERTEX
  5
70
  8
LAYER1
  6
VOLLINIE
 62
    18
 10
960.0
 20
5.874210620353494
 30
157.2539809613115
 70
    32
  0
VERTEX
  5
71
  8
LAYER1
  6
VOLLINIE
 62
    18
 10
960.0
 20
4.869090297205253
 30
157.4900404453246
 70
    32
  0
VERTEX
  5
72
  8
LAYER1
  6
VOLLINIE
 62
    18
 10
960.0
 20
3.854571320978998
 30
157.6817229715888
 70
    32
  0
VERTEX
  5
73
  8
LAYER1
  6
VOLLINIE
 62
    18
 10
960.0
 20
2.83261198600008
 30
157.8286585413043
 70
    32
  0
VERTEX
  5
74
  8
LAYER1
  6
VOLLINIE
 62
    18
 10
960.0
 20
1.805184948486198
 30
157.9305635293255
 70
    32
  0
VERTEX
  5
75
  8
LAYER1
  6
VOLLINIE
 62
    18
 10
960.0
 20
0.7742734187906388
 30
157.9872412316337
 70
    32
  0
VERTEX
  5
76
  8
LAYER1
  6
VOLLINIE
 62
    18
 10
960.0
 20
-0.2581326667267571
 30
157.9985822450285
 70
    32
  0
VERTEX
  5
77
  8
LAYER1
  6
VOLLINIE
 62
    18
 10
960.0
 20
-1.290040486811679
 30
157.9645646783056
 70
    32
  0
VERTEX
  5
78
  8
LAYER1
  6
VOLLINIE
 62
    18
 10
960.0
 20
-2.319458181996049
 30
157.8852541945126
 70
    32
  0
VERTEX
  5
79
  8
LAYER1
  6
VOLLINIE
 62
    18
 10
960.0
 20
-3.344398699422171
 30
157.7608038842019
 70
    32
  0
VERTEX
  5
7A
  8
LAYER1
  6
VOLLINIE
 62
    18
 10
960.0
 20
-4.362883628388905
 30
157.5914539699244
 70
    32
  0
VERTEX
  5
7B
  8
LAYER1
  6
VOLLINIE
 62
    18
 10
960.0
 20
-5.37294701921605
 30
157.3775313425356
 70
    32
  0
VERTEX
  5
7C
  8
LAYER1
  6
VOLLINIE
 62
    18
 10
960.0
 20
-6.372639178055754
 30
157.1194489302085
 70
    32
  0
VERTEX
  5
7D
  8
LAYER1
  6
VOLLINIE
 62
    18
 10
960.0
 20
-7.360030430325651
 30
156.817704901371
 70
    32
  0
VERTEX
  5
7E
  8
LAYER1
  6
VOLLINIE
 62
    18
 10
960.0
 20
-8.333214845499533
 30
156.4728817031073
 70
    32
  0
VERTEX
  5
7F
  8
LAYER1
  6
VOLLINIE
 62
    18
 10
960.0
 20
-9.290313916065545
 30
156.0856449368778
 70
    32
  0
VERTEX
  5
80
  8
LAYER1
  6
VOLLINIE
 62
    18
 10
960.0
 20
-10.22948018355066
 30
155.6567420737302
 70
    32
  0
VERTEX
  5
81
  8
LAYER1
  6
VOLLINIE
 62
    18
 10
960.0
 20
-11.1489008046121
 30
155.1870010114787
 70
    32
  0
VERTEX
  5
82
  8
LAYER1
  6
VOLLINIE
 62
    18
 10
960.0
 20
-12.0468010503123
 30
154.6773284766392
 70
    32
  0
VERTEX
  5
83
  8
LAYER1
  6
VOLLINIE
 62
    18
 10
960.0
 20
-12.92144773182275
 30
154.1287082742032
 70
    32
  0
VERTEX
  5
84
  8
LAYER1
  6
VOLLINIE
 62
    18
 10
960.0
 20
-13.7711525459444
 30
153.5421993886297
 70
    32
  0
VERTEX
  5
85
  8
LAYER1
  6
VOLLINIE
 62
    18
 10
960.0
 20
-14.59427533398657
 30
152.9189339397206
 70
    32
  0
VERTEX
  5
86
  8
LAYER1
  6
VOLLINIE
 62
    18
 10
960.0
 20
-15.38922724771412
 30
152.2601149973252
 70
    32
  0
VERTEX
  5
87
  8
LAYER1
  6
VOLLINIE
 62
    18
 10
960.0
 20
-16.15447381625164
 30
151.5670142590917
 70
    32
  0
VERTEX
  5
88
  8
LAYER1
  6
VOLLINIE
 62
    18
 10
960.0
 20
-16.88853790802469
 30
150.8409695957496
 70
    32
  0
VERTEX
  5
89
  8
LAYER1
  6
VOLLINIE
 62
    18
 10
960.0
 20
-17.59000258202079
 30
150.0833824686588
 70
    32
  0
VERTEX
  5
8A
  8
LAYER1
  6
VOLLINIE
 62
    18
 10
960.0
 20
-18.25751382286643
 30
149.2957152246129
 70
    32
  0
VERTEX
  5
8B
  8
LAYER1
  6
VOLLINIE
 62
    18
 10
960.0
 20
-18.88978315444073
 30
148.4794882731167
 70
    32
  0
VERTEX
  5
8C
  8
LAYER1
  6
VOLLINIE
 62
    18
 10
960.0
 20
-19.48559012698068
 30
147.6362771515873
 70
    32
  0
VERTEX
  5
8D
  8
LAYER1
  6
VOLLINIE
 62
    18
 10
960.0
 20
-20.04378467287722
 30
146.767709484143
 70
    32
  0
VERTEX
  5
8E
  8
LAYER1
  6
VOLLINIE
 62
    18
 10
960.0
 20
-20.56328932661489
 30
145.8754618398519
 70
    32
  0
VERTEX
  5
8F
  8
LAYER1
  6
VOLLINIE
 62
    18
 10
960.0
 20
-21.04310130456987
 30
144.9612564965022
 70
    32
  0
VERTEX
  5
90
  8
LAYER1
  6
VOLLINIE
 62
    18
 10
960.0
 20
-21.48229444065196
 30
144.0268581161437
 70
    32
  0
VERTEX
  5
91
  8
LAYER1
  6
VOLLINIE
 62
    18
 10
960.0
 20
-21.88002097405405
 30
143.0740703388155
 70
    32
  0
VERTEX
  5
92
  8
LAYER1
  6
VOLLINIE
 62
    18
 10
960.0
 20
-22.23551318565833
 30
142.1047323010356
 70
    32
  0
VERTEX
  5
93
  8
LAYER1
  6
VOLLINIE
 62
    18
 10
960.0
 20
-22.54808487994063
 30
141.1207150857738
 70
    32
  0
VERTEX
  5
94
  8
LAYER1
  6
VOLLINIE
 62
    18
 10
960.0
 20
-22.81713270951218
 30
140.1239181107578
 70
    32
  0
VERTEX
  5
95
  8
LAYER1
  6
VOLLINIE
 62
    18
 10
960.0
 20
-23.04213733974221
 30
139.116265462087
 70
    32
  0
VERTEX
  5
96
  8
LAYER1
  6
VOLLINIE
 62
    18
 10
960.0
 20
-23.22266445121349
 30
138.099702180229
 70
    32
  0
VERTEX
  5
97
  8
LAYER1
  6
VOLLINIE
 62
    18
 10
960.0
 20
-23.35836557807543
 30
137.0761905055684
 70
    32
  0
VERTEX
  5
98
  8
LAYER1
  6
VOLLINIE
 62
    18
 10
960.0
 20
-23.44897878067694
 30
136.0477060907558
 70
    32
  0
VERTEX
  5
99
  8
LAYER1
  6
VOLLINIE
 62
    18
 10
960.0
 20
-23.4943291511803
 30
135.0162341871668
 70
    32
  0
VERTEX
  5
9A
  8
LAYER1
  6
VOLLINIE
 62
    18
 10
960.0000000000006
 20
-23.41199637750797
 30
132.9995951338815
 70
    32
  0
VERTEX
  5
9B
  8
LAYER1
  6
VOLLINIE
 62
    18
 10
960.0000000000015
 20
-23.23640433094824
 30
129.9987442343152
 70
    32
  0
VERTEX
  5
9C
  8
LAYER1
  6
VOLLINIE
 62
    18
 10
960.0000000000024
 20
-23.06130627828384
 30
126.9978443547138
 70
    32
  0
VERTEX
  5
9D
  8
LAYER1
  6
VOLLINIE
 62
    18
 10
960.0000000000026
 20
-22.88663069471016
 30
123.9969025867619
 70
    32
  0
VERTEX
  5
9E
  8
LAYER1
  6
VOLLINIE
 62
    18
 10
960.000000000003
 20
-22.71230605542266
 30
120.9959260221439
 70
    32
  0
VERTEX
  5
9F
  8
LAYER1
  6
VOLLINIE
 62
    18
 10
960.0000000000027
 20
-22.53826083561674
 30
117.9949217525443
 70
    32
  0
VERTEX
  5
A0
  8
LAYER1
  6
VOLLINIE
 62
    18
 10
960.0000000000026
 20
-22.36442351048782
 30
114.9938968696477
 70
    32
  0
VERTEX
  5
A1
  8
LAYER1
  6
VOLLINIE
 62
    18
 10
960.0000000000022
 20
-22.19072255523134
 30
111.9928584651387
 70
    32
  0
VERTEX
  5
A2
  8
LAYER1
  6
VOLLINIE
 62
    18
 10
960.0000000000015
 20
-22.0170864450427
 30
108.9918136307016
 70
    32
  0
VERTEX
  5
A3
  8
LAYER1
  6
VOLLINIE
 62
    18
 10
960.0000000000011
 20
-21.84344365511735
 30
105.9907694580213
 70
    32
  0
VERTEX
  5
A4
  8
LAYER1
  6
VOLLINIE
 62
    18
 10
960.0000000000008
 20
-21.66972266065071
 30
102.9897330387822
 70
    32
  0
VERTEX
  5
A5
  8
LAYER1
  6
VOLLINIE
 62
    18
 10
960.0000000000006
 20
-21.49585193683819
 30
99.98871146466871
 70
    32
  0
VERTEX
  5
A6
  8
LAYER1
  6
VOLLINIE
 62
    18
 10
960.0000000000002
 20
-21.32175995887522
 30
96.98771182736549
 70
    32
  0
VERTEX
  5
A7
  8
LAYER1
  6
VOLLINIE
 62
    18
 10
960.0000000000005
 20
-21.14737520195722
 30
93.98674121855706
 70
    32
  0
VERTEX
  5
A8
  8
LAYER1
  6
VOLLINIE
 62
    18
 10
960.0000000000006
 20
-20.97262717444449
 30
90.98580662748356
 70
    32
  0
VERTEX
  5
A9
  8
LAYER1
  6
VOLLINIE
 62
    18
 10
960.0000000000008
 20
-20.7976052635714
 30
87.9848991904509
 70
    32
  0
VERTEX
  5
AA
  8
LAYER1
  6
VOLLINIE
 62
    18
 10
960.0000000000011
 20
-20.62273014797875
 30
84.98397719426652
 70
    32
  0
VERTEX
  5
AB
  8
LAYER1
  6
VOLLINIE
 62
    18
 10
960.0000000000014
 20
-20.44845554764342
 30
81.98299564980178
 70
    32
  0
VERTEX
  5
AC
  8
LAYER1
  6
VOLLINIE
 62
    18
 10
960.0000000000009
 20
-20.27486114612717
 30
78.9819466700637
 70
    32
  0
VERTEX
  5
AD
  8
LAYER1
  6
VOLLINIE
 62
    18
 10
960.0000000000005
 20
-20.1015032466586
 30
75.98087428420247
 70
    32
  0
VERTEX
  5
AE
  8
LAYER1
  6
VOLLINIE
 62
    18
 10
960.0000000000002
 20
-19.92789913048527
 30
72.97982639211128
 70
    32
  0
VERTEX
  5
AF
  8
LAYER1
  6
VOLLINIE
 62
    18
 10
960.0
 20
-19.75356662715244
 30
69.97885084004974
 70
    32
  0
VERTEX
  5
B0
  8
LAYER1
  6
VOLLINIE
 62
    18
 10
960.0000000000002
 20
-19.57900198296706
 30
66.97789976714523
 70
    32
  0
VERTEX
  5
B1
  8
LAYER1
  6
VOLLINIE
 62
    18
 10
960.0000000000002
 20
-19.40682896794474
 30
63.97672067579604
 70
    32
  0
VERTEX
  5
B2
  8
LAYER1
  6
VOLLINIE
 62
    18
 10
960.0
 20
-19.23017757074565
 30
60.97603221138182
 70
    32
  0
VERTEX
  5
B3
  8
LAYER1
  6
VOLLINIE
 62
    18
 10
959.9999999999999
 20
-19.06141969300748
 30
57.97490380359058
 70
    32
  0
VERTEX
  5
B4
  8
LAYER1
  6
VOLLINIE
 62
    18
 10
959.9999999999997
 20
-18.89025821672619
 30
54.97325835414848
 70
    32
  0
VERTEX
  5
B5
  8
LAYER1
  6
VOLLINIE
 62
    18
 10
959.9999999999997
 20
-18.33978210588006
 30
52.01934715898428
 70
    32
  0
VERTEX
  5
B6
  8
LAYER1
  6
VOLLINIE
 62
    18
 10
959.9999999999997
 20
-17.32340944553656
 30
49.19318045837549
 70
    32
  0
VERTEX
  5
B7
  8
LAYER1
  6
VOLLINIE
 62
    18
 10
960.0
 20
-15.87537696208059
 30
46.56151712172345
 70
    32
  0
VERTEX
  5
B8
  8
LAYER1
  6
VOLLINIE
 62
    18
 10
959.9999999999999
 20
-14.03216005171609
 30
44.18957879563317
 70
    32
  0
VERTEX
  5
B9
  8
LAYER1
  6
VOLLINIE
 62
    18
 10
959.9999999999999
 20
-11.83760696220898
 30
42.13852488920161
 70
    32
  0
VERTEX
  5
BA
  8
LAYER1
  6
VOLLINIE
 62
    18
 10
959.9999999999997
 20
-9.346015338023008
 30
40.46070190692883
 70
    32
  0
VERTEX
  5
BB
  8
LAYER1
  6
VOLLINIE
 62
    18
 10
960.0
 20
-6.622568032355314
 30
39.19332947981224
 70
    32
  0
VERTEX
  5
BC
  8
LAYER1
  6
VOLLINIE
 62
    18
 10
960.0
 20
-3.734443366771031
 30
38.37076196460301
 70
    32
  0
VERTEX
  5
BD
  8
LAYER1
  6
VOLLINIE
 62
    18
 10
960.0
 20
-0.7516528569854546
 30
38.01684485276834
 70
    32
  0
VERTEX
  5
BE
  8
LAYER1
  6
VOLLINIE
 62
    18
 10
960.0
 20
2.250192535691301
 30
38.13465420865386
 70
    32
  0
VERTEX
  5
BF
  8
LAYER1
  6
VOLLINIE
 62
    18
 10
960.0
 20
5.194903359506354
 30
38.72450513286685
 70
    32
  0
VERTEX
  5
C0
  8
LAYER1
  6
VOLLINIE
 62
    18
 10
960.0
 20
8.00955472268304
 30
39.77326612825833
 70
    32
  0
VERTEX
  5
C1
  8
LAYER1
  6
VOLLINIE
 62
    18
 10
960.0
 20
10.62558772850504
 30
41.2498223309122
 70
    32
  0
VERTEX
  5
C2
  8
LAYER1
  6
VOLLINIE
 62
    18
 10
960.0
 20
12.9752371027785
 30
43.1211190565807
 70
    32
  0
VERTEX
  5
C3
  8
LAYER1
  6
VOLLINIE
 62
    18
 10
960.0
 20
15.00036064357384
 30
45.34062550093381
 70
    32
  0
VERTEX
  5
C4
  8
LAYER1
  6
VOLLINIE
 62
    18
 10
960.0
 20
16.65161631523133
 30
47.84948713452153
 70
    32
  0
VERTEX
  5
C5
  8
LAYER1
  6
VOLLINIE
 62
    18
 10
959.9999999999999
 20
17.88257174727264
 30
50.58763977421137
 70
    32
  0
VERTEX
  5
C6
  8
LAYER1
  6
VOLLINIE
 62
    18
 10
959.9999999999999
 20
18.67491885838705
 30
53.48664081496553
 70
    32
  0
VERTEX
  5
C7
  8
LAYER1
  6
VOLLINIE
 62
    18
 10
960.0
 20
18.99431021870891
 30
56.47323634798932
 70
    32
  0
VERTEX
  5
C8
  8
LAYER1
  6
VOLLINIE
 62
    18
 10
960.0
 20
19.16419499697777
 30
59.47454716090438
 70
    32
  0
VERTEX
  5
C9
  8
LAYER1
  6
VOLLINIE
 62
    18
 10
960.0
 20
19.33608714912184
 30
62.47562965280948
 70
    32
  0
VERTEX
  5
CA
  8
LAYER1
  6
VOLLINIE
 62
    18
 10
959.9999999999999
 20
19.5081678785692
 30
65.47670426165244
 70
    32
  0
VERTEX
  5
CB
  8
LAYER1
  6
VOLLINIE
 62
    18
 10
960.0
 20
19.68042932793221
 30
68.4777713158941
 70
    32
  0
VERTEX
  5
CC
  8
LAYER1
  6
VOLLINIE
 62
    18
 10
960.0
 20
19.85286363982322
 30
71.47883114399541
 70
    32
  0
VERTEX
  5
CD
  8
LAYER1
  6
VOLLINIE
 62
    18
 10
960.0
 20
20.02546295685461
 30
74.47988407441731
 70
    32
  0
VERTEX
  5
CE
  8
LAYER1
  6
VOLLINIE
 62
    18
 10
960.0
 20
20.19821942163873
 30
77.48093043562066
 70
    32
  0
VERTEX
  5
CF
  8
LAYER1
  6
VOLLINIE
 62
    18
 10
960.0
 20
20.37112517678796
 30
80.48197055606653
 70
    32
  0
VERTEX
  5
D0
  8
LAYER1
  6
VOLLINIE
 62
    18
 10
960.0
 20
20.54417236491464
 30
83.48300476421565
 70
    32
  0
VERTEX
  5
D1
  8
LAYER1
  6
VOLLINIE
 62
    18
 10
960.0
 20
20.71735312863116
 30
86.48403338852908
 70
    32
  0
VERTEX
  5
D2
  8
LAYER1
  6
VOLLINIE
 62
    18
 10
960.0
 20
20.89065961054985
 30
89.4850567574677
 70
    32
  0
VERTEX
  5
D3
  8
LAYER1
  6
VOLLINIE
 62
    18
 10
960.0
 20
21.06408395328311
 30
92.48607519949248
 70
    32
  0
VERTEX
  5
D4
  8
LAYER1
  6
VOLLINIE
 62
    18
 10
960.0
 20
21.23761829944327
 30
95.48708904306426
 70
    32
  0
VERTEX
  5
D5
  8
LAYER1
  6
VOLLINIE
 62
    18
 10
960.0
 20
21.41125479164272
 30
98.48809861664402
 70
    32
  0
VERTEX
  5
D6
  8
LAYER1
  6
VOLLINIE
 62
    18
 10
960.0
 20
21.58498557249381
 30
101.4891042486927
 70
    32
  0
VERTEX
  5
D7
  8
LAYER1
  6
VOLLINIE
 62
    18
 10
960.0
 20
21.7588027846089
 30
104.4901062676712
 70
    32
  0
VERTEX
  5
D8
  8
LAYER1
  6
VOLLINIE
 62
    18
 10
960.0
 20
21.93269857060036
 30
107.4911050020404
 70
    32
  0
VERTEX
  5
D9
  8
LAYER1
  6
VOLLINIE
 62
    18
 10
960.0
 20
22.10666507308056
 30
110.4921007802614
 70
    32
  0
VERTEX
  5
DA
  8
LAYER1
  6
VOLLINIE
 62
    18
 10
960.0
 20
22.28069443466185
 30
113.4930939307949
 70
    32
  0
VERTEX
  5
DB
  8
LAYER1
  6
VOLLINIE
 62
    18
 10
960.0
 20
22.45477879795659
 30
116.4940847821019
 70
    32
  0
VERTEX
  5
DC
  8
LAYER1
  6
VOLLINIE
 62
    18
 10
960.0
 20
22.62891030557715
 30
119.4950736626434
 70
    32
  0
VERTEX
  5
DD
  8
LAYER1
  6
VOLLINIE
 62
    18
 10
960.0
 20
22.8030811001359
 30
122.4960609008803
 70
    32
  0
VERTEX
  5
DE
  8
LAYER1
  6
VOLLINIE
 62
    18
 10
959.9999999999999
 20
22.9772833242452
 30
125.4970468252735
 70
    32
  0
VERTEX
  5
DF
  8
LAYER1
  6
VOLLINIE
 62
    18
 10
960.0
 20
23.1515091205174
 30
128.4980317642839
 70
    32
  0
VERTEX
  5
E0
  8
LAYER1
  6
VOLLINIE
 62
    18
 10
960.0
 20
23.32575063156488
 30
131.4990160463724
 70
    32
  0
VERTEX
  5
E1
  8
LAYER1
  6
VOLLINIE
 62
    18
 10
960.0
 20
23.5
 30
134.5
 70
    32
  0
SEQEND
  5
E2
  8
LAYER1
  6
VOLLINIE
 62
    18
  0
LINE
  5
E3
  8
LAYER1
  6
VOLLINIE
 62
    18
 10
960.0
 20
0.0
 30
0.0
 11
752.0000000000001
 21
0.0
 31
0.0
  0
LINE
  5
E4
  8
LAYER1
  6
VOLLINIE
 62
    18
 10
752.0000000000001
 20
0.0
 30
0.0
 11
752.0000000000001
 21
0.0
 31
90.00000000000001
  0
LINE
  5
E5
  8
LAYER1
  6
VOLLINIE
 62
    18
 10
752.0000000000001
 20
0.0
 30
0.0
 11
752.0000000000001
 21
0.0
 31
20.0
  0
LINE
  5
E6
  8
LAYER1
  6
VOLLINIE
 62
    18
 10
752.0000000000001
 20
30.0
 30
20.0
 11
752.0000000000001
 21
-30.0
 31
20.0
  0
LINE
  5
E7
  8
LAYER1
  6
VOLLINIE
 62
    18
 10
752.0000000000001
 20
0.0
 30
0.0
 11
752.0000000000001
 21
0.0
 31
65.0
  0
LINE
  5
E8
  8
LAYER1
  6
VOLLINIE
 62
    18
 10
752.0000000000001
 20
20.0
 30
65.0
 11
752.0000000000001
 21
-20.0
 31
65.0
  0
POLYLINE
  5
E9
  8
LAYER1
  6
VOLLINIE
 62
    18
 10
0.0
 20
0.0
 30
0.0
 66
     1
 70
     8
  0
VERTEX
  5
EA
  8
LAYER1
  6
VOLLINIE
 62
    18
 10
752.0000000000001
 20
0.0
 30
90.00000000000001
 70
    32
  0
VERTEX
  5
EB
  8
LAYER1
  6
VOLLINIE
 62
    18
 10
752.0000000000001
 20
20.0
 30
65.0
 70
    32
  0
VERTEX
  5
EC
  8
LAYER1
  6
VOLLINIE
 62
    18
 10
752.0000000000001
 20
0.0
 30
20.0
 70
    32
  0
VERTEX
  5
ED
  8
LAYER1
  6
VOLLINIE
 62
    18
 10
752.0000000000001
 20
-20.0
 30
65.0
 70
    32
  0
VERTEX
  5
EE
  8
LAYER1
  6
VOLLINIE
 62
    18
 10
752.0000000000001
 20
0.0
 30
90.00000000000001
 70
    32
  0
SEQEND
  5
EF
  8
LAYER1
  6
VOLLINIE
 62
    18
  0
LINE
  5
F0
  8
LAYER1
  6
VOLLINIE
 62
    18
 10
752.0000000000001
 20
0.0
 30
0.0
 11
725.0000000000001
 21
0.0
 31
0.0
  0
LINE
  5
F1
  8
LAYER1
  6
VOLLINIE
 62
    18
 10
725.0000000000001
 20
0.0
 30
0.0
 11
725.0000000000001
 21
0.0
 31
96.0
  0
LINE
  5
F2
  8
LAYER1
  6
VOLLINIE
 62
    18
 10
725.0000000000001
 20
0.0
 30
0.0
 11
725.0000000000001
 21
0.0
 31
30.0
  0
LINE
  5
F3
  8
LAYER1
  6
VOLLINIE
 62
    18
 10
725.0
 20
30.0
 30
30.0
 11
725.0
 21
-30.0
 31
30.0
  0
LINE
  5
F4
  8
LAYER1
  6
VOLLINIE
 62
    18
 10
725.0000000000001
 20
0.0
 30
0.0
 11
725.0000000000001
 21
0.0
 31
61.0
  0
LINE
  5
F5
  8
LAYER1
  6
VOLLINIE
 62
    18
 10
725.0000000000001
 20
20.0
 30
61.0
 11
725.0000000000001
 21
-20.0
 31
61.0
  0
POLYLINE
  5
F6
  8
LAYER1
  6
VOLLINIE
 62
    18
 10
0.0
 20
0.0
 30
0.0
 66
     1
 70
     8
  0
VERTEX
  5
F7
  8
LAYER1
  6
VOLLINIE
 62
    18
 10
725.0000000000001
 20
20.0
 30
61.0
 70
    32
  0
VERTEX
  5
F8
  8
LAYER1
  6
VOLLINIE
 62
    18
 10
725.0
 20
0.0
 30
30.0
 70
    32
  0
VERTEX
  5
F9
  8
LAYER1
  6
VOLLINIE
 62
    18
 10
725.0000000000001
 20
-20.0
 30
61.0
 70
    32
  0
VERTEX
  5
FA
  8
LAYER1
  6
VOLLINIE
 62
    18
 10
725.0000000000001
 20
0.0
 30
96.0
 70
    32
  0
VERTEX
  5
FB
  8
LAYER1
  6
VOLLINIE
 62
    18
 10
725.0000000000001
 20
20.0
 30
61.0
 70
    32
  0
SEQEND
  5
FC
  8
LAYER1
  6
VOLLINIE
 62
    18
  0
POLYLINE
  5
FD
  8
LAYER1
  6
VOLLINIE
 62
    18
 66
     1
 10
0.0
 20
0.0
 30
0.0
 70
    64
 71
   869
 72
   946
  0
VERTEX
  5
FE
  8
0
 10
752.0
 20
0.0
 30
90.0
 70
   192
  0
VERTEX
  5
FF
  8
0
 10
752.0
 20
-1.364241361618042
 30
89.935791015625
 70
   192
  0
VERTEX
  5
100
  8
0
 10
752.0
 20
-2.740398168563843
 30
89.73793029785156
 70
   192
  0
VERTEX
  5
101
  8
0
 10
752.0
 20
-4.074075698852539
 30
89.41107940673828
 70
   192
  0
VERTEX
  5
102
  8
0
 10
752.0
 20
-5.364672183990479
 30
88.96051788330078
 70
   192
  0
VERTEX
  5
103
  8
0
 10
752.0
 20
-6.608541011810303
 30
88.39204406738281
 70
   192
  0
VERTEX
  5
104
  8
0
 10
752.0
 20
-7.801476955413818
 30
87.7165298461914
 70
   192
  0
VERTEX
  5
105
  8
0
 10
752.0
 20
-8.939138412475586
 30
86.94611358642578
 70
   192
  0
VERTEX
  5
106
  8
0
 10
752.0
 20
-10.01718139648438
 30
86.09293365478516
 70
   192
  0
VERTEX
  5
107
  8
0
 10
752.0
 20
-11.03227138519287
 30
85.16820526123047
 70
   192
  0
VERTEX
  5
108
  8
0
 10
752.0
 20
-11.98510456085205
 30
84.17945098876953
 70
   192
  0
VERTEX
  5
109
  8
0
 10
752.0
 20
-13.71081066131592
 30
82.0362777709961
 70
   192
  0
VERTEX
  5
10A
  8
0
 10
752.0
 20
-15.20792579650879
 30
79.71625518798828
 70
   192
  0
VERTEX
  5
10B
  8
0
 10
752.0
 20
-16.49007797241211
 30
77.2721939086914
 70
   192
  0
VERTEX
  5
10C
  8
0
 10
752.0
 20
-17.57347679138184
 30
74.7402572631836
 70
   192
  0
VERTEX
  5
10D
  8
0
 10
752.0
 20
-18.04437637329102
 30
73.44685363769531
 70
   192
  0
VERTEX
  5
10E
  8
0
 10
752.0
 20
-18.46331405639648
 30
72.1589584350586
 70
   192
  0
VERTEX
  5
10F
  8
0
 10
752.0
 20
-19.18624305725098
 30
69.48998260498047
 70
   192
  0
VERTEX
  5
110
  8
0
 10
752.0
 20
-19.73322296142578
 30
66.78742218017578
 70
   192
  0
VERTEX
  5
111
  8
0
 10
752.0
 20
-20.32371711730957
 30
61.32476806640625
 70
   192
  0
VERTEX
  5
112
  8
0
 10
752.0
 20
-20.30460929870605
 30
55.82957458496094
 70
   192
  0
VERTEX
  5
113
  8
0
 10
752.0
 20
-19.74517250061035
 30
50.35198211669922
 70
   192
  0
VERTEX
  5
114
  8
0
 10
752.0
 20
-18.68438529968262
 30
44.94540786743164
 70
   192
  0
VERTEX
  5
115
  8
0
 10
752.0
 20
-17.14523506164551
 30
39.66229248046875
 70
   192
  0
VERTEX
  5
116
  8
0
 10
752.0
 20
-15.11702060699463
 30
34.5479736328125
 70
   192
  0
VERTEX
  5
117
  8
0
 10
752.0
 20
-13.91012763977051
 30
32.07152557373047
 70
   192
  0
VERTEX
  5
118
  8
0
 10
752.0
 20
-12.55334377288818
 30
29.67641639709473
 70
   192
  0
VERTEX
  5
119
  8
0
 10
752.0
 20
-11.02382469177246
 30
27.39090538024902
 70
   192
  0
VERTEX
  5
11A
  8
0
 10
752.0
 20
-9.298726081848145
 30
25.24324417114258
 70
   192
  0
VERTEX
  5
11B
  8
0
 10
752.0
 20
-7.354104042053223
 30
23.28086853027344
 70
   192
  0
VERTEX
  5
11C
  8
0
 10
752.0
 20
-6.290679454803467
 30
22.40677070617676
 70
   192
  0
VERTEX
  5
11D
  8
0
 10
752.0
 20
-5.161603927612305
 30
21.62796211242676
 70
   192
  0
VERTEX
  5
11E
  8
0
 10
752.0
 20
-3.962675333023071
 30
20.96493148803711
 70
   192
  0
VERTEX
  5
11F
  8
0
 10
752.0
 20
-3.33508563041687
 30
20.68629264831543
 70
   192
  0
VERTEX
  5
120
  8
0
 10
752.0
 20
-2.687611103057861
 30
20.44846153259277
 70
   192
  0
VERTEX
  5
121
  8
0
 10
752.0
 20
-1.853342890739441
 30
20.21549034118652
 70
   192
  0
VERTEX
  5
122
  8
0
 10
752.0
 20
-1.011009812355042
 30
20.06440925598145
 70
   192
  0
VERTEX
  5
123
  8
0
 10
752.0
 20
-0.4918032288551331
 30
20.01626586914062
 70
   192
  0
VERTEX
  5
124
  8
0
 10
752.0
 20
-0.0000000000000007
 30
20.0
 70
   192
  0
VERTEX
  5
125
  8
0
 10
752.0
 20
0.4918032288551331
 30
20.01626586914062
 70
   192
  0
VERTEX
  5
126
  8
0
 10
752.0
 20
1.011009812355042
 30
20.06440925598145
 70
   192
  0
VERTEX
  5
127
  8
0
 10
752.0
 20
1.8534095287323
 30
20.21542549133301
 70
   192
  0
VERTEX
  5
128
  8
0
 10
752.0
 20
2.688196659088135
 30
20.44833946228027
 70
   192
  0
VERTEX
  5
129
  8
0
 10
752.0
 20
3.336642265319824
 30
20.68624114990234
 70
   192
  0
VERTEX
  5
12A
  8
0
 10
752.0
 20
3.965500593185425
 30
20.96502876281738
 70
   192
  0
VERTEX
  5
12B
  8
0
 10
752.0
 20
5.166658401489258
 30
21.62834167480469
 70
   192
  0
VERTEX
  5
12C
  8
0
 10
752.0
 20
6.296092510223389
 30
22.40712356567383
 70
   192
  0
VERTEX
  5
12D
  8
0
 10
752.0
 20
7.358280658721924
 30
23.28092765808105
 70
   192
  0
VERTEX
  5
12E
  8
0
 10
752.0
 20
9.298885345458984
 30
25.2425651550293
 70
   192
  0
VERTEX
  5
12F
  8
0
 10
752.0
 20
11.0220251083374
 30
27.39008331298828
 70
   192
  0
VERTEX
  5
130
  8
0
 10
752.0
 20
12.5517578125
 30
29.67605018615723
 70
   192
  0
VERTEX
  5
131
  8
0
 10
752.0
 20
13.90976619720459
 30
32.07196044921875
 70
   192
  0
VERTEX
  5
132
  8
0
 10
752.0
 20
15.11773490905762
 30
34.54931640625
 70
   192
  0
VERTEX
  5
133
  8
0
 10
752.0
 20
17.14529037475586
 30
39.66497421264648
 70
   192
  0
VERTEX
  5
134
  8
0
 10
752.0
 20
18.68291282653809
 30
44.94812393188477
 70
   192
  0
VERTEX
  5
135
  8
0
 10
752.0
 20
19.74441337585449
 30
50.35336303710938
 70
   192
  0
VERTEX
  5
136
  8
0
 10
752.0
 20
20.30482864379883
 30
55.83082962036133
 70
   192
  0
VERTEX
  5
137
  8
0
 10
752.0
 20
20.32322883605957
 30
61.32814407348633
 70
   192
  0
VERTEX
  5
138
  8
0
 10
752.0
 20
19.73360443115234
 30
66.78741455078125
 70
   192
  0
VERTEX
  5
139
  8
0
 10
752.0
 20
19.02584457397461
 30
70.151123046875
 70
   192
  0
VERTEX
  5
13A
  8
0
 10
752.0
 20
18.04452896118164
 30
73.44625091552734
 70
   192
  0
VERTEX
  5
13B
  8
0
 10
752.0
 20
16.49011039733887
 30
77.27063751220703
 70
   192
  0
VERTEX
  5
13C
  8
0
 10
752.0
 20
15.20757293701172
 30
79.71908569335938
 70
   192
  0
VERTEX
  5
13D
  8
0
 10
752.0
 20
13.71127223968506
 30
82.0396957397461
 70
   192
  0
VERTEX
  5
13E
  8
0
 10
752.0
 20
11.98618316650391
 30
84.181396484375
 70
   192
  0
VERTEX
  5
13F
  8
0
 10
752.0
 20
11.03314685821533
 30
85.1692123413086
 70
   192
  0
VERTEX
  5
140
  8
0
 10
752.0
 20
10.01727676391602
 30
86.09315490722656
 70
   192
  0
VERTEX
  5
141
  8
0
 10
752.0
 20
8.937807083129883
 30
86.94586944580078
 70
   192
  0
VERTEX
  5
142
  8
0
 10
752.0
 20
7.798403739929199
 30
87.71614837646484
 70
   192
  0
VERTEX
  5
143
  8
0
 10
752.0
 20
6.603847503662109
 30
88.39179229736328
 70
   192
  0
VERTEX
  5
144
  8
0
 10
752.0
 20
5.358916282653809
 30
88.96061706542969
 70
   192
  0
VERTEX
  5
145
  8
0
 10
752.0
 20
4.067697525024414
 30
89.41160583496094
 70
   192
  0
VERTEX
  5
146
  8
0
 10
752.0
 20
2.731516361236572
 30
89.73843383789062
 70
   192
  0
VERTEX
  5
147
  8
0
 10
752.0
 20
1.022179484367371
 30
89.96399688720703
 70
   192
  0
VERTEX
  5
148
  8
0
 10
725.0
 20
1.816939949989319
 30
95.60914611816406
 70
   192
  0
VERTEX
  5
149
  8
0
 10
725.0
 20
2.418161153793335
 30
95.394287109375
 70
   192
  0
VERTEX
  5
14A
  8
0
 10
725.0
 20
3.007098913192749
 30
95.14373016357422
 70
   192
  0
VERTEX
  5
14B
  8
0
 10
725.0
 20
4.168731689453125
 30
94.53485107421875
 70
   192
  0
VERTEX
  5
14C
  8
0
 10
725.0
 20
5.264075756072998
 30
93.82452392578125
 70
   192
  0
VERTEX
  5
14D
  8
0
 10
725.0
 20
6.290975093841553
 30
93.03657531738281
 70
   192
  0
VERTEX
  5
14E
  8
0
 10
725.0
 20
8.187919616699219
 30
91.275390625
 70
   192
  0
VERTEX
  5
14F
  8
0
 10
725.0
 20
9.90355396270752
 30
89.32199096679688
 70
   192
  0
VERTEX
  5
150
  8
0
 10
725.0
 20
11.46307373046875
 30
87.2315673828125
 70
   192
  0
VERTEX
  5
151
  8
0
 10
725.0
 20
12.18513107299805
 30
86.15287017822266
 70
   192
  0
VERTEX
  5
152
  8
0
 10
725.0
 20
12.86589813232422
 30
85.0650863647461
 70
   192
  0
VERTEX
  5
153
  8
0
 10
725.0
 20
15.31901836395264
 30
80.47267150878906
 70
   192
  0
VERTEX
  5
154
  8
0
 10
725.0
 20
17.72736930847168
 30
74.45353698730469
 70
   192
  0
VERTEX
  5
155
  8
0
 10
725.0
 20
18.64794731140137
 30
71.33676147460938
 70
   192
  0
VERTEX
  5
156
  8
0
 10
725.0
 20
19.35828018188477
 30
68.16416931152344
 70
   192
  0
VERTEX
  5
157
  8
0
 10
725.0
 20
19.75971984863281
 30
65.59415435791016
 70
   192
  0
VERTEX
  5
158
  8
0
 10
725.0
 20
19.97965431213379
 30
63.0040283203125
 70
   192
  0
VERTEX
  5
159
  8
0
 10
725.0
 20
20.00740051269531
 30
61.37881088256836
 70
   192
  0
VERTEX
  5
15A
  8
0
 10
725.0
 20
19.97734069824219
 30
60.41614532470703
 70
   192
  0
VERTEX
  5
15B
  8
0
 10
725.0
 20
19.8798713684082
 30
59.1179084777832
 70
   192
  0
VERTEX
  5
15C
  8
0
 10
725.0
 20
19.72339248657227
 30
57.82455825805664
 70
   192
  0
VERTEX
  5
15D
  8
0
 10
725.0
 20
19.51506423950195
 30
56.54220199584961
 70
   192
  0
VERTEX
  5
15E
  8
0
 10
725.0
 20
19.2592658996582
 30
55.26942825317383
 70
   192
  0
VERTEX
  5
15F
  8
0
 10
725.0
 20
18.96166038513184
 30
54.01335906982422
 70
   192
  0
VERTEX
  5
160
  8
0
 10
725.0
 20
18.62375831604004
 30
52.76651000976562
 70
   192
  0
VERTEX
  5
161
  8
0
 10
725.0
 20
16.89875984191895
 30
47.85489273071289
 70
   192
  0
VERTEX
  5
162
  8
0
 10
725.0
 20
14.65380191802979
 30
43.17196655273438
 70
   192
  0
VERTEX
  5
163
  8
0
 10
725.0
 20
13.34924411773682
 30
40.9440803527832
 70
   192
  0
VERTEX
  5
164
  8
0
 10
725.0
 20
11.89431858062744
 30
38.76967620849609
 70
   192
  0
VERTEX
  5
165
  8
0
 10
725.0
 20
10.30384922027588
 30
36.71413803100586
 70
   192
  0
VERTEX
  5
166
  8
0
 10
725.0
 20
8.553624153137207
 30
34.7883186340332
 70
   192
  0
VERTEX
  5
167
  8
0
 10
725.0
 20
6.630826473236084
 30
33.05263519287109
 70
   192
  0
VERTEX
  5
168
  8
0
 10
725.0
 20
5.588305950164795
 30
32.27096939086914
 70
   192
  0
VERTEX
  5
169
  8
0
 10
725.0
 20
4.497299671173096
 30
31.56876182556152
 70
   192
  0
VERTEX
  5
16A
  8
0
 10
725.0
 20
3.360441207885742
 30
30.96684455871582
 70
   192
  0
VERTEX
  5
16B
  8
0
 10
725.0
 20
2.14512300491333
 30
30.47652816772461
 70
   192
  0
VERTEX
  5
16C
  8
0
 10
725.0
 20
1.518620848655701
 30
30.28406143188477
 70
   192
  0
VERTEX
  5
16D
  8
0
 10
725.0
 20
0.8853761553764343
 30
30.13490295410156
 70
   192
  0
VERTEX
  5
16E
  8
0
 10
725.0
 20
0.2436945289373398
 30
30.02817535400391
 70
   192
  0
VERTEX
  5
16F
  8
0
 10
725.0
 20
-0.3694039881229401
 30
29.97066116333008
 70
   192
  0
VERTEX
  5
170
  8
0
 10
725.0
 20
-1.03580629825592
 30
29.95622062683105
 70
   192
  0
VERTEX
  5
171
  8
0
 10
725.0
 20
-1.683797717094421
 30
29.99029922485352
 70
   192
  0
VERTEX
  5
172
  8
0
 10
725.0
 20
-2.319212675094604
 30
30.07094192504883
 70
   192
  0
VERTEX
  5
173
  8
0
 10
725.0
 20
-2.947885751724243
 30
30.19619369506836
 70
   192
  0
VERTEX
  5
174
  8
0
 10
725.0
 20
-4.193978309631348
 30
30.57032012939453
 70
   192
  0
VERTEX
  5
175
  8
0
 10
725.0
 20
-5.396924495697021
 30
31.08512115478516
 70
   192
  0
VERTEX
  5
176
  8
0
 10
725.0
 20
-6.526403427124023
 30
31.7133674621582
 70
   192
  0
VERTEX
  5
177
  8
0
 10
725.0
 20
-7.588876247406006
 30
32.43873977661133
 70
   192
  0
VERTEX
  5
178
  8
0
 10
725.0
 20
-8.597445487976074
 30
33.24788284301758
 70
   192
  0
VERTEX
  5
179
  8
0
 10
725.0
 20
-9.55500316619873
 30
34.12842178344727
 70
   192
  0
VERTEX
  5
17A
  8
0
 10
725.0
 20
-11.31843948364258
 30
36.05516815185547
 70
   192
  0
VERTEX
  5
17B
  8
0
 10
725.0
 20
-12.88408374786377
 30
38.13457870483398
 70
   192
  0
VERTEX
  5
17C
  8
0
 10
725.0
 20
-14.26557350158691
 30
40.33283233642578
 70
   192
  0
VERTEX
  5
17D
  8
0
 10
725.0
 20
-15.47873020172119
 30
42.62874603271484
 70
   192
  0
VERTEX
  5
17E
  8
0
 10
725.0
 20
-16.53937530517578
 30
45.00114059448242
 70
   192
  0
VERTEX
  5
17F
  8
0
 10
725.0
 20
-18.24294471740723
 30
49.90845489501953
 70
   192
  0
VERTEX
  5
180
  8
0
 10
725.0
 20
-19.3855152130127
 30
54.97444915771484
 70
   192
  0
VERTEX
  5
181
  8
0
 10
725.0
 20
-19.95283889770508
 30
60.1366081237793
 70
   192
  0
VERTEX
  5
182
  8
0
 10
725.0
 20
-19.93067932128906
 30
65.33242797851562
 70
   192
  0
VERTEX
  5
183
  8
0
 10
725.0
 20
-19.31891059875488
 30
70.50703430175781
 70
   192
  0
VERTEX
  5
184
  8
0
 10
725.0
 20
-18.81433486938477
 30
73.03584289550781
 70
   192
  0
VERTEX
  5
185
  8
0
 10
725.0
 20
-18.17441940307617
 30
75.55412292480469
 70
   192
  0
VERTEX
  5
186
  8
0
 10
725.0
 20
-16.50081253051758
 30
80.47428131103516
 70
   192
  0
VERTEX
  5
187
  8
0
 10
725.0
 20
-14.27952480316162
 30
85.1689682006836
 70
   192
  0
VERTEX
  5
188
  8
0
 10
725.0
 20
-12.94813346862793
 30
87.41093444824219
 70
   192
  0
VERTEX
  5
189
  8
0
 10
725.0
 20
-11.44635772705078
 30
89.53662872314453
 70
   192
  0
VERTEX
  5
18A
  8
0
 10
725.0
 20
-9.750524520874023
 30
91.49701690673828
 70
   192
  0
VERTEX
  5
18B
  8
0
 10
725.0
 20
-8.822439193725586
 30
92.39988708496094
 70
   192
  0
VERTEX
  5
18C
  8
0
 10
725.0
 20
-7.836960315704346
 30
93.24303436279297
 70
   192
  0
VERTEX
  5
18D
  8
0
 10
725.0
 20
-6.791567802429199
 30
94.01725006103516
 70
   192
  0
VERTEX
  5
18E
  8
0
 10
725.0
 20
-5.685493946075439
 30
94.70095825195312
 70
   192
  0
VERTEX
  5
18F
  8
0
 10
725.0
 20
-4.518405914306641
 30
95.26952362060547
 70
   192
  0
VERTEX
  5
190
  8
0
 10
725.0
 20
-3.91187858581543
 30
95.50292205810547
 70
   192
  0
VERTEX
  5
191
  8
0
 10
725.0
 20
-3.289973258972168
 30
95.69828796386719
 70
   192
  0
VERTEX
  5
192
  8
0
 10
725.0
 20
-2.653679132461548
 30
95.85263061523438
 70
   192
  0
VERTEX
  5
193
  8
0
 10
725.0
 20
-2.00810432434082
 30
95.96329498291016
 70
   192
  0
VERTEX
  5
194
  8
0
 10
725.0
 20
-1.359386801719666
 30
96.02774810791016
 70
   192
  0
VERTEX
  5
195
  8
0
 10
725.0
 20
-0.7136653661727905
 30
96.04341125488281
 70
   192
  0
VERTEX
  5
196
  8
0
 10
725.0
 20
-0.0755086094141006
 30
96.00839233398438
 70
   192
  0
VERTEX
  5
197
  8
0
 10
725.0
 20
0.5567923188209534
 30
95.92342376708984
 70
   192
  0
VERTEX
  5
198
  8
0
 10
725.0
 20
1.186515688896179
 30
95.78988647460938
 70
   192
  0
VERTEX
  5
199
  8
0
 10
725.0
 20
1.816939949989319
 30
95.60914611816406
 70
   192
  0
VERTEX
  5
19A
  8
0
 10
725.0
 20
1.186515688896179
 30
95.78988647460938
 70
   192
  0
VERTEX
  5
19B
  8
0
 10
725.0
 20
0.5567923188209534
 30
95.92342376708984
 70
   192
  0
VERTEX
  5
19C
  8
0
 10
725.0
 20
-0.0755086094141006
 30
96.00839233398438
 70
   192
  0
VERTEX
  5
19D
  8
0
 10
725.0
 20
-0.7136653661727905
 30
96.04341125488281
 70
   192
  0
VERTEX
  5
19E
  8
0
 10
725.0
 20
-1.359386801719666
 30
96.02774810791016
 70
   192
  0
VERTEX
  5
19F
  8
0
 10
725.0
 20
-2.00810432434082
 30
95.96329498291016
 70
   192
  0
VERTEX
  5
1A0
  8
0
 10
725.0
 20
-2.653679132461548
 30
95.85263061523438
 70
   192
  0
VERTEX
  5
1A1
  8
0
 10
725.0
 20
-3.289973258972168
 30
95.69828796386719
 70
   192
  0
VERTEX
  5
1A2
  8
0
 10
725.0
 20
-3.91187858581543
 30
95.50292205810547
 70
   192
  0
VERTEX
  5
1A3
  8
0
 10
725.0
 20
-4.518405914306641
 30
95.26952362060547
 70
   192
  0
VERTEX
  5
1A4
  8
0
 10
725.0
 20
-5.685493946075439
 30
94.70095825195312
 70
   192
  0
VERTEX
  5
1A5
  8
0
 10
725.0
 20
-6.791567802429199
 30
94.01725006103516
 70
   192
  0
VERTEX
  5
1A6
  8
0
 10
725.0
 20
-7.836960315704346
 30
93.24303436279297
 70
   192
  0
VERTEX
  5
1A7
  8
0
 10
725.0
 20
-8.822439193725586
 30
92.39988708496094
 70
   192
  0
VERTEX
  5
1A8
  8
0
 10
725.0
 20
-9.750524520874023
 30
91.49701690673828
 70
   192
  0
VERTEX
  5
1A9
  8
0
 10
725.0
 20
-11.44635772705078
 30
89.53662872314453
 70
   192
  0
VERTEX
  5
1AA
  8
0
 10
725.0
 20
-12.94813346862793
 30
87.41093444824219
 70
   192
  0
VERTEX
  5
1AB
  8
0
 10
725.0
 20
-14.27952480316162
 30
85.1689682006836
 70
   192
  0
VERTEX
  5
1AC
  8
0
 10
725.0
 20
-16.50081253051758
 30
80.47428131103516
 70
   192
  0
VERTEX
  5
1AD
  8
0
 10
725.0
 20
-18.17441940307617
 30
75.55412292480469
 70
   192
  0
VERTEX
  5
1AE
  8
0
 10
725.0
 20
-18.81433486938477
 30
73.03584289550781
 70
   192
  0
VERTEX
  5
1AF
  8
0
 10
725.0
 20
-19.31891059875488
 30
70.50703430175781
 70
   192
  0
VERTEX
  5
1B0
  8
0
 10
725.0
 20
-19.93067932128906
 30
65.33242797851562
 70
   192
  0
VERTEX
  5
1B1
  8
0
 10
725.0
 20
-19.95283889770508
 30
60.1366081237793
 70
   192
  0
VERTEX
  5
1B2
  8
0
 10
725.0
 20
-19.3855152130127
 30
54.97444915771484
 70
   192
  0
VERTEX
  5
1B3
  8
0
 10
725.0
 20
-18.24294471740723
 30
49.90845489501953
 70
   192
  0
VERTEX
  5
1B4
  8
0
 10
725.0
 20
-16.53937530517578
 30
45.00114059448242
 70
   192
  0
VERTEX
  5
1B5
  8
0
 10
725.0
 20
-15.47873020172119
 30
42.62874603271484
 70
   192
  0
VERTEX
  5
1B6
  8
0
 10
725.0
 20
-14.26557350158691
 30
40.33283233642578
 70
   192
  0
VERTEX
  5
1B7
  8
0
 10
725.0
 20
-12.88408374786377
 30
38.13457870483398
 70
   192
  0
VERTEX
  5
1B8
  8
0
 10
725.0
 20
-11.31843948364258
 30
36.05516815185547
 70
   192
  0
VERTEX
  5
1B9
  8
0
 10
725.0
 20
-9.55500316619873
 30
34.12842178344727
 70
   192
  0
VERTEX
  5
1BA
  8
0
 10
725.0
 20
-8.597445487976074
 30
33.24788284301758
 70
   192
  0
VERTEX
  5
1BB
  8
0
 10
725.0
 20
-7.588876247406006
 30
32.43873977661133
 70
   192
  0
VERTEX
  5
1BC
  8
0
 10
725.0
 20
-6.526403427124023
 30
31.7133674621582
 70
   192
  0
VERTEX
  5
1BD
  8
0
 10
725.0
 20
-5.396924495697021
 30
31.08512115478516
 70
   192
  0
VERTEX
  5
1BE
  8
0
 10
725.0
 20
-4.193978309631348
 30
30.57032012939453
 70
   192
  0
VERTEX
  5
1BF
  8
0
 10
725.0
 20
-2.947885751724243
 30
30.19619369506836
 70
   192
  0
VERTEX
  5
1C0
  8
0
 10
725.0
 20
-2.319212675094604
 30
30.07094192504883
 70
   192
  0
VERTEX
  5
1C1
  8
0
 10
725.0
 20
-1.683797717094421
 30
29.99029922485352
 70
   192
  0
VERTEX
  5
1C2
  8
0
 10
725.0
 20
-1.03580629825592
 30
29.95622062683105
 70
   192
  0
VERTEX
  5
1C3
  8
0
 10
725.0
 20
-0.3694039881229401
 30
29.97066116333008
 70
   192
  0
VERTEX
  5
1C4
  8
0
 10
725.0
 20
0.2436945289373398
 30
30.02817535400391
 70
   192
  0
VERTEX
  5
1C5
  8
0
 10
725.0
 20
0.8853761553764343
 30
30.13490295410156
 70
   192
  0
VERTEX
  5
1C6
  8
0
 10
725.0
 20
1.518620848655701
 30
30.28406143188477
 70
   192
  0
VERTEX
  5
1C7
  8
0
 10
725.0
 20
2.14512300491333
 30
30.47652816772461
 70
   192
  0
VERTEX
  5
1C8
  8
0
 10
725.0
 20
3.360441207885742
 30
30.96684455871582
 70
   192
  0
VERTEX
  5
1C9
  8
0
 10
725.0
 20
4.497299671173096
 30
31.56876182556152
 70
   192
  0
VERTEX
  5
1CA
  8
0
 10
725.0
 20
5.588305950164795
 30
32.27096939086914
 70
   192
  0
VERTEX
  5
1CB
  8
0
 10
725.0
 20
6.630826473236084
 30
33.05263519287109
 70
   192
  0
VERTEX
  5
1CC
  8
0
 10
725.0
 20
8.553624153137207
 30
34.7883186340332
 70
   192
  0
VERTEX
  5
1CD
  8
0
 10
725.0
 20
10.30384922027588
 30
36.71413803100586
 70
   192
  0
VERTEX
  5
1CE
  8
0
 10
725.0
 20
11.89431858062744
 30
38.76967620849609
 70
   192
  0
VERTEX
  5
1CF
  8
0
 10
725.0
 20
13.34924411773682
 30
40.9440803527832
 70
   192
  0
VERTEX
  5
1D0
  8
0
 10
725.0
 20
14.65380191802979
 30
43.17196655273438
 70
   192
  0
VERTEX
  5
1D1
  8
0
 10
725.0
 20
16.89875984191895
 30
47.85489273071289
 70
   192
  0
VERTEX
  5
1D2
  8
0
 10
725.0
 20
18.62375831604004
 30
52.76651000976562
 70
   192
  0
VERTEX
  5
1D3
  8
0
 10
725.0
 20
18.96166038513184
 30
54.01335906982422
 70
   192
  0
VERTEX
  5
1D4
  8
0
 10
725.0
 20
19.2592658996582
 30
55.26942825317383
 70
   192
  0
VERTEX
  5
1D5
  8
0
 10
725.0
 20
19.51506423950195
 30
56.54220199584961
 70
   192
  0
VERTEX
  5
1D6
  8
0
 10
725.0
 20
19.72339248657227
 30
57.82455825805664
 70
   192
  0
VERTEX
  5
1D7
  8
0
 10
725.0
 20
19.8798713684082
 30
59.1179084777832
 70
   192
  0
VERTEX
  5
1D8
  8
0
 10
725.0
 20
19.97734069824219
 30
60.41614532470703
 70
   192
  0
VERTEX
  5
1D9
  8
0
 10
725.0
 20
20.00740051269531
 30
61.37881088256836
 70
   192
  0
VERTEX
  5
1DA
  8
0
 10
725.0
 20
19.97965431213379
 30
63.0040283203125
 70
   192
  0
VERTEX
  5
1DB
  8
0
 10
725.0
 20
19.75971984863281
 30
65.59415435791016
 70
   192
  0
VERTEX
  5
1DC
  8
0
 10
725.0
 20
19.35828018188477
 30
68.16416931152344
 70
   192
  0
VERTEX
  5
1DD
  8
0
 10
725.0
 20
18.64794731140137
 30
71.33676147460938
 70
   192
  0
VERTEX
  5
1DE
  8
0
 10
725.0
 20
17.72736930847168
 30
74.45353698730469
 70
   192
  0
VERTEX
  5
1DF
  8
0
 10
725.0
 20
15.31901836395264
 30
80.47267150878906
 70
   192
  0
VERTEX
  5
1E0
  8
0
 10
725.0
 20
12.86589813232422
 30
85.0650863647461
 70
   192
  0
VERTEX
  5
1E1
  8
0
 10
725.0
 20
12.18513107299805
 30
86.15287017822266
 70
   192
  0
VERTEX
  5
1E2
  8
0
 10
725.0
 20
11.46307373046875
 30
87.2315673828125
 70
   192
  0
VERTEX
  5
1E3
  8
0
 10
725.0
 20
9.90355396270752
 30
89.32199096679688
 70
   192
  0
VERTEX
  5
1E4
  8
0
 10
725.0
 20
8.187919616699219
 30
91.275390625
 70
   192
  0
VERTEX
  5
1E5
  8
0
 10
725.0
 20
6.290975093841553
 30
93.03657531738281
 70
   192
  0
VERTEX
  5
1E6
  8
0
 10
725.0
 20
5.264075756072998
 30
93.82452392578125
 70
   192
  0
VERTEX
  5
1E7
  8
0
 10
725.0
 20
4.168731689453125
 30
94.53485107421875
 70
   192
  0
VERTEX
  5
1E8
  8
0
 10
725.0
 20
3.007098913192749
 30
95.14373016357422
 70
   192
  0
VERTEX
  5
1E9
  8
0
 10
725.0
 20
2.418161153793335
 30
95.394287109375
 70
   192
  0
VERTEX
  5
1EA
  8
0
 10
725.0
 20
1.816939949989319
 30
95.60914611816406
 70
   192
  0
VERTEX
  5
1EB
  8
0
 10
726.5
 20
1.715998888015747
 30
95.29752349853516
 70
   192
  0
VERTEX
  5
1EC
  8
0
 10
728.0
 20
1.615057826042175
 30
94.98590850830078
 70
   192
  0
VERTEX
  5
1ED
  8
0
 10
729.5
 20
1.514116644859314
 30
94.6742935180664
 70
   192
  0
VERTEX
  5
1EE
  8
0
 10
734.0
 20
1.211293339729309
 30
93.73943328857422
 70
   192
  0
VERTEX
  5
1EF
  8
0
 10
738.5
 20
0.9084699749946594
 30
92.80457305908203
 70
   192
  0
VERTEX
  5
1F0
  8
0
 10
743.0
 20
0.6056466698646545
 30
91.86971282958984
 70
   192
  0
VERTEX
  5
1F1
  8
0
 10
747.5
 20
0.3028233349323273
 30
90.93486022949219
 70
   192
  0
VERTEX
  5
1F2
  8
0
 10
749.0
 20
0.2018822282552719
 30
90.62324523925781
 70
   192
  0
VERTEX
  5
1F3
  8
0
 10
750.5
 20
0.100941114127636
 30
90.3116226196289
 70
   192
  0
VERTEX
  5
1F4
  8
0
 10
752.0
 20
0.0
 30
90.0
 70
   192
  0
VERTEX
  5
1F5
  8
0
 10
752.0
 20
1.022179484367371
 30
89.96399688720703
 70
   192
  0
VERTEX
  5
1F6
  8
0
 10
752.0
 20
2.731516361236572
 30
89.73843383789062
 70
   192
  0
VERTEX
  5
1F7
  8
0
 10
752.0
 20
4.067697525024414
 30
89.41160583496094
 70
   192
  0
VERTEX
  5
1F8
  8
0
 10
752.0
 20
5.358916282653809
 30
88.96061706542969
 70
   192
  0
VERTEX
  5
1F9
  8
0
 10
752.0
 20
6.603847503662109
 30
88.39179229736328
 70
   192
  0
VERTEX
  5
1FA
  8
0
 10
752.0
 20
7.798403739929199
 30
87.71614837646484
 70
   192
  0
VERTEX
  5
1FB
  8
0
 10
752.0
 20
8.937807083129883
 30
86.94586944580078
 70
   192
  0
VERTEX
  5
1FC
  8
0
 10
752.0
 20
10.01727676391602
 30
86.09315490722656
 70
   192
  0
VERTEX
  5
1FD
  8
0
 10
752.0
 20
11.03314685821533
 30
85.1692123413086
 70
   192
  0
VERTEX
  5
1FE
  8
0
 10
752.0
 20
11.98618316650391
 30
84.181396484375
 70
   192
  0
VERTEX
  5
1FF
  8
0
 10
752.0
 20
13.71127223968506
 30
82.0396957397461
 70
   192
  0
VERTEX
  5
200
  8
0
 10
752.0
 20
15.20757293701172
 30
79.71908569335938
 70
   192
  0
VERTEX
  5
201
  8
0
 10
752.0
 20
16.49011039733887
 30
77.27063751220703
 70
   192
  0
VERTEX
  5
202
  8
0
 10
752.0
 20
18.04452896118164
 30
73.44625091552734
 70
   192
  0
VERTEX
  5
203
  8
0
 10
752.0
 20
19.02584457397461
 30
70.151123046875
 70
   192
  0
VERTEX
  5
204
  8
0
 10
752.0
 20
19.73360443115234
 30
66.78741455078125
 70
   192
  0
VERTEX
  5
205
  8
0
 10
752.0
 20
20.32322883605957
 30
61.32814407348633
 70
   192
  0
VERTEX
  5
206
  8
0
 10
752.0
 20
20.30482864379883
 30
55.83082962036133
 70
   192
  0
VERTEX
  5
207
  8
0
 10
752.0
 20
19.74441337585449
 30
50.35336303710938
 70
   192
  0
VERTEX
  5
208
  8
0
 10
752.0
 20
18.68291282653809
 30
44.94812393188477
 70
   192
  0
VERTEX
  5
209
  8
0
 10
752.0
 20
17.14529037475586
 30
39.66497421264648
 70
   192
  0
VERTEX
  5
20A
  8
0
 10
752.0
 20
15.11773490905762
 30
34.54931640625
 70
   192
  0
VERTEX
  5
20B
  8
0
 10
752.0
 20
13.90976619720459
 30
32.07196044921875
 70
   192
  0
VERTEX
  5
20C
  8
0
 10
752.0
 20
12.5517578125
 30
29.67605018615723
 70
   192
  0
VERTEX
  5
20D
  8
0
 10
752.0
 20
11.0220251083374
 30
27.39008331298828
 70
   192
  0
VERTEX
  5
20E
  8
0
 10
752.0
 20
9.298885345458984
 30
25.2425651550293
 70
   192
  0
VERTEX
  5
20F
  8
0
 10
752.0
 20
7.358280658721924
 30
23.28092765808105
 70
   192
  0
VERTEX
  5
210
  8
0
 10
752.0
 20
6.296092510223389
 30
22.40712356567383
 70
   192
  0
VERTEX
  5
211
  8
0
 10
752.0
 20
5.166658401489258
 30
21.62834167480469
 70
   192
  0
VERTEX
  5
212
  8
0
 10
752.0
 20
3.965500593185425
 30
20.96502876281738
 70
   192
  0
VERTEX
  5
213
  8
0
 10
752.0
 20
3.336642265319824
 30
20.68624114990234
 70
   192
  0
VERTEX
  5
214
  8
0
 10
752.0
 20
2.688196659088135
 30
20.44833946228027
 70
   192
  0
VERTEX
  5
215
  8
0
 10
752.0
 20
1.8534095287323
 30
20.21542549133301
 70
   192
  0
VERTEX
  5
216
  8
0
 10
752.0
 20
1.011009812355042
 30
20.06440925598145
 70
   192
  0
VERTEX
  5
217
  8
0
 10
752.0
 20
0.4918032288551331
 30
20.01626586914062
 70
   192
  0
VERTEX
  5
218
  8
0
 10
752.0
 20
-0.0000000000000007
 30
20.0
 70
   192
  0
VERTEX
  5
219
  8
0
 10
752.0
 20
-0.4918032288551331
 30
20.01626586914062
 70
   192
  0
VERTEX
  5
21A
  8
0
 10
752.0
 20
-1.011009812355042
 30
20.06440925598145
 70
   192
  0
VERTEX
  5
21B
  8
0
 10
752.0
 20
-1.853342890739441
 30
20.21549034118652
 70
   192
  0
VERTEX
  5
21C
  8
0
 10
752.0
 20
-2.687611103057861
 30
20.44846153259277
 70
   192
  0
VERTEX
  5
21D
  8
0
 10
752.0
 20
-3.33508563041687
 30
20.68629264831543
 70
   192
  0
VERTEX
  5
21E
  8
0
 10
752.0
 20
-3.962675333023071
 30
20.96493148803711
 70
   192
  0
VERTEX
  5
21F
  8
0
 10
752.0
 20
-5.161603927612305
 30
21.62796211242676
 70
   192
  0
VERTEX
  5
220
  8
0
 10
752.0
 20
-6.290679454803467
 30
22.40677070617676
 70
   192
  0
VERTEX
  5
221
  8
0
 10
752.0
 20
-7.354104042053223
 30
23.28086853027344
 70
   192
  0
VERTEX
  5
222
  8
0
 10
752.0
 20
-9.298726081848145
 30
25.24324417114258
 70
   192
  0
VERTEX
  5
223
  8
0
 10
752.0
 20
-11.02382469177246
 30
27.39090538024902
 70
   192
  0
VERTEX
  5
224
  8
0
 10
752.0
 20
-12.55334377288818
 30
29.67641639709473
 70
   192
  0
VERTEX
  5
225
  8
0
 10
752.0
 20
-13.91012763977051
 30
32.07152557373047
 70
   192
  0
VERTEX
  5
226
  8
0
 10
752.0
 20
-15.11702060699463
 30
34.5479736328125
 70
   192
  0
VERTEX
  5
227
  8
0
 10
752.0
 20
-17.14523506164551
 30
39.66229248046875
 70
   192
  0
VERTEX
  5
228
  8
0
 10
752.0
 20
-18.68438529968262
 30
44.94540786743164
 70
   192
  0
VERTEX
  5
229
  8
0
 10
752.0
 20
-19.74517250061035
 30
50.35198211669922
 70
   192
  0
VERTEX
  5
22A
  8
0
 10
752.0
 20
-20.30460929870605
 30
55.82957458496094
 70
   192
  0
VERTEX
  5
22B
  8
0
 10
752.0
 20
-20.32371711730957
 30
61.32476806640625
 70
   192
  0
VERTEX
  5
22C
  8
0
 10
752.0
 20
-19.73322296142578
 30
66.78742218017578
 70
   192
  0
VERTEX
  5
22D
  8
0
 10
752.0
 20
-19.18624305725098
 30
69.48998260498047
 70
   192
  0
VERTEX
  5
22E
  8
0
 10
752.0
 20
-18.46331405639648
 30
72.1589584350586
 70
   192
  0
VERTEX
  5
22F
  8
0
 10
752.0
 20
-18.04437637329102
 30
73.44685363769531
 70
   192
  0
VERTEX
  5
230
  8
0
 10
752.0
 20
-17.57347679138184
 30
74.7402572631836
 70
   192
  0
VERTEX
  5
231
  8
0
 10
752.0
 20
-16.49007797241211
 30
77.2721939086914
 70
   192
  0
VERTEX
  5
232
  8
0
 10
752.0
 20
-15.20792579650879
 30
79.71625518798828
 70
   192
  0
VERTEX
  5
233
  8
0
 10
752.0
 20
-13.71081066131592
 30
82.0362777709961
 70
   192
  0
VERTEX
  5
234
  8
0
 10
752.0
 20
-11.98510456085205
 30
84.17945098876953
 70
   192
  0
VERTEX
  5
235
  8
0
 10
752.0
 20
-11.03227138519287
 30
85.16820526123047
 70
   192
  0
VERTEX
  5
236
  8
0
 10
752.0
 20
-10.01718139648438
 30
86.09293365478516
 70
   192
  0
VERTEX
  5
237
  8
0
 10
752.0
 20
-8.939138412475586
 30
86.94611358642578
 70
   192
  0
VERTEX
  5
238
  8
0
 10
752.0
 20
-7.801476955413818
 30
87.7165298461914
 70
   192
  0
VERTEX
  5
239
  8
0
 10
752.0
 20
-6.608541011810303
 30
88.39204406738281
 70
   192
  0
VERTEX
  5
23A
  8
0
 10
752.0
 20
-5.364672183990479
 30
88.96051788330078
 70
   192
  0
VERTEX
  5
23B
  8
0
 10
752.0
 20
-4.074075698852539
 30
89.41107940673828
 70
   192
  0
VERTEX
  5
23C
  8
0
 10
752.0
 20
-2.740398168563843
 30
89.73793029785156
 70
   192
  0
VERTEX
  5
23D
  8
0
 10
752.0
 20
-1.364241361618042
 30
89.935791015625
 70
   192
  0
VERTEX
  5
23E
  8
0
 10
752.0
 20
0.0
 30
90.0
 70
   192
  0
VERTEX
  5
23F
  8
0
 10
750.5
 20
0.100941114127636
 30
90.3116226196289
 70
   192
  0
VERTEX
  5
240
  8
0
 10
749.0
 20
0.2018822282552719
 30
90.62324523925781
 70
   192
  0
VERTEX
  5
241
  8
0
 10
747.5
 20
0.3028233349323273
 30
90.93486022949219
 70
   192
  0
VERTEX
  5
242
  8
0
 10
743.0
 20
0.6056466698646545
 30
91.86971282958984
 70
   192
  0
VERTEX
  5
243
  8
0
 10
738.5
 20
0.9084699749946594
 30
92.80457305908203
 70
   192
  0
VERTEX
  5
244
  8
0
 10
734.0
 20
1.211293339729309
 30
93.73943328857422
 70
   192
  0
VERTEX
  5
245
  8
0
 10
729.5
 20
1.514116644859314
 30
94.6742935180664
 70
   192
  0
VERTEX
  5
246
  8
0
 10
728.0
 20
1.615057826042175
 30
94.98590850830078
 70
   192
  0
VERTEX
  5
247
  8
0
 10
726.5
 20
1.715998888015747
 30
95.29752349853516
 70
   192
  0
VERTEX
  5
248
  8
0
 10
734.7623901367188
 20
1.145302772521973
 30
93.58405303955078
 70
   192
  0
VERTEX
  5
249
  8
0
 10
734.7623901367188
 20
2.156889200210571
 30
93.33786010742188
 70
   192
  0
VERTEX
  5
24A
  8
0
 10
728.2185668945312
 20
2.565173625946045
 30
94.62029266357422
 70
   192
  0
VERTEX
  5
24B
  8
0
 10
728.2185668945312
 20
3.556905746459961
 30
94.18791961669922
 70
   192
  0
VERTEX
  5
24C
  8
0
 10
728.2185668945312
 20
4.555311679840088
 30
93.64942169189453
 70
   192
  0
VERTEX
  5
24D
  8
0
 10
728.2185668945312
 20
5.557963371276855
 30
93.00397491455078
 70
   192
  0
VERTEX
  5
24E
  8
0
 10
728.2185668945312
 20
6.571320056915283
 30
92.24478149414062
 70
   192
  0
VERTEX
  5
24F
  8
0
 10
728.2185668945312
 20
7.598019123077393
 30
91.3648910522461
 70
   192
  0
VERTEX
  5
250
  8
0
 10
728.2185668945312
 20
8.646734237670898
 30
90.34474182128906
 70
   192
  0
VERTEX
  5
251
  8
0
 10
728.2185668945312
 20
9.731721878051758
 30
89.15447235107422
 70
   192
  0
VERTEX
  5
252
  8
0
 10
728.2185668945312
 20
10.87154483795166
 30
87.74982452392578
 70
   192
  0
VERTEX
  5
253
  8
0
 10
728.2185668945312
 20
12.08127975463867
 30
86.06925964355469
 70
   192
  0
VERTEX
  5
254
  8
0
 10
728.2185668945312
 20
13.34905338287354
 30
84.0724868774414
 70
   192
  0
VERTEX
  5
255
  8
0
 10
728.2185668945312
 20
14.45253944396973
 30
82.10580444335938
 70
   192
  0
VERTEX
  5
256
  8
0
 10
728.2185668945312
 20
15.51053142547607
 30
79.97891235351562
 70
   192
  0
VERTEX
  5
257
  8
0
 10
728.2185668945312
 20
16.5001106262207
 30
77.71804809570312
 70
   192
  0
VERTEX
  5
258
  8
0
 10
728.2185668945312
 20
17.40788459777832
 30
75.33491516113281
 70
   192
  0
VERTEX
  5
259
  8
0
 10
728.2185668945312
 20
18.2321662902832
 30
72.79052734375
 70
   192
  0
VERTEX
  5
25A
  8
0
 10
728.2185668945312
 20
18.94723320007324
 30
70.09568786621094
 70
   192
  0
VERTEX
  5
25B
  8
0
 10
728.2185668945312
 20
19.5235652923584
 30
67.23931884765625
 70
   192
  0
VERTEX
  5
25C
  8
0
 10
728.2185668945312
 20
19.9187183380127
 30
64.17868041992188
 70
   192
  0
VERTEX
  5
25D
  8
0
 10
728.2185668945312
 20
20.04908561706543
 30
60.89633560180664
 70
   192
  0
VERTEX
  5
25E
  8
0
 10
728.2185668945312
 20
19.79699325561523
 30
57.48252105712891
 70
   192
  0
VERTEX
  5
25F
  8
0
 10
728.2185668945312
 20
19.23857307434082
 30
54.31826782226562
 70
   192
  0
VERTEX
  5
260
  8
0
 10
728.2185668945312
 20
18.39694595336914
 30
51.10126113891602
 70
   192
  0
VERTEX
  5
261
  8
0
 10
728.2185668945312
 20
17.24691772460938
 30
47.75226593017578
 70
   192
  0
VERTEX
  5
262
  8
0
 10
728.2185668945312
 20
15.77071094512939
 30
44.30862426757812
 70
   192
  0
VERTEX
  5
263
  8
0
 10
728.2185668945312
 20
14.02490425109863
 30
40.97084426879883
 70
   192
  0
VERTEX
  5
264
  8
0
 10
728.2185668945312
 20
12.26558399200439
 30
38.1651496887207
 70
   192
  0
VERTEX
  5
265
  8
0
 10
728.2185668945312
 20
10.55595207214355
 30
35.85701751708984
 70
   192
  0
VERTEX
  5
266
  8
0
 10
728.2185668945312
 20
8.88466739654541
 30
33.94665908813477
 70
   192
  0
VERTEX
  5
267
  8
0
 10
728.2185668945312
 20
7.374340057373047
 30
32.4882926940918
 70
   192
  0
VERTEX
  5
268
  8
0
 10
728.2185668945312
 20
5.737269878387451
 30
31.18018531799316
 70
   192
  0
VERTEX
  5
269
  8
0
 10
728.2185668945312
 20
4.21599006652832
 30
30.21614265441895
 70
   192
  0
VERTEX
  5
26A
  8
0
 10
728.2185668945312
 20
2.837286710739136
 30
29.55274963378906
 70
   192
  0
VERTEX
  5
26B
  8
0
 10
728.2185668945312
 20
1.570451736450195
 30
29.12160301208496
 70
   192
  0
VERTEX
  5
26C
  8
0
 10
728.2185668945312
 20
0.3906629681587219
 30
28.88391494750977
 70
   192
  0
VERTEX
  5
26D
  8
0
 10
728.2185668945312
 20
-0.7163649797439575
 30
28.80308151245117
 70
   192
  0
VERTEX
  5
26E
  8
0
 10
728.2185668945312
 20
-1.750743865966797
 30
28.85031700134277
 70
   192
  0
VERTEX
  5
26F
  8
0
 10
728.2185668945312
 20
-2.711584568023682
 30
29.0035400390625
 70
   192
  0
VERTEX
  5
270
  8
0
 10
728.2185668945312
 20
-3.602226495742798
 30
29.23805618286133
 70
   192
  0
VERTEX
  5
271
  8
0
 10
728.2185668945312
 20
-4.438576221466064
 30
29.53713607788086
 70
   192
  0
VERTEX
  5
272
  8
0
 10
728.2185668945312
 20
-5.253780841827393
 30
29.90376091003418
 70
   192
  0
VERTEX
  5
273
  8
0
 10
728.2185668945312
 20
-6.097691535949707
 30
30.36054992675781
 70
   192
  0
VERTEX
  5
274
  8
0
 10
728.2185668945312
 20
-6.980660438537598
 30
30.92403602600098
 70
   192
  0
VERTEX
  5
275
  8
0
 10
728.2185668945312
 20
-7.932769775390625
 30
31.63281440734863
 70
   192
  0
VERTEX
  5
276
  8
0
 10
728.2185668945312
 20
-8.99091911315918
 30
32.54569625854492
 70
   192
  0
VERTEX
  5
277
  8
0
 10
728.2185668945312
 20
-10.23254203796387
 30
33.79645538330078
 70
   192
  0
VERTEX
  5
278
  8
0
 10
728.2185668945312
 20
-11.65510559082031
 30
35.48736953735352
 70
   192
  0
VERTEX
  5
279
  8
0
 10
728.2185668945312
 20
-13.02043342590332
 30
37.40122222900391
 70
   192
  0
VERTEX
  5
27A
  8
0
 10
728.2185668945312
 20
-14.39873504638672
 30
39.68172454833984
 70
   192
  0
VERTEX
  5
27B
  8
0
 10
728.2185668945312
 20
-15.74068450927734
 30
42.32745361328125
 70
   192
  0
VERTEX
  5
27C
  8
0
 10
728.2185668945312
 20
-16.94308280944824
 30
45.1909065246582
 70
   192
  0
VERTEX
  5
27D
  8
0
 10
728.2185668945312
 20
-17.99477005004883
 30
48.28547668457031
 70
   192
  0
VERTEX
  5
27E
  8
0
 10
728.2185668945312
 20
-18.87464904785156
 30
51.63241577148438
 70
   192
  0
VERTEX
  5
27F
  8
0
 10
728.2185668945312
 20
-19.54873085021973
 30
55.27719879150391
 70
   192
  0
VERTEX
  5
280
  8
0
 10
728.2185668945312
 20
-19.95497131347656
 30
59.26259613037109
 70
   192
  0
VERTEX
  5
281
  8
0
 10
728.2185668945312
 20
-20.00343704223633
 30
63.52548980712891
 70
   192
  0
VERTEX
  5
282
  8
0
 10
728.2185668945312
 20
-19.68852615356445
 30
67.60902404785156
 70
   192
  0
VERTEX
  5
283
  8
0
 10
728.2185668945312
 20
-19.12307357788086
 30
71.2075424194336
 70
   192
  0
VERTEX
  5
284
  8
0
 10
728.2185668945312
 20
-18.43411636352539
 30
74.23152160644531
 70
   192
  0
VERTEX
  5
285
  8
0
 10
728.2185668945312
 20
-17.66501808166504
 30
76.86795043945312
 70
   192
  0
VERTEX
  5
286
  8
0
 10
728.2185668945312
 20
-16.83629608154297
 30
79.21762084960938
 70
   192
  0
VERTEX
  5
287
  8
0
 10
728.2185668945312
 20
-15.96044158935547
 30
81.33726501464844
 70
   192
  0
VERTEX
  5
288
  8
0
 10
728.2185668945312
 20
-15.04760837554932
 30
83.26007843017578
 70
   192
  0
VERTEX
  5
289
  8
0
 10
728.2185668945312
 20
-13.97352027893066
 30
85.2313003540039
 70
   192
  0
VERTEX
  5
28A
  8
0
 10
728.2185668945312
 20
-12.84646892547607
 30
87.032958984375
 70
   192
  0
VERTEX
  5
28B
  8
0
 10
728.2185668945312
 20
-11.66958141326904
 30
88.66683959960938
 70
   192
  0
VERTEX
  5
28C
  8
0
 10
728.2185668945312
 20
-10.44112110137939
 30
90.13875579833984
 70
   192
  0
VERTEX
  5
28D
  8
0
 10
728.2185668945312
 20
-9.16537857055664
 30
91.44800567626953
 70
   192
  0
VERTEX
  5
28E
  8
0
 10
728.2185668945312
 20
-7.843317985534668
 30
92.58643341064453
 70
   192
  0
VERTEX
  5
28F
  8
0
 10
728.2185668945312
 20
-6.499476909637451
 30
93.53155517578125
 70
   192
  0
VERTEX
  5
290
  8
0
 10
728.2185668945312
 20
-5.212467670440674
 30
94.24423217773438
 70
   192
  0
VERTEX
  5
291
  8
0
 10
728.2185668945312
 20
-3.971355438232422
 30
94.75760650634766
 70
   192
  0
VERTEX
  5
292
  8
0
 10
728.2185668945312
 20
-2.758979797363281
 30
95.09393310546875
 70
   192
  0
VERTEX
  5
293
  8
0
 10
728.2185668945312
 20
-1.620755076408386
 30
95.26190185546875
 70
   192
  0
VERTEX
  5
294
  8
0
 10
728.2185668945312
 20
-0.5221784710884094
 30
95.28531646728516
 70
   192
  0
VERTEX
  5
295
  8
0
 10
728.2185668945312
 20
0.5076828002929688
 30
95.18181610107422
 70
   192
  0
VERTEX
  5
296
  8
0
 10
728.2185668945312
 20
1.585668921470642
 30
94.94465637207031
 70
   192
  0
VERTEX
  5
297
  8
0
 10
741.45947265625
 20
1.739040613174438
 30
92.02537536621094
 70
   192
  0
VERTEX
  5
298
  8
0
 10
741.45947265625
 20
2.810724496841431
 30
91.76067352294922
 70
   192
  0
VERTEX
  5
299
  8
0
 10
741.45947265625
 20
3.907086849212646
 30
91.39132690429688
 70
   192
  0
VERTEX
  5
29A
  8
0
 10
741.45947265625
 20
5.023999214172363
 30
90.90949249267578
 70
   192
  0
VERTEX
  5
29B
  8
0
 10
741.45947265625
 20
6.165406703948975
 30
90.30302429199219
 70
   192
  0
VERTEX
  5
29C
  8
0
 10
741.45947265625
 20
7.331599712371826
 30
89.55830383300781
 70
   192
  0
VERTEX
  5
29D
  8
0
 10
741.45947265625
 20
8.527945518493652
 30
88.6537094116211
 70
   192
  0
VERTEX
  5
29E
  8
0
 10
741.45947265625
 20
9.763071060180664
 30
87.5575942993164
 70
   192
  0
VERTEX
  5
29F
  8
0
 10
741.45947265625
 20
11.05026149749756
 30
86.22184753417969
 70
   192
  0
VERTEX
  5
2A0
  8
0
 10
741.45947265625
 20
12.40172290802002
 30
84.57876586914062
 70
   192
  0
VERTEX
  5
2A1
  8
0
 10
741.45947265625
 20
13.79389095306396
 30
82.58277130126953
 70
   192
  0
VERTEX
  5
2A2
  8
0
 10
741.45947265625
 20
14.97817230224609
 30
80.58829498291016
 70
   192
  0
VERTEX
  5
2A3
  8
0
 10
741.45947265625
 20
16.08676719665527
 30
78.40604400634766
 70
   192
  0
VERTEX
  5
2A4
  8
0
 10
741.45947265625
 20
17.09687805175781
 30
76.05899810791016
 70
   192
  0
VERTEX
  5
2A5
  8
0
 10
741.45947265625
 20
17.97799301147461
 30
73.62326049804688
 70
   192
  0
VERTEX
  5
2A6
  8
0
 10
741.45947265625
 20
18.75190162658691
 30
70.99394989013672
 70
   192
  0
VERTEX
  5
2A7
  8
0
 10
741.45947265625
 20
19.39784622192383
 30
68.17672729492188
 70
   192
  0
VERTEX
  5
2A8
  8
0
 10
741.45947265625
 20
19.87667083740234
 30
65.21253967285156
 70
   192
  0
VERTEX
  5
2A9
  8
0
 10
741.45947265625
 20
20.16591453552246
 30
62.05523681640625
 70
   192
  0
VERTEX
  5
2AA
  8
0
 10
741.45947265625
 20
20.21883773803711
 30
58.68579483032227
 70
   192
  0
VERTEX
  5
2AB
  8
0
 10
741.45947265625
 20
19.97270393371582
 30
55.16457748413086
 70
   192
  0
VERTEX
  5
2AC
  8
0
 10
741.45947265625
 20
19.48606300354004
 30
51.88857650756836
 70
   192
  0
VERTEX
  5
2AD
  8
0
 10
741.45947265625
 20
18.75528335571289
 30
48.53910827636719
 70
   192
  0
VERTEX
  5
2AE
  8
0
 10
741.45947265625
 20
17.74935340881348
 30
45.04874038696289
 70
   192
  0
VERTEX
  5
2AF
  8
0
 10
741.45947265625
 20
16.4336051940918
 30
41.42449569702148
 70
   192
  0
VERTEX
  5
2B0
  8
0
 10
741.45947265625
 20
14.85047149658203
 30
37.88313293457031
 70
   192
  0
VERTEX
  5
2B1
  8
0
 10
741.45947265625
 20
13.23932647705078
 30
34.89554595947266
 70
   192
  0
VERTEX
  5
2B2
  8
0
 10
741.45947265625
 20
11.64048194885254
 30
32.39153671264648
 70
   192
  0
VERTEX
  5
2B3
  8
0
 10
741.45947265625
 20
10.0811595916748
 30
30.3150806427002
 70
   192
  0
VERTEX
  5
2B4
  8
0
 10
741.45947265625
 20
8.664742469787598
 30
28.70967292785645
 70
   192
  0
VERTEX
  5
2B5
  8
0
 10
741.45947265625
 20
7.101364612579346
 30
27.21729469299316
 70
   192
  0
VERTEX
  5
2B6
  8
0
 10
741.45947265625
 20
5.644274234771729
 30
26.08285903930664
 70
   192
  0
VERTEX
  5
2B7
  8
0
 10
741.45947265625
 20
4.314083576202393
 30
25.25728416442871
 70
   192
  0
VERTEX
  5
2B8
  8
0
 10
741.45947265625
 20
3.073431253433228
 30
24.66604614257812
 70
   192
  0
VERTEX
  5
2B9
  8
0
 10
741.45947265625
 20
1.897494435310364
 30
24.26871681213379
 70
   192
  0
VERTEX
  5
2BA
  8
0
 10
741.45947265625
 20
0.7779725193977356
 30
24.0372200012207
 70
   192
  0
VERTEX
  5
2BB
  8
0
 10
741.45947265625
 20
-0.2826226651668549
 30
23.95039176940918
 70
   192
  0
VERTEX
  5
2BC
  8
0
 10
741.45947265625
 20
-1.273150086402893
 30
23.99017333984375
 70
   192
  0
VERTEX
  5
2BD
  8
0
 10
741.45947265625
 20
-2.193134307861328
 30
24.13422393798828
 70
   192
  0
VERTEX
  5
2BE
  8
0
 10
741.45947265625
 20
-3.088250160217285
 30
24.36740493774414
 70
   192
  0
VERTEX
  5
2BF
  8
0
 10
741.45947265625
 20
-3.940391302108765
 30
24.67819786071777
 70
   192
  0
VERTEX
  5
2C0
  8
0
 10
741.45947265625
 20
-4.83027982711792
 30
25.09252166748047
 70
   192
  0
VERTEX
  5
2C1
  8
0
 10
741.45947265625
 20
-5.769539356231689
 30
25.62864685058594
 70
   192
  0
VERTEX
  5
2C2
  8
0
 10
741.45947265625
 20
-6.778660774230957
 30
26.32047653198242
 70
   192
  0
VERTEX
  5
2C3
  8
0
 10
741.45947265625
 20
-7.894087791442871
 30
27.22576904296875
 70
   192
  0
VERTEX
  5
2C4
  8
0
 10
741.45947265625
 20
-9.1998291015625
 30
28.48280906677246
 70
   192
  0
VERTEX
  5
2C5
  8
0
 10
741.45947265625
 20
-10.69301891326904
 30
30.19644546508789
 70
   192
  0
VERTEX
  5
2C6
  8
0
 10
741.45947265625
 20
-12.1268482208252
 30
32.1456298828125
 70
   192
  0
VERTEX
  5
2C7
  8
0
 10
741.45947265625
 20
-13.57946395874023
 30
34.47491455078125
 70
   192
  0
VERTEX
  5
2C8
  8
0
 10
741.45947265625
 20
-15.00013542175293
 30
37.17306900024414
 70
   192
  0
VERTEX
  5
2C9
  8
0
 10
741.45947265625
 20
-16.28945922851562
 30
40.09367370605469
 70
   192
  0
VERTEX
  5
2CA
  8
0
 10
741.45947265625
 20
-17.44126510620117
 30
43.24920272827148
 70
   192
  0
VERTEX
  5
2CB
  8
0
 10
741.45947265625
 20
-18.4429874420166
 30
46.6695671081543
 70
   192
  0
VERTEX
  5
2CC
  8
0
 10
741.45947265625
 20
-19.26629066467285
 30
50.39200210571289
 70
   192
  0
VERTEX
  5
2CD
  8
0
 10
741.45947265625
 20
-19.86241912841797
 30
54.4709358215332
 70
   192
  0
VERTEX
  5
2CE
  8
0
 10
741.45947265625
 20
-20.14758110046387
 30
58.84796905517578
 70
   192
  0
VERTEX
  5
2CF
  8
0
 10
741.45947265625
 20
-20.07506370544434
 30
63.05178833007812
 70
   192
  0
VERTEX
  5
2D0
  8
0
 10
741.45947265625
 20
-19.71742630004883
 30
66.77729034423828
 70
   192
  0
VERTEX
  5
2D1
  8
0
 10
741.45947265625
 20
-19.18525695800781
 30
69.91999816894531
 70
   192
  0
VERTEX
  5
2D2
  8
0
 10
741.45947265625
 20
-18.53321266174316
 30
72.66875457763672
 70
   192
  0
VERTEX
  5
2D3
  8
0
 10
741.45947265625
 20
-17.79155349731445
 30
75.12442779541016
 70
   192
  0
VERTEX
  5
2D4
  8
0
 10
741.45947265625
 20
-16.98505401611328
 30
77.32674407958984
 70
   192
  0
VERTEX
  5
2D5
  8
0
 10
741.45947265625
 20
-16.11745452880859
 30
79.33901977539062
 70
   192
  0
VERTEX
  5
2D6
  8
0
 10
741.45947265625
 20
-15.07401371002197
 30
81.4052734375
 70
   192
  0
VERTEX
  5
2D7
  8
0
 10
741.45947265625
 20
-13.96325397491455
 30
83.28712463378906
 70
   192
  0
VERTEX
  5
2D8
  8
0
 10
741.45947265625
 20
-12.78929805755615
 30
84.9922103881836
 70
   192
  0
VERTEX
  5
2D9
  8
0
 10
741.45947265625
 20
-11.55366706848145
 30
86.52710723876953
 70
   192
  0
VERTEX
  5
2DA
  8
0
 10
741.45947265625
 20
-10.26029396057129
 30
87.89457702636719
 70
   192
  0
VERTEX
  5
2DB
  8
0
 10
741.45947265625
 20
-8.912466049194336
 30
89.0899887084961
 70
   192
  0
VERTEX
  5
2DC
  8
0
 10
741.45947265625
 20
-7.54832935333252
 30
90.0855712890625
 70
   192
  0
VERTEX
  5
2DD
  8
0
 10
741.45947265625
 20
-6.244371891021729
 30
90.85147094726562
 70
   192
  0
VERTEX
  5
2DE
  8
0
 10
741.45947265625
 20
-4.990005016326904
 30
91.42692565917969
 70
   192
  0
VERTEX
  5
2DF
  8
0
 10
741.45947265625
 20
-3.77455472946167
 30
91.8388671875
 70
   192
  0
VERTEX
  5
2E0
  8
0
 10
741.45947265625
 20
-2.616571187973022
 30
92.10358428955078
 70
   192
  0
VERTEX
  5
2E1
  8
0
 10
741.45947265625
 20
-1.490266561508179
 30
92.2431869506836
 70
   192
  0
VERTEX
  5
2E2
  8
0
 10
741.45947265625
 20
-0.4122167527675629
 30
92.27088928222656
 70
   192
  0
VERTEX
  5
2E3
  8
0
 10
741.45947265625
 20
0.6946207880973816
 30
92.19158172607422
 70
   192
  0
VERTEX
  5
2E4
  8
0
 10
738.0908813476562
 20
0.9213120341300964
 30
92.8919906616211
 70
   192
  0
VERTEX
  5
2E5
  8
0
 10
738.0908813476562
 20
-0.1781854182481766
 30
93.01145935058594
 70
   192
  0
VERTEX
  5
2E6
  8
0
 10
738.0908813476562
 20
-1.243975520133972
 30
93.01713562011719
 70
   192
  0
VERTEX
  5
2E7
  8
0
 10
738.0908813476562
 20
-2.363225698471069
 30
92.90708923339844
 70
   192
  0
VERTEX
  5
2E8
  8
0
 10
738.0908813476562
 20
-3.516182422637939
 30
92.66698455810547
 70
   192
  0
VERTEX
  5
2E9
  8
0
 10
738.0908813476562
 20
-4.730851173400879
 30
92.27428436279297
 70
   192
  0
VERTEX
  5
2EA
  8
0
 10
738.0908813476562
 20
-5.981845378875732
 30
91.7146224975586
 70
   192
  0
VERTEX
  5
2EB
  8
0
 10
738.0908813476562
 20
-7.281491279602051
 30
90.96226501464844
 70
   192
  0
VERTEX
  5
2EC
  8
0
 10
738.0908813476562
 20
-8.640464782714844
 30
89.9795150756836
 70
   192
  0
VERTEX
  5
2ED
  8
0
 10
738.0908813476562
 20
-9.98173713684082
 30
88.7986068725586
 70
   192
  0
VERTEX
  5
2EE
  8
0
 10
738.0908813476562
 20
-11.2706241607666
 30
87.4459457397461
 70
   192
  0
VERTEX
  5
2EF
  8
0
 10
738.0908813476562
 20
-12.50443077087402
 30
85.92707824707031
 70
   192
  0
VERTEX
  5
2F0
  8
0
 10
738.0908813476562
 20
-13.67913246154785
 30
84.24010467529297
 70
   192
  0
VERTEX
  5
2F1
  8
0
 10
738.0908813476562
 20
-14.79403686523438
 30
82.37864685058594
 70
   192
  0
VERTEX
  5
2F2
  8
0
 10
738.0908813476562
 20
-15.84527492523193
 30
80.33657836914062
 70
   192
  0
VERTEX
  5
2F3
  8
0
 10
738.0908813476562
 20
-16.7243824005127
 30
78.34706115722656
 70
   192
  0
VERTEX
  5
2F4
  8
0
 10
738.0908813476562
 20
-17.54852676391602
 30
76.16577911376953
 70
   192
  0
VERTEX
  5
2F5
  8
0
 10
738.0908813476562
 20
-18.31233406066895
 30
73.73706817626953
 70
   192
  0
VERTEX
  5
2F6
  8
0
 10
738.0908813476562
 20
-18.99415969848633
 30
71.01689147949219
 70
   192
  0
VERTEX
  5
2F7
  8
0
 10
738.0908813476562
 20
-19.56621742248535
 30
67.90438842773438
 70
   192
  0
VERTEX
  5
2F8
  8
0
 10
738.0908813476562
 20
-19.97672462463379
 30
64.21119689941406
 70
   192
  0
VERTEX
  5
2F9
  8
0
 10
738.0908813476562
 20
-20.11090850830078
 30
60.03797912597656
 70
   192
  0
VERTEX
  5
2FA
  8
0
 10
738.0908813476562
 20
-19.88596534729004
 30
55.68997955322266
 70
   192
  0
VERTEX
  5
2FB
  8
0
 10
738.0908813476562
 20
-19.3381462097168
 30
51.63484573364258
 70
   192
  0
VERTEX
  5
2FC
  8
0
 10
738.0908813476562
 20
-18.55280685424805
 30
47.93215942382812
 70
   192
  0
VERTEX
  5
2FD
  8
0
 10
738.0908813476562
 20
-17.58208274841309
 30
44.53047943115234
 70
   192
  0
VERTEX
  5
2FE
  8
0
 10
738.0908813476562
 20
-16.45574760437012
 30
41.39046096801758
 70
   192
  0
VERTEX
  5
2FF
  8
0
 10
738.0908813476562
 20
-15.18853855133057
 30
38.48439407348633
 70
   192
  0
VERTEX
  5
300
  8
0
 10
738.0908813476562
 20
-13.78789520263672
 30
35.79957580566406
 70
   192
  0
VERTEX
  5
301
  8
0
 10
738.0908813476562
 20
-12.35418510437012
 30
33.48270416259766
 70
   192
  0
VERTEX
  5
302
  8
0
 10
738.0908813476562
 20
-10.93778324127197
 30
31.54250907897949
 70
   192
  0
VERTEX
  5
303
  8
0
 10
738.0908813476562
 20
-9.46256160736084
 30
29.83465194702148
 70
   192
  0
VERTEX
  5
304
  8
0
 10
738.0908813476562
 20
-8.173131942749023
 30
28.5792121887207
 70
   192
  0
VERTEX
  5
305
  8
0
 10
738.0908813476562
 20
-7.072277545928955
 30
27.67198371887207
 70
   192
  0
VERTEX
  5
306
  8
0
 10
738.0908813476562
 20
-6.077660083770752
 30
26.97584533691406
 70
   192
  0
VERTEX
  5
307
  8
0
 10
738.0908813476562
 20
-5.152721881866455
 30
26.43275833129883
 70
   192
  0
VERTEX
  5
308
  8
0
 10
738.0908813476562
 20
-4.274529933929443
 30
26.00762939453125
 70
   192
  0
VERTEX
  5
309
  8
0
 10
738.0908813476562
 20
-3.431786298751831
 30
25.6826343536377
 70
   192
  0
VERTEX
  5
30A
  8
0
 10
738.0908813476562
 20
-2.551620960235596
 30
25.43268966674805
 70
   192
  0
VERTEX
  5
30B
  8
0
 10
738.0908813476562
 20
-1.63910174369812
 30
25.26562309265137
 70
   192
  0
VERTEX
  5
30C
  8
0
 10
738.0908813476562
 20
-0.656126856803894
 30
25.19697952270508
 70
   192
  0
VERTEX
  5
30D
  8
0
 10
738.0908813476562
 20
0.3977985978126526
 30
25.24970054626465
 70
   192
  0
VERTEX
  5
30E
  8
0
 10
738.0908813476562
 20
1.514141917228699
 30
25.44286918640137
 70
   192
  0
VERTEX
  5
30F
  8
0
 10
738.0908813476562
 20
2.69105863571167
 30
25.79958534240723
 70
   192
  0
VERTEX
  5
310
  8
0
 10
738.0908813476562
 20
3.938372135162354
 30
26.35009384155273
 70
   192
  0
VERTEX
  5
311
  8
0
 10
738.0908813476562
 20
5.280904769897461
 30
27.1344051361084
 70
   192
  0
VERTEX
  5
312
  8
0
 10
738.0908813476562
 20
6.754325389862061
 30
28.22549438476562
 70
   192
  0
VERTEX
  5
313
  8
0
 10
738.0908813476562
 20
8.33645248413086
 30
29.67098999023438
 70
   192
  0
VERTEX
  5
314
  8
0
 10
738.0908813476562
 20
9.77676010131836
 30
31.23898696899414
 70
   192
  0
VERTEX
  5
315
  8
0
 10
738.0908813476562
 20
11.36456680297852
 30
33.27318572998047
 70
   192
  0
VERTEX
  5
316
  8
0
 10
738.0908813476562
 20
12.99159717559814
 30
35.72736358642578
 70
   192
  0
VERTEX
  5
317
  8
0
 10
738.0908813476562
 20
14.64043807983398
 30
38.66867446899414
 70
   192
  0
VERTEX
  5
318
  8
0
 10
738.0908813476562
 20
16.26495933532715
 30
42.15824508666992
 70
   192
  0
VERTEX
  5
319
  8
0
 10
738.0908813476562
 20
17.62152671813965
 30
45.73654174804688
 70
   192
  0
VERTEX
  5
31A
  8
0
 10
738.0908813476562
 20
18.66411972045898
 30
49.19094085693359
 70
   192
  0
VERTEX
  5
31B
  8
0
 10
738.0908813476562
 20
19.42309761047363
 30
52.5067138671875
 70
   192
  0
VERTEX
  5
31C
  8
0
 10
738.0908813476562
 20
19.92800140380859
 30
55.7542839050293
 70
   192
  0
VERTEX
  5
31D
  8
0
 10
738.0908813476562
 20
20.17565155029297
 30
59.2481803894043
 70
   192
  0
VERTEX
  5
31E
  8
0
 10
738.0908813476562
 20
20.10302543640137
 30
62.595458984375
 70
   192
  0
VERTEX
  5
31F
  8
0
 10
738.0908813476562
 20
19.78683662414551
 30
65.7281723022461
 70
   192
  0
VERTEX
  5
320
  8
0
 10
738.0908813476562
 20
19.28320503234863
 30
68.66492462158203
 70
   192
  0
VERTEX
  5
321
  8
0
 10
738.0908813476562
 20
18.61967468261719
 30
71.45101928710938
 70
   192
  0
VERTEX
  5
322
  8
0
 10
738.0908813476562
 20
17.83295249938965
 30
74.05872344970703
 70
   192
  0
VERTEX
  5
323
  8
0
 10
738.0908813476562
 20
16.94505500793457
 30
76.4810791015625
 70
   192
  0
VERTEX
  5
324
  8
0
 10
738.0908813476562
 20
15.9401683807373
 30
78.80619049072266
 70
   192
  0
VERTEX
  5
325
  8
0
 10
738.0908813476562
 20
14.84444618225098
 30
80.97435760498047
 70
   192
  0
VERTEX
  5
326
  8
0
 10
738.0908813476562
 20
13.68071937561035
 30
82.9617691040039
 70
   192
  0
VERTEX
  5
327
  8
0
 10
738.0908813476562
 20
12.32019901275635
 30
84.95796203613281
 70
   192
  0
VERTEX
  5
328
  8
0
 10
738.0908813476562
 20
11.00479507446289
 30
86.61058044433594
 70
   192
  0
VERTEX
  5
329
  8
0
 10
738.0908813476562
 20
9.755095481872559
 30
87.96385192871094
 70
   192
  0
VERTEX
  5
32A
  8
0
 10
738.0908813476562
 20
8.55816650390625
 30
89.08393096923828
 70
   192
  0
VERTEX
  5
32B
  8
0
 10
738.0908813476562
 20
7.399379730224609
 30
90.0179214477539
 70
   192
  0
VERTEX
  5
32C
  8
0
 10
738.0908813476562
 20
6.268674850463867
 30
90.79702758789062
 70
   192
  0
VERTEX
  5
32D
  8
0
 10
738.0908813476562
 20
5.159844875335693
 30
91.44235229492188
 70
   192
  0
VERTEX
  5
32E
  8
0
 10
738.0908813476562
 20
4.072001457214355
 30
91.96581268310547
 70
   192
  0
VERTEX
  5
32F
  8
0
 10
738.0908813476562
 20
3.000560283660889
 30
92.37818145751953
 70
   192
  0
VERTEX
  5
330
  8
0
 10
738.0908813476562
 20
1.949216723442078
 30
92.685546875
 70
   192
  0
VERTEX
  5
331
  8
0
 10
748.730712890625
 20
0.2053053379058838
 30
90.67974853515625
 70
   192
  0
VERTEX
  5
332
  8
0
 10
748.730712890625
 20
-0.9173757433891296
 30
90.67236328125
 70
   192
  0
VERTEX
  5
333
  8
0
 10
748.730712890625
 20
-2.021888017654419
 30
90.57262420654297
 70
   192
  0
VERTEX
  5
334
  8
0
 10
748.730712890625
 20
-3.163419246673584
 30
90.36920166015625
 70
   192
  0
VERTEX
  5
335
  8
0
 10
748.730712890625
 20
-4.332253456115723
 30
90.05136108398438
 70
   192
  0
VERTEX
  5
336
  8
0
 10
748.730712890625
 20
-5.549392700195312
 30
89.597900390625
 70
   192
  0
VERTEX
  5
337
  8
0
 10
748.730712890625
 20
-6.811038017272949
 30
88.98835754394531
 70
   192
  0
VERTEX
  5
338
  8
0
 10
748.730712890625
 20
-8.124302864074707
 30
88.19322204589844
 70
   192
  0
VERTEX
  5
339
  8
0
 10
748.730712890625
 20
-9.499584197998047
 30
87.16993713378906
 70
   192
  0
VERTEX
  5
33A
  8
0
 10
748.730712890625
 20
-10.86156177520752
 30
85.9432373046875
 70
   192
  0
VERTEX
  5
33B
  8
0
 10
748.730712890625
 20
-12.16461563110352
 30
84.54378509521484
 70
   192
  0
VERTEX
  5
33C
  8
0
 10
748.730712890625
 20
-13.40418434143066
 30
82.97430419921875
 70
   192
  0
VERTEX
  5
33D
  8
0
 10
748.730712890625
 20
-14.57653141021729
 30
81.2301254272461
 70
   192
  0
VERTEX
  5
33E
  8
0
 10
748.730712890625
 20
-15.67834568023682
 30
79.3042221069336
 70
   192
  0
VERTEX
  5
33F
  8
0
 10
748.730712890625
 20
-16.70495414733887
 30
77.18578338623047
 70
   192
  0
VERTEX
  5
340
  8
0
 10
748.730712890625
 20
-17.5477123260498
 30
75.12437438964844
 70
   192
  0
VERTEX
  5
341
  8
0
 10
748.730712890625
 20
-18.31612777709961
 30
72.87667083740234
 70
   192
  0
VERTEX
  5
342
  8
0
 10
748.730712890625
 20
-19.00997734069824
 30
70.36278533935547
 70
   192
  0
VERTEX
  5
343
  8
0
 10
748.730712890625
 20
-19.59774208068848
 30
67.5523452758789
 70
   192
  0
VERTEX
  5
344
  8
0
 10
748.730712890625
 20
-20.0438117980957
 30
64.34443664550781
 70
   192
  0
VERTEX
  5
345
  8
0
 10
748.730712890625
 20
-20.28732681274414
 30
60.54919815063477
 70
   192
  0
VERTEX
  5
346
  8
0
 10
748.730712890625
 20
-20.22673797607422
 30
56.27932739257812
 70
   192
  0
VERTEX
  5
347
  8
0
 10
748.730712890625
 20
-19.81159400939941
 30
51.8396110534668
 70
   192
  0
VERTEX
  5
348
  8
0
 10
748.730712890625
 20
-19.11119079589844
 30
47.70932006835938
 70
   192
  0
VERTEX
  5
349
  8
0
 10
748.730712890625
 20
-18.2059440612793
 30
43.94423294067383
 70
   192
  0
VERTEX
  5
34A
  8
0
 10
748.730712890625
 20
-17.1373119354248
 30
40.48355484008789
 70
   192
  0
VERTEX
  5
34B
  8
0
 10
748.730712890625
 20
-15.9305248260498
 30
37.29455184936523
 70
   192
  0
VERTEX
  5
34C
  8
0
 10
748.730712890625
 20
-14.59346675872803
 30
34.34256362915039
 70
   192
  0
VERTEX
  5
34D
  8
0
 10
748.730712890625
 20
-13.12956428527832
 30
31.6156177520752
 70
   192
  0
VERTEX
  5
34E
  8
0
 10
748.730712890625
 20
-11.63613986968994
 30
29.25954246520996
 70
   192
  0
VERTEX
  5
34F
  8
0
 10
748.730712890625
 20
-10.16469287872314
 30
27.29095840454102
 70
   192
  0
VERTEX
  5
350
  8
0
 10
748.730712890625
 20
-8.632719039916992
 30
25.56484222412109
 70
   192
  0
VERTEX
  5
351
  8
0
 10
748.730712890625
 20
-7.291767597198486
 30
24.30435562133789
 70
   192
  0
VERTEX
  5
352
  8
0
 10
748.730712890625
 20
-6.14488697052002
 30
23.40322685241699
 70
   192
  0
VERTEX
  5
353
  8
0
 10
748.730712890625
 20
-5.104457855224609
 30
22.72070693969727
 70
   192
  0
VERTEX
  5
354
  8
0
 10
748.730712890625
 20
-4.134285926818848
 30
22.19960594177246
 70
   192
  0
VERTEX
  5
355
  8
0
 10
748.730712890625
 20
-3.219148874282837
 30
21.8085994720459
 70
   192
  0
VERTEX
  5
356
  8
0
 10
748.730712890625
 20
-2.346724271774292
 30
21.52846908569336
 70
   192
  0
VERTEX
  5
357
  8
0
 10
748.730712890625
 20
-1.419337153434753
 30
21.33147621154785
 70
   192
  0
VERTEX
  5
358
  8
0
 10
748.730712890625
 20
-0.483239620923996
 30
21.23710060119629
 70
   192
  0
VERTEX
  5
359
  8
0
 10
748.730712890625
 20
0.523590087890625
 30
21.25961875915527
 70
   192
  0
VERTEX
  5
35A
  8
0
 10
748.730712890625
 20
1.598581790924072
 30
21.42006683349609
 70
   192
  0
VERTEX
  5
35B
  8
0
 10
748.730712890625
 20
2.724964618682861
 30
21.73430252075195
 70
   192
  0
VERTEX
  5
35C
  8
0
 10
748.730712890625
 20
3.898786306381226
 30
22.21929931640625
 70
   192
  0
VERTEX
  5
35D
  8
0
 10
748.730712890625
 20
5.125060558319092
 30
22.89844512939453
 70
   192
  0
VERTEX
  5
35E
  8
0
 10
748.730712890625
 20
6.428609848022461
 30
23.81308364868164
 70
   192
  0
VERTEX
  5
35F
  8
0
 10
748.730712890625
 20
7.850450992584229
 30
25.04109001159668
 70
   192
  0
VERTEX
  5
360
  8
0
 10
748.730712890625
 20
9.373361587524414
 30
26.6346607208252
 70
   192
  0
VERTEX
  5
361
  8
0
 10
748.730712890625
 20
10.73820877075195
 30
28.32081031799316
 70
   192
  0
VERTEX
  5
362
  8
0
 10
748.730712890625
 20
12.23604679107666
 30
30.48848152160645
 70
   192
  0
VERTEX
  5
363
  8
0
 10
748.730712890625
 20
13.7740535736084
 30
33.10005569458008
 70
   192
  0
VERTEX
  5
364
  8
0
 10
748.730712890625
 20
15.3038272857666
 30
36.18753051757812
 70
   192
  0
VERTEX
  5
365
  8
0
 10
748.730712890625
 20
16.79763221740723
 30
39.84069061279297
 70
   192
  0
VERTEX
  5
366
  8
0
 10
748.730712890625
 20
18.02526473999023
 30
43.56410980224609
 70
   192
  0
VERTEX
  5
367
  8
0
 10
748.730712890625
 20
18.95206451416016
 30
47.13211441040039
 70
   192
  0
VERTEX
  5
368
  8
0
 10
748.730712890625
 20
19.62197113037109
 30
50.5543212890625
 70
   192
  0
VERTEX
  5
369
  8
0
 10
748.730712890625
 20
20.0691967010498
 30
53.89168930053711
 70
   192
  0
VERTEX
  5
36A
  8
0
 10
748.730712890625
 20
20.31205749511719
 30
57.47188568115234
 70
   192
  0
VERTEX
  5
36B
  8
0
 10
748.730712890625
 20
20.30166244506836
 30
60.88916015625
 70
   192
  0
VERTEX
  5
36C
  8
0
 10
748.730712890625
 20
20.07057762145996
 30
64.09954833984375
 70
   192
  0
VERTEX
  5
36D
  8
0
 10
748.730712890625
 20
19.64529800415039
 30
67.12294006347656
 70
   192
  0
VERTEX
  5
36E
  8
0
 10
748.730712890625
 20
19.03731346130371
 30
70.00736999511719
 70
   192
  0
VERTEX
  5
36F
  8
0
 10
748.730712890625
 20
18.29106330871582
 30
72.68331909179688
 70
   192
  0
VERTEX
  5
370
  8
0
 10
748.730712890625
 20
17.42459106445312
 30
75.14793395996094
 70
   192
  0
VERTEX
  5
371
  8
0
 10
748.730712890625
 20
16.40320587158203
 30
77.54230499267578
 70
   192
  0
VERTEX
  5
372
  8
0
 10
748.730712890625
 20
15.26682186126709
 30
79.75495147705078
 70
   192
  0
VERTEX
  5
373
  8
0
 10
748.730712890625
 20
14.03817081451416
 30
81.76469421386719
 70
   192
  0
VERTEX
  5
374
  8
0
 10
748.730712890625
 20
12.57769298553467
 30
83.76026153564453
 70
   192
  0
VERTEX
  5
375
  8
0
 10
748.730712890625
 20
11.14840316772461
 30
85.38276672363281
 70
   192
  0
VERTEX
  5
376
  8
0
 10
748.730712890625
 20
9.780284881591797
 30
86.68067932128906
 70
   192
  0
VERTEX
  5
377
  8
0
 10
748.730712890625
 20
8.462714195251465
 30
87.72509002685547
 70
   192
  0
VERTEX
  5
378
  8
0
 10
748.730712890625
 20
7.185297012329102
 30
88.56622314453125
 70
   192
  0
VERTEX
  5
379
  8
0
 10
748.730712890625
 20
5.942500591278076
 30
89.23670959472656
 70
   192
  0
VERTEX
  5
37A
  8
0
 10
748.730712890625
 20
4.730774879455566
 30
89.75932312011719
 70
   192
  0
VERTEX
  5
37B
  8
0
 10
748.730712890625
 20
3.551116704940796
 30
90.15130615234375
 70
   192
  0
VERTEX
  5
37C
  8
0
 10
748.730712890625
 20
2.400962114334106
 30
90.42774963378906
 70
   192
  0
VERTEX
  5
37D
  8
0
 10
748.730712890625
 20
1.285373091697693
 30
90.60038757324219
 70
   192
  0
VERTEX
  5
37E
  8
0
 10
731.4722290039062
 20
2.362172842025757
 30
93.982666015625
 70
   192
  0
VERTEX
  5
37F
  8
0
 10
731.4722290039062
 20
3.3735511302948
 30
93.59149169921875
 70
   192
  0
VERTEX
  5
380
  8
0
 10
731.4722290039062
 20
4.396027565002441
 30
93.09455108642578
 70
   192
  0
VERTEX
  5
381
  8
0
 10
731.4722290039062
 20
5.426755428314209
 30
92.48931121826172
 70
   192
  0
VERTEX
  5
382
  8
0
 10
731.4722290039062
 20
6.471577644348145
 30
91.76763916015625
 70
   192
  0
VERTEX
  5
383
  8
0
 10
731.4722290039062
 20
7.532553195953369
 30
90.92096710205078
 70
   192
  0
VERTEX
  5
384
  8
0
 10
731.4722290039062
 20
8.617545127868652
 30
89.92921447753906
 70
   192
  0
VERTEX
  5
385
  8
0
 10
731.4722290039062
 20
9.739424705505371
 30
88.76207733154297
 70
   192
  0
VERTEX
  5
386
  8
0
 10
731.4722290039062
 20
10.91546058654785
 30
87.37435913085938
 70
   192
  0
VERTEX
  5
387
  8
0
 10
731.4722290039062
 20
12.16002082824707
 30
85.70301055908203
 70
   192
  0
VERTEX
  5
388
  8
0
 10
731.4722290039062
 20
13.45836162567139
 30
83.70642852783203
 70
   192
  0
VERTEX
  5
389
  8
0
 10
731.4722290039062
 20
14.58170032501221
 30
81.73291778564453
 70
   192
  0
VERTEX
  5
38A
  8
0
 10
731.4722290039062
 20
15.65212726593018
 30
79.59242248535156
 70
   192
  0
VERTEX
  5
38B
  8
0
 10
731.4722290039062
 20
16.64675140380859
 30
77.31037139892578
 70
   192
  0
VERTEX
  5
38C
  8
0
 10
731.4722290039062
 20
17.54797554016113
 30
74.91432189941406
 70
   192
  0
VERTEX
  5
38D
  8
0
 10
731.4722290039062
 20
18.35987663269043
 30
72.34906005859375
 70
   192
  0
VERTEX
  5
38E
  8
0
 10
731.4722290039062
 20
19.05795860290527
 30
69.62415313720703
 70
   192
  0
VERTEX
  5
38F
  8
0
 10
731.4722290039062
 20
19.61033058166504
 30
66.74129486083984
 70
   192
  0
VERTEX
  5
390
  8
0
 10
731.4722290039062
 20
19.97945976257324
 30
63.65689468383789
 70
   192
  0
VERTEX
  5
391
  8
0
 10
731.4722290039062
 20
20.09079742431641
 30
60.35315322875977
 70
   192
  0
VERTEX
  5
392
  8
0
 10
731.4722290039062
 20
19.84016990661621
 30
56.91294479370117
 70
   192
  0
VERTEX
  5
393
  8
0
 10
731.4722290039062
 20
19.29938697814941
 30
53.72123718261719
 70
   192
  0
VERTEX
  5
394
  8
0
 10
731.4722290039062
 20
18.48499870300293
 30
50.47167587280273
 70
   192
  0
VERTEX
  5
395
  8
0
 10
731.4722290039062
 20
17.37037658691406
 30
47.08794403076172
 70
   192
  0
VERTEX
  5
396
  8
0
 10
731.4722290039062
 20
15.93360042572021
 30
43.59992599487305
 70
   192
  0
VERTEX
  5
397
  8
0
 10
731.4722290039062
 20
14.22776699066162
 30
40.21212005615234
 70
   192
  0
VERTEX
  5
398
  8
0
 10
731.4722290039062
 20
12.50485610961914
 30
37.36172866821289
 70
   192
  0
VERTEX
  5
399
  8
0
 10
731.4722290039062
 20
10.8224458694458
 30
35.00546264648438
 70
   192
  0
VERTEX
  5
39A
  8
0
 10
731.4722290039062
 20
9.17867374420166
 30
33.05429458618164
 70
   192
  0
VERTEX
  5
39B
  8
0
 10
731.4722290039062
 20
7.691423416137695
 30
31.55979537963867
 70
   192
  0
VERTEX
  5
39C
  8
0
 10
731.4722290039062
 20
6.072460651397705
 30
30.20640754699707
 70
   192
  0
VERTEX
  5
39D
  8
0
 10
731.4722290039062
 20
4.566953659057617
 30
29.20049476623535
 70
   192
  0
VERTEX
  5
39E
  8
0
 10
731.4722290039062
 20
3.200170993804932
 30
28.49725151062012
 70
   192
  0
VERTEX
  5
39F
  8
0
 10
731.4722290039062
 20
1.939769983291626
 30
28.02676582336426
 70
   192
  0
VERTEX
  5
3A0
  8
0
 10
731.4722290039062
 20
0.7609277367591858
 30
27.74985122680664
 70
   192
  0
VERTEX
  5
3A1
  8
0
 10
731.4722290039062
 20
-0.3491702973842621
 30
27.63199234008789
 70
   192
  0
VERTEX
  5
3A2
  8
0
 10
731.4722290039062
 20
-1.389991164207458
 30
27.64628601074219
 70
   192
  0
VERTEX
  5
3A3
  8
0
 10
731.4722290039062
 20
-2.358126640319824
 30
27.77163696289062
 70
   192
  0
VERTEX
  5
3A4
  8
0
 10
731.4722290039062
 20
-3.255978584289551
 30
27.98392295837402
 70
   192
  0
VERTEX
  5
3A5
  8
0
 10
731.4722290039062
 20
-4.106768608093262
 30
28.26680946350098
 70
   192
  0
VERTEX
  5
3A6
  8
0
 10
731.4722290039062
 20
-4.931049346923828
 30
28.61971664428711
 70
   192
  0
VERTEX
  5
3A7
  8
0
 10
731.4722290039062
 20
-5.786258220672607
 30
29.06606674194336
 70
   192
  0
VERTEX
  5
3A8
  8
0
 10
731.4722290039062
 20
-6.683058738708496
 30
29.62283134460449
 70
   192
  0
VERTEX
  5
3A9
  8
0
 10
731.4722290039062
 20
-7.649177074432373
 30
30.32744598388672
 70
   192
  0
VERTEX
  5
3AA
  8
0
 10
731.4722290039062
 20
-8.721402168273926
 30
31.23846054077148
 70
   192
  0
VERTEX
  5
3AB
  8
0
 10
731.4722290039062
 20
-9.978779792785645
 30
32.49076461791992
 70
   192
  0
VERTEX
  5
3AC
  8
0
 10
731.4722290039062
 20
-11.41869735717773
 30
34.18726348876953
 70
   192
  0
VERTEX
  5
3AD
  8
0
 10
731.4722290039062
 20
-12.80085849761963
 30
36.10979461669922
 70
   192
  0
VERTEX
  5
3AE
  8
0
 10
731.4722290039062
 20
-14.19742107391357
 30
38.40228652954102
 70
   192
  0
VERTEX
  5
3AF
  8
0
 10
731.4722290039062
 20
-15.55871486663818
 30
41.06089782714844
 70
   192
  0
VERTEX
  5
3B0
  8
0
 10
731.4722290039062
 20
-16.782470703125
 30
43.93839263916016
 70
   192
  0
VERTEX
  5
3B1
  8
0
 10
731.4722290039062
 20
-17.85876083374023
 30
47.04794311523438
 70
   192
  0
VERTEX
  5
3B2
  8
0
 10
731.4722290039062
 20
-18.76857948303223
 30
50.41292572021484
 70
   192
  0
VERTEX
  5
3B3
  8
0
 10
731.4722290039062
 20
-19.47932815551758
 30
54.07678604125977
 70
   192
  0
VERTEX
  5
3B4
  8
0
 10
731.4722290039062
 20
-19.93222808837891
 30
58.08516693115234
 70
   192
  0
VERTEX
  5
3B5
  8
0
 10
731.4722290039062
 20
-20.03885650634766
 30
62.3761100769043
 70
   192
  0
VERTEX
  5
3B6
  8
0
 10
731.4722290039062
 20
-19.78350639343262
 30
66.48920440673828
 70
   192
  0
VERTEX
  5
3B7
  8
0
 10
731.4722290039062
 20
-19.26911926269531
 30
70.11892700195312
 70
   192
  0
VERTEX
  5
3B8
  8
0
 10
731.4722290039062
 20
-18.61869049072266
 30
73.17208099365234
 70
   192
  0
VERTEX
  5
3B9
  8
0
 10
731.4722290039062
 20
-17.87835311889648
 30
75.83611297607422
 70
   192
  0
VERTEX
  5
3BA
  8
0
 10
731.4722290039062
 20
-17.07102584838867
 30
78.21182250976562
 70
   192
  0
VERTEX
  5
3BB
  8
0
 10
731.4722290039062
 20
-16.21221351623535
 30
80.3517837524414
 70
   192
  0
VERTEX
  5
3BC
  8
0
 10
731.4722290039062
 20
-15.31049537658691
 30
82.29658508300781
 70
   192
  0
VERTEX
  5
3BD
  8
0
 10
731.4722290039062
 20
-14.24393749237061
 30
84.29115295410156
 70
   192
  0
VERTEX
  5
3BE
  8
0
 10
731.4722290039062
 20
-13.12088966369629
 30
86.11251831054688
 70
   192
  0
VERTEX
  5
3BF
  8
0
 10
731.4722290039062
 20
-11.94472312927246
 30
87.7638931274414
 70
   192
  0
VERTEX
  5
3C0
  8
0
 10
731.4722290039062
 20
-10.71450042724609
 30
89.25128936767578
 70
   192
  0
VERTEX
  5
3C1
  8
0
 10
731.4722290039062
 20
-9.434426307678223
 30
90.57484436035156
 70
   192
  0
VERTEX
  5
3C2
  8
0
 10
731.4722290039062
 20
-8.106033325195312
 30
91.7272720336914
 70
   192
  0
VERTEX
  5
3C3
  8
0
 10
731.4722290039062
 20
-6.757205486297607
 30
92.6847915649414
 70
   192
  0
VERTEX
  5
3C4
  8
0
 10
731.4722290039062
 20
-5.466031551361084
 30
93.4105453491211
 70
   192
  0
VERTEX
  5
3C5
  8
0
 10
731.4722290039062
 20
-4.221662521362305
 30
93.93917846679688
 70
   192
  0
VERTEX
  5
3C6
  8
0
 10
731.4722290039062
 20
-3.008531093597412
 30
94.2940902709961
 70
   192
  0
VERTEX
  5
3C7
  8
0
 10
731.4722290039062
 20
-1.865450978279114
 30
94.48582458496094
 70
   192
  0
VERTEX
  5
3C8
  8
0
 10
731.4722290039062
 20
-0.7600609660148621
 30
94.53778839111328
 70
   192
  0
VERTEX
  5
3C9
  8
0
 10
731.4722290039062
 20
0.2816413342952728
 30
94.4665298461914
 70
   192
  0
VERTEX
  5
3CA
  8
0
 10
731.4722290039062
 20
1.366716980934143
 30
94.26815795898438
 70
   192
  0
VERTEX
  5
3CB
  8
0
 10
734.7623901367188
 20
3.188134431838989
 30
92.98834991455078
 70
   192
  0
VERTEX
  5
3CC
  8
0
 10
734.7623901367188
 20
4.234951972961426
 30
92.533447265625
 70
   192
  0
VERTEX
  5
3CD
  8
0
 10
734.7623901367188
 20
5.294072151184082
 30
91.96885681152344
 70
   192
  0
VERTEX
  5
3CE
  8
0
 10
734.7623901367188
 20
6.370713233947754
 30
91.28514099121094
 70
   192
  0
VERTEX
  5
3CF
  8
0
 10
734.7623901367188
 20
7.466351509094238
 30
90.47206115722656
 70
   192
  0
VERTEX
  5
3D0
  8
0
 10
734.7623901367188
 20
8.588027000427246
 30
89.50901794433594
 70
   192
  0
VERTEX
  5
3D1
  8
0
 10
734.7623901367188
 20
9.747214317321777
 30
88.36527252197266
 70
   192
  0
VERTEX
  5
3D2
  8
0
 10
734.7623901367188
 20
10.95986938476562
 30
86.99467468261719
 70
   192
  0
VERTEX
  5
3D3
  8
0
 10
734.7623901367188
 20
12.23964595794678
 30
85.3326416015625
 70
   192
  0
VERTEX
  5
3D4
  8
0
 10
734.7623901367188
 20
13.56889724731445
 30
83.33625030517578
 70
   192
  0
VERTEX
  5
3D5
  8
0
 10
734.7623901367188
 20
14.71231365203857
 30
81.3558349609375
 70
   192
  0
VERTEX
  5
3D6
  8
0
 10
734.7623901367188
 20
15.79531478881836
 30
79.20157623291016
 70
   192
  0
VERTEX
  5
3D7
  8
0
 10
734.7623901367188
 20
16.79504013061523
 30
76.89812469482422
 70
   192
  0
VERTEX
  5
3D8
  8
0
 10
734.7623901367188
 20
17.68964004516602
 30
74.48899841308594
 70
   192
  0
VERTEX
  5
3D9
  8
0
 10
734.7623901367188
 20
18.4890251159668
 30
71.90263366699219
 70
   192
  0
VERTEX
  5
3DA
  8
0
 10
734.7623901367188
 20
19.16993141174316
 30
69.1473159790039
 70
   192
  0
VERTEX
  5
3DB
  8
0
 10
734.7623901367188
 20
19.69807434082031
 30
66.23766326904297
 70
   192
  0
VERTEX
  5
3DC
  8
0
 10
734.7623901367188
 20
20.04088592529297
 30
63.12924957275391
 70
   192
  0
VERTEX
  5
3DD
  8
0
 10
734.7623901367188
 20
20.13298034667969
 30
59.80386352539062
 70
   192
  0
VERTEX
  5
3DE
  8
0
 10
734.7623901367188
 20
19.88383293151855
 30
56.33696746826172
 70
   192
  0
VERTEX
  5
3DF
  8
0
 10
734.7623901367188
 20
19.36088562011719
 30
53.11748886108398
 70
   192
  0
VERTEX
  5
3E0
  8
0
 10
734.7623901367188
 20
18.57403945922852
 30
49.83501052856445
 70
   192
  0
VERTEX
  5
3E1
  8
0
 10
734.7623901367188
 20
17.49522590637207
 30
46.41615295410156
 70
   192
  0
VERTEX
  5
3E2
  8
0
 10
734.7623901367188
 20
16.09832000732422
 30
42.88325500488281
 70
   192
  0
VERTEX
  5
3E3
  8
0
 10
734.7623901367188
 20
14.43290996551514
 30
39.44486236572266
 70
   192
  0
VERTEX
  5
3E4
  8
0
 10
734.7623901367188
 20
12.74681949615479
 30
36.54927444458008
 70
   192
  0
VERTEX
  5
3E5
  8
0
 10
734.7623901367188
 20
11.09193801879883
 30
34.14433670043945
 70
   192
  0
VERTEX
  5
3E6
  8
0
 10
734.7623901367188
 20
9.475987434387207
 30
32.15189361572266
 70
   192
  0
VERTEX
  5
3E7
  8
0
 10
734.7623901367188
 20
8.012072563171387
 30
30.62085723876953
 70
   192
  0
VERTEX
  5
3E8
  8
0
 10
734.7623901367188
 20
6.411420345306396
 30
29.22168159484863
 70
   192
  0
VERTEX
  5
3E9
  8
0
 10
734.7623901367188
 20
4.921864032745361
 30
28.17342948913574
 70
   192
  0
VERTEX
  5
3EA
  8
0
 10
734.7623901367188
 20
3.567136287689209
 30
27.42988204956055
 70
   192
  0
VERTEX
  5
3EB
  8
0
 10
734.7623901367188
 20
2.313241243362427
 30
26.91961669921875
 70
   192
  0
VERTEX
  5
3EC
  8
0
 10
734.7623901367188
 20
1.135356307029724
 30
26.60303115844727
 70
   192
  0
VERTEX
  5
3ED
  8
0
 10
734.7623901367188
 20
0.0221536550670862
 30
26.4477367401123
 70
   192
  0
VERTEX
  5
3EE
  8
0
 10
734.7623901367188
 20
-1.025181651115417
 30
26.4287166595459
 70
   192
  0
VERTEX
  5
3EF
  8
0
 10
734.7623901367188
 20
-2.000694036483765
 30
26.52587890625
 70
   192
  0
VERTEX
  5
3F0
  8
0
 10
734.7623901367188
 20
-2.905837297439575
 30
26.71568489074707
 70
   192
  0
VERTEX
  5
3F1
  8
0
 10
734.7623901367188
 20
-3.77122950553894
 30
26.9821949005127
 70
   192
  0
VERTEX
  5
3F2
  8
0
 10
734.7623901367188
 20
-4.60468864440918
 30
27.32122802734375
 70
   192
  0
VERTEX
  5
3F3
  8
0
 10
734.7623901367188
 20
-5.471322059631348
 30
27.75703048706055
 70
   192
  0
VERTEX
  5
3F4
  8
0
 10
734.7623901367188
 20
-6.382110118865967
 30
28.30699348449707
 70
   192
  0
VERTEX
  5
3F5
  8
0
 10
734.7623901367188
 20
-7.362395763397217
 30
29.00739479064941
 70
   192
  0
VERTEX
  5
3F6
  8
0
 10
734.7623901367188
 20
-8.4488525390625
 30
29.91652679443359
 70
   192
  0
VERTEX
  5
3F7
  8
0
 10
734.7623901367188
 20
-9.722163200378418
 30
31.17039108276367
 70
   192
  0
VERTEX
  5
3F8
  8
0
 10
734.7623901367188
 20
-11.17963123321533
 30
32.87253570556641
 70
   192
  0
VERTEX
  5
3F9
  8
0
 10
734.7623901367188
 20
-12.57881355285645
 30
34.80384826660156
 70
   192
  0
VERTEX
  5
3FA
  8
0
 10
734.7623901367188
 20
-13.99384212493896
 30
37.10845947265625
 70
   192
  0
VERTEX
  5
3FB
  8
0
 10
734.7623901367188
 20
-15.3746976852417
 30
39.78009796142578
 70
   192
  0
VERTEX
  5
3FC
  8
0
 10
734.7623901367188
 20
-16.62005424499512
 30
42.67179489135742
 70
   192
  0
VERTEX
  5
3FD
  8
0
 10
734.7623901367188
 20
-17.72122192382812
 30
45.79649353027344
 70
   192
  0
VERTEX
  5
3FE
  8
0
 10
734.7623901367188
 20
-18.66131782531738
 30
49.17971801757812
 70
   192
  0
VERTEX
  5
3FF
  8
0
 10
734.7623901367188
 20
-19.40914535522461
 30
52.86288452148438
 70
   192
  0
VERTEX
  5
400
  8
0
 10
734.7623901367188
 20
-19.90922927856445
 30
56.89449691772461
 70
   192
  0
VERTEX
  5
401
  8
0
 10
734.7623901367188
 20
-20.07467460632324
 30
61.21380996704102
 70
   192
  0
VERTEX
  5
402
  8
0
 10
734.7623901367188
 20
-19.87955665588379
 30
65.3567886352539
 70
   192
  0
VERTEX
  5
403
  8
0
 10
734.7623901367188
 20
-19.41680908203125
 30
69.01805877685547
 70
   192
  0
VERTEX
  5
404
  8
0
 10
734.7623901367188
 20
-18.80533790588379
 30
72.10072326660156
 70
   192
  0
VERTEX
  5
405
  8
0
 10
734.7623901367188
 20
-18.09408760070801
 30
74.79266357421875
 70
   192
  0
VERTEX
  5
406
  8
0
 10
734.7623901367188
 20
-17.30839347839355
 30
77.19471740722656
 70
   192
  0
VERTEX
  5
407
  8
0
 10
734.7623901367188
 20
-16.46681594848633
 30
79.355224609375
 70
   192
  0
VERTEX
  5
408
  8
0
 10
734.7623901367188
 20
-15.57633876800537
 30
81.32225036621094
 70
   192
  0
VERTEX
  5
409
  8
0
 10
734.7623901367188
 20
-14.51739597320557
 30
83.3404312133789
 70
   192
  0
VERTEX
  5
40A
  8
0
 10
734.7623901367188
 20
-13.39839649200439
 30
85.18172454833984
 70
   192
  0
VERTEX
  5
40B
  8
0
 10
734.7623901367188
 20
-12.22295761108398
 30
86.85079956054688
 70
   192
  0
VERTEX
  5
40C
  8
0
 10
734.7623901367188
 20
-10.99095439910889
 30
88.35383605957031
 70
   192
  0
VERTEX
  5
40D
  8
0
 10
734.7623901367188
 20
-9.706498146057129
 30
89.69186401367188
 70
   192
  0
VERTEX
  5
40E
  8
0
 10
734.7623901367188
 20
-8.371703147888184
 30
90.85845184326172
 70
   192
  0
VERTEX
  5
40F
  8
0
 10
734.7623901367188
 20
-7.017831802368164
 30
91.82850646972656
 70
   192
  0
VERTEX
  5
410
  8
0
 10
734.7623901367188
 20
-5.722446441650391
 30
92.56748962402344
 70
   192
  0
VERTEX
  5
411
  8
0
 10
734.7623901367188
 20
-4.474783897399902
 30
93.1115493774414
 70
   192
  0
VERTEX
  5
412
  8
0
 10
734.7623901367188
 20
-3.260888814926147
 30
93.48524475097656
 70
   192
  0
VERTEX
  5
413
  8
0
 10
734.7623901367188
 20
-2.112898588180542
 30
93.7010269165039
 70
   192
  0
VERTEX
  5
414
  8
0
 10
734.7623901367188
 20
-1.000618696212769
 30
93.78186798095703
 70
   192
  0
VERTEX
  5
415
  8
0
 10
734.7623901367188
 20
0.0530579574406147
 30
93.74320220947266
 70
   192
  0
VERTEX
  5
416
  8
0
 10
745.0662231445312
 20
0.451909601688385
 30
91.44168090820312
 70
   192
  0
VERTEX
  5
417
  8
0
 10
745.0662231445312
 20
-0.6627866625785828
 30
91.47798156738281
 70
   192
  0
VERTEX
  5
418
  8
0
 10
745.0662231445312
 20
-1.753962516784668
 30
91.41455078125
 70
   192
  0
VERTEX
  5
419
  8
0
 10
745.0662231445312
 20
-2.887819766998291
 30
91.24330139160156
 70
   192
  0
VERTEX
  5
41A
  8
0
 10
745.0662231445312
 20
-4.051185607910156
 30
90.95222473144531
 70
   192
  0
VERTEX
  5
41B
  8
0
 10
745.0662231445312
 20
-5.267473697662354
 30
90.51968383789062
 70
   192
  0
VERTEX
  5
41C
  8
0
 10
745.0662231445312
 20
-6.525450229644775
 30
89.92732238769531
 70
   192
  0
VERTEX
  5
41D
  8
0
 10
745.0662231445312
 20
-7.834024906158447
 30
89.14692687988281
 70
   192
  0
VERTEX
  5
41E
  8
0
 10
745.0662231445312
 20
-9.203689575195312
 30
88.13760375976562
 70
   192
  0
VERTEX
  5
41F
  8
0
 10
745.0662231445312
 20
-10.5585355758667
 30
86.92667388916016
 70
   192
  0
VERTEX
  5
420
  8
0
 10
745.0662231445312
 20
-11.85671138763428
 30
85.5433349609375
 70
   192
  0
VERTEX
  5
421
  8
0
 10
745.0662231445312
 20
-13.09429550170898
 30
83.99128723144531
 70
   192
  0
VERTEX
  5
422
  8
0
 10
745.0662231445312
 20
-14.26745414733887
 30
82.26680755615234
 70
   192
  0
VERTEX
  5
423
  8
0
 10
745.0662231445312
 20
-15.37377548217773
 30
80.36311340332031
 70
   192
  0
VERTEX
  5
424
  8
0
 10
745.0662231445312
 20
-16.40886688232422
 30
78.2709732055664
 70
   192
  0
VERTEX
  5
425
  8
0
 10
745.0662231445312
 20
-17.26414489746094
 30
76.23432159423828
 70
   192
  0
VERTEX
  5
426
  8
0
 10
745.0662231445312
 20
-18.05175399780273
 30
74.0094985961914
 70
   192
  0
VERTEX
  5
427
  8
0
 10
745.0662231445312
 20
-18.76969718933105
 30
71.52494049072266
 70
   192
  0
VERTEX
  5
428
  8
0
 10
745.0662231445312
 20
-19.38985824584961
 30
68.74559020996094
 70
   192
  0
VERTEX
  5
429
  8
0
 10
745.0662231445312
 20
-19.87932014465332
 30
65.57054138183594
 70
   192
  0
VERTEX
  5
42A
  8
0
 10
745.0662231445312
 20
-20.18035125732422
 30
61.81044769287109
 70
   192
  0
VERTEX
  5
42B
  8
0
 10
745.0662231445312
 20
-20.18684387207031
 30
57.5738639831543
 70
   192
  0
VERTEX
  5
42C
  8
0
 10
745.0662231445312
 20
-19.83720779418945
 30
53.16574096679688
 70
   192
  0
VERTEX
  5
42D
  8
0
 10
745.0662231445312
 20
-19.18935775756836
 30
49.06133270263672
 70
   192
  0
VERTEX
  5
42E
  8
0
 10
745.0662231445312
 20
-18.32540893554688
 30
45.31774139404297
 70
   192
  0
VERTEX
  5
42F
  8
0
 10
745.0662231445312
 20
-17.29049682617188
 30
41.87738037109375
 70
   192
  0
VERTEX
  5
430
  8
0
 10
745.0662231445312
 20
-16.11141967773438
 30
38.70524597167969
 70
   192
  0
VERTEX
  5
431
  8
0
 10
745.0662231445312
 20
-14.79841804504395
 30
35.76907730102539
 70
   192
  0
VERTEX
  5
432
  8
0
 10
745.0662231445312
 20
-13.35630416870117
 30
33.05664443969727
 70
   192
  0
VERTEX
  5
433
  8
0
 10
745.0662231445312
 20
-11.88344573974609
 30
30.71406555175781
 70
   192
  0
VERTEX
  5
434
  8
0
 10
745.0662231445312
 20
-10.43095779418945
 30
28.7552604675293
 70
   192
  0
VERTEX
  5
435
  8
0
 10
745.0662231445312
 20
-8.918530464172363
 30
27.03543472290039
 70
   192
  0
VERTEX
  5
436
  8
0
 10
745.0662231445312
 20
-7.59532356262207
 30
25.77668571472168
 70
   192
  0
VERTEX
  5
437
  8
0
 10
745.0662231445312
 20
-6.464295387268066
 30
24.87345695495605
 70
   192
  0
VERTEX
  5
438
  8
0
 10
745.0662231445312
 20
-5.439644336700439
 30
24.18624687194824
 70
   192
  0
VERTEX
  5
439
  8
0
 10
745.0662231445312
 20
-4.48505163192749
 30
23.65757179260254
 70
   192
  0
VERTEX
  5
43A
  8
0
 10
745.0662231445312
 20
-3.582639217376709
 30
23.25481414794922
 70
   192
  0
VERTEX
  5
43B
  8
0
 10
745.0662231445312
 20
-2.720437049865723
 30
22.95923042297363
 70
   192
  0
VERTEX
  5
43C
  8
0
 10
745.0662231445312
 20
-1.809314012527466
 30
22.74399948120117
 70
   192
  0
VERTEX
  5
43D
  8
0
 10
745.0662231445312
 20
-0.8813372254371643
 30
22.62458992004395
 70
   192
  0
VERTEX
  5
43E
  8
0
 10
745.0662231445312
 20
0.1172765046358109
 30
22.61570930480957
 70
   192
  0
VERTEX
  5
43F
  8
0
 10
745.0662231445312
 20
1.185012698173523
 30
22.73905372619629
 70
   192
  0
VERTEX
  5
440
  8
0
 10
745.0662231445312
 20
2.307937622070312
 30
23.01159286499023
 70
   192
  0
VERTEX
  5
441
  8
0
 10
745.0662231445312
 20
3.482825040817261
 30
23.45240592956543
 70
   192
  0
VERTEX
  5
442
  8
0
 10
745.0662231445312
 20
4.71634578704834
 30
24.08724784851074
 70
   192
  0
VERTEX
  5
443
  8
0
 10
745.0662231445312
 20
6.033321857452393
 30
24.95700073242188
 70
   192
  0
VERTEX
  5
444
  8
0
 10
745.0662231445312
 20
7.472927570343018
 30
26.13785171508789
 70
   192
  0
VERTEX
  5
445
  8
0
 10
745.0662231445312
 20
9.016233444213867
 30
27.680419921875
 70
   192
  0
VERTEX
  5
446
  8
0
 10
745.0662231445312
 20
10.40707015991211
 30
29.32587814331055
 70
   192
  0
VERTEX
  5
447
  8
0
 10
745.0662231445312
 20
11.93589496612549
 30
31.44758033752441
 70
   192
  0
VERTEX
  5
448
  8
0
 10
745.0662231445312
 20
13.50456237792969
 30
34.00494384765625
 70
   192
  0
VERTEX
  5
449
  8
0
 10
745.0662231445312
 20
15.07534599304199
 30
37.04207611083984
 70
   192
  0
VERTEX
  5
44A
  8
0
 10
745.0662231445312
 20
16.61417007446289
 30
40.63889694213867
 70
   192
  0
VERTEX
  5
44B
  8
0
 10
745.0662231445312
 20
17.88620948791504
 30
44.31233215332031
 70
   192
  0
VERTEX
  5
44C
  8
0
 10
745.0662231445312
 20
18.85289001464844
 30
47.84120559692383
 70
   192
  0
VERTEX
  5
44D
  8
0
 10
745.0662231445312
 20
19.55347633361816
 30
51.22675323486328
 70
   192
  0
VERTEX
  5
44E
  8
0
 10
745.0662231445312
 20
20.02056694030762
 30
54.53319549560547
 70
   192
  0
VERTEX
  5
44F
  8
0
 10
745.0662231445312
 20
20.26507759094238
 30
58.08367156982422
 70
   192
  0
VERTEX
  5
450
  8
0
 10
745.0662231445312
 20
20.23324966430664
 30
61.47683715820312
 70
   192
  0
VERTEX
  5
451
  8
0
 10
745.0662231445312
 20
19.97285270690918
 30
64.66047668457031
 70
   192
  0
VERTEX
  5
452
  8
0
 10
745.0662231445312
 20
19.52058601379395
 30
67.65402221679688
 70
   192
  0
VERTEX
  5
453
  8
0
 10
745.0662231445312
 20
18.89347267150879
 30
70.50457763671875
 70
   192
  0
VERTEX
  5
454
  8
0
 10
745.0662231445312
 20
18.13328170776367
 30
73.15702819824219
 70
   192
  0
VERTEX
  5
455
  8
0
 10
745.0662231445312
 20
17.25942993164062
 30
75.60709381103516
 70
   192
  0
VERTEX
  5
456
  8
0
 10
745.0662231445312
 20
16.24372863769531
 30
77.97760772705078
 70
   192
  0
VERTEX
  5
457
  8
0
 10
745.0662231445312
 20
15.12134838104248
 30
80.17494201660156
 70
   192
  0
VERTEX
  5
458
  8
0
 10
745.0662231445312
 20
13.91505908966064
 30
82.17698669433594
 70
   192
  0
VERTEX
  5
459
  8
0
 10
745.0662231445312
 20
12.48900890350342
 30
84.17276763916016
 70
   192
  0
VERTEX
  5
45A
  8
0
 10
745.0662231445312
 20
11.09894275665283
 30
85.80564880371094
 70
   192
  0
VERTEX
  5
45B
  8
0
 10
745.0662231445312
 20
9.77160930633545
 30
87.12262725830078
 70
   192
  0
VERTEX
  5
45C
  8
0
 10
745.0662231445312
 20
8.495589256286621
 30
88.19309997558594
 70
   192
  0
VERTEX
  5
45D
  8
0
 10
745.0662231445312
 20
7.259030342102051
 30
89.06620788574219
 70
   192
  0
VERTEX
  5
45E
  8
0
 10
745.0662231445312
 20
6.054840087890625
 30
89.77410888671875
 70
   192
  0
VERTEX
  5
45F
  8
0
 10
745.0662231445312
 20
4.87855339050293
 30
90.3389892578125
 70
   192
  0
VERTEX
  5
460
  8
0
 10
745.0662231445312
 20
3.730517625808716
 30
90.7762451171875
 70
   192
  0
VERTEX
  5
461
  8
0
 10
745.0662231445312
 20
2.607473373413086
 30
91.09951782226562
 70
   192
  0
VERTEX
  5
462
  8
0
 10
745.0662231445312
 20
1.51401162147522
 30
91.31855010986328
 70
   192
  0
VERTEX
  5
463
  8
0
 10
0.0
 20
0.0
 30
0.0
 70
   128
 71
    34
 72
    35
 73
     3
  0
VERTEX
  5
464
  8
0
 10
0.0
 20
0.0
 30
0.0
 70
   128
 71
     4
 72
    34
 73
     3
  0
VERTEX
  5
465
  8
0
 10
0.0
 20
0.0
 30
0.0
 70
   128
 71
     4
 72
    32
 73
    34
  0
VERTEX
  5
466
  8
0
 10
0.0
 20
0.0
 30
0.0
 70
   128
 71
     4
 72
     5
 73
    32
  0
VERTEX
  5
467
  8
0
 10
0.0
 20
0.0
 30
0.0
 70
   128
 71
    32
 72
     5
 73
    31
  0
VERTEX
  5
468
  8
0
 10
0.0
 20
0.0
 30
0.0
 70
   128
 71
    31
 72
     5
 73
     6
  0
VERTEX
  5
469
  8
0
 10
0.0
 20
0.0
 30
0.0
 70
   128
 71
    30
 72
     6
 73
     7
  0
VERTEX
  5
46A
  8
0
 10
0.0
 20
0.0
 30
0.0
 70
   128
 71
    29
 72
     7
 73
     8
  0
VERTEX
  5
46B
  8
0
 10
0.0
 20
0.0
 30
0.0
 70
   128
 71
     9
 72
    29
 73
     8
  0
VERTEX
  5
46C
  8
0
 10
0.0
 20
0.0
 30
0.0
 70
   128
 71
     9
 72
    28
 73
    29
  0
VERTEX
  5
46D
  8
0
 10
0.0
 20
0.0
 30
0.0
 70
   128
 71
     9
 72
    10
 73
    28
  0
VERTEX
  5
46E
  8
0
 10
0.0
 20
0.0
 30
0.0
 70
   128
 71
    28
 72
    10
 73
    27
  0
VERTEX
  5
46F
  8
0
 10
0.0
 20
0.0
 30
0.0
 70
   128
 71
    27
 72
    10
 73
    11
  0
VERTEX
  5
470
  8
0
 10
0.0
 20
0.0
 30
0.0
 70
   128
 71
    12
 72
    27
 73
    11
  0
VERTEX
  5
471
  8
0
 10
0.0
 20
0.0
 30
0.0
 70
   128
 71
    12
 72
    26
 73
    27
  0
VERTEX
  5
472
  8
0
 10
0.0
 20
0.0
 30
0.0
 70
   128
 71
    12
 72
    13
 73
    26
  0
VERTEX
  5
473
  8
0
 10
0.0
 20
0.0
 30
0.0
 70
   128
 71
    26
 72
    13
 73
    25
  0
VERTEX
  5
474
  8
0
 10
0.0
 20
0.0
 30
0.0
 70
   128
 71
    25
 72
    13
 73
    24
  0
VERTEX
  5
475
  8
0
 10
0.0
 20
0.0
 30
0.0
 70
   128
 71
    24
 72
    13
 73
    14
  0
VERTEX
  5
476
  8
0
 10
0.0
 20
0.0
 30
0.0
 70
   128
 71
    15
 72
    24
 73
    14
  0
VERTEX
  5
477
  8
0
 10
0.0
 20
0.0
 30
0.0
 70
   128
 71
    15
 72
    23
 73
    24
  0
VERTEX
  5
478
  8
0
 10
0.0
 20
0.0
 30
0.0
 70
   128
 71
    15
 72
    16
 73
    23
  0
VERTEX
  5
479
  8
0
 10
0.0
 20
0.0
 30
0.0
 70
   128
 71
    23
 72
    16
 73
    17
  0
VERTEX
  5
47A
  8
0
 10
0.0
 20
0.0
 30
0.0
 70
   128
 71
    18
 72
    23
 73
    17
  0
VERTEX
  5
47B
  8
0
 10
0.0
 20
0.0
 30
0.0
 70
   128
 71
    18
 72
    22
 73
    23
  0
VERTEX
  5
47C
  8
0
 10
0.0
 20
0.0
 30
0.0
 70
   128
 71
    18
 72
    19
 73
    22
  0
VERTEX
  5
47D
  8
0
 10
0.0
 20
0.0
 30
0.0
 70
   128
 71
    22
 72
    19
 73
    21
  0
VERTEX
  5
47E
  8
0
 10
0.0
 20
0.0
 30
0.0
 70
   128
 71
    21
 72
    19
 73
    20
  0
VERTEX
  5
47F
  8
0
 10
0.0
 20
0.0
 30
0.0
 70
   128
 71
     3
 72
    36
 73
     2
  0
VERTEX
  5
480
  8
0
 10
0.0
 20
0.0
 30
0.0
 70
   128
 71
     3
 72
    35
 73
    36
  0
VERTEX
  5
481
  8
0
 10
0.0
 20
0.0
 30
0.0
 70
   128
 71
    29
 72
    30
 73
     7
  0
VERTEX
  5
482
  8
0
 10
0.0
 20
0.0
 30
0.0
 70
   128
 71
    30
 72
    31
 73
     6
  0
VERTEX
  5
483
  8
0
 10
0.0
 20
0.0
 30
0.0
 70
   128
 71
    32
 72
    33
 73
    34
  0
VERTEX
  5
484
  8
0
 10
0.0
 20
0.0
 30
0.0
 70
   128
 71
    37
 72
    38
 73
    36
  0
VERTEX
  5
485
  8
0
 10
0.0
 20
0.0
 30
0.0
 70
   128
 71
    36
 72
    38
 73
     2
  0
VERTEX
  5
486
  8
0
 10
0.0
 20
0.0
 30
0.0
 70
   128
 71
     2
 72
    38
 73
     1
  0
VERTEX
  5
487
  8
0
 10
0.0
 20
0.0
 30
0.0
 70
   128
 71
     1
 72
    38
 73
    41
  0
VERTEX
  5
488
  8
0
 10
0.0
 20
0.0
 30
0.0
 70
   128
 71
    74
 72
    41
 73
    42
  0
VERTEX
  5
489
  8
0
 10
0.0
 20
0.0
 30
0.0
 70
   128
 71
    43
 72
    74
 73
    42
  0
VERTEX
  5
48A
  8
0
 10
0.0
 20
0.0
 30
0.0
 70
   128
 71
    43
 72
    73
 73
    74
  0
VERTEX
  5
48B
  8
0
 10
0.0
 20
0.0
 30
0.0
 70
   128
 71
    43
 72
    44
 73
    73
  0
VERTEX
  5
48C
  8
0
 10
0.0
 20
0.0
 30
0.0
 70
   128
 71
    73
 72
    44
 73
    45
  0
VERTEX
  5
48D
  8
0
 10
0.0
 20
0.0
 30
0.0
 70
   128
 71
    72
 72
    45
 73
    46
  0
VERTEX
  5
48E
  8
0
 10
0.0
 20
0.0
 30
0.0
 70
   128
 71
    71
 72
    46
 73
    47
  0
VERTEX
  5
48F
  8
0
 10
0.0
 20
0.0
 30
0.0
 70
   128
 71
    70
 72
    47
 73
    48
  0
VERTEX
  5
490
  8
0
 10
0.0
 20
0.0
 30
0.0
 70
   128
 71
    69
 72
    48
 73
    68
  0
VERTEX
  5
491
  8
0
 10
0.0
 20
0.0
 30
0.0
 70
   128
 71
    69
 72
    70
 73
    48
  0
VERTEX
  5
492
  8
0
 10
0.0
 20
0.0
 30
0.0
 70
   128
 71
    39
 72
    40
 73
    38
  0
VERTEX
  5
493
  8
0
 10
0.0
 20
0.0
 30
0.0
 70
   128
 71
    38
 72
    40
 73
    41
  0
VERTEX
  5
494
  8
0
 10
0.0
 20
0.0
 30
0.0
 70
   128
 71
    48
 72
    49
 73
    68
  0
VERTEX
  5
495
  8
0
 10
0.0
 20
0.0
 30
0.0
 70
   128
 71
    68
 72
    49
 73
    67
  0
VERTEX
  5
496
  8
0
 10
0.0
 20
0.0
 30
0.0
 70
   128
 71
    67
 72
    49
 73
    50
  0
VERTEX
  5
497
  8
0
 10
0.0
 20
0.0
 30
0.0
 70
   128
 71
    66
 72
    50
 73
    65
  0
VERTEX
  5
498
  8
0
 10
0.0
 20
0.0
 30
0.0
 70
   128
 71
    66
 72
    67
 73
    50
  0
VERTEX
  5
499
  8
0
 10
0.0
 20
0.0
 30
0.0
 70
   128
 71
    50
 72
    51
 73
    65
  0
VERTEX
  5
49A
  8
0
 10
0.0
 20
0.0
 30
0.0
 70
   128
 71
    65
 72
    51
 73
    64
  0
VERTEX
  5
49B
  8
0
 10
0.0
 20
0.0
 30
0.0
 70
   128
 71
    64
 72
    51
 73
    52
  0
VERTEX
  5
49C
  8
0
 10
0.0
 20
0.0
 30
0.0
 70
   128
 71
    53
 72
    64
 73
    52
  0
VERTEX
  5
49D
  8
0
 10
0.0
 20
0.0
 30
0.0
 70
   128
 71
    53
 72
    63
 73
    64
  0
VERTEX
  5
49E
  8
0
 10
0.0
 20
0.0
 30
0.0
 70
   128
 71
    53
 72
    62
 73
    63
  0
VERTEX
  5
49F
  8
0
 10
0.0
 20
0.0
 30
0.0
 70
   128
 71
    53
 72
    54
 73
    62
  0
VERTEX
  5
4A0
  8
0
 10
0.0
 20
0.0
 30
0.0
 70
   128
 71
    62
 72
    54
 73
    61
  0
VERTEX
  5
4A1
  8
0
 10
0.0
 20
0.0
 30
0.0
 70
   128
 71
    61
 72
    54
 73
    55
  0
VERTEX
  5
4A2
  8
0
 10
0.0
 20
0.0
 30
0.0
 70
   128
 71
    60
 72
    55
 73
    59
  0
VERTEX
  5
4A3
  8
0
 10
0.0
 20
0.0
 30
0.0
 70
   128
 71
    60
 72
    61
 73
    55
  0
VERTEX
  5
4A4
  8
0
 10
0.0
 20
0.0
 30
0.0
 70
   128
 71
    55
 72
    56
 73
    59
  0
VERTEX
  5
4A5
  8
0
 10
0.0
 20
0.0
 30
0.0
 70
   128
 71
    59
 72
    56
 73
    57
  0
VERTEX
  5
4A6
  8
0
 10
0.0
 20
0.0
 30
0.0
 70
   128
 71
    58
 72
    59
 73
    57
  0
VERTEX
  5
4A7
  8
0
 10
0.0
 20
0.0
 30
0.0
 70
   128
 71
    70
 72
    71
 73
    47
  0
VERTEX
  5
4A8
  8
0
 10
0.0
 20
0.0
 30
0.0
 70
   128
 71
    71
 72
    72
 73
    46
  0
VERTEX
  5
4A9
  8
0
 10
0.0
 20
0.0
 30
0.0
 70
   128
 71
    72
 72
    73
 73
    45
  0
VERTEX
  5
4AA
  8
0
 10
0.0
 20
0.0
 30
0.0
 70
   128
 71
    74
 72
     1
 73
    41
  0
VERTEX
  5
4AB
  8
0
 10
0.0
 20
0.0
 30
0.0
 70
   128
 71
    76
 72
   110
 73
    75
  0
VERTEX
  5
4AC
  8
0
 10
0.0
 20
0.0
 30
0.0
 70
   128
 71
    76
 72
    77
 73
   110
  0
VERTEX
  5
4AD
  8
0
 10
0.0
 20
0.0
 30
0.0
 70
   128
 71
   110
 72
    77
 73
   109
  0
VERTEX
  5
4AE
  8
0
 10
0.0
 20
0.0
 30
0.0
 70
   128
 71
   109
 72
    77
 73
    78
  0
VERTEX
  5
4AF
  8
0
 10
0.0
 20
0.0
 30
0.0
 70
   128
 71
   108
 72
    78
 73
    79
  0
VERTEX
  5
4B0
  8
0
 10
0.0
 20
0.0
 30
0.0
 70
   128
 71
   107
 72
    79
 73
    80
  0
VERTEX
  5
4B1
  8
0
 10
0.0
 20
0.0
 30
0.0
 70
   128
 71
   106
 72
    80
 73
    81
  0
VERTEX
  5
4B2
  8
0
 10
0.0
 20
0.0
 30
0.0
 70
   128
 71
   105
 72
    81
 73
    82
  0
VERTEX
  5
4B3
  8
0
 10
0.0
 20
0.0
 30
0.0
 70
   128
 71
   104
 72
    82
 73
    83
  0
VERTEX
  5
4B4
  8
0
 10
0.0
 20
0.0
 30
0.0
 70
   128
 71
   103
 72
    83
 73
    84
  0
VERTEX
  5
4B5
  8
0
 10
0.0
 20
0.0
 30
0.0
 70
   128
 71
    85
 72
   103
 73
    84
  0
VERTEX
  5
4B6
  8
0
 10
0.0
 20
0.0
 30
0.0
 70
   128
 71
    85
 72
   102
 73
   103
  0
VERTEX
  5
4B7
  8
0
 10
0.0
 20
0.0
 30
0.0
 70
   128
 71
    85
 72
   101
 73
   102
  0
VERTEX
  5
4B8
  8
0
 10
0.0
 20
0.0
 30
0.0
 70
   128
 71
    85
 72
    86
 73
   101
  0
VERTEX
  5
4B9
  8
0
 10
0.0
 20
0.0
 30
0.0
 70
   128
 71
   101
 72
    86
 73
   100
  0
VERTEX
  5
4BA
  8
0
 10
0.0
 20
0.0
 30
0.0
 70
   128
 71
   100
 72
    86
 73
    87
  0
VERTEX
  5
4BB
  8
0
 10
0.0
 20
0.0
 30
0.0
 70
   128
 71
    99
 72
    87
 73
    88
  0
VERTEX
  5
4BC
  8
0
 10
0.0
 20
0.0
 30
0.0
 70
   128
 71
    98
 72
    88
 73
    97
  0
VERTEX
  5
4BD
  8
0
 10
0.0
 20
0.0
 30
0.0
 70
   128
 71
    98
 72
    99
 73
    88
  0
VERTEX
  5
4BE
  8
0
 10
0.0
 20
0.0
 30
0.0
 70
   128
 71
    88
 72
    89
 73
    97
  0
VERTEX
  5
4BF
  8
0
 10
0.0
 20
0.0
 30
0.0
 70
   128
 71
    97
 72
    89
 73
    96
  0
VERTEX
  5
4C0
  8
0
 10
0.0
 20
0.0
 30
0.0
 70
   128
 71
    96
 72
    89
 73
    95
  0
VERTEX
  5
4C1
  8
0
 10
0.0
 20
0.0
 30
0.0
 70
   128
 71
    95
 72
    89
 73
    90
  0
VERTEX
  5
4C2
  8
0
 10
0.0
 20
0.0
 30
0.0
 70
   128
 71
    94
 72
    90
 73
    93
  0
VERTEX
  5
4C3
  8
0
 10
0.0
 20
0.0
 30
0.0
 70
   128
 71
    94
 72
    95
 73
    90
  0
VERTEX
  5
4C4
  8
0
 10
0.0
 20
0.0
 30
0.0
 70
   128
 71
    91
 72
    92
 73
    90
  0
VERTEX
  5
4C5
  8
0
 10
0.0
 20
0.0
 30
0.0
 70
   128
 71
    90
 72
    92
 73
    93
  0
VERTEX
  5
4C6
  8
0
 10
0.0
 20
0.0
 30
0.0
 70
   128
 71
    99
 72
   100
 73
    87
  0
VERTEX
  5
4C7
  8
0
 10
0.0
 20
0.0
 30
0.0
 70
   128
 71
   103
 72
   104
 73
    83
  0
VERTEX
  5
4C8
  8
0
 10
0.0
 20
0.0
 30
0.0
 70
   128
 71
   104
 72
   105
 73
    82
  0
VERTEX
  5
4C9
  8
0
 10
0.0
 20
0.0
 30
0.0
 70
   128
 71
   105
 72
   106
 73
    81
  0
VERTEX
  5
4CA
  8
0
 10
0.0
 20
0.0
 30
0.0
 70
   128
 71
   106
 72
   107
 73
    80
  0
VERTEX
  5
4CB
  8
0
 10
0.0
 20
0.0
 30
0.0
 70
   128
 71
   107
 72
   108
 73
    79
  0
VERTEX
  5
4CC
  8
0
 10
0.0
 20
0.0
 30
0.0
 70
   128
 71
   108
 72
   109
 73
    78
  0
VERTEX
  5
4CD
  8
0
 10
0.0
 20
0.0
 30
0.0
 70
   128
 71
   110
 72
   111
 73
    75
  0
VERTEX
  5
4CE
  8
0
 10
0.0
 20
0.0
 30
0.0
 70
   128
 71
    75
 72
   111
 73
   155
  0
VERTEX
  5
4CF
  8
0
 10
0.0
 20
0.0
 30
0.0
 70
   128
 71
   155
 72
   111
 73
   112
  0
VERTEX
  5
4D0
  8
0
 10
0.0
 20
0.0
 30
0.0
 70
   128
 71
   154
 72
   112
 73
   113
  0
VERTEX
  5
4D1
  8
0
 10
0.0
 20
0.0
 30
0.0
 70
   128
 71
   153
 72
   113
 73
   114
  0
VERTEX
  5
4D2
  8
0
 10
0.0
 20
0.0
 30
0.0
 70
   128
 71
   152
 72
   114
 73
   115
  0
VERTEX
  5
4D3
  8
0
 10
0.0
 20
0.0
 30
0.0
 70
   128
 71
   151
 72
   115
 73
   116
  0
VERTEX
  5
4D4
  8
0
 10
0.0
 20
0.0
 30
0.0
 70
   128
 71
   150
 72
   116
 73
   117
  0
VERTEX
  5
4D5
  8
0
 10
0.0
 20
0.0
 30
0.0
 70
   128
 71
   149
 72
   117
 73
   118
  0
VERTEX
  5
4D6
  8
0
 10
0.0
 20
0.0
 30
0.0
 70
   128
 71
   148
 72
   118
 73
   119
  0
VERTEX
  5
4D7
  8
0
 10
0.0
 20
0.0
 30
0.0
 70
   128
 71
   147
 72
   119
 73
   146
  0
VERTEX
  5
4D8
  8
0
 10
0.0
 20
0.0
 30
0.0
 70
   128
 71
   147
 72
   148
 73
   119
  0
VERTEX
  5
4D9
  8
0
 10
0.0
 20
0.0
 30
0.0
 70
   128
 71
   119
 72
   120
 73
   146
  0
VERTEX
  5
4DA
  8
0
 10
0.0
 20
0.0
 30
0.0
 70
   128
 71
   146
 72
   120
 73
   145
  0
VERTEX
  5
4DB
  8
0
 10
0.0
 20
0.0
 30
0.0
 70
   128
 71
   145
 72
   120
 73
   121
  0
VERTEX
  5
4DC
  8
0
 10
0.0
 20
0.0
 30
0.0
 70
   128
 71
   144
 72
   121
 73
   122
  0
VERTEX
  5
4DD
  8
0
 10
0.0
 20
0.0
 30
0.0
 70
   128
 71
   143
 72
   122
 73
   123
  0
VERTEX
  5
4DE
  8
0
 10
0.0
 20
0.0
 30
0.0
 70
   128
 71
   142
 72
   123
 73
   124
  0
VERTEX
  5
4DF
  8
0
 10
0.0
 20
0.0
 30
0.0
 70
   128
 71
   141
 72
   124
 73
   125
  0
VERTEX
  5
4E0
  8
0
 10
0.0
 20
0.0
 30
0.0
 70
   128
 71
   140
 72
   125
 73
   126
  0
VERTEX
  5
4E1
  8
0
 10
0.0
 20
0.0
 30
0.0
 70
   128
 71
   139
 72
   126
 73
   127
  0
VERTEX
  5
4E2
  8
0
 10
0.0
 20
0.0
 30
0.0
 70
   128
 71
   138
 72
   127
 73
   128
  0
VERTEX
  5
4E3
  8
0
 10
0.0
 20
0.0
 30
0.0
 70
   128
 71
   137
 72
   128
 73
   129
  0
VERTEX
  5
4E4
  8
0
 10
0.0
 20
0.0
 30
0.0
 70
   128
 71
   136
 72
   129
 73
   130
  0
VERTEX
  5
4E5
  8
0
 10
0.0
 20
0.0
 30
0.0
 70
   128
 71
   135
 72
   130
 73
   131
  0
VERTEX
  5
4E6
  8
0
 10
0.0
 20
0.0
 30
0.0
 70
   128
 71
   134
 72
   131
 73
   133
  0
VERTEX
  5
4E7
  8
0
 10
0.0
 20
0.0
 30
0.0
 70
   128
 71
   134
 72
   135
 73
   131
  0
VERTEX
  5
4E8
  8
0
 10
0.0
 20
0.0
 30
0.0
 70
   128
 71
   131
 72
   132
 73
   133
  0
VERTEX
  5
4E9
  8
0
 10
0.0
 20
0.0
 30
0.0
 70
   128
 71
   135
 72
   136
 73
   130
  0
VERTEX
  5
4EA
  8
0
 10
0.0
 20
0.0
 30
0.0
 70
   128
 71
   136
 72
   137
 73
   129
  0
VERTEX
  5
4EB
  8
0
 10
0.0
 20
0.0
 30
0.0
 70
   128
 71
   137
 72
   138
 73
   128
  0
VERTEX
  5
4EC
  8
0
 10
0.0
 20
0.0
 30
0.0
 70
   128
 71
   138
 72
   139
 73
   127
  0
VERTEX
  5
4ED
  8
0
 10
0.0
 20
0.0
 30
0.0
 70
   128
 71
   139
 72
   140
 73
   126
  0
VERTEX
  5
4EE
  8
0
 10
0.0
 20
0.0
 30
0.0
 70
   128
 71
   140
 72
   141
 73
   125
  0
VERTEX
  5
4EF
  8
0
 10
0.0
 20
0.0
 30
0.0
 70
   128
 71
   141
 72
   142
 73
   124
  0
VERTEX
  5
4F0
  8
0
 10
0.0
 20
0.0
 30
0.0
 70
   128
 71
   142
 72
   143
 73
   123
  0
VERTEX
  5
4F1
  8
0
 10
0.0
 20
0.0
 30
0.0
 70
   128
 71
   143
 72
   144
 73
   122
  0
VERTEX
  5
4F2
  8
0
 10
0.0
 20
0.0
 30
0.0
 70
   128
 71
   144
 72
   145
 73
   121
  0
VERTEX
  5
4F3
  8
0
 10
0.0
 20
0.0
 30
0.0
 70
   128
 71
   148
 72
   149
 73
   118
  0
VERTEX
  5
4F4
  8
0
 10
0.0
 20
0.0
 30
0.0
 70
   128
 71
   149
 72
   150
 73
   117
  0
VERTEX
  5
4F5
  8
0
 10
0.0
 20
0.0
 30
0.0
 70
   128
 71
   150
 72
   151
 73
   116
  0
VERTEX
  5
4F6
  8
0
 10
0.0
 20
0.0
 30
0.0
 70
   128
 71
   151
 72
   152
 73
   115
  0
VERTEX
  5
4F7
  8
0
 10
0.0
 20
0.0
 30
0.0
 70
   128
 71
   152
 72
   153
 73
   114
  0
VERTEX
  5
4F8
  8
0
 10
0.0
 20
0.0
 30
0.0
 70
   128
 71
   153
 72
   154
 73
   113
  0
VERTEX
  5
4F9
  8
0
 10
0.0
 20
0.0
 30
0.0
 70
   128
 71
   154
 72
   155
 73
   112
  0
VERTEX
  5
4FA
  8
0
 10
0.0
 20
0.0
 30
0.0
 70
   128
 71
   156
 72
   157
 73
   330
  0
VERTEX
  5
4FB
  8
0
 10
0.0
 20
0.0
 30
0.0
 70
   128
 71
   330
 72
   157
 73
   329
  0
VERTEX
  5
4FC
  8
0
 10
0.0
 20
0.0
 30
0.0
 70
   128
 71
   329
 72
   157
 73
   409
  0
VERTEX
  5
4FD
  8
0
 10
0.0
 20
0.0
 30
0.0
 70
   128
 71
   328
 72
   409
 73
   717
  0
VERTEX
  5
4FE
  8
0
 10
0.0
 20
0.0
 30
0.0
 70
   128
 71
   327
 72
   717
 73
   331
  0
VERTEX
  5
4FF
  8
0
 10
0.0
 20
0.0
 30
0.0
 70
   128
 71
   326
 72
   331
 73
   487
  0
VERTEX
  5
500
  8
0
 10
0.0
 20
0.0
 30
0.0
 70
   128
 71
   486
 72
   487
 73
   488
 74
   485
  0
VERTEX
  5
501
  8
0
 10
0.0
 20
0.0
 30
0.0
 70
   128
 71
   485
 72
   794
 73
   793
 74
   486
  0
VERTEX
  5
502
  8
0
 10
0.0
 20
0.0
 30
0.0
 70
   128
 71
   484
 72
   485
 73
   488
 74
   489
  0
VERTEX
  5
503
  8
0
 10
0.0
 20
0.0
 30
0.0
 70
   128
 71
   489
 72
   490
 73
   483
 74
   484
  0
VERTEX
  5
504
  8
0
 10
0.0
 20
0.0
 30
0.0
 70
   128
 71
   791
 72
   489
 73
   488
 74
   792
  0
VERTEX
  5
505
  8
0
 10
0.0
 20
0.0
 30
0.0
 70
   128
 71
   792
 72
   716
 73
   715
 74
   791
  0
VERTEX
  5
506
  8
0
 10
0.0
 20
0.0
 30
0.0
 70
   128
 71
   331
 72
   792
 73
   488
 74
   487
  0
VERTEX
  5
507
  8
0
 10
0.0
 20
0.0
 30
0.0
 70
   128
 71
   717
 72
   716
 73
   792
 74
   331
  0
VERTEX
  5
508
  8
0
 10
0.0
 20
0.0
 30
0.0
 70
   128
 71
   409
 72
   408
 73
   716
 74
   717
  0
VERTEX
  5
509
  8
0
 10
0.0
 20
0.0
 30
0.0
 70
   128
 71
   157
 72
   408
 73
   409
  0
VERTEX
  5
50A
  8
0
 10
0.0
 20
0.0
 30
0.0
 70
   128
 71
   157
 72
   158
 73
   408
  0
VERTEX
  5
50B
  8
0
 10
0.0
 20
0.0
 30
0.0
 70
   128
 71
   408
 72
   158
 73
   159
  0
VERTEX
  5
50C
  8
0
 10
0.0
 20
0.0
 30
0.0
 70
   128
 71
   407
 72
   159
 73
   160
  0
VERTEX
  5
50D
  8
0
 10
0.0
 20
0.0
 30
0.0
 70
   128
 71
   406
 72
   160
 73
   161
  0
VERTEX
  5
50E
  8
0
 10
0.0
 20
0.0
 30
0.0
 70
   128
 71
   162
 72
   406
 73
   161
  0
VERTEX
  5
50F
  8
0
 10
0.0
 20
0.0
 30
0.0
 70
   128
 71
   162
 72
   405
 73
   406
  0
VERTEX
  5
510
  8
0
 10
0.0
 20
0.0
 30
0.0
 70
   128
 71
   162
 72
   163
 73
   405
  0
VERTEX
  5
511
  8
0
 10
0.0
 20
0.0
 30
0.0
 70
   128
 71
   405
 72
   163
 73
   164
  0
VERTEX
  5
512
  8
0
 10
0.0
 20
0.0
 30
0.0
 70
   128
 71
   404
 72
   164
 73
   165
  0
VERTEX
  5
513
  8
0
 10
0.0
 20
0.0
 30
0.0
 70
   128
 71
   166
 72
   404
 73
   165
  0
VERTEX
  5
514
  8
0
 10
0.0
 20
0.0
 30
0.0
 70
   128
 71
   166
 72
   403
 73
   404
  0
VERTEX
  5
515
  8
0
 10
0.0
 20
0.0
 30
0.0
 70
   128
 71
   166
 72
   167
 73
   403
  0
VERTEX
  5
516
  8
0
 10
0.0
 20
0.0
 30
0.0
 70
   128
 71
   403
 72
   167
 73
   402
  0
VERTEX
  5
517
  8
0
 10
0.0
 20
0.0
 30
0.0
 70
   128
 71
   710
 72
   402
 73
   401
 74
   709
  0
VERTEX
  5
518
  8
0
 10
0.0
 20
0.0
 30
0.0
 70
   128
 71
   709
 72
   785
 73
   786
 74
   710
  0
VERTEX
  5
519
  8
0
 10
0.0
 20
0.0
 30
0.0
 70
   128
 71
   708
 72
   709
 73
   401
 74
   400
  0
VERTEX
  5
51A
  8
0
 10
0.0
 20
0.0
 30
0.0
 70
   128
 71
   400
 72
   399
 73
   707
 74
   708
  0
VERTEX
  5
51B
  8
0
 10
0.0
 20
0.0
 30
0.0
 70
   128
 71
   171
 72
   400
 73
   170
  0
VERTEX
  5
51C
  8
0
 10
0.0
 20
0.0
 30
0.0
 70
   128
 71
   171
 72
   399
 73
   400
  0
VERTEX
  5
51D
  8
0
 10
0.0
 20
0.0
 30
0.0
 70
   128
 71
   171
 72
   172
 73
   399
  0
VERTEX
  5
51E
  8
0
 10
0.0
 20
0.0
 30
0.0
 70
   128
 71
   399
 72
   172
 73
   398
  0
VERTEX
  5
51F
  8
0
 10
0.0
 20
0.0
 30
0.0
 70
   128
 71
   706
 72
   398
 73
   397
 74
   705
  0
VERTEX
  5
520
  8
0
 10
0.0
 20
0.0
 30
0.0
 70
   128
 71
   705
 72
   781
 73
   782
 74
   706
  0
VERTEX
  5
521
  8
0
 10
0.0
 20
0.0
 30
0.0
 70
   128
 71
   704
 72
   705
 73
   397
 74
   396
  0
VERTEX
  5
522
  8
0
 10
0.0
 20
0.0
 30
0.0
 70
   128
 71
   396
 72
   395
 73
   703
 74
   704
  0
VERTEX
  5
523
  8
0
 10
0.0
 20
0.0
 30
0.0
 70
   128
 71
   174
 72
   396
 73
   173
  0
VERTEX
  5
524
  8
0
 10
0.0
 20
0.0
 30
0.0
 70
   128
 71
   174
 72
   395
 73
   396
  0
VERTEX
  5
525
  8
0
 10
0.0
 20
0.0
 30
0.0
 70
   128
 71
   174
 72
   394
 73
   395
  0
VERTEX
  5
526
  8
0
 10
0.0
 20
0.0
 30
0.0
 70
   128
 71
   174
 72
   175
 73
   394
  0
VERTEX
  5
527
  8
0
 10
0.0
 20
0.0
 30
0.0
 70
   128
 71
   394
 72
   175
 73
   393
  0
VERTEX
  5
528
  8
0
 10
0.0
 20
0.0
 30
0.0
 70
   128
 71
   701
 72
   393
 73
   392
 74
   700
  0
VERTEX
  5
529
  8
0
 10
0.0
 20
0.0
 30
0.0
 70
   128
 71
   700
 72
   776
 73
   777
 74
   701
  0
VERTEX
  5
52A
  8
0
 10
0.0
 20
0.0
 30
0.0
 70
   128
 71
   699
 72
   700
 73
   392
 74
   391
  0
VERTEX
  5
52B
  8
0
 10
0.0
 20
0.0
 30
0.0
 70
   128
 71
   391
 72
   390
 73
   698
 74
   699
  0
VERTEX
  5
52C
  8
0
 10
0.0
 20
0.0
 30
0.0
 70
   128
 71
   177
 72
   391
 73
   176
  0
VERTEX
  5
52D
  8
0
 10
0.0
 20
0.0
 30
0.0
 70
   128
 71
   177
 72
   390
 73
   391
  0
VERTEX
  5
52E
  8
0
 10
0.0
 20
0.0
 30
0.0
 70
   128
 71
   177
 72
   178
 73
   390
  0
VERTEX
  5
52F
  8
0
 10
0.0
 20
0.0
 30
0.0
 70
   128
 71
   390
 72
   178
 73
   389
  0
VERTEX
  5
530
  8
0
 10
0.0
 20
0.0
 30
0.0
 70
   128
 71
   697
 72
   389
 73
   388
 74
   696
  0
VERTEX
  5
531
  8
0
 10
0.0
 20
0.0
 30
0.0
 70
   128
 71
   696
 72
   772
 73
   773
 74
   697
  0
VERTEX
  5
532
  8
0
 10
0.0
 20
0.0
 30
0.0
 70
   128
 71
   695
 72
   696
 73
   388
 74
   387
  0
VERTEX
  5
533
  8
0
 10
0.0
 20
0.0
 30
0.0
 70
   128
 71
   387
 72
   386
 73
   694
 74
   695
  0
VERTEX
  5
534
  8
0
 10
0.0
 20
0.0
 30
0.0
 70
   128
 71
   180
 72
   387
 73
   388
  0
VERTEX
  5
535
  8
0
 10
0.0
 20
0.0
 30
0.0
 70
   128
 71
   179
 72
   388
 73
   389
  0
VERTEX
  5
536
  8
0
 10
0.0
 20
0.0
 30
0.0
 70
   128
 71
   178
 72
   179
 73
   389
  0
VERTEX
  5
537
  8
0
 10
0.0
 20
0.0
 30
0.0
 70
   128
 71
   167
 72
   168
 73
   402
  0
VERTEX
  5
538
  8
0
 10
0.0
 20
0.0
 30
0.0
 70
   128
 71
   402
 72
   168
 73
   401
  0
VERTEX
  5
539
  8
0
 10
0.0
 20
0.0
 30
0.0
 70
   128
 71
   401
 72
   168
 73
   169
  0
VERTEX
  5
53A
  8
0
 10
0.0
 20
0.0
 30
0.0
 70
   128
 71
   400
 72
   169
 73
   170
  0
VERTEX
  5
53B
  8
0
 10
0.0
 20
0.0
 30
0.0
 70
   128
 71
   400
 72
   401
 73
   169
  0
VERTEX
  5
53C
  8
0
 10
0.0
 20
0.0
 30
0.0
 70
   128
 71
   398
 72
   172
 73
   397
  0
VERTEX
  5
53D
  8
0
 10
0.0
 20
0.0
 30
0.0
 70
   128
 71
   397
 72
   172
 73
   173
  0
VERTEX
  5
53E
  8
0
 10
0.0
 20
0.0
 30
0.0
 70
   128
 71
   396
 72
   397
 73
   173
  0
VERTEX
  5
53F
  8
0
 10
0.0
 20
0.0
 30
0.0
 70
   128
 71
   393
 72
   175
 73
   392
  0
VERTEX
  5
540
  8
0
 10
0.0
 20
0.0
 30
0.0
 70
   128
 71
   392
 72
   175
 73
   176
  0
VERTEX
  5
541
  8
0
 10
0.0
 20
0.0
 30
0.0
 70
   128
 71
   391
 72
   392
 73
   176
  0
VERTEX
  5
542
  8
0
 10
0.0
 20
0.0
 30
0.0
 70
   128
 71
   179
 72
   180
 73
   388
  0
VERTEX
  5
543
  8
0
 10
0.0
 20
0.0
 30
0.0
 70
   128
 71
   387
 72
   180
 73
   386
  0
VERTEX
  5
544
  8
0
 10
0.0
 20
0.0
 30
0.0
 70
   128
 71
   386
 72
   180
 73
   181
  0
VERTEX
  5
545
  8
0
 10
0.0
 20
0.0
 30
0.0
 70
   128
 71
   385
 72
   181
 73
   182
  0
VERTEX
  5
546
  8
0
 10
0.0
 20
0.0
 30
0.0
 70
   128
 71
   384
 72
   182
 73
   383
  0
VERTEX
  5
547
  8
0
 10
0.0
 20
0.0
 30
0.0
 70
   128
 71
   691
 72
   383
 73
   382
 74
   690
  0
VERTEX
  5
548
  8
0
 10
0.0
 20
0.0
 30
0.0
 70
   128
 71
   690
 72
   766
 73
   767
 74
   691
  0
VERTEX
  5
549
  8
0
 10
0.0
 20
0.0
 30
0.0
 70
   128
 71
   689
 72
   690
 73
   382
 74
   381
  0
VERTEX
  5
54A
  8
0
 10
0.0
 20
0.0
 30
0.0
 70
   128
 71
   381
 72
   380
 73
   688
 74
   689
  0
VERTEX
  5
54B
  8
0
 10
0.0
 20
0.0
 30
0.0
 70
   128
 71
   185
 72
   381
 73
   184
  0
VERTEX
  5
54C
  8
0
 10
0.0
 20
0.0
 30
0.0
 70
   128
 71
   185
 72
   380
 73
   381
  0
VERTEX
  5
54D
  8
0
 10
0.0
 20
0.0
 30
0.0
 70
   128
 71
   185
 72
   186
 73
   380
  0
VERTEX
  5
54E
  8
0
 10
0.0
 20
0.0
 30
0.0
 70
   128
 71
   380
 72
   186
 73
   379
  0
VERTEX
  5
54F
  8
0
 10
0.0
 20
0.0
 30
0.0
 70
   128
 71
   687
 72
   379
 73
   378
 74
   686
  0
VERTEX
  5
550
  8
0
 10
0.0
 20
0.0
 30
0.0
 70
   128
 71
   686
 72
   762
 73
   763
 74
   687
  0
VERTEX
  5
551
  8
0
 10
0.0
 20
0.0
 30
0.0
 70
   128
 71
   685
 72
   686
 73
   378
 74
   377
  0
VERTEX
  5
552
  8
0
 10
0.0
 20
0.0
 30
0.0
 70
   128
 71
   377
 72
   376
 73
   684
 74
   685
  0
VERTEX
  5
553
  8
0
 10
0.0
 20
0.0
 30
0.0
 70
   128
 71
   189
 72
   377
 73
   188
  0
VERTEX
  5
554
  8
0
 10
0.0
 20
0.0
 30
0.0
 70
   128
 71
   189
 72
   376
 73
   377
  0
VERTEX
  5
555
  8
0
 10
0.0
 20
0.0
 30
0.0
 70
   128
 71
   189
 72
   190
 73
   376
  0
VERTEX
  5
556
  8
0
 10
0.0
 20
0.0
 30
0.0
 70
   128
 71
   376
 72
   190
 73
   375
  0
VERTEX
  5
557
  8
0
 10
0.0
 20
0.0
 30
0.0
 70
   128
 71
   683
 72
   375
 73
   374
 74
   682
  0
VERTEX
  5
558
  8
0
 10
0.0
 20
0.0
 30
0.0
 70
   128
 71
   682
 72
   758
 73
   759
 74
   683
  0
VERTEX
  5
559
  8
0
 10
0.0
 20
0.0
 30
0.0
 70
   128
 71
   681
 72
   682
 73
   374
 74
   373
  0
VERTEX
  5
55A
  8
0
 10
0.0
 20
0.0
 30
0.0
 70
   128
 71
   373
 72
   372
 73
   680
 74
   681
  0
VERTEX
  5
55B
  8
0
 10
0.0
 20
0.0
 30
0.0
 70
   128
 71
   192
 72
   373
 73
   374
  0
VERTEX
  5
55C
  8
0
 10
0.0
 20
0.0
 30
0.0
 70
   128
 71
   191
 72
   374
 73
   375
  0
VERTEX
  5
55D
  8
0
 10
0.0
 20
0.0
 30
0.0
 70
   128
 71
   190
 72
   191
 73
   375
  0
VERTEX
  5
55E
  8
0
 10
0.0
 20
0.0
 30
0.0
 70
   128
 71
   182
 72
   183
 73
   383
  0
VERTEX
  5
55F
  8
0
 10
0.0
 20
0.0
 30
0.0
 70
   128
 71
   383
 72
   183
 73
   382
  0
VERTEX
  5
560
  8
0
 10
0.0
 20
0.0
 30
0.0
 70
   128
 71
   382
 72
   183
 73
   184
  0
VERTEX
  5
561
  8
0
 10
0.0
 20
0.0
 30
0.0
 70
   128
 71
   381
 72
   382
 73
   184
  0
VERTEX
  5
562
  8
0
 10
0.0
 20
0.0
 30
0.0
 70
   128
 71
   186
 72
   187
 73
   379
  0
VERTEX
  5
563
  8
0
 10
0.0
 20
0.0
 30
0.0
 70
   128
 71
   379
 72
   187
 73
   378
  0
VERTEX
  5
564
  8
0
 10
0.0
 20
0.0
 30
0.0
 70
   128
 71
   378
 72
   187
 73
   188
  0
VERTEX
  5
565
  8
0
 10
0.0
 20
0.0
 30
0.0
 70
   128
 71
   377
 72
   378
 73
   188
  0
VERTEX
  5
566
  8
0
 10
0.0
 20
0.0
 30
0.0
 70
   128
 71
   191
 72
   192
 73
   374
  0
VERTEX
  5
567
  8
0
 10
0.0
 20
0.0
 30
0.0
 70
   128
 71
   373
 72
   192
 73
   372
  0
VERTEX
  5
568
  8
0
 10
0.0
 20
0.0
 30
0.0
 70
   128
 71
   372
 72
   192
 73
   193
  0
VERTEX
  5
569
  8
0
 10
0.0
 20
0.0
 30
0.0
 70
   128
 71
   371
 72
   193
 73
   194
  0
VERTEX
  5
56A
  8
0
 10
0.0
 20
0.0
 30
0.0
 70
   128
 71
   370
 72
   194
 73
   195
  0
VERTEX
  5
56B
  8
0
 10
0.0
 20
0.0
 30
0.0
 70
   128
 71
   369
 72
   195
 73
   196
  0
VERTEX
  5
56C
  8
0
 10
0.0
 20
0.0
 30
0.0
 70
   128
 71
   368
 72
   196
 73
   197
  0
VERTEX
  5
56D
  8
0
 10
0.0
 20
0.0
 30
0.0
 70
   128
 71
   198
 72
   368
 73
   197
  0
VERTEX
  5
56E
  8
0
 10
0.0
 20
0.0
 30
0.0
 70
   128
 71
   198
 72
   367
 73
   368
  0
VERTEX
  5
56F
  8
0
 10
0.0
 20
0.0
 30
0.0
 70
   128
 71
   198
 72
   199
 73
   367
  0
VERTEX
  5
570
  8
0
 10
0.0
 20
0.0
 30
0.0
 70
   128
 71
   367
 72
   199
 73
   200
  0
VERTEX
  5
571
  8
0
 10
0.0
 20
0.0
 30
0.0
 70
   128
 71
   366
 72
   200
 73
   201
  0
VERTEX
  5
572
  8
0
 10
0.0
 20
0.0
 30
0.0
 70
   128
 71
   202
 72
   366
 73
   201
  0
VERTEX
  5
573
  8
0
 10
0.0
 20
0.0
 30
0.0
 70
   128
 71
   202
 72
   365
 73
   366
  0
VERTEX
  5
574
  8
0
 10
0.0
 20
0.0
 30
0.0
 70
   128
 71
   202
 72
   203
 73
   365
  0
VERTEX
  5
575
  8
0
 10
0.0
 20
0.0
 30
0.0
 70
   128
 71
   365
 72
   203
 73
   364
  0
VERTEX
  5
576
  8
0
 10
0.0
 20
0.0
 30
0.0
 70
   128
 71
   672
 72
   364
 73
   363
 74
   671
  0
VERTEX
  5
577
  8
0
 10
0.0
 20
0.0
 30
0.0
 70
   128
 71
   671
 72
   747
 73
   748
 74
   672
  0
VERTEX
  5
578
  8
0
 10
0.0
 20
0.0
 30
0.0
 70
   128
 71
   670
 72
   671
 73
   363
 74
   362
  0
VERTEX
  5
579
  8
0
 10
0.0
 20
0.0
 30
0.0
 70
   128
 71
   362
 72
   361
 73
   669
 74
   670
  0
VERTEX
  5
57A
  8
0
 10
0.0
 20
0.0
 30
0.0
 70
   128
 71
   207
 72
   362
 73
   206
  0
VERTEX
  5
57B
  8
0
 10
0.0
 20
0.0
 30
0.0
 70
   128
 71
   207
 72
   361
 73
   362
  0
VERTEX
  5
57C
  8
0
 10
0.0
 20
0.0
 30
0.0
 70
   128
 71
   207
 72
   208
 73
   361
  0
VERTEX
  5
57D
  8
0
 10
0.0
 20
0.0
 30
0.0
 70
   128
 71
   361
 72
   208
 73
   360
  0
VERTEX
  5
57E
  8
0
 10
0.0
 20
0.0
 30
0.0
 70
   128
 71
   668
 72
   360
 73
   359
 74
   667
  0
VERTEX
  5
57F
  8
0
 10
0.0
 20
0.0
 30
0.0
 70
   128
 71
   667
 72
   743
 73
   744
 74
   668
  0
VERTEX
  5
580
  8
0
 10
0.0
 20
0.0
 30
0.0
 70
   128
 71
   666
 72
   667
 73
   359
 74
   358
  0
VERTEX
  5
581
  8
0
 10
0.0
 20
0.0
 30
0.0
 70
   128
 71
   358
 72
   357
 73
   665
 74
   666
  0
VERTEX
  5
582
  8
0
 10
0.0
 20
0.0
 30
0.0
 70
   128
 71
   211
 72
   358
 73
   210
  0
VERTEX
  5
583
  8
0
 10
0.0
 20
0.0
 30
0.0
 70
   128
 71
   211
 72
   357
 73
   358
  0
VERTEX
  5
584
  8
0
 10
0.0
 20
0.0
 30
0.0
 70
   128
 71
   211
 72
   212
 73
   357
  0
VERTEX
  5
585
  8
0
 10
0.0
 20
0.0
 30
0.0
 70
   128
 71
   357
 72
   212
 73
   356
  0
VERTEX
  5
586
  8
0
 10
0.0
 20
0.0
 30
0.0
 70
   128
 71
   664
 72
   356
 73
   355
 74
   663
  0
VERTEX
  5
587
  8
0
 10
0.0
 20
0.0
 30
0.0
 70
   128
 71
   663
 72
   739
 73
   740
 74
   664
  0
VERTEX
  5
588
  8
0
 10
0.0
 20
0.0
 30
0.0
 70
   128
 71
   662
 72
   663
 73
   355
 74
   354
  0
VERTEX
  5
589
  8
0
 10
0.0
 20
0.0
 30
0.0
 70
   128
 71
   354
 72
   353
 73
   661
 74
   662
  0
VERTEX
  5
58A
  8
0
 10
0.0
 20
0.0
 30
0.0
 70
   128
 71
   216
 72
   354
 73
   215
  0
VERTEX
  5
58B
  8
0
 10
0.0
 20
0.0
 30
0.0
 70
   128
 71
   216
 72
   353
 73
   354
  0
VERTEX
  5
58C
  8
0
 10
0.0
 20
0.0
 30
0.0
 70
   128
 71
   216
 72
   217
 73
   353
  0
VERTEX
  5
58D
  8
0
 10
0.0
 20
0.0
 30
0.0
 70
   128
 71
   353
 72
   217
 73
   218
  0
VERTEX
  5
58E
  8
0
 10
0.0
 20
0.0
 30
0.0
 70
   128
 71
   219
 72
   353
 73
   218
  0
VERTEX
  5
58F
  8
0
 10
0.0
 20
0.0
 30
0.0
 70
   128
 71
   219
 72
   352
 73
   353
  0
VERTEX
  5
590
  8
0
 10
0.0
 20
0.0
 30
0.0
 70
   128
 71
   219
 72
   220
 73
   352
  0
VERTEX
  5
591
  8
0
 10
0.0
 20
0.0
 30
0.0
 70
   128
 71
   352
 72
   220
 73
   221
  0
VERTEX
  5
592
  8
0
 10
0.0
 20
0.0
 30
0.0
 70
   128
 71
   351
 72
   221
 73
   222
  0
VERTEX
  5
593
  8
0
 10
0.0
 20
0.0
 30
0.0
 70
   128
 71
   350
 72
   222
 73
   223
  0
VERTEX
  5
594
  8
0
 10
0.0
 20
0.0
 30
0.0
 70
   128
 71
   349
 72
   223
 73
   224
  0
VERTEX
  5
595
  8
0
 10
0.0
 20
0.0
 30
0.0
 70
   128
 71
   348
 72
   224
 73
   225
  0
VERTEX
  5
596
  8
0
 10
0.0
 20
0.0
 30
0.0
 70
   128
 71
   347
 72
   225
 73
   346
  0
VERTEX
  5
597
  8
0
 10
0.0
 20
0.0
 30
0.0
 70
   128
 71
   654
 72
   346
 73
   345
 74
   653
  0
VERTEX
  5
598
  8
0
 10
0.0
 20
0.0
 30
0.0
 70
   128
 71
   653
 72
   729
 73
   730
 74
   654
  0
VERTEX
  5
599
  8
0
 10
0.0
 20
0.0
 30
0.0
 70
   128
 71
   652
 72
   653
 73
   345
 74
   344
  0
VERTEX
  5
59A
  8
0
 10
0.0
 20
0.0
 30
0.0
 70
   128
 71
   344
 72
   343
 73
   651
 74
   652
  0
VERTEX
  5
59B
  8
0
 10
0.0
 20
0.0
 30
0.0
 70
   128
 71
   227
 72
   344
 73
   226
  0
VERTEX
  5
59C
  8
0
 10
0.0
 20
0.0
 30
0.0
 70
   128
 71
   227
 72
   343
 73
   344
  0
VERTEX
  5
59D
  8
0
 10
0.0
 20
0.0
 30
0.0
 70
   128
 71
   227
 72
   342
 73
   343
  0
VERTEX
  5
59E
  8
0
 10
0.0
 20
0.0
 30
0.0
 70
   128
 71
   227
 72
   228
 73
   342
  0
VERTEX
  5
59F
  8
0
 10
0.0
 20
0.0
 30
0.0
 70
   128
 71
   342
 72
   228
 73
   229
  0
VERTEX
  5
5A0
  8
0
 10
0.0
 20
0.0
 30
0.0
 70
   128
 71
   341
 72
   229
 73
   230
  0
VERTEX
  5
5A1
  8
0
 10
0.0
 20
0.0
 30
0.0
 70
   128
 71
   340
 72
   230
 73
   339
  0
VERTEX
  5
5A2
  8
0
 10
0.0
 20
0.0
 30
0.0
 70
   128
 71
   647
 72
   339
 73
   338
 74
   646
  0
VERTEX
  5
5A3
  8
0
 10
0.0
 20
0.0
 30
0.0
 70
   128
 71
   646
 72
   722
 73
   723
 74
   647
  0
VERTEX
  5
5A4
  8
0
 10
0.0
 20
0.0
 30
0.0
 70
   128
 71
   645
 72
   646
 73
   338
 74
   337
  0
VERTEX
  5
5A5
  8
0
 10
0.0
 20
0.0
 30
0.0
 70
   128
 71
   337
 72
   336
 73
   644
 74
   645
  0
VERTEX
  5
5A6
  8
0
 10
0.0
 20
0.0
 30
0.0
 70
   128
 71
   232
 72
   337
 73
   338
  0
VERTEX
  5
5A7
  8
0
 10
0.0
 20
0.0
 30
0.0
 70
   128
 71
   231
 72
   338
 73
   339
  0
VERTEX
  5
5A8
  8
0
 10
0.0
 20
0.0
 30
0.0
 70
   128
 71
   230
 72
   231
 73
   339
  0
VERTEX
  5
5A9
  8
0
 10
0.0
 20
0.0
 30
0.0
 70
   128
 71
   203
 72
   204
 73
   364
  0
VERTEX
  5
5AA
  8
0
 10
0.0
 20
0.0
 30
0.0
 70
   128
 71
   364
 72
   204
 73
   363
  0
VERTEX
  5
5AB
  8
0
 10
0.0
 20
0.0
 30
0.0
 70
   128
 71
   363
 72
   204
 73
   205
  0
VERTEX
  5
5AC
  8
0
 10
0.0
 20
0.0
 30
0.0
 70
   128
 71
   206
 72
   363
 73
   205
  0
VERTEX
  5
5AD
  8
0
 10
0.0
 20
0.0
 30
0.0
 70
   128
 71
   206
 72
   362
 73
   363
  0
VERTEX
  5
5AE
  8
0
 10
0.0
 20
0.0
 30
0.0
 70
   128
 71
   208
 72
   209
 73
   360
  0
VERTEX
  5
5AF
  8
0
 10
0.0
 20
0.0
 30
0.0
 70
   128
 71
   360
 72
   209
 73
   359
  0
VERTEX
  5
5B0
  8
0
 10
0.0
 20
0.0
 30
0.0
 70
   128
 71
   359
 72
   209
 73
   210
  0
VERTEX
  5
5B1
  8
0
 10
0.0
 20
0.0
 30
0.0
 70
   128
 71
   358
 72
   359
 73
   210
  0
VERTEX
  5
5B2
  8
0
 10
0.0
 20
0.0
 30
0.0
 70
   128
 71
   356
 72
   212
 73
   355
  0
VERTEX
  5
5B3
  8
0
 10
0.0
 20
0.0
 30
0.0
 70
   128
 71
   355
 72
   212
 73
   213
  0
VERTEX
  5
5B4
  8
0
 10
0.0
 20
0.0
 30
0.0
 70
   128
 71
   354
 72
   213
 73
   214
  0
VERTEX
  5
5B5
  8
0
 10
0.0
 20
0.0
 30
0.0
 70
   128
 71
   215
 72
   354
 73
   214
  0
VERTEX
  5
5B6
  8
0
 10
0.0
 20
0.0
 30
0.0
 70
   128
 71
   225
 72
   226
 73
   346
  0
VERTEX
  5
5B7
  8
0
 10
0.0
 20
0.0
 30
0.0
 70
   128
 71
   346
 72
   226
 73
   345
  0
VERTEX
  5
5B8
  8
0
 10
0.0
 20
0.0
 30
0.0
 70
   128
 71
   345
 72
   226
 73
   344
  0
VERTEX
  5
5B9
  8
0
 10
0.0
 20
0.0
 30
0.0
 70
   128
 71
   231
 72
   232
 73
   338
  0
VERTEX
  5
5BA
  8
0
 10
0.0
 20
0.0
 30
0.0
 70
   128
 71
   337
 72
   232
 73
   336
  0
VERTEX
  5
5BB
  8
0
 10
0.0
 20
0.0
 30
0.0
 70
   128
 71
   336
 72
   232
 73
   233
  0
VERTEX
  5
5BC
  8
0
 10
0.0
 20
0.0
 30
0.0
 70
   128
 71
   335
 72
   233
 73
   234
  0
VERTEX
  5
5BD
  8
0
 10
0.0
 20
0.0
 30
0.0
 70
   128
 71
   334
 72
   234
 73
   235
  0
VERTEX
  5
5BE
  8
0
 10
0.0
 20
0.0
 30
0.0
 70
   128
 71
   333
 72
   235
 73
   236
  0
VERTEX
  5
5BF
  8
0
 10
0.0
 20
0.0
 30
0.0
 70
   128
 71
   238
 72
   236
 73
   237
  0
VERTEX
  5
5C0
  8
0
 10
0.0
 20
0.0
 30
0.0
 70
   128
 71
   238
 72
   333
 73
   236
  0
VERTEX
  5
5C1
  8
0
 10
0.0
 20
0.0
 30
0.0
 70
   128
 71
   238
 72
   239
 73
   333
  0
VERTEX
  5
5C2
  8
0
 10
0.0
 20
0.0
 30
0.0
 70
   128
 71
   333
 72
   239
 73
   240
  0
VERTEX
  5
5C3
  8
0
 10
0.0
 20
0.0
 30
0.0
 70
   128
 71
   641
 72
   240
 73
   241
  0
VERTEX
  5
5C4
  8
0
 10
0.0
 20
0.0
 30
0.0
 70
   128
 71
   332
 72
   241
 73
   242
  0
VERTEX
  5
5C5
  8
0
 10
0.0
 20
0.0
 30
0.0
 70
   128
 71
   563
 72
   242
 73
   410
  0
VERTEX
  5
5C6
  8
0
 10
0.0
 20
0.0
 30
0.0
 70
   128
 71
   411
 72
   410
 73
   869
 74
   868
  0
VERTEX
  5
5C7
  8
0
 10
0.0
 20
0.0
 30
0.0
 70
   128
 71
   868
 72
   867
 73
   412
 74
   411
  0
VERTEX
  5
5C8
  8
0
 10
0.0
 20
0.0
 30
0.0
 70
   128
 71
   639
 72
   868
 73
   869
 74
   640
  0
VERTEX
  5
5C9
  8
0
 10
0.0
 20
0.0
 30
0.0
 70
   128
 71
   640
 72
   248
 73
   639
  0
VERTEX
  5
5CA
  8
0
 10
0.0
 20
0.0
 30
0.0
 70
   128
 71
   640
 72
   246
 73
   248
  0
VERTEX
  5
5CB
  8
0
 10
0.0
 20
0.0
 30
0.0
 70
   128
 71
   640
 72
   245
 73
   246
  0
VERTEX
  5
5CC
  8
0
 10
0.0
 20
0.0
 30
0.0
 70
   128
 71
   640
 72
   244
 73
   245
  0
VERTEX
  5
5CD
  8
0
 10
0.0
 20
0.0
 30
0.0
 70
   128
 71
   640
 72
   869
 73
   244
  0
VERTEX
  5
5CE
  8
0
 10
0.0
 20
0.0
 30
0.0
 70
   128
 71
   244
 72
   869
 73
   243
  0
VERTEX
  5
5CF
  8
0
 10
0.0
 20
0.0
 30
0.0
 70
   128
 71
   243
 72
   869
 73
   410
  0
VERTEX
  5
5D0
  8
0
 10
0.0
 20
0.0
 30
0.0
 70
   128
 71
   242
 72
   243
 73
   410
  0
VERTEX
  5
5D1
  8
0
 10
0.0
 20
0.0
 30
0.0
 70
   128
 71
   247
 72
   248
 73
   246
  0
VERTEX
  5
5D2
  8
0
 10
0.0
 20
0.0
 30
0.0
 70
   128
 71
   248
 72
   249
 73
   639
  0
VERTEX
  5
5D3
  8
0
 10
0.0
 20
0.0
 30
0.0
 70
   128
 71
   639
 72
   249
 73
   638
  0
VERTEX
  5
5D4
  8
0
 10
0.0
 20
0.0
 30
0.0
 70
   128
 71
   867
 72
   638
 73
   637
 74
   866
  0
VERTEX
  5
5D5
  8
0
 10
0.0
 20
0.0
 30
0.0
 70
   128
 71
   866
 72
   413
 73
   412
 74
   867
  0
VERTEX
  5
5D6
  8
0
 10
0.0
 20
0.0
 30
0.0
 70
   128
 71
   865
 72
   866
 73
   637
 74
   636
  0
VERTEX
  5
5D7
  8
0
 10
0.0
 20
0.0
 30
0.0
 70
   128
 71
   636
 72
   635
 73
   864
 74
   865
  0
VERTEX
  5
5D8
  8
0
 10
0.0
 20
0.0
 30
0.0
 70
   128
 71
   252
 72
   636
 73
   251
  0
VERTEX
  5
5D9
  8
0
 10
0.0
 20
0.0
 30
0.0
 70
   128
 71
   252
 72
   635
 73
   636
  0
VERTEX
  5
5DA
  8
0
 10
0.0
 20
0.0
 30
0.0
 70
   128
 71
   252
 72
   253
 73
   635
  0
VERTEX
  5
5DB
  8
0
 10
0.0
 20
0.0
 30
0.0
 70
   128
 71
   635
 72
   253
 73
   634
  0
VERTEX
  5
5DC
  8
0
 10
0.0
 20
0.0
 30
0.0
 70
   128
 71
   863
 72
   634
 73
   633
 74
   862
  0
VERTEX
  5
5DD
  8
0
 10
0.0
 20
0.0
 30
0.0
 70
   128
 71
   862
 72
   417
 73
   416
 74
   863
  0
VERTEX
  5
5DE
  8
0
 10
0.0
 20
0.0
 30
0.0
 70
   128
 71
   861
 72
   862
 73
   633
 74
   632
  0
VERTEX
  5
5DF
  8
0
 10
0.0
 20
0.0
 30
0.0
 70
   128
 71
   632
 72
   631
 73
   860
 74
   861
  0
VERTEX
  5
5E0
  8
0
 10
0.0
 20
0.0
 30
0.0
 70
   128
 71
   257
 72
   632
 73
   256
  0
VERTEX
  5
5E1
  8
0
 10
0.0
 20
0.0
 30
0.0
 70
   128
 71
   257
 72
   631
 73
   632
  0
VERTEX
  5
5E2
  8
0
 10
0.0
 20
0.0
 30
0.0
 70
   128
 71
   257
 72
   258
 73
   631
  0
VERTEX
  5
5E3
  8
0
 10
0.0
 20
0.0
 30
0.0
 70
   128
 71
   631
 72
   258
 73
   630
  0
VERTEX
  5
5E4
  8
0
 10
0.0
 20
0.0
 30
0.0
 70
   128
 71
   859
 72
   630
 73
   629
 74
   858
  0
VERTEX
  5
5E5
  8
0
 10
0.0
 20
0.0
 30
0.0
 70
   128
 71
   858
 72
   421
 73
   420
 74
   859
  0
VERTEX
  5
5E6
  8
0
 10
0.0
 20
0.0
 30
0.0
 70
   128
 71
   857
 72
   858
 73
   629
 74
   628
  0
VERTEX
  5
5E7
  8
0
 10
0.0
 20
0.0
 30
0.0
 70
   128
 71
   628
 72
   627
 73
   856
 74
   857
  0
VERTEX
  5
5E8
  8
0
 10
0.0
 20
0.0
 30
0.0
 70
   128
 71
   260
 72
   628
 73
   629
  0
VERTEX
  5
5E9
  8
0
 10
0.0
 20
0.0
 30
0.0
 70
   128
 71
   259
 72
   629
 73
   630
  0
VERTEX
  5
5EA
  8
0
 10
0.0
 20
0.0
 30
0.0
 70
   128
 71
   258
 72
   259
 73
   630
  0
VERTEX
  5
5EB
  8
0
 10
0.0
 20
0.0
 30
0.0
 70
   128
 71
   249
 72
   250
 73
   638
  0
VERTEX
  5
5EC
  8
0
 10
0.0
 20
0.0
 30
0.0
 70
   128
 71
   638
 72
   250
 73
   637
  0
VERTEX
  5
5ED
  8
0
 10
0.0
 20
0.0
 30
0.0
 70
   128
 71
   637
 72
   250
 73
   251
  0
VERTEX
  5
5EE
  8
0
 10
0.0
 20
0.0
 30
0.0
 70
   128
 71
   636
 72
   637
 73
   251
  0
VERTEX
  5
5EF
  8
0
 10
0.0
 20
0.0
 30
0.0
 70
   128
 71
   253
 72
   254
 73
   634
  0
VERTEX
  5
5F0
  8
0
 10
0.0
 20
0.0
 30
0.0
 70
   128
 71
   634
 72
   254
 73
   633
  0
VERTEX
  5
5F1
  8
0
 10
0.0
 20
0.0
 30
0.0
 70
   128
 71
   633
 72
   254
 73
   255
  0
VERTEX
  5
5F2
  8
0
 10
0.0
 20
0.0
 30
0.0
 70
   128
 71
   256
 72
   633
 73
   255
  0
VERTEX
  5
5F3
  8
0
 10
0.0
 20
0.0
 30
0.0
 70
   128
 71
   256
 72
   632
 73
   633
  0
VERTEX
  5
5F4
  8
0
 10
0.0
 20
0.0
 30
0.0
 70
   128
 71
   259
 72
   260
 73
   629
  0
VERTEX
  5
5F5
  8
0
 10
0.0
 20
0.0
 30
0.0
 70
   128
 71
   628
 72
   260
 73
   627
  0
VERTEX
  5
5F6
  8
0
 10
0.0
 20
0.0
 30
0.0
 70
   128
 71
   627
 72
   260
 73
   261
  0
VERTEX
  5
5F7
  8
0
 10
0.0
 20
0.0
 30
0.0
 70
   128
 71
   626
 72
   261
 73
   262
  0
VERTEX
  5
5F8
  8
0
 10
0.0
 20
0.0
 30
0.0
 70
   128
 71
   625
 72
   262
 73
   263
  0
VERTEX
  5
5F9
  8
0
 10
0.0
 20
0.0
 30
0.0
 70
   128
 71
   624
 72
   263
 73
   623
  0
VERTEX
  5
5FA
  8
0
 10
0.0
 20
0.0
 30
0.0
 70
   128
 71
   852
 72
   623
 73
   622
 74
   851
  0
VERTEX
  5
5FB
  8
0
 10
0.0
 20
0.0
 30
0.0
 70
   128
 71
   851
 72
   428
 73
   427
 74
   852
  0
VERTEX
  5
5FC
  8
0
 10
0.0
 20
0.0
 30
0.0
 70
   128
 71
   850
 72
   851
 73
   622
 74
   621
  0
VERTEX
  5
5FD
  8
0
 10
0.0
 20
0.0
 30
0.0
 70
   128
 71
   621
 72
   620
 73
   849
 74
   850
  0
VERTEX
  5
5FE
  8
0
 10
0.0
 20
0.0
 30
0.0
 70
   128
 71
   265
 72
   621
 73
   622
  0
VERTEX
  5
5FF
  8
0
 10
0.0
 20
0.0
 30
0.0
 70
   128
 71
   264
 72
   622
 73
   623
  0
VERTEX
  5
600
  8
0
 10
0.0
 20
0.0
 30
0.0
 70
   128
 71
   263
 72
   264
 73
   623
  0
VERTEX
  5
601
  8
0
 10
0.0
 20
0.0
 30
0.0
 70
   128
 71
   264
 72
   265
 73
   622
  0
VERTEX
  5
602
  8
0
 10
0.0
 20
0.0
 30
0.0
 70
   128
 71
   621
 72
   265
 73
   620
  0
VERTEX
  5
603
  8
0
 10
0.0
 20
0.0
 30
0.0
 70
   128
 71
   620
 72
   265
 73
   266
  0
VERTEX
  5
604
  8
0
 10
0.0
 20
0.0
 30
0.0
 70
   128
 71
   619
 72
   266
 73
   618
  0
VERTEX
  5
605
  8
0
 10
0.0
 20
0.0
 30
0.0
 70
   128
 71
   847
 72
   618
 73
   617
 74
   846
  0
VERTEX
  5
606
  8
0
 10
0.0
 20
0.0
 30
0.0
 70
   128
 71
   846
 72
   433
 73
   432
 74
   847
  0
VERTEX
  5
607
  8
0
 10
0.0
 20
0.0
 30
0.0
 70
   128
 71
   845
 72
   846
 73
   617
 74
   616
  0
VERTEX
  5
608
  8
0
 10
0.0
 20
0.0
 30
0.0
 70
   128
 71
   616
 72
   615
 73
   844
 74
   845
  0
VERTEX
  5
609
  8
0
 10
0.0
 20
0.0
 30
0.0
 70
   128
 71
   268
 72
   616
 73
   617
  0
VERTEX
  5
60A
  8
0
 10
0.0
 20
0.0
 30
0.0
 70
   128
 71
   267
 72
   617
 73
   618
  0
VERTEX
  5
60B
  8
0
 10
0.0
 20
0.0
 30
0.0
 70
   128
 71
   266
 72
   267
 73
   618
  0
VERTEX
  5
60C
  8
0
 10
0.0
 20
0.0
 30
0.0
 70
   128
 71
   267
 72
   268
 73
   617
  0
VERTEX
  5
60D
  8
0
 10
0.0
 20
0.0
 30
0.0
 70
   128
 71
   616
 72
   268
 73
   615
  0
VERTEX
  5
60E
  8
0
 10
0.0
 20
0.0
 30
0.0
 70
   128
 71
   615
 72
   268
 73
   269
  0
VERTEX
  5
60F
  8
0
 10
0.0
 20
0.0
 30
0.0
 70
   128
 71
   614
 72
   269
 73
   270
  0
VERTEX
  5
610
  8
0
 10
0.0
 20
0.0
 30
0.0
 70
   128
 71
   613
 72
   270
 73
   271
  0
VERTEX
  5
611
  8
0
 10
0.0
 20
0.0
 30
0.0
 70
   128
 71
   272
 72
   613
 73
   271
  0
VERTEX
  5
612
  8
0
 10
0.0
 20
0.0
 30
0.0
 70
   128
 71
   272
 72
   612
 73
   613
  0
VERTEX
  5
613
  8
0
 10
0.0
 20
0.0
 30
0.0
 70
   128
 71
   272
 72
   611
 73
   612
  0
VERTEX
  5
614
  8
0
 10
0.0
 20
0.0
 30
0.0
 70
   128
 71
   272
 72
   273
 73
   611
  0
VERTEX
  5
615
  8
0
 10
0.0
 20
0.0
 30
0.0
 70
   128
 71
   611
 72
   273
 73
   610
  0
VERTEX
  5
616
  8
0
 10
0.0
 20
0.0
 30
0.0
 70
   128
 71
   839
 72
   610
 73
   609
 74
   838
  0
VERTEX
  5
617
  8
0
 10
0.0
 20
0.0
 30
0.0
 70
   128
 71
   838
 72
   441
 73
   440
 74
   839
  0
VERTEX
  5
618
  8
0
 10
0.0
 20
0.0
 30
0.0
 70
   128
 71
   837
 72
   838
 73
   609
 74
   608
  0
VERTEX
  5
619
  8
0
 10
0.0
 20
0.0
 30
0.0
 70
   128
 71
   608
 72
   607
 73
   836
 74
   837
  0
VERTEX
  5
61A
  8
0
 10
0.0
 20
0.0
 30
0.0
 70
   128
 71
   276
 72
   608
 73
   275
  0
VERTEX
  5
61B
  8
0
 10
0.0
 20
0.0
 30
0.0
 70
   128
 71
   276
 72
   607
 73
   608
  0
VERTEX
  5
61C
  8
0
 10
0.0
 20
0.0
 30
0.0
 70
   128
 71
   276
 72
   277
 73
   607
  0
VERTEX
  5
61D
  8
0
 10
0.0
 20
0.0
 30
0.0
 70
   128
 71
   607
 72
   277
 73
   278
  0
VERTEX
  5
61E
  8
0
 10
0.0
 20
0.0
 30
0.0
 70
   128
 71
   606
 72
   278
 73
   279
  0
VERTEX
  5
61F
  8
0
 10
0.0
 20
0.0
 30
0.0
 70
   128
 71
   605
 72
   279
 73
   280
  0
VERTEX
  5
620
  8
0
 10
0.0
 20
0.0
 30
0.0
 70
   128
 71
   281
 72
   605
 73
   280
  0
VERTEX
  5
621
  8
0
 10
0.0
 20
0.0
 30
0.0
 70
   128
 71
   281
 72
   604
 73
   605
  0
VERTEX
  5
622
  8
0
 10
0.0
 20
0.0
 30
0.0
 70
   128
 71
   281
 72
   282
 73
   604
  0
VERTEX
  5
623
  8
0
 10
0.0
 20
0.0
 30
0.0
 70
   128
 71
   604
 72
   282
 73
   603
  0
VERTEX
  5
624
  8
0
 10
0.0
 20
0.0
 30
0.0
 70
   128
 71
   832
 72
   603
 73
   602
 74
   831
  0
VERTEX
  5
625
  8
0
 10
0.0
 20
0.0
 30
0.0
 70
   128
 71
   831
 72
   448
 73
   447
 74
   832
  0
VERTEX
  5
626
  8
0
 10
0.0
 20
0.0
 30
0.0
 70
   128
 71
   830
 72
   831
 73
   602
 74
   601
  0
VERTEX
  5
627
  8
0
 10
0.0
 20
0.0
 30
0.0
 70
   128
 71
   601
 72
   600
 73
   829
 74
   830
  0
VERTEX
  5
628
  8
0
 10
0.0
 20
0.0
 30
0.0
 70
   128
 71
   287
 72
   601
 73
   286
  0
VERTEX
  5
629
  8
0
 10
0.0
 20
0.0
 30
0.0
 70
   128
 71
   287
 72
   600
 73
   601
  0
VERTEX
  5
62A
  8
0
 10
0.0
 20
0.0
 30
0.0
 70
   128
 71
   287
 72
   288
 73
   600
  0
VERTEX
  5
62B
  8
0
 10
0.0
 20
0.0
 30
0.0
 70
   128
 71
   600
 72
   288
 73
   599
  0
VERTEX
  5
62C
  8
0
 10
0.0
 20
0.0
 30
0.0
 70
   128
 71
   828
 72
   599
 73
   598
 74
   827
  0
VERTEX
  5
62D
  8
0
 10
0.0
 20
0.0
 30
0.0
 70
   128
 71
   827
 72
   452
 73
   451
 74
   828
  0
VERTEX
  5
62E
  8
0
 10
0.0
 20
0.0
 30
0.0
 70
   128
 71
   826
 72
   827
 73
   598
 74
   597
  0
VERTEX
  5
62F
  8
0
 10
0.0
 20
0.0
 30
0.0
 70
   128
 71
   597
 72
   596
 73
   825
 74
   826
  0
VERTEX
  5
630
  8
0
 10
0.0
 20
0.0
 30
0.0
 70
   128
 71
   291
 72
   597
 73
   290
  0
VERTEX
  5
631
  8
0
 10
0.0
 20
0.0
 30
0.0
 70
   128
 71
   291
 72
   596
 73
   597
  0
VERTEX
  5
632
  8
0
 10
0.0
 20
0.0
 30
0.0
 70
   128
 71
   291
 72
   292
 73
   596
  0
VERTEX
  5
633
  8
0
 10
0.0
 20
0.0
 30
0.0
 70
   128
 71
   596
 72
   292
 73
   595
  0
VERTEX
  5
634
  8
0
 10
0.0
 20
0.0
 30
0.0
 70
   128
 71
   824
 72
   595
 73
   594
 74
   823
  0
VERTEX
  5
635
  8
0
 10
0.0
 20
0.0
 30
0.0
 70
   128
 71
   823
 72
   456
 73
   455
 74
   824
  0
VERTEX
  5
636
  8
0
 10
0.0
 20
0.0
 30
0.0
 70
   128
 71
   822
 72
   823
 73
   594
 74
   593
  0
VERTEX
  5
637
  8
0
 10
0.0
 20
0.0
 30
0.0
 70
   128
 71
   593
 72
   592
 73
   821
 74
   822
  0
VERTEX
  5
638
  8
0
 10
0.0
 20
0.0
 30
0.0
 70
   128
 71
   295
 72
   593
 73
   294
  0
VERTEX
  5
639
  8
0
 10
0.0
 20
0.0
 30
0.0
 70
   128
 71
   295
 72
   592
 73
   593
  0
VERTEX
  5
63A
  8
0
 10
0.0
 20
0.0
 30
0.0
 70
   128
 71
   295
 72
   296
 73
   592
  0
VERTEX
  5
63B
  8
0
 10
0.0
 20
0.0
 30
0.0
 70
   128
 71
   592
 72
   296
 73
   591
  0
VERTEX
  5
63C
  8
0
 10
0.0
 20
0.0
 30
0.0
 70
   128
 71
   820
 72
   591
 73
   590
 74
   819
  0
VERTEX
  5
63D
  8
0
 10
0.0
 20
0.0
 30
0.0
 70
   128
 71
   819
 72
   460
 73
   459
 74
   820
  0
VERTEX
  5
63E
  8
0
 10
0.0
 20
0.0
 30
0.0
 70
   128
 71
   818
 72
   819
 73
   590
 74
   589
  0
VERTEX
  5
63F
  8
0
 10
0.0
 20
0.0
 30
0.0
 70
   128
 71
   589
 72
   588
 73
   817
 74
   818
  0
VERTEX
  5
640
  8
0
 10
0.0
 20
0.0
 30
0.0
 70
   128
 71
   298
 72
   589
 73
   590
  0
VERTEX
  5
641
  8
0
 10
0.0
 20
0.0
 30
0.0
 70
   128
 71
   297
 72
   590
 73
   591
  0
VERTEX
  5
642
  8
0
 10
0.0
 20
0.0
 30
0.0
 70
   128
 71
   296
 72
   297
 73
   591
  0
VERTEX
  5
643
  8
0
 10
0.0
 20
0.0
 30
0.0
 70
   128
 71
   273
 72
   274
 73
   610
  0
VERTEX
  5
644
  8
0
 10
0.0
 20
0.0
 30
0.0
 70
   128
 71
   610
 72
   274
 73
   609
  0
VERTEX
  5
645
  8
0
 10
0.0
 20
0.0
 30
0.0
 70
   128
 71
   609
 72
   274
 73
   275
  0
VERTEX
  5
646
  8
0
 10
0.0
 20
0.0
 30
0.0
 70
   128
 71
   608
 72
   609
 73
   275
  0
VERTEX
  5
647
  8
0
 10
0.0
 20
0.0
 30
0.0
 70
   128
 71
   282
 72
   283
 73
   603
  0
VERTEX
  5
648
  8
0
 10
0.0
 20
0.0
 30
0.0
 70
   128
 71
   603
 72
   283
 73
   284
  0
VERTEX
  5
649
  8
0
 10
0.0
 20
0.0
 30
0.0
 70
   128
 71
   602
 72
   284
 73
   285
  0
VERTEX
  5
64A
  8
0
 10
0.0
 20
0.0
 30
0.0
 70
   128
 71
   286
 72
   602
 73
   285
  0
VERTEX
  5
64B
  8
0
 10
0.0
 20
0.0
 30
0.0
 70
   128
 71
   286
 72
   601
 73
   602
  0
VERTEX
  5
64C
  8
0
 10
0.0
 20
0.0
 30
0.0
 70
   128
 71
   288
 72
   289
 73
   599
  0
VERTEX
  5
64D
  8
0
 10
0.0
 20
0.0
 30
0.0
 70
   128
 71
   599
 72
   289
 73
   598
  0
VERTEX
  5
64E
  8
0
 10
0.0
 20
0.0
 30
0.0
 70
   128
 71
   598
 72
   289
 73
   290
  0
VERTEX
  5
64F
  8
0
 10
0.0
 20
0.0
 30
0.0
 70
   128
 71
   597
 72
   598
 73
   290
  0
VERTEX
  5
650
  8
0
 10
0.0
 20
0.0
 30
0.0
 70
   128
 71
   292
 72
   293
 73
   595
  0
VERTEX
  5
651
  8
0
 10
0.0
 20
0.0
 30
0.0
 70
   128
 71
   595
 72
   293
 73
   594
  0
VERTEX
  5
652
  8
0
 10
0.0
 20
0.0
 30
0.0
 70
   128
 71
   594
 72
   293
 73
   294
  0
VERTEX
  5
653
  8
0
 10
0.0
 20
0.0
 30
0.0
 70
   128
 71
   593
 72
   594
 73
   294
  0
VERTEX
  5
654
  8
0
 10
0.0
 20
0.0
 30
0.0
 70
   128
 71
   297
 72
   298
 73
   590
  0
VERTEX
  5
655
  8
0
 10
0.0
 20
0.0
 30
0.0
 70
   128
 71
   589
 72
   298
 73
   588
  0
VERTEX
  5
656
  8
0
 10
0.0
 20
0.0
 30
0.0
 70
   128
 71
   588
 72
   298
 73
   299
  0
VERTEX
  5
657
  8
0
 10
0.0
 20
0.0
 30
0.0
 70
   128
 71
   587
 72
   299
 73
   300
  0
VERTEX
  5
658
  8
0
 10
0.0
 20
0.0
 30
0.0
 70
   128
 71
   586
 72
   300
 73
   585
  0
VERTEX
  5
659
  8
0
 10
0.0
 20
0.0
 30
0.0
 70
   128
 71
   814
 72
   585
 73
   584
 74
   813
  0
VERTEX
  5
65A
  8
0
 10
0.0
 20
0.0
 30
0.0
 70
   128
 71
   813
 72
   466
 73
   465
 74
   814
  0
VERTEX
  5
65B
  8
0
 10
0.0
 20
0.0
 30
0.0
 70
   128
 71
   812
 72
   813
 73
   584
 74
   583
  0
VERTEX
  5
65C
  8
0
 10
0.0
 20
0.0
 30
0.0
 70
   128
 71
   583
 72
   582
 73
   811
 74
   812
  0
VERTEX
  5
65D
  8
0
 10
0.0
 20
0.0
 30
0.0
 70
   128
 71
   303
 72
   583
 73
   302
  0
VERTEX
  5
65E
  8
0
 10
0.0
 20
0.0
 30
0.0
 70
   128
 71
   303
 72
   582
 73
   583
  0
VERTEX
  5
65F
  8
0
 10
0.0
 20
0.0
 30
0.0
 70
   128
 71
   303
 72
   581
 73
   582
  0
VERTEX
  5
660
  8
0
 10
0.0
 20
0.0
 30
0.0
 70
   128
 71
   303
 72
   304
 73
   581
  0
VERTEX
  5
661
  8
0
 10
0.0
 20
0.0
 30
0.0
 70
   128
 71
   581
 72
   304
 73
   580
  0
VERTEX
  5
662
  8
0
 10
0.0
 20
0.0
 30
0.0
 70
   128
 71
   809
 72
   580
 73
   579
 74
   808
  0
VERTEX
  5
663
  8
0
 10
0.0
 20
0.0
 30
0.0
 70
   128
 71
   808
 72
   471
 73
   470
 74
   809
  0
VERTEX
  5
664
  8
0
 10
0.0
 20
0.0
 30
0.0
 70
   128
 71
   807
 72
   808
 73
   579
 74
   578
  0
VERTEX
  5
665
  8
0
 10
0.0
 20
0.0
 30
0.0
 70
   128
 71
   578
 72
   577
 73
   806
 74
   807
  0
VERTEX
  5
666
  8
0
 10
0.0
 20
0.0
 30
0.0
 70
   128
 71
   308
 72
   578
 73
   307
  0
VERTEX
  5
667
  8
0
 10
0.0
 20
0.0
 30
0.0
 70
   128
 71
   308
 72
   577
 73
   578
  0
VERTEX
  5
668
  8
0
 10
0.0
 20
0.0
 30
0.0
 70
   128
 71
   308
 72
   309
 73
   577
  0
VERTEX
  5
669
  8
0
 10
0.0
 20
0.0
 30
0.0
 70
   128
 71
   577
 72
   309
 73
   576
  0
VERTEX
  5
66A
  8
0
 10
0.0
 20
0.0
 30
0.0
 70
   128
 71
   805
 72
   576
 73
   575
 74
   804
  0
VERTEX
  5
66B
  8
0
 10
0.0
 20
0.0
 30
0.0
 70
   128
 71
   804
 72
   475
 73
   474
 74
   805
  0
VERTEX
  5
66C
  8
0
 10
0.0
 20
0.0
 30
0.0
 70
   128
 71
   803
 72
   804
 73
   575
 74
   574
  0
VERTEX
  5
66D
  8
0
 10
0.0
 20
0.0
 30
0.0
 70
   128
 71
   574
 72
   573
 73
   802
 74
   803
  0
VERTEX
  5
66E
  8
0
 10
0.0
 20
0.0
 30
0.0
 70
   128
 71
   311
 72
   574
 73
   310
  0
VERTEX
  5
66F
  8
0
 10
0.0
 20
0.0
 30
0.0
 70
   128
 71
   311
 72
   573
 73
   574
  0
VERTEX
  5
670
  8
0
 10
0.0
 20
0.0
 30
0.0
 70
   128
 71
   311
 72
   312
 73
   573
  0
VERTEX
  5
671
  8
0
 10
0.0
 20
0.0
 30
0.0
 70
   128
 71
   573
 72
   312
 73
   313
  0
VERTEX
  5
672
  8
0
 10
0.0
 20
0.0
 30
0.0
 70
   128
 71
   572
 72
   313
 73
   314
  0
VERTEX
  5
673
  8
0
 10
0.0
 20
0.0
 30
0.0
 70
   128
 71
   571
 72
   314
 73
   315
  0
VERTEX
  5
674
  8
0
 10
0.0
 20
0.0
 30
0.0
 70
   128
 71
   570
 72
   315
 73
   316
  0
VERTEX
  5
675
  8
0
 10
0.0
 20
0.0
 30
0.0
 70
   128
 71
   569
 72
   316
 73
   317
  0
VERTEX
  5
676
  8
0
 10
0.0
 20
0.0
 30
0.0
 70
   128
 71
   568
 72
   317
 73
   318
  0
VERTEX
  5
677
  8
0
 10
0.0
 20
0.0
 30
0.0
 70
   128
 71
   567
 72
   318
 73
   319
  0
VERTEX
  5
678
  8
0
 10
0.0
 20
0.0
 30
0.0
 70
   128
 71
   566
 72
   319
 73
   320
  0
VERTEX
  5
679
  8
0
 10
0.0
 20
0.0
 30
0.0
 70
   128
 71
   565
 72
   320
 73
   321
  0
VERTEX
  5
67A
  8
0
 10
0.0
 20
0.0
 30
0.0
 70
   128
 71
   564
 72
   321
 73
   322
  0
VERTEX
  5
67B
  8
0
 10
0.0
 20
0.0
 30
0.0
 70
   128
 71
   323
 72
   564
 73
   322
  0
VERTEX
  5
67C
  8
0
 10
0.0
 20
0.0
 30
0.0
 70
   128
 71
   323
 72
   324
 73
   564
  0
VERTEX
  5
67D
  8
0
 10
0.0
 20
0.0
 30
0.0
 70
   128
 71
   564
 72
   324
 73
   793
  0
VERTEX
  5
67E
  8
0
 10
0.0
 20
0.0
 30
0.0
 70
   128
 71
   794
 72
   565
 73
   564
 74
   793
  0
VERTEX
  5
67F
  8
0
 10
0.0
 20
0.0
 30
0.0
 70
   128
 71
   795
 72
   794
 73
   485
 74
   484
  0
VERTEX
  5
680
  8
0
 10
0.0
 20
0.0
 30
0.0
 70
   128
 71
   796
 72
   483
 73
   482
 74
   797
  0
VERTEX
  5
681
  8
0
 10
0.0
 20
0.0
 30
0.0
 70
   128
 71
   797
 72
   568
 73
   567
 74
   796
  0
VERTEX
  5
682
  8
0
 10
0.0
 20
0.0
 30
0.0
 70
   128
 71
   798
 72
   797
 73
   482
 74
   481
  0
VERTEX
  5
683
  8
0
 10
0.0
 20
0.0
 30
0.0
 70
   128
 71
   481
 72
   480
 73
   799
 74
   798
  0
VERTEX
  5
684
  8
0
 10
0.0
 20
0.0
 30
0.0
 70
   128
 71
   492
 72
   481
 73
   482
 74
   491
  0
VERTEX
  5
685
  8
0
 10
0.0
 20
0.0
 30
0.0
 70
   128
 71
   491
 72
   789
 73
   788
 74
   492
  0
VERTEX
  5
686
  8
0
 10
0.0
 20
0.0
 30
0.0
 70
   128
 71
   490
 72
   491
 73
   482
 74
   483
  0
VERTEX
  5
687
  8
0
 10
0.0
 20
0.0
 30
0.0
 70
   128
 71
   790
 72
   490
 73
   489
 74
   791
  0
VERTEX
  5
688
  8
0
 10
0.0
 20
0.0
 30
0.0
 70
   128
 71
   714
 72
   715
 73
   407
 74
   406
  0
VERTEX
  5
689
  8
0
 10
0.0
 20
0.0
 30
0.0
 70
   128
 71
   713
 72
   405
 73
   404
 74
   712
  0
VERTEX
  5
68A
  8
0
 10
0.0
 20
0.0
 30
0.0
 70
   128
 71
   712
 72
   788
 73
   789
 74
   713
  0
VERTEX
  5
68B
  8
0
 10
0.0
 20
0.0
 30
0.0
 70
   128
 71
   711
 72
   712
 73
   404
 74
   403
  0
VERTEX
  5
68C
  8
0
 10
0.0
 20
0.0
 30
0.0
 70
   128
 71
   710
 72
   711
 73
   403
 74
   402
  0
VERTEX
  5
68D
  8
0
 10
0.0
 20
0.0
 30
0.0
 70
   128
 71
   786
 72
   787
 73
   711
 74
   710
  0
VERTEX
  5
68E
  8
0
 10
0.0
 20
0.0
 30
0.0
 70
   128
 71
   494
 72
   786
 73
   785
 74
   495
  0
VERTEX
  5
68F
  8
0
 10
0.0
 20
0.0
 30
0.0
 70
   128
 71
   495
 72
   478
 73
   479
 74
   494
  0
VERTEX
  5
690
  8
0
 10
0.0
 20
0.0
 30
0.0
 70
   128
 71
   496
 72
   495
 73
   785
 74
   784
  0
VERTEX
  5
691
  8
0
 10
0.0
 20
0.0
 30
0.0
 70
   128
 71
   784
 72
   783
 73
   497
 74
   496
  0
VERTEX
  5
692
  8
0
 10
0.0
 20
0.0
 30
0.0
 70
   128
 71
   708
 72
   784
 73
   785
 74
   709
  0
VERTEX
  5
693
  8
0
 10
0.0
 20
0.0
 30
0.0
 70
   128
 71
   707
 72
   783
 73
   784
 74
   708
  0
VERTEX
  5
694
  8
0
 10
0.0
 20
0.0
 30
0.0
 70
   128
 71
   706
 72
   707
 73
   399
 74
   398
  0
VERTEX
  5
695
  8
0
 10
0.0
 20
0.0
 30
0.0
 70
   128
 71
   782
 72
   783
 73
   707
 74
   706
  0
VERTEX
  5
696
  8
0
 10
0.0
 20
0.0
 30
0.0
 70
   128
 71
   498
 72
   782
 73
   781
 74
   499
  0
VERTEX
  5
697
  8
0
 10
0.0
 20
0.0
 30
0.0
 70
   128
 71
   499
 72
   474
 73
   475
 74
   498
  0
VERTEX
  5
698
  8
0
 10
0.0
 20
0.0
 30
0.0
 70
   128
 71
   500
 72
   499
 73
   781
 74
   780
  0
VERTEX
  5
699
  8
0
 10
0.0
 20
0.0
 30
0.0
 70
   128
 71
   780
 72
   779
 73
   501
 74
   500
  0
VERTEX
  5
69A
  8
0
 10
0.0
 20
0.0
 30
0.0
 70
   128
 71
   704
 72
   780
 73
   781
 74
   705
  0
VERTEX
  5
69B
  8
0
 10
0.0
 20
0.0
 30
0.0
 70
   128
 71
   703
 72
   779
 73
   780
 74
   704
  0
VERTEX
  5
69C
  8
0
 10
0.0
 20
0.0
 30
0.0
 70
   128
 71
   702
 72
   703
 73
   395
 74
   394
  0
VERTEX
  5
69D
  8
0
 10
0.0
 20
0.0
 30
0.0
 70
   128
 71
   701
 72
   702
 73
   394
 74
   393
  0
VERTEX
  5
69E
  8
0
 10
0.0
 20
0.0
 30
0.0
 70
   128
 71
   777
 72
   778
 73
   702
 74
   701
  0
VERTEX
  5
69F
  8
0
 10
0.0
 20
0.0
 30
0.0
 70
   128
 71
   503
 72
   777
 73
   776
 74
   504
  0
VERTEX
  5
6A0
  8
0
 10
0.0
 20
0.0
 30
0.0
 70
   128
 71
   504
 72
   469
 73
   470
 74
   503
  0
VERTEX
  5
6A1
  8
0
 10
0.0
 20
0.0
 30
0.0
 70
   128
 71
   505
 72
   504
 73
   776
 74
   775
  0
VERTEX
  5
6A2
  8
0
 10
0.0
 20
0.0
 30
0.0
 70
   128
 71
   775
 72
   774
 73
   506
 74
   505
  0
VERTEX
  5
6A3
  8
0
 10
0.0
 20
0.0
 30
0.0
 70
   128
 71
   699
 72
   775
 73
   776
 74
   700
  0
VERTEX
  5
6A4
  8
0
 10
0.0
 20
0.0
 30
0.0
 70
   128
 71
   698
 72
   774
 73
   775
 74
   699
  0
VERTEX
  5
6A5
  8
0
 10
0.0
 20
0.0
 30
0.0
 70
   128
 71
   697
 72
   698
 73
   390
 74
   389
  0
VERTEX
  5
6A6
  8
0
 10
0.0
 20
0.0
 30
0.0
 70
   128
 71
   773
 72
   774
 73
   698
 74
   697
  0
VERTEX
  5
6A7
  8
0
 10
0.0
 20
0.0
 30
0.0
 70
   128
 71
   507
 72
   773
 73
   772
 74
   508
  0
VERTEX
  5
6A8
  8
0
 10
0.0
 20
0.0
 30
0.0
 70
   128
 71
   508
 72
   465
 73
   466
 74
   507
  0
VERTEX
  5
6A9
  8
0
 10
0.0
 20
0.0
 30
0.0
 70
   128
 71
   509
 72
   508
 73
   772
 74
   771
  0
VERTEX
  5
6AA
  8
0
 10
0.0
 20
0.0
 30
0.0
 70
   128
 71
   771
 72
   770
 73
   510
 74
   509
  0
VERTEX
  5
6AB
  8
0
 10
0.0
 20
0.0
 30
0.0
 70
   128
 71
   695
 72
   771
 73
   772
 74
   696
  0
VERTEX
  5
6AC
  8
0
 10
0.0
 20
0.0
 30
0.0
 70
   128
 71
   694
 72
   770
 73
   771
 74
   695
  0
VERTEX
  5
6AD
  8
0
 10
0.0
 20
0.0
 30
0.0
 70
   128
 71
   693
 72
   694
 73
   386
 74
   385
  0
VERTEX
  5
6AE
  8
0
 10
0.0
 20
0.0
 30
0.0
 70
   128
 71
   385
 72
   384
 73
   692
 74
   693
  0
VERTEX
  5
6AF
  8
0
 10
0.0
 20
0.0
 30
0.0
 70
   128
 71
   182
 72
   384
 73
   385
  0
VERTEX
  5
6B0
  8
0
 10
0.0
 20
0.0
 30
0.0
 70
   128
 71
   300
 72
   301
 73
   585
  0
VERTEX
  5
6B1
  8
0
 10
0.0
 20
0.0
 30
0.0
 70
   128
 71
   585
 72
   301
 73
   584
  0
VERTEX
  5
6B2
  8
0
 10
0.0
 20
0.0
 30
0.0
 70
   128
 71
   584
 72
   301
 73
   302
  0
VERTEX
  5
6B3
  8
0
 10
0.0
 20
0.0
 30
0.0
 70
   128
 71
   583
 72
   584
 73
   302
  0
VERTEX
  5
6B4
  8
0
 10
0.0
 20
0.0
 30
0.0
 70
   128
 71
   304
 72
   305
 73
   580
  0
VERTEX
  5
6B5
  8
0
 10
0.0
 20
0.0
 30
0.0
 70
   128
 71
   580
 72
   305
 73
   306
  0
VERTEX
  5
6B6
  8
0
 10
0.0
 20
0.0
 30
0.0
 70
   128
 71
   579
 72
   306
 73
   307
  0
VERTEX
  5
6B7
  8
0
 10
0.0
 20
0.0
 30
0.0
 70
   128
 71
   578
 72
   579
 73
   307
  0
VERTEX
  5
6B8
  8
0
 10
0.0
 20
0.0
 30
0.0
 70
   128
 71
   309
 72
   310
 73
   576
  0
VERTEX
  5
6B9
  8
0
 10
0.0
 20
0.0
 30
0.0
 70
   128
 71
   576
 72
   310
 73
   575
  0
VERTEX
  5
6BA
  8
0
 10
0.0
 20
0.0
 30
0.0
 70
   128
 71
   575
 72
   310
 73
   574
  0
VERTEX
  5
6BB
  8
0
 10
0.0
 20
0.0
 30
0.0
 70
   128
 71
   326
 72
   327
 73
   331
  0
VERTEX
  5
6BC
  8
0
 10
0.0
 20
0.0
 30
0.0
 70
   128
 71
   328
 72
   329
 73
   409
  0
VERTEX
  5
6BD
  8
0
 10
0.0
 20
0.0
 30
0.0
 70
   128
 71
   327
 72
   328
 73
   717
  0
VERTEX
  5
6BE
  8
0
 10
0.0
 20
0.0
 30
0.0
 70
   128
 71
   324
 72
   325
 73
   793
  0
VERTEX
  5
6BF
  8
0
 10
0.0
 20
0.0
 30
0.0
 70
   128
 71
   793
 72
   325
 73
   486
  0
VERTEX
  5
6C0
  8
0
 10
0.0
 20
0.0
 30
0.0
 70
   128
 71
   486
 72
   325
 73
   326
  0
VERTEX
  5
6C1
  8
0
 10
0.0
 20
0.0
 30
0.0
 70
   128
 71
   487
 72
   486
 73
   326
  0
VERTEX
  5
6C2
  8
0
 10
0.0
 20
0.0
 30
0.0
 70
   128
 71
   242
 72
   563
 73
   332
  0
VERTEX
  5
6C3
  8
0
 10
0.0
 20
0.0
 30
0.0
 70
   128
 71
   332
 72
   563
 73
   562
 74
   718
  0
VERTEX
  5
6C4
  8
0
 10
0.0
 20
0.0
 30
0.0
 70
   128
 71
   718
 72
   642
 73
   641
 74
   332
  0
VERTEX
  5
6C5
  8
0
 10
0.0
 20
0.0
 30
0.0
 70
   128
 71
   719
 72
   718
 73
   562
 74
   561
  0
VERTEX
  5
6C6
  8
0
 10
0.0
 20
0.0
 30
0.0
 70
   128
 71
   561
 72
   560
 73
   720
 74
   719
  0
VERTEX
  5
6C7
  8
0
 10
0.0
 20
0.0
 30
0.0
 70
   128
 71
   412
 72
   561
 73
   562
 74
   411
  0
VERTEX
  5
6C8
  8
0
 10
0.0
 20
0.0
 30
0.0
 70
   128
 71
   413
 72
   560
 73
   561
 74
   412
  0
VERTEX
  5
6C9
  8
0
 10
0.0
 20
0.0
 30
0.0
 70
   128
 71
   414
 72
   413
 73
   866
 74
   865
  0
VERTEX
  5
6CA
  8
0
 10
0.0
 20
0.0
 30
0.0
 70
   128
 71
   415
 72
   864
 73
   863
 74
   416
  0
VERTEX
  5
6CB
  8
0
 10
0.0
 20
0.0
 30
0.0
 70
   128
 71
   416
 72
   557
 73
   558
 74
   415
  0
VERTEX
  5
6CC
  8
0
 10
0.0
 20
0.0
 30
0.0
 70
   128
 71
   417
 72
   556
 73
   557
 74
   416
  0
VERTEX
  5
6CD
  8
0
 10
0.0
 20
0.0
 30
0.0
 70
   128
 71
   418
 72
   417
 73
   862
 74
   861
  0
VERTEX
  5
6CE
  8
0
 10
0.0
 20
0.0
 30
0.0
 70
   128
 71
   419
 72
   860
 73
   859
 74
   420
  0
VERTEX
  5
6CF
  8
0
 10
0.0
 20
0.0
 30
0.0
 70
   128
 71
   420
 72
   553
 73
   554
 74
   419
  0
VERTEX
  5
6D0
  8
0
 10
0.0
 20
0.0
 30
0.0
 70
   128
 71
   421
 72
   552
 73
   553
 74
   420
  0
VERTEX
  5
6D1
  8
0
 10
0.0
 20
0.0
 30
0.0
 70
   128
 71
   422
 72
   421
 73
   858
 74
   857
  0
VERTEX
  5
6D2
  8
0
 10
0.0
 20
0.0
 30
0.0
 70
   128
 71
   423
 72
   856
 73
   855
 74
   424
  0
VERTEX
  5
6D3
  8
0
 10
0.0
 20
0.0
 30
0.0
 70
   128
 71
   424
 72
   549
 73
   550
 74
   423
  0
VERTEX
  5
6D4
  8
0
 10
0.0
 20
0.0
 30
0.0
 70
   128
 71
   425
 72
   424
 73
   855
 74
   854
  0
VERTEX
  5
6D5
  8
0
 10
0.0
 20
0.0
 30
0.0
 70
   128
 71
   854
 72
   853
 73
   426
 74
   425
  0
VERTEX
  5
6D6
  8
0
 10
0.0
 20
0.0
 30
0.0
 70
   128
 71
   625
 72
   854
 73
   855
 74
   626
  0
VERTEX
  5
6D7
  8
0
 10
0.0
 20
0.0
 30
0.0
 70
   128
 71
   625
 72
   626
 73
   262
  0
VERTEX
  5
6D8
  8
0
 10
0.0
 20
0.0
 30
0.0
 70
   128
 71
   235
 72
   333
 73
   334
  0
VERTEX
  5
6D9
  8
0
 10
0.0
 20
0.0
 30
0.0
 70
   128
 71
   334
 72
   333
 73
   641
 74
   642
  0
VERTEX
  5
6DA
  8
0
 10
0.0
 20
0.0
 30
0.0
 70
   128
 71
   642
 72
   643
 73
   335
 74
   334
  0
VERTEX
  5
6DB
  8
0
 10
0.0
 20
0.0
 30
0.0
 70
   128
 71
   718
 72
   719
 73
   643
 74
   642
  0
VERTEX
  5
6DC
  8
0
 10
0.0
 20
0.0
 30
0.0
 70
   128
 71
   719
 72
   720
 73
   644
 74
   643
  0
VERTEX
  5
6DD
  8
0
 10
0.0
 20
0.0
 30
0.0
 70
   128
 71
   720
 72
   721
 73
   645
 74
   644
  0
VERTEX
  5
6DE
  8
0
 10
0.0
 20
0.0
 30
0.0
 70
   128
 71
   560
 72
   559
 73
   721
 74
   720
  0
VERTEX
  5
6DF
  8
0
 10
0.0
 20
0.0
 30
0.0
 70
   128
 71
   413
 72
   414
 73
   559
 74
   560
  0
VERTEX
  5
6E0
  8
0
 10
0.0
 20
0.0
 30
0.0
 70
   128
 71
   414
 72
   415
 73
   558
 74
   559
  0
VERTEX
  5
6E1
  8
0
 10
0.0
 20
0.0
 30
0.0
 70
   128
 71
   865
 72
   864
 73
   415
 74
   414
  0
VERTEX
  5
6E2
  8
0
 10
0.0
 20
0.0
 30
0.0
 70
   128
 71
   334
 72
   335
 73
   234
  0
VERTEX
  5
6E3
  8
0
 10
0.0
 20
0.0
 30
0.0
 70
   128
 71
   644
 72
   336
 73
   335
 74
   643
  0
VERTEX
  5
6E4
  8
0
 10
0.0
 20
0.0
 30
0.0
 70
   128
 71
   336
 72
   233
 73
   335
  0
VERTEX
  5
6E5
  8
0
 10
0.0
 20
0.0
 30
0.0
 70
   128
 71
   230
 72
   340
 73
   341
  0
VERTEX
  5
6E6
  8
0
 10
0.0
 20
0.0
 30
0.0
 70
   128
 71
   341
 72
   340
 73
   648
 74
   649
  0
VERTEX
  5
6E7
  8
0
 10
0.0
 20
0.0
 30
0.0
 70
   128
 71
   649
 72
   650
 73
   342
 74
   341
  0
VERTEX
  5
6E8
  8
0
 10
0.0
 20
0.0
 30
0.0
 70
   128
 71
   725
 72
   649
 73
   648
 74
   724
  0
VERTEX
  5
6E9
  8
0
 10
0.0
 20
0.0
 30
0.0
 70
   128
 71
   724
 72
   556
 73
   555
 74
   725
  0
VERTEX
  5
6EA
  8
0
 10
0.0
 20
0.0
 30
0.0
 70
   128
 71
   723
 72
   724
 73
   648
 74
   647
  0
VERTEX
  5
6EB
  8
0
 10
0.0
 20
0.0
 30
0.0
 70
   128
 71
   557
 72
   723
 73
   722
 74
   558
  0
VERTEX
  5
6EC
  8
0
 10
0.0
 20
0.0
 30
0.0
 70
   128
 71
   556
 72
   724
 73
   723
 74
   557
  0
VERTEX
  5
6ED
  8
0
 10
0.0
 20
0.0
 30
0.0
 70
   128
 71
   340
 72
   339
 73
   647
 74
   648
  0
VERTEX
  5
6EE
  8
0
 10
0.0
 20
0.0
 30
0.0
 70
   128
 71
   341
 72
   342
 73
   229
  0
VERTEX
  5
6EF
  8
0
 10
0.0
 20
0.0
 30
0.0
 70
   128
 71
   343
 72
   342
 73
   650
 74
   651
  0
VERTEX
  5
6F0
  8
0
 10
0.0
 20
0.0
 30
0.0
 70
   128
 71
   651
 72
   650
 73
   726
 74
   727
  0
VERTEX
  5
6F1
  8
0
 10
0.0
 20
0.0
 30
0.0
 70
   128
 71
   727
 72
   728
 73
   652
 74
   651
  0
VERTEX
  5
6F2
  8
0
 10
0.0
 20
0.0
 30
0.0
 70
   128
 71
   553
 72
   727
 73
   726
 74
   554
  0
VERTEX
  5
6F3
  8
0
 10
0.0
 20
0.0
 30
0.0
 70
   128
 71
   552
 72
   728
 73
   727
 74
   553
  0
VERTEX
  5
6F4
  8
0
 10
0.0
 20
0.0
 30
0.0
 70
   128
 71
   551
 72
   552
 73
   421
 74
   422
  0
VERTEX
  5
6F5
  8
0
 10
0.0
 20
0.0
 30
0.0
 70
   128
 71
   422
 72
   423
 73
   550
 74
   551
  0
VERTEX
  5
6F6
  8
0
 10
0.0
 20
0.0
 30
0.0
 70
   128
 71
   857
 72
   856
 73
   423
 74
   422
  0
VERTEX
  5
6F7
  8
0
 10
0.0
 20
0.0
 30
0.0
 70
   128
 71
   225
 72
   347
 73
   348
  0
VERTEX
  5
6F8
  8
0
 10
0.0
 20
0.0
 30
0.0
 70
   128
 71
   348
 72
   347
 73
   655
 74
   656
  0
VERTEX
  5
6F9
  8
0
 10
0.0
 20
0.0
 30
0.0
 70
   128
 71
   656
 72
   657
 73
   349
 74
   348
  0
VERTEX
  5
6FA
  8
0
 10
0.0
 20
0.0
 30
0.0
 70
   128
 71
   732
 72
   656
 73
   655
 74
   731
  0
VERTEX
  5
6FB
  8
0
 10
0.0
 20
0.0
 30
0.0
 70
   128
 71
   731
 72
   549
 73
   548
 74
   732
  0
VERTEX
  5
6FC
  8
0
 10
0.0
 20
0.0
 30
0.0
 70
   128
 71
   730
 72
   731
 73
   655
 74
   654
  0
VERTEX
  5
6FD
  8
0
 10
0.0
 20
0.0
 30
0.0
 70
   128
 71
   550
 72
   730
 73
   729
 74
   551
  0
VERTEX
  5
6FE
  8
0
 10
0.0
 20
0.0
 30
0.0
 70
   128
 71
   549
 72
   731
 73
   730
 74
   550
  0
VERTEX
  5
6FF
  8
0
 10
0.0
 20
0.0
 30
0.0
 70
   128
 71
   347
 72
   346
 73
   654
 74
   655
  0
VERTEX
  5
700
  8
0
 10
0.0
 20
0.0
 30
0.0
 70
   128
 71
   348
 72
   349
 73
   224
  0
VERTEX
  5
701
  8
0
 10
0.0
 20
0.0
 30
0.0
 70
   128
 71
   223
 72
   349
 73
   350
  0
VERTEX
  5
702
  8
0
 10
0.0
 20
0.0
 30
0.0
 70
   128
 71
   350
 72
   349
 73
   657
 74
   658
  0
VERTEX
  5
703
  8
0
 10
0.0
 20
0.0
 30
0.0
 70
   128
 71
   658
 72
   659
 73
   351
 74
   350
  0
VERTEX
  5
704
  8
0
 10
0.0
 20
0.0
 30
0.0
 70
   128
 71
   734
 72
   658
 73
   657
 74
   733
  0
VERTEX
  5
705
  8
0
 10
0.0
 20
0.0
 30
0.0
 70
   128
 71
   733
 72
   547
 73
   546
 74
   734
  0
VERTEX
  5
706
  8
0
 10
0.0
 20
0.0
 30
0.0
 70
   128
 71
   732
 72
   733
 73
   657
 74
   656
  0
VERTEX
  5
707
  8
0
 10
0.0
 20
0.0
 30
0.0
 70
   128
 71
   548
 72
   547
 73
   733
 74
   732
  0
VERTEX
  5
708
  8
0
 10
0.0
 20
0.0
 30
0.0
 70
   128
 71
   425
 72
   548
 73
   549
 74
   424
  0
VERTEX
  5
709
  8
0
 10
0.0
 20
0.0
 30
0.0
 70
   128
 71
   426
 72
   547
 73
   548
 74
   425
  0
VERTEX
  5
70A
  8
0
 10
0.0
 20
0.0
 30
0.0
 70
   128
 71
   427
 72
   426
 73
   853
 74
   852
  0
VERTEX
  5
70B
  8
0
 10
0.0
 20
0.0
 30
0.0
 70
   128
 71
   546
 72
   427
 73
   428
 74
   545
  0
VERTEX
  5
70C
  8
0
 10
0.0
 20
0.0
 30
0.0
 70
   128
 71
   545
 72
   735
 73
   734
 74
   546
  0
VERTEX
  5
70D
  8
0
 10
0.0
 20
0.0
 30
0.0
 70
   128
 71
   544
 72
   545
 73
   428
 74
   429
  0
VERTEX
  5
70E
  8
0
 10
0.0
 20
0.0
 30
0.0
 70
   128
 71
   429
 72
   430
 73
   543
 74
   544
  0
VERTEX
  5
70F
  8
0
 10
0.0
 20
0.0
 30
0.0
 70
   128
 71
   850
 72
   429
 73
   428
 74
   851
  0
VERTEX
  5
710
  8
0
 10
0.0
 20
0.0
 30
0.0
 70
   128
 71
   849
 72
   430
 73
   429
 74
   850
  0
VERTEX
  5
711
  8
0
 10
0.0
 20
0.0
 30
0.0
 70
   128
 71
   848
 72
   849
 73
   620
 74
   619
  0
VERTEX
  5
712
  8
0
 10
0.0
 20
0.0
 30
0.0
 70
   128
 71
   847
 72
   848
 73
   619
 74
   618
  0
VERTEX
  5
713
  8
0
 10
0.0
 20
0.0
 30
0.0
 70
   128
 71
   432
 72
   431
 73
   848
 74
   847
  0
VERTEX
  5
714
  8
0
 10
0.0
 20
0.0
 30
0.0
 70
   128
 71
   541
 72
   432
 73
   433
 74
   540
  0
VERTEX
  5
715
  8
0
 10
0.0
 20
0.0
 30
0.0
 70
   128
 71
   540
 72
   740
 73
   739
 74
   541
  0
VERTEX
  5
716
  8
0
 10
0.0
 20
0.0
 30
0.0
 70
   128
 71
   539
 72
   540
 73
   433
 74
   434
  0
VERTEX
  5
717
  8
0
 10
0.0
 20
0.0
 30
0.0
 70
   128
 71
   434
 72
   435
 73
   538
 74
   539
  0
VERTEX
  5
718
  8
0
 10
0.0
 20
0.0
 30
0.0
 70
   128
 71
   845
 72
   434
 73
   433
 74
   846
  0
VERTEX
  5
719
  8
0
 10
0.0
 20
0.0
 30
0.0
 70
   128
 71
   844
 72
   435
 73
   434
 74
   845
  0
VERTEX
  5
71A
  8
0
 10
0.0
 20
0.0
 30
0.0
 70
   128
 71
   843
 72
   844
 73
   615
 74
   614
  0
VERTEX
  5
71B
  8
0
 10
0.0
 20
0.0
 30
0.0
 70
   128
 71
   614
 72
   613
 73
   842
 74
   843
  0
VERTEX
  5
71C
  8
0
 10
0.0
 20
0.0
 30
0.0
 70
   128
 71
   270
 72
   613
 73
   614
  0
VERTEX
  5
71D
  8
0
 10
0.0
 20
0.0
 30
0.0
 70
   128
 71
   350
 72
   351
 73
   222
  0
VERTEX
  5
71E
  8
0
 10
0.0
 20
0.0
 30
0.0
 70
   128
 71
   221
 72
   351
 73
   352
  0
VERTEX
  5
71F
  8
0
 10
0.0
 20
0.0
 30
0.0
 70
   128
 71
   352
 72
   351
 73
   659
 74
   660
  0
VERTEX
  5
720
  8
0
 10
0.0
 20
0.0
 30
0.0
 70
   128
 71
   660
 72
   661
 73
   353
 74
   352
  0
VERTEX
  5
721
  8
0
 10
0.0
 20
0.0
 30
0.0
 70
   128
 71
   736
 72
   660
 73
   659
 74
   735
  0
VERTEX
  5
722
  8
0
 10
0.0
 20
0.0
 30
0.0
 70
   128
 71
   544
 72
   736
 73
   735
 74
   545
  0
VERTEX
  5
723
  8
0
 10
0.0
 20
0.0
 30
0.0
 70
   128
 71
   543
 72
   737
 73
   736
 74
   544
  0
VERTEX
  5
724
  8
0
 10
0.0
 20
0.0
 30
0.0
 70
   128
 71
   542
 72
   543
 73
   430
 74
   431
  0
VERTEX
  5
725
  8
0
 10
0.0
 20
0.0
 30
0.0
 70
   128
 71
   541
 72
   542
 73
   431
 74
   432
  0
VERTEX
  5
726
  8
0
 10
0.0
 20
0.0
 30
0.0
 70
   128
 71
   739
 72
   738
 73
   542
 74
   541
  0
VERTEX
  5
727
  8
0
 10
0.0
 20
0.0
 30
0.0
 70
   128
 71
   663
 72
   662
 73
   738
 74
   739
  0
VERTEX
  5
728
  8
0
 10
0.0
 20
0.0
 30
0.0
 70
   128
 71
   662
 72
   661
 73
   737
 74
   738
  0
VERTEX
  5
729
  8
0
 10
0.0
 20
0.0
 30
0.0
 70
   128
 71
   661
 72
   660
 73
   736
 74
   737
  0
VERTEX
  5
72A
  8
0
 10
0.0
 20
0.0
 30
0.0
 70
   128
 71
   354
 72
   355
 73
   213
  0
VERTEX
  5
72B
  8
0
 10
0.0
 20
0.0
 30
0.0
 70
   128
 71
   357
 72
   356
 73
   664
 74
   665
  0
VERTEX
  5
72C
  8
0
 10
0.0
 20
0.0
 30
0.0
 70
   128
 71
   665
 72
   664
 73
   740
 74
   741
  0
VERTEX
  5
72D
  8
0
 10
0.0
 20
0.0
 30
0.0
 70
   128
 71
   741
 72
   742
 73
   666
 74
   665
  0
VERTEX
  5
72E
  8
0
 10
0.0
 20
0.0
 30
0.0
 70
   128
 71
   539
 72
   741
 73
   740
 74
   540
  0
VERTEX
  5
72F
  8
0
 10
0.0
 20
0.0
 30
0.0
 70
   128
 71
   538
 72
   742
 73
   741
 74
   539
  0
VERTEX
  5
730
  8
0
 10
0.0
 20
0.0
 30
0.0
 70
   128
 71
   537
 72
   538
 73
   435
 74
   436
  0
VERTEX
  5
731
  8
0
 10
0.0
 20
0.0
 30
0.0
 70
   128
 71
   436
 72
   437
 73
   536
 74
   537
  0
VERTEX
  5
732
  8
0
 10
0.0
 20
0.0
 30
0.0
 70
   128
 71
   843
 72
   436
 73
   435
 74
   844
  0
VERTEX
  5
733
  8
0
 10
0.0
 20
0.0
 30
0.0
 70
   128
 71
   842
 72
   437
 73
   436
 74
   843
  0
VERTEX
  5
734
  8
0
 10
0.0
 20
0.0
 30
0.0
 70
   128
 71
   841
 72
   842
 73
   613
 74
   612
  0
VERTEX
  5
735
  8
0
 10
0.0
 20
0.0
 30
0.0
 70
   128
 71
   840
 72
   611
 73
   610
 74
   839
  0
VERTEX
  5
736
  8
0
 10
0.0
 20
0.0
 30
0.0
 70
   128
 71
   439
 72
   440
 73
   533
 74
   534
  0
VERTEX
  5
737
  8
0
 10
0.0
 20
0.0
 30
0.0
 70
   128
 71
   534
 72
   535
 73
   438
 74
   439
  0
VERTEX
  5
738
  8
0
 10
0.0
 20
0.0
 30
0.0
 70
   128
 71
   746
 72
   534
 73
   533
 74
   747
  0
VERTEX
  5
739
  8
0
 10
0.0
 20
0.0
 30
0.0
 70
   128
 71
   670
 72
   746
 73
   747
 74
   671
  0
VERTEX
  5
73A
  8
0
 10
0.0
 20
0.0
 30
0.0
 70
   128
 71
   669
 72
   745
 73
   746
 74
   670
  0
VERTEX
  5
73B
  8
0
 10
0.0
 20
0.0
 30
0.0
 70
   128
 71
   668
 72
   669
 73
   361
 74
   360
  0
VERTEX
  5
73C
  8
0
 10
0.0
 20
0.0
 30
0.0
 70
   128
 71
   744
 72
   745
 73
   669
 74
   668
  0
VERTEX
  5
73D
  8
0
 10
0.0
 20
0.0
 30
0.0
 70
   128
 71
   536
 72
   744
 73
   743
 74
   537
  0
VERTEX
  5
73E
  8
0
 10
0.0
 20
0.0
 30
0.0
 70
   128
 71
   535
 72
   536
 73
   437
 74
   438
  0
VERTEX
  5
73F
  8
0
 10
0.0
 20
0.0
 30
0.0
 70
   128
 71
   745
 72
   535
 73
   534
 74
   746
  0
VERTEX
  5
740
  8
0
 10
0.0
 20
0.0
 30
0.0
 70
   128
 71
   744
 72
   536
 73
   535
 74
   745
  0
VERTEX
  5
741
  8
0
 10
0.0
 20
0.0
 30
0.0
 70
   128
 71
   365
 72
   364
 73
   672
 74
   673
  0
VERTEX
  5
742
  8
0
 10
0.0
 20
0.0
 30
0.0
 70
   128
 71
   673
 72
   674
 73
   366
 74
   365
  0
VERTEX
  5
743
  8
0
 10
0.0
 20
0.0
 30
0.0
 70
   128
 71
   749
 72
   673
 73
   672
 74
   748
  0
VERTEX
  5
744
  8
0
 10
0.0
 20
0.0
 30
0.0
 70
   128
 71
   748
 72
   532
 73
   531
 74
   749
  0
VERTEX
  5
745
  8
0
 10
0.0
 20
0.0
 30
0.0
 70
   128
 71
   747
 72
   533
 73
   532
 74
   748
  0
VERTEX
  5
746
  8
0
 10
0.0
 20
0.0
 30
0.0
 70
   128
 71
   533
 72
   440
 73
   441
 74
   532
  0
VERTEX
  5
747
  8
0
 10
0.0
 20
0.0
 30
0.0
 70
   128
 71
   532
 72
   441
 73
   442
 74
   531
  0
VERTEX
  5
748
  8
0
 10
0.0
 20
0.0
 30
0.0
 70
   128
 71
   441
 72
   838
 73
   837
 74
   442
  0
VERTEX
  5
749
  8
0
 10
0.0
 20
0.0
 30
0.0
 70
   128
 71
   442
 72
   837
 73
   836
 74
   443
  0
VERTEX
  5
74A
  8
0
 10
0.0
 20
0.0
 30
0.0
 70
   128
 71
   443
 72
   530
 73
   531
 74
   442
  0
VERTEX
  5
74B
  8
0
 10
0.0
 20
0.0
 30
0.0
 70
   128
 71
   444
 72
   443
 73
   836
 74
   835
  0
VERTEX
  5
74C
  8
0
 10
0.0
 20
0.0
 30
0.0
 70
   128
 71
   835
 72
   834
 73
   445
 74
   444
  0
VERTEX
  5
74D
  8
0
 10
0.0
 20
0.0
 30
0.0
 70
   128
 71
   606
 72
   835
 73
   836
 74
   607
  0
VERTEX
  5
74E
  8
0
 10
0.0
 20
0.0
 30
0.0
 70
   128
 71
   606
 72
   607
 73
   278
  0
VERTEX
  5
74F
  8
0
 10
0.0
 20
0.0
 30
0.0
 70
   128
 71
   200
 72
   366
 73
   367
  0
VERTEX
  5
750
  8
0
 10
0.0
 20
0.0
 30
0.0
 70
   128
 71
   367
 72
   366
 73
   674
 74
   675
  0
VERTEX
  5
751
  8
0
 10
0.0
 20
0.0
 30
0.0
 70
   128
 71
   675
 72
   676
 73
   368
 74
   367
  0
VERTEX
  5
752
  8
0
 10
0.0
 20
0.0
 30
0.0
 70
   128
 71
   751
 72
   675
 73
   674
 74
   750
  0
VERTEX
  5
753
  8
0
 10
0.0
 20
0.0
 30
0.0
 70
   128
 71
   750
 72
   530
 73
   529
 74
   751
  0
VERTEX
  5
754
  8
0
 10
0.0
 20
0.0
 30
0.0
 70
   128
 71
   749
 72
   750
 73
   674
 74
   673
  0
VERTEX
  5
755
  8
0
 10
0.0
 20
0.0
 30
0.0
 70
   128
 71
   531
 72
   530
 73
   750
 74
   749
  0
VERTEX
  5
756
  8
0
 10
0.0
 20
0.0
 30
0.0
 70
   128
 71
   196
 72
   368
 73
   369
  0
VERTEX
  5
757
  8
0
 10
0.0
 20
0.0
 30
0.0
 70
   128
 71
   369
 72
   368
 73
   676
 74
   677
  0
VERTEX
  5
758
  8
0
 10
0.0
 20
0.0
 30
0.0
 70
   128
 71
   677
 72
   678
 73
   370
 74
   369
  0
VERTEX
  5
759
  8
0
 10
0.0
 20
0.0
 30
0.0
 70
   128
 71
   753
 72
   677
 73
   676
 74
   752
  0
VERTEX
  5
75A
  8
0
 10
0.0
 20
0.0
 30
0.0
 70
   128
 71
   752
 72
   528
 73
   527
 74
   753
  0
VERTEX
  5
75B
  8
0
 10
0.0
 20
0.0
 30
0.0
 70
   128
 71
   751
 72
   752
 73
   676
 74
   675
  0
VERTEX
  5
75C
  8
0
 10
0.0
 20
0.0
 30
0.0
 70
   128
 71
   529
 72
   528
 73
   752
 74
   751
  0
VERTEX
  5
75D
  8
0
 10
0.0
 20
0.0
 30
0.0
 70
   128
 71
   444
 72
   529
 73
   530
 74
   443
  0
VERTEX
  5
75E
  8
0
 10
0.0
 20
0.0
 30
0.0
 70
   128
 71
   445
 72
   528
 73
   529
 74
   444
  0
VERTEX
  5
75F
  8
0
 10
0.0
 20
0.0
 30
0.0
 70
   128
 71
   446
 72
   445
 73
   834
 74
   833
  0
VERTEX
  5
760
  8
0
 10
0.0
 20
0.0
 30
0.0
 70
   128
 71
   833
 72
   832
 73
   447
 74
   446
  0
VERTEX
  5
761
  8
0
 10
0.0
 20
0.0
 30
0.0
 70
   128
 71
   604
 72
   833
 73
   834
 74
   605
  0
VERTEX
  5
762
  8
0
 10
0.0
 20
0.0
 30
0.0
 70
   128
 71
   603
 72
   832
 73
   833
 74
   604
  0
VERTEX
  5
763
  8
0
 10
0.0
 20
0.0
 30
0.0
 70
   128
 71
   369
 72
   370
 73
   195
  0
VERTEX
  5
764
  8
0
 10
0.0
 20
0.0
 30
0.0
 70
   128
 71
   194
 72
   370
 73
   371
  0
VERTEX
  5
765
  8
0
 10
0.0
 20
0.0
 30
0.0
 70
   128
 71
   371
 72
   370
 73
   678
 74
   679
  0
VERTEX
  5
766
  8
0
 10
0.0
 20
0.0
 30
0.0
 70
   128
 71
   679
 72
   680
 73
   372
 74
   371
  0
VERTEX
  5
767
  8
0
 10
0.0
 20
0.0
 30
0.0
 70
   128
 71
   755
 72
   679
 73
   678
 74
   754
  0
VERTEX
  5
768
  8
0
 10
0.0
 20
0.0
 30
0.0
 70
   128
 71
   754
 72
   526
 73
   525
 74
   755
  0
VERTEX
  5
769
  8
0
 10
0.0
 20
0.0
 30
0.0
 70
   128
 71
   753
 72
   754
 73
   678
 74
   677
  0
VERTEX
  5
76A
  8
0
 10
0.0
 20
0.0
 30
0.0
 70
   128
 71
   527
 72
   526
 73
   754
 74
   753
  0
VERTEX
  5
76B
  8
0
 10
0.0
 20
0.0
 30
0.0
 70
   128
 71
   446
 72
   527
 73
   528
 74
   445
  0
VERTEX
  5
76C
  8
0
 10
0.0
 20
0.0
 30
0.0
 70
   128
 71
   447
 72
   526
 73
   527
 74
   446
  0
VERTEX
  5
76D
  8
0
 10
0.0
 20
0.0
 30
0.0
 70
   128
 71
   448
 72
   525
 73
   526
 74
   447
  0
VERTEX
  5
76E
  8
0
 10
0.0
 20
0.0
 30
0.0
 70
   128
 71
   449
 72
   448
 73
   831
 74
   830
  0
VERTEX
  5
76F
  8
0
 10
0.0
 20
0.0
 30
0.0
 70
   128
 71
   450
 72
   829
 73
   828
 74
   451
  0
VERTEX
  5
770
  8
0
 10
0.0
 20
0.0
 30
0.0
 70
   128
 71
   451
 72
   522
 73
   523
 74
   450
  0
VERTEX
  5
771
  8
0
 10
0.0
 20
0.0
 30
0.0
 70
   128
 71
   452
 72
   521
 73
   522
 74
   451
  0
VERTEX
  5
772
  8
0
 10
0.0
 20
0.0
 30
0.0
 70
   128
 71
   453
 72
   452
 73
   827
 74
   826
  0
VERTEX
  5
773
  8
0
 10
0.0
 20
0.0
 30
0.0
 70
   128
 71
   454
 72
   825
 73
   824
 74
   455
  0
VERTEX
  5
774
  8
0
 10
0.0
 20
0.0
 30
0.0
 70
   128
 71
   455
 72
   518
 73
   519
 74
   454
  0
VERTEX
  5
775
  8
0
 10
0.0
 20
0.0
 30
0.0
 70
   128
 71
   456
 72
   517
 73
   518
 74
   455
  0
VERTEX
  5
776
  8
0
 10
0.0
 20
0.0
 30
0.0
 70
   128
 71
   457
 72
   456
 73
   823
 74
   822
  0
VERTEX
  5
777
  8
0
 10
0.0
 20
0.0
 30
0.0
 70
   128
 71
   458
 72
   821
 73
   820
 74
   459
  0
VERTEX
  5
778
  8
0
 10
0.0
 20
0.0
 30
0.0
 70
   128
 71
   459
 72
   514
 73
   515
 74
   458
  0
VERTEX
  5
779
  8
0
 10
0.0
 20
0.0
 30
0.0
 70
   128
 71
   460
 72
   513
 73
   514
 74
   459
  0
VERTEX
  5
77A
  8
0
 10
0.0
 20
0.0
 30
0.0
 70
   128
 71
   461
 72
   460
 73
   819
 74
   818
  0
VERTEX
  5
77B
  8
0
 10
0.0
 20
0.0
 30
0.0
 70
   128
 71
   462
 72
   817
 73
   816
 74
   463
  0
VERTEX
  5
77C
  8
0
 10
0.0
 20
0.0
 30
0.0
 70
   128
 71
   463
 72
   510
 73
   511
 74
   462
  0
VERTEX
  5
77D
  8
0
 10
0.0
 20
0.0
 30
0.0
 70
   128
 71
   464
 72
   463
 73
   816
 74
   815
  0
VERTEX
  5
77E
  8
0
 10
0.0
 20
0.0
 30
0.0
 70
   128
 71
   815
 72
   814
 73
   465
 74
   464
  0
VERTEX
  5
77F
  8
0
 10
0.0
 20
0.0
 30
0.0
 70
   128
 71
   586
 72
   815
 73
   816
 74
   587
  0
VERTEX
  5
780
  8
0
 10
0.0
 20
0.0
 30
0.0
 70
   128
 71
   586
 72
   587
 73
   300
  0
VERTEX
  5
781
  8
0
 10
0.0
 20
0.0
 30
0.0
 70
   128
 71
   371
 72
   372
 73
   193
  0
VERTEX
  5
782
  8
0
 10
0.0
 20
0.0
 30
0.0
 70
   128
 71
   376
 72
   375
 73
   683
 74
   684
  0
VERTEX
  5
783
  8
0
 10
0.0
 20
0.0
 30
0.0
 70
   128
 71
   684
 72
   683
 73
   759
 74
   760
  0
VERTEX
  5
784
  8
0
 10
0.0
 20
0.0
 30
0.0
 70
   128
 71
   760
 72
   761
 73
   685
 74
   684
  0
VERTEX
  5
785
  8
0
 10
0.0
 20
0.0
 30
0.0
 70
   128
 71
   520
 72
   760
 73
   759
 74
   521
  0
VERTEX
  5
786
  8
0
 10
0.0
 20
0.0
 30
0.0
 70
   128
 71
   453
 72
   520
 73
   521
 74
   452
  0
VERTEX
  5
787
  8
0
 10
0.0
 20
0.0
 30
0.0
 70
   128
 71
   454
 72
   453
 73
   826
 74
   825
  0
VERTEX
  5
788
  8
0
 10
0.0
 20
0.0
 30
0.0
 70
   128
 71
   519
 72
   520
 73
   453
 74
   454
  0
VERTEX
  5
789
  8
0
 10
0.0
 20
0.0
 30
0.0
 70
   128
 71
   761
 72
   519
 73
   518
 74
   762
  0
VERTEX
  5
78A
  8
0
 10
0.0
 20
0.0
 30
0.0
 70
   128
 71
   685
 72
   761
 73
   762
 74
   686
  0
VERTEX
  5
78B
  8
0
 10
0.0
 20
0.0
 30
0.0
 70
   128
 71
   380
 72
   379
 73
   687
 74
   688
  0
VERTEX
  5
78C
  8
0
 10
0.0
 20
0.0
 30
0.0
 70
   128
 71
   688
 72
   687
 73
   763
 74
   764
  0
VERTEX
  5
78D
  8
0
 10
0.0
 20
0.0
 30
0.0
 70
   128
 71
   764
 72
   765
 73
   689
 74
   688
  0
VERTEX
  5
78E
  8
0
 10
0.0
 20
0.0
 30
0.0
 70
   128
 71
   516
 72
   764
 73
   763
 74
   517
  0
VERTEX
  5
78F
  8
0
 10
0.0
 20
0.0
 30
0.0
 70
   128
 71
   457
 72
   516
 73
   517
 74
   456
  0
VERTEX
  5
790
  8
0
 10
0.0
 20
0.0
 30
0.0
 70
   128
 71
   458
 72
   457
 73
   822
 74
   821
  0
VERTEX
  5
791
  8
0
 10
0.0
 20
0.0
 30
0.0
 70
   128
 71
   515
 72
   516
 73
   457
 74
   458
  0
VERTEX
  5
792
  8
0
 10
0.0
 20
0.0
 30
0.0
 70
   128
 71
   765
 72
   515
 73
   514
 74
   766
  0
VERTEX
  5
793
  8
0
 10
0.0
 20
0.0
 30
0.0
 70
   128
 71
   689
 72
   765
 73
   766
 74
   690
  0
VERTEX
  5
794
  8
0
 10
0.0
 20
0.0
 30
0.0
 70
   128
 71
   384
 72
   383
 73
   691
 74
   692
  0
VERTEX
  5
795
  8
0
 10
0.0
 20
0.0
 30
0.0
 70
   128
 71
   692
 72
   691
 73
   767
 74
   768
  0
VERTEX
  5
796
  8
0
 10
0.0
 20
0.0
 30
0.0
 70
   128
 71
   768
 72
   769
 73
   693
 74
   692
  0
VERTEX
  5
797
  8
0
 10
0.0
 20
0.0
 30
0.0
 70
   128
 71
   512
 72
   768
 73
   767
 74
   513
  0
VERTEX
  5
798
  8
0
 10
0.0
 20
0.0
 30
0.0
 70
   128
 71
   461
 72
   512
 73
   513
 74
   460
  0
VERTEX
  5
799
  8
0
 10
0.0
 20
0.0
 30
0.0
 70
   128
 71
   462
 72
   461
 73
   818
 74
   817
  0
VERTEX
  5
79A
  8
0
 10
0.0
 20
0.0
 30
0.0
 70
   128
 71
   511
 72
   512
 73
   461
 74
   462
  0
VERTEX
  5
79B
  8
0
 10
0.0
 20
0.0
 30
0.0
 70
   128
 71
   769
 72
   511
 73
   510
 74
   770
  0
VERTEX
  5
79C
  8
0
 10
0.0
 20
0.0
 30
0.0
 70
   128
 71
   693
 72
   769
 73
   770
 74
   694
  0
VERTEX
  5
79D
  8
0
 10
0.0
 20
0.0
 30
0.0
 70
   128
 71
   385
 72
   386
 73
   181
  0
VERTEX
  5
79E
  8
0
 10
0.0
 20
0.0
 30
0.0
 70
   128
 71
   404
 72
   405
 73
   164
  0
VERTEX
  5
79F
  8
0
 10
0.0
 20
0.0
 30
0.0
 70
   128
 71
   406
 72
   407
 73
   160
  0
VERTEX
  5
7A0
  8
0
 10
0.0
 20
0.0
 30
0.0
 70
   128
 71
   406
 72
   405
 73
   713
 74
   714
  0
VERTEX
  5
7A1
  8
0
 10
0.0
 20
0.0
 30
0.0
 70
   128
 71
   714
 72
   713
 73
   789
 74
   790
  0
VERTEX
  5
7A2
  8
0
 10
0.0
 20
0.0
 30
0.0
 70
   128
 71
   715
 72
   714
 73
   790
 74
   791
  0
VERTEX
  5
7A3
  8
0
 10
0.0
 20
0.0
 30
0.0
 70
   128
 71
   716
 72
   408
 73
   407
 74
   715
  0
VERTEX
  5
7A4
  8
0
 10
0.0
 20
0.0
 30
0.0
 70
   128
 71
   408
 72
   159
 73
   407
  0
VERTEX
  5
7A5
  8
0
 10
0.0
 20
0.0
 30
0.0
 70
   128
 71
   410
 72
   411
 73
   562
 74
   563
  0
VERTEX
  5
7A6
  8
0
 10
0.0
 20
0.0
 30
0.0
 70
   128
 71
   417
 72
   418
 73
   555
 74
   556
  0
VERTEX
  5
7A7
  8
0
 10
0.0
 20
0.0
 30
0.0
 70
   128
 71
   418
 72
   419
 73
   554
 74
   555
  0
VERTEX
  5
7A8
  8
0
 10
0.0
 20
0.0
 30
0.0
 70
   128
 71
   861
 72
   860
 73
   419
 74
   418
  0
VERTEX
  5
7A9
  8
0
 10
0.0
 20
0.0
 30
0.0
 70
   128
 71
   426
 72
   427
 73
   546
 74
   547
  0
VERTEX
  5
7AA
  8
0
 10
0.0
 20
0.0
 30
0.0
 70
   128
 71
   431
 72
   430
 73
   849
 74
   848
  0
VERTEX
  5
7AB
  8
0
 10
0.0
 20
0.0
 30
0.0
 70
   128
 71
   438
 72
   437
 73
   842
 74
   841
  0
VERTEX
  5
7AC
  8
0
 10
0.0
 20
0.0
 30
0.0
 70
   128
 71
   841
 72
   840
 73
   439
 74
   438
  0
VERTEX
  5
7AD
  8
0
 10
0.0
 20
0.0
 30
0.0
 70
   128
 71
   612
 72
   611
 73
   840
 74
   841
  0
VERTEX
  5
7AE
  8
0
 10
0.0
 20
0.0
 30
0.0
 70
   128
 71
   440
 72
   439
 73
   840
 74
   839
  0
VERTEX
  5
7AF
  8
0
 10
0.0
 20
0.0
 30
0.0
 70
   128
 71
   448
 72
   449
 73
   524
 74
   525
  0
VERTEX
  5
7B0
  8
0
 10
0.0
 20
0.0
 30
0.0
 70
   128
 71
   449
 72
   450
 73
   523
 74
   524
  0
VERTEX
  5
7B1
  8
0
 10
0.0
 20
0.0
 30
0.0
 70
   128
 71
   830
 72
   829
 73
   450
 74
   449
  0
VERTEX
  5
7B2
  8
0
 10
0.0
 20
0.0
 30
0.0
 70
   128
 71
   463
 72
   464
 73
   509
 74
   510
  0
VERTEX
  5
7B3
  8
0
 10
0.0
 20
0.0
 30
0.0
 70
   128
 71
   464
 72
   465
 73
   508
 74
   509
  0
VERTEX
  5
7B4
  8
0
 10
0.0
 20
0.0
 30
0.0
 70
   128
 71
   466
 72
   467
 73
   506
 74
   507
  0
VERTEX
  5
7B5
  8
0
 10
0.0
 20
0.0
 30
0.0
 70
   128
 71
   813
 72
   812
 73
   467
 74
   466
  0
VERTEX
  5
7B6
  8
0
 10
0.0
 20
0.0
 30
0.0
 70
   128
 71
   812
 72
   811
 73
   468
 74
   467
  0
VERTEX
  5
7B7
  8
0
 10
0.0
 20
0.0
 30
0.0
 70
   128
 71
   811
 72
   810
 73
   469
 74
   468
  0
VERTEX
  5
7B8
  8
0
 10
0.0
 20
0.0
 30
0.0
 70
   128
 71
   582
 72
   581
 73
   810
 74
   811
  0
VERTEX
  5
7B9
  8
0
 10
0.0
 20
0.0
 30
0.0
 70
   128
 71
   581
 72
   580
 73
   809
 74
   810
  0
VERTEX
  5
7BA
  8
0
 10
0.0
 20
0.0
 30
0.0
 70
   128
 71
   810
 72
   809
 73
   470
 74
   469
  0
VERTEX
  5
7BB
  8
0
 10
0.0
 20
0.0
 30
0.0
 70
   128
 71
   467
 72
   468
 73
   505
 74
   506
  0
VERTEX
  5
7BC
  8
0
 10
0.0
 20
0.0
 30
0.0
 70
   128
 71
   468
 72
   469
 73
   504
 74
   505
  0
VERTEX
  5
7BD
  8
0
 10
0.0
 20
0.0
 30
0.0
 70
   128
 71
   470
 72
   471
 73
   502
 74
   503
  0
VERTEX
  5
7BE
  8
0
 10
0.0
 20
0.0
 30
0.0
 70
   128
 71
   471
 72
   472
 73
   501
 74
   502
  0
VERTEX
  5
7BF
  8
0
 10
0.0
 20
0.0
 30
0.0
 70
   128
 71
   808
 72
   807
 73
   472
 74
   471
  0
VERTEX
  5
7C0
  8
0
 10
0.0
 20
0.0
 30
0.0
 70
   128
 71
   807
 72
   806
 73
   473
 74
   472
  0
VERTEX
  5
7C1
  8
0
 10
0.0
 20
0.0
 30
0.0
 70
   128
 71
   806
 72
   805
 73
   474
 74
   473
  0
VERTEX
  5
7C2
  8
0
 10
0.0
 20
0.0
 30
0.0
 70
   128
 71
   577
 72
   576
 73
   805
 74
   806
  0
VERTEX
  5
7C3
  8
0
 10
0.0
 20
0.0
 30
0.0
 70
   128
 71
   472
 72
   473
 73
   500
 74
   501
  0
VERTEX
  5
7C4
  8
0
 10
0.0
 20
0.0
 30
0.0
 70
   128
 71
   473
 72
   474
 73
   499
 74
   500
  0
VERTEX
  5
7C5
  8
0
 10
0.0
 20
0.0
 30
0.0
 70
   128
 71
   475
 72
   476
 73
   497
 74
   498
  0
VERTEX
  5
7C6
  8
0
 10
0.0
 20
0.0
 30
0.0
 70
   128
 71
   804
 72
   803
 73
   476
 74
   475
  0
VERTEX
  5
7C7
  8
0
 10
0.0
 20
0.0
 30
0.0
 70
   128
 71
   803
 72
   802
 73
   477
 74
   476
  0
VERTEX
  5
7C8
  8
0
 10
0.0
 20
0.0
 30
0.0
 70
   128
 71
   802
 72
   801
 73
   478
 74
   477
  0
VERTEX
  5
7C9
  8
0
 10
0.0
 20
0.0
 30
0.0
 70
   128
 71
   573
 72
   572
 73
   801
 74
   802
  0
VERTEX
  5
7CA
  8
0
 10
0.0
 20
0.0
 30
0.0
 70
   128
 71
   313
 72
   572
 73
   573
  0
VERTEX
  5
7CB
  8
0
 10
0.0
 20
0.0
 30
0.0
 70
   128
 71
   476
 72
   477
 73
   496
 74
   497
  0
VERTEX
  5
7CC
  8
0
 10
0.0
 20
0.0
 30
0.0
 70
   128
 71
   477
 72
   478
 73
   495
 74
   496
  0
VERTEX
  5
7CD
  8
0
 10
0.0
 20
0.0
 30
0.0
 70
   128
 71
   478
 72
   801
 73
   800
 74
   479
  0
VERTEX
  5
7CE
  8
0
 10
0.0
 20
0.0
 30
0.0
 70
   128
 71
   801
 72
   572
 73
   571
 74
   800
  0
VERTEX
  5
7CF
  8
0
 10
0.0
 20
0.0
 30
0.0
 70
   128
 71
   572
 72
   314
 73
   571
  0
VERTEX
  5
7D0
  8
0
 10
0.0
 20
0.0
 30
0.0
 70
   128
 71
   480
 72
   481
 73
   492
 74
   493
  0
VERTEX
  5
7D1
  8
0
 10
0.0
 20
0.0
 30
0.0
 70
   128
 71
   493
 72
   494
 73
   479
 74
   480
  0
VERTEX
  5
7D2
  8
0
 10
0.0
 20
0.0
 30
0.0
 70
   128
 71
   787
 72
   493
 73
   492
 74
   788
  0
VERTEX
  5
7D3
  8
0
 10
0.0
 20
0.0
 30
0.0
 70
   128
 71
   711
 72
   787
 73
   788
 74
   712
  0
VERTEX
  5
7D4
  8
0
 10
0.0
 20
0.0
 30
0.0
 70
   128
 71
   480
 72
   479
 73
   800
 74
   799
  0
VERTEX
  5
7D5
  8
0
 10
0.0
 20
0.0
 30
0.0
 70
   128
 71
   799
 72
   800
 73
   571
 74
   570
  0
VERTEX
  5
7D6
  8
0
 10
0.0
 20
0.0
 30
0.0
 70
   128
 71
   570
 72
   569
 73
   798
 74
   799
  0
VERTEX
  5
7D7
  8
0
 10
0.0
 20
0.0
 30
0.0
 70
   128
 71
   316
 72
   569
 73
   570
  0
VERTEX
  5
7D8
  8
0
 10
0.0
 20
0.0
 30
0.0
 70
   128
 71
   484
 72
   483
 73
   796
 74
   795
  0
VERTEX
  5
7D9
  8
0
 10
0.0
 20
0.0
 30
0.0
 70
   128
 71
   795
 72
   796
 73
   567
 74
   566
  0
VERTEX
  5
7DA
  8
0
 10
0.0
 20
0.0
 30
0.0
 70
   128
 71
   566
 72
   565
 73
   794
 74
   795
  0
VERTEX
  5
7DB
  8
0
 10
0.0
 20
0.0
 30
0.0
 70
   128
 71
   320
 72
   565
 73
   566
  0
VERTEX
  5
7DC
  8
0
 10
0.0
 20
0.0
 30
0.0
 70
   128
 71
   491
 72
   490
 73
   790
 74
   789
  0
VERTEX
  5
7DD
  8
0
 10
0.0
 20
0.0
 30
0.0
 70
   128
 71
   494
 72
   493
 73
   787
 74
   786
  0
VERTEX
  5
7DE
  8
0
 10
0.0
 20
0.0
 30
0.0
 70
   128
 71
   498
 72
   497
 73
   783
 74
   782
  0
VERTEX
  5
7DF
  8
0
 10
0.0
 20
0.0
 30
0.0
 70
   128
 71
   502
 72
   501
 73
   779
 74
   778
  0
VERTEX
  5
7E0
  8
0
 10
0.0
 20
0.0
 30
0.0
 70
   128
 71
   503
 72
   502
 73
   778
 74
   777
  0
VERTEX
  5
7E1
  8
0
 10
0.0
 20
0.0
 30
0.0
 70
   128
 71
   507
 72
   506
 73
   774
 74
   773
  0
VERTEX
  5
7E2
  8
0
 10
0.0
 20
0.0
 30
0.0
 70
   128
 71
   512
 72
   511
 73
   769
 74
   768
  0
VERTEX
  5
7E3
  8
0
 10
0.0
 20
0.0
 30
0.0
 70
   128
 71
   514
 72
   513
 73
   767
 74
   766
  0
VERTEX
  5
7E4
  8
0
 10
0.0
 20
0.0
 30
0.0
 70
   128
 71
   516
 72
   515
 73
   765
 74
   764
  0
VERTEX
  5
7E5
  8
0
 10
0.0
 20
0.0
 30
0.0
 70
   128
 71
   518
 72
   517
 73
   763
 74
   762
  0
VERTEX
  5
7E6
  8
0
 10
0.0
 20
0.0
 30
0.0
 70
   128
 71
   520
 72
   519
 73
   761
 74
   760
  0
VERTEX
  5
7E7
  8
0
 10
0.0
 20
0.0
 30
0.0
 70
   128
 71
   522
 72
   521
 73
   759
 74
   758
  0
VERTEX
  5
7E8
  8
0
 10
0.0
 20
0.0
 30
0.0
 70
   128
 71
   758
 72
   757
 73
   523
 74
   522
  0
VERTEX
  5
7E9
  8
0
 10
0.0
 20
0.0
 30
0.0
 70
   128
 71
   682
 72
   681
 73
   757
 74
   758
  0
VERTEX
  5
7EA
  8
0
 10
0.0
 20
0.0
 30
0.0
 70
   128
 71
   681
 72
   680
 73
   756
 74
   757
  0
VERTEX
  5
7EB
  8
0
 10
0.0
 20
0.0
 30
0.0
 70
   128
 71
   680
 72
   679
 73
   755
 74
   756
  0
VERTEX
  5
7EC
  8
0
 10
0.0
 20
0.0
 30
0.0
 70
   128
 71
   756
 72
   755
 73
   525
 74
   524
  0
VERTEX
  5
7ED
  8
0
 10
0.0
 20
0.0
 30
0.0
 70
   128
 71
   757
 72
   756
 73
   524
 74
   523
  0
VERTEX
  5
7EE
  8
0
 10
0.0
 20
0.0
 30
0.0
 70
   128
 71
   538
 72
   537
 73
   743
 74
   742
  0
VERTEX
  5
7EF
  8
0
 10
0.0
 20
0.0
 30
0.0
 70
   128
 71
   742
 72
   743
 73
   667
 74
   666
  0
VERTEX
  5
7F0
  8
0
 10
0.0
 20
0.0
 30
0.0
 70
   128
 71
   543
 72
   542
 73
   738
 74
   737
  0
VERTEX
  5
7F1
  8
0
 10
0.0
 20
0.0
 30
0.0
 70
   128
 71
   552
 72
   551
 73
   729
 74
   728
  0
VERTEX
  5
7F2
  8
0
 10
0.0
 20
0.0
 30
0.0
 70
   128
 71
   728
 72
   729
 73
   653
 74
   652
  0
VERTEX
  5
7F3
  8
0
 10
0.0
 20
0.0
 30
0.0
 70
   128
 71
   555
 72
   554
 73
   726
 74
   725
  0
VERTEX
  5
7F4
  8
0
 10
0.0
 20
0.0
 30
0.0
 70
   128
 71
   725
 72
   726
 73
   650
 74
   649
  0
VERTEX
  5
7F5
  8
0
 10
0.0
 20
0.0
 30
0.0
 70
   128
 71
   559
 72
   558
 73
   722
 74
   721
  0
VERTEX
  5
7F6
  8
0
 10
0.0
 20
0.0
 30
0.0
 70
   128
 71
   721
 72
   722
 73
   646
 74
   645
  0
VERTEX
  5
7F7
  8
0
 10
0.0
 20
0.0
 30
0.0
 70
   128
 71
   564
 72
   565
 73
   321
  0
VERTEX
  5
7F8
  8
0
 10
0.0
 20
0.0
 30
0.0
 70
   128
 71
   566
 72
   567
 73
   319
  0
VERTEX
  5
7F9
  8
0
 10
0.0
 20
0.0
 30
0.0
 70
   128
 71
   567
 72
   568
 73
   318
  0
VERTEX
  5
7FA
  8
0
 10
0.0
 20
0.0
 30
0.0
 70
   128
 71
   798
 72
   569
 73
   568
 74
   797
  0
VERTEX
  5
7FB
  8
0
 10
0.0
 20
0.0
 30
0.0
 70
   128
 71
   569
 72
   317
 73
   568
  0
VERTEX
  5
7FC
  8
0
 10
0.0
 20
0.0
 30
0.0
 70
   128
 71
   570
 72
   571
 73
   315
  0
VERTEX
  5
7FD
  8
0
 10
0.0
 20
0.0
 30
0.0
 70
   128
 71
   579
 72
   580
 73
   306
  0
VERTEX
  5
7FE
  8
0
 10
0.0
 20
0.0
 30
0.0
 70
   128
 71
   586
 72
   585
 73
   814
 74
   815
  0
VERTEX
  5
7FF
  8
0
 10
0.0
 20
0.0
 30
0.0
 70
   128
 71
   817
 72
   588
 73
   587
 74
   816
  0
VERTEX
  5
800
  8
0
 10
0.0
 20
0.0
 30
0.0
 70
   128
 71
   588
 72
   299
 73
   587
  0
VERTEX
  5
801
  8
0
 10
0.0
 20
0.0
 30
0.0
 70
   128
 71
   592
 72
   591
 73
   820
 74
   821
  0
VERTEX
  5
802
  8
0
 10
0.0
 20
0.0
 30
0.0
 70
   128
 71
   596
 72
   595
 73
   824
 74
   825
  0
VERTEX
  5
803
  8
0
 10
0.0
 20
0.0
 30
0.0
 70
   128
 71
   600
 72
   599
 73
   828
 74
   829
  0
VERTEX
  5
804
  8
0
 10
0.0
 20
0.0
 30
0.0
 70
   128
 71
   602
 72
   603
 73
   284
  0
VERTEX
  5
805
  8
0
 10
0.0
 20
0.0
 30
0.0
 70
   128
 71
   835
 72
   606
 73
   605
 74
   834
  0
VERTEX
  5
806
  8
0
 10
0.0
 20
0.0
 30
0.0
 70
   128
 71
   606
 72
   279
 73
   605
  0
VERTEX
  5
807
  8
0
 10
0.0
 20
0.0
 30
0.0
 70
   128
 71
   614
 72
   615
 73
   269
  0
VERTEX
  5
808
  8
0
 10
0.0
 20
0.0
 30
0.0
 70
   128
 71
   619
 72
   620
 73
   266
  0
VERTEX
  5
809
  8
0
 10
0.0
 20
0.0
 30
0.0
 70
   128
 71
   854
 72
   625
 73
   624
 74
   853
  0
VERTEX
  5
80A
  8
0
 10
0.0
 20
0.0
 30
0.0
 70
   128
 71
   625
 72
   263
 73
   624
  0
VERTEX
  5
80B
  8
0
 10
0.0
 20
0.0
 30
0.0
 70
   128
 71
   624
 72
   623
 73
   852
 74
   853
  0
VERTEX
  5
80C
  8
0
 10
0.0
 20
0.0
 30
0.0
 70
   128
 71
   856
 72
   627
 73
   626
 74
   855
  0
VERTEX
  5
80D
  8
0
 10
0.0
 20
0.0
 30
0.0
 70
   128
 71
   627
 72
   261
 73
   626
  0
VERTEX
  5
80E
  8
0
 10
0.0
 20
0.0
 30
0.0
 70
   128
 71
   631
 72
   630
 73
   859
 74
   860
  0
VERTEX
  5
80F
  8
0
 10
0.0
 20
0.0
 30
0.0
 70
   128
 71
   635
 72
   634
 73
   863
 74
   864
  0
VERTEX
  5
810
  8
0
 10
0.0
 20
0.0
 30
0.0
 70
   128
 71
   639
 72
   638
 73
   867
 74
   868
  0
VERTEX
  5
811
  8
0
 10
0.0
 20
0.0
 30
0.0
 70
   128
 71
   659
 72
   658
 73
   734
 74
   735
  0
VERTEX
  5
812
  8
0
 10
0.0
 20
0.0
 30
0.0
 70
   128
 71
   703
 72
   702
 73
   778
 74
   779
  0
VERTEX
  5
813
  8
0
 10
0.0
 20
0.0
 30
0.0
 70
   128
 71
   641
 72
   333
 73
   240
  0
VERTEX
  5
814
  8
0
 10
0.0
 20
0.0
 30
0.0
 70
   128
 71
   332
 72
   641
 73
   241
  0
SEQEND
  5
815
  8
LAYER1
  6
VOLLINIE
 62
    18
  0
POLYLINE
  5
816
  8
LAYER1
  6
VOLLINIE
 62
    18
 66
     1
 10
0.0
 20
0.0
 30
0.0
 70
    64
 71
   314
 72
   306
  0
VERTEX
  5
817
  8
0
 10
752.0
 20
16.10972023010254
 30
78.04806518554688
 70
   192
  0
VERTEX
  5
818
  8
0
 10
752.0
 20
16.8846607208252
 30
76.41009521484375
 70
   192
  0
VERTEX
  5
819
  8
0
 10
752.0
 20
17.99290084838867
 30
73.59552764892578
 70
   192
  0
VERTEX
  5
81A
  8
0
 10
752.0
 20
19.31192398071289
 30
68.93599700927734
 70
   192
  0
VERTEX
  5
81B
  8
0
 10
752.0
 20
20.10000801086426
 30
64.15985870361328
 70
   192
  0
VERTEX
  5
81C
  8
0
 10
752.0
 20
20.3619270324707
 30
60.54631805419922
 70
   192
  0
VERTEX
  5
81D
  8
0
 10
752.0
 20
20.36044502258301
 30
56.92229461669922
 70
   192
  0
VERTEX
  5
81E
  8
0
 10
752.0
 20
20.11356353759766
 30
53.29676055908203
 70
   192
  0
VERTEX
  5
81F
  8
0
 10
752.0
 20
19.63929176330566
 30
49.67866134643555
 70
   192
  0
VERTEX
  5
820
  8
0
 10
752.0
 20
18.68058586120605
 30
44.92194747924805
 70
   192
  0
VERTEX
  5
821
  8
0
 10
752.0
 20
17.35262870788574
 30
40.27826309204102
 70
   192
  0
VERTEX
  5
822
  8
0
 10
752.0
 20
15.64552211761475
 30
35.75264739990234
 70
   192
  0
VERTEX
  5
823
  8
0
 10
752.0
 20
13.53234958648682
 30
31.39383506774902
 70
   192
  0
VERTEX
  5
824
  8
0
 10
752.0
 20
12.31060123443604
 30
29.29932594299316
 70
   192
  0
VERTEX
  5
825
  8
0
 10
752.0
 20
10.95676326751709
 30
27.29104804992676
 70
   192
  0
VERTEX
  5
826
  8
0
 10
752.0
 20
9.448057174682617
 30
25.39863014221191
 70
   192
  0
VERTEX
  5
827
  8
0
 10
752.0
 20
7.761703014373779
 30
23.65168380737305
 70
   192
  0
VERTEX
  5
828
  8
0
 10
752.0
 20
6.60834264755249
 30
22.65206718444824
 70
   192
  0
VERTEX
  5
829
  8
0
 10
752.0
 20
5.376794815063477
 30
21.75922775268555
 70
   192
  0
VERTEX
  5
82A
  8
0
 10
752.0
 20
4.067165374755859
 30
21.01154518127441
 70
   192
  0
VERTEX
  5
82B
  8
0
 10
752.0
 20
3.383102893829346
 30
20.70413398742676
 70
   192
  0
VERTEX
  5
82C
  8
0
 10
752.0
 20
2.679559469223022
 30
20.4474048614502
 70
   192
  0
VERTEX
  5
82D
  8
0
 10
752.0
 20
1.811127662658691
 30
20.212646484375
 70
   192
  0
VERTEX
  5
82E
  8
0
 10
752.0
 20
0.923785924911499
 30
20.06403160095215
 70
   192
  0
VERTEX
  5
82F
  8
0
 10
752.0
 20
0.0266580265015364
 30
20.00780868530273
 70
   192
  0
VERTEX
  5
830
  8
0
 10
752.0
 20
-0.8711320757865906
 30
20.05023193359375
 70
   192
  0
VERTEX
  5
831
  8
0
 10
752.0
 20
-1.760891318321228
 30
20.19452667236328
 70
   192
  0
VERTEX
  5
832
  8
0
 10
752.0
 20
-2.635648488998413
 30
20.43182563781738
 70
   192
  0
VERTEX
  5
833
  8
0
 10
752.0
 20
-3.488863229751587
 30
20.75023460388184
 70
   192
  0
VERTEX
  5
834
  8
0
 10
752.0
 20
-4.313994884490967
 30
21.13785934448242
 70
   192
  0
VERTEX
  5
835
  8
0
 10
752.0
 20
-5.615307331085205
 30
21.91019248962402
 70
   192
  0
VERTEX
  5
836
  8
0
 10
752.0
 20
-6.827744007110596
 30
22.81533432006836
 70
   192
  0
VERTEX
  5
837
  8
0
 10
752.0
 20
-7.958605289459229
 30
23.82686233520508
 70
   192
  0
VERTEX
  5
838
  8
0
 10
752.0
 20
-9.015191078186035
 30
24.91835021972656
 70
   192
  0
VERTEX
  5
839
  8
0
 10
752.0
 20
-10.56720447540283
 30
26.77945709228516
 70
   192
  0
VERTEX
  5
83A
  8
0
 10
752.0
 20
-11.96413040161133
 30
28.75557899475098
 70
   192
  0
VERTEX
  5
83B
  8
0
 10
752.0
 20
-14.35819625854492
 30
32.96474456787109
 70
   192
  0
VERTEX
  5
83C
  8
0
 10
752.0
 20
-16.31263732910156
 30
37.39205551147461
 70
   192
  0
VERTEX
  5
83D
  8
0
 10
752.0
 20
-17.87992477416992
 30
41.97358703613281
 70
   192
  0
VERTEX
  5
83E
  8
0
 10
752.0
 20
-19.08624267578125
 30
46.6693229675293
 70
   192
  0
VERTEX
  5
83F
  8
0
 10
752.0
 20
-19.91542053222656
 30
51.44498825073242
 70
   192
  0
VERTEX
  5
840
  8
0
 10
752.0
 20
-20.34070587158203
 30
56.26775741577148
 70
   192
  0
VERTEX
  5
841
  8
0
 10
752.0
 20
-20.3353385925293
 30
61.10478973388672
 70
   192
  0
VERTEX
  5
842
  8
0
 10
752.0
 20
-19.86802291870117
 30
65.92089080810547
 70
   192
  0
VERTEX
  5
843
  8
0
 10
752.0
 20
-18.88928413391113
 30
70.67144775390625
 70
   192
  0
VERTEX
  5
844
  8
0
 10
752.0
 20
-17.37174224853516
 30
75.25373077392578
 70
   192
  0
VERTEX
  5
845
  8
0
 10
752.0
 20
-16.39696311950684
 30
77.46533203125
 70
   192
  0
VERTEX
  5
846
  8
0
 10
752.0
 20
-15.26342582702637
 30
79.61164093017578
 70
   192
  0
VERTEX
  5
847
  8
0
 10
752.0
 20
-13.9612340927124
 30
81.66986846923828
 70
   192
  0
VERTEX
  5
848
  8
0
 10
752.0
 20
-12.4841947555542
 30
83.60163879394531
 70
   192
  0
VERTEX
  5
849
  8
0
 10
752.0
 20
-10.8270378112793
 30
85.3646469116211
 70
   192
  0
VERTEX
  5
84A
  8
0
 10
752.0
 20
-9.929268836975098
 30
86.16964721679688
 70
   192
  0
VERTEX
  5
84B
  8
0
 10
752.0
 20
-8.984496116638184
 30
86.9166030883789
 70
   192
  0
VERTEX
  5
84C
  8
0
 10
752.0
 20
-7.992342948913574
 30
87.5998306274414
 70
   192
  0
VERTEX
  5
84D
  8
0
 10
752.0
 20
-6.953571796417236
 30
88.21208953857422
 70
   192
  0
VERTEX
  5
84E
  8
0
 10
752.0
 20
-5.869226932525635
 30
88.74574279785156
 70
   192
  0
VERTEX
  5
84F
  8
0
 10
752.0
 20
-4.740353584289551
 30
89.19315338134766
 70
   192
  0
VERTEX
  5
850
  8
0
 10
752.0
 20
-3.585875034332275
 30
89.54473876953125
 70
   192
  0
VERTEX
  5
851
  8
0
 10
752.0
 20
-2.397716760635376
 30
89.79914093017578
 70
   192
  0
VERTEX
  5
852
  8
0
 10
752.0
 20
-1.198447227478027
 30
89.95042419433594
 70
   192
  0
VERTEX
  5
853
  8
0
 10
752.0
 20
0.0
 30
90.0
 70
   192
  0
VERTEX
  5
854
  8
0
 10
752.0
 20
1.310458064079285
 30
89.93958282470703
 70
   192
  0
VERTEX
  5
855
  8
0
 10
752.0
 20
2.622843027114868
 30
89.75928497314453
 70
   192
  0
VERTEX
  5
856
  8
0
 10
752.0
 20
3.903064250946045
 30
89.46040344238281
 70
   192
  0
VERTEX
  5
857
  8
0
 10
752.0
 20
5.150743007659912
 30
89.04341125488281
 70
   192
  0
VERTEX
  5
858
  8
0
 10
752.0
 20
6.368695259094238
 30
88.51152801513672
 70
   192
  0
VERTEX
  5
859
  8
0
 10
752.0
 20
7.538798332214355
 30
87.87974548339844
 70
   192
  0
VERTEX
  5
85A
  8
0
 10
752.0
 20
8.644604682922363
 30
87.16259765625
 70
   192
  0
VERTEX
  5
85B
  8
0
 10
752.0
 20
9.697296142578125
 30
86.36109924316406
 70
   192
  0
VERTEX
  5
85C
  8
0
 10
752.0
 20
10.69486618041992
 30
85.48851776123047
 70
   192
  0
VERTEX
  5
85D
  8
0
 10
752.0
 20
11.62746334075928
 30
84.56103515625
 70
   192
  0
VERTEX
  5
85E
  8
0
 10
752.0
 20
13.32299518585205
 30
82.54931640625
 70
   192
  0
VERTEX
  5
85F
  8
0
 10
752.0
 20
14.818434715271
 30
80.35879516601562
 70
   192
  0
VERTEX
  5
860
  8
0
 10
752.0
 20
15.48925399780273
 30
79.21536254882812
 70
   192
  0
VERTEX
  5
861
  8
0
 10
752.0
 20
15.80581474304199
 30
78.63411712646484
 70
   192
  0
VERTEX
  5
862
  8
0
 10
960.0
 20
2.228543043136597
 30
157.8937072753906
 70
   192
  0
VERTEX
  5
863
  8
0
 10
960.0
 20
0.2470346689224243
 30
157.9964141845703
 70
   192
  0
VERTEX
  5
864
  8
0
 10
960.0
 20
-1.736079096794128
 30
157.9286499023438
 70
   192
  0
VERTEX
  5
865
  8
0
 10
960.0
 20
-3.706976890563965
 30
157.6940155029297
 70
   192
  0
VERTEX
  5
866
  8
0
 10
960.0
 20
-5.651836395263672
 30
157.2961578369141
 70
   192
  0
VERTEX
  5
867
  8
0
 10
960.0
 20
-7.556836605072021
 30
156.7386474609375
 70
   192
  0
VERTEX
  5
868
  8
0
 10
960.0
 20
-9.40815544128418
 30
156.0251312255859
 70
   192
  0
VERTEX
  5
869
  8
0
 10
960.0
 20
-11.191969871521
 30
155.1591949462891
 70
   192
  0
VERTEX
  5
86A
  8
0
 10
960.0
 20
-12.89446067810059
 30
154.1444702148438
 70
   192
  0
VERTEX
  5
86B
  8
0
 10
960.0
 20
-14.5026273727417
 30
152.9858551025391
 70
   192
  0
VERTEX
  5
86C
  8
0
 10
960.0
 20
-16.00676345825195
 30
151.6933898925781
 70
   192
  0
VERTEX
  5
86D
  8
0
 10
960.0
 20
-17.39798355102539
 30
150.2784271240234
 70
   192
  0
VERTEX
  5
86E
  8
0
 10
960.0
 20
-18.66740417480469
 30
148.7522888183594
 70
   192
  0
VERTEX
  5
86F
  8
0
 10
960.0
 20
-19.8061408996582
 30
147.1263427734375
 70
   192
  0
VERTEX
  5
870
  8
0
 10
960.0
 20
-20.8053092956543
 30
145.4118957519531
 70
   192
  0
VERTEX
  5
871
  8
0
 10
960.0
 20
-21.65602684020996
 30
143.6203155517578
 70
   192
  0
VERTEX
  5
872
  8
0
 10
960.0
 20
-22.34940719604492
 30
141.7629241943359
 70
   192
  0
VERTEX
  5
873
  8
0
 10
960.0
 20
-22.87891960144043
 30
139.8517303466797
 70
   192
  0
VERTEX
  5
874
  8
0
 10
960.0
 20
-23.24745178222656
 30
137.9013214111328
 70
   192
  0
VERTEX
  5
875
  8
0
 10
960.0
 20
-23.45349884033203
 30
135.9269104003906
 70
   192
  0
VERTEX
  5
876
  8
0
 10
960.0
 20
-23.46856307983398
 30
133.9433441162109
 70
   192
  0
VERTEX
  5
877
  8
0
 10
960.0
 20
-23.22904968261719
 30
129.9800567626953
 70
   192
  0
VERTEX
  5
878
  8
0
 10
960.0
 20
-23.00557518005371
 30
126.0167007446289
 70
   192
  0
VERTEX
  5
879
  8
0
 10
960.0
 20
-21.16609001159668
 30
94.30878448486328
 70
   192
  0
VERTEX
  5
87A
  8
0
 10
960.0
 20
-19.32758331298828
 30
62.60090255737305
 70
   192
  0
VERTEX
  5
87B
  8
0
 10
960.0
 20
-19.09605979919434
 30
58.63733673095703
 70
   192
  0
VERTEX
  5
87C
  8
0
 10
960.0
 20
-18.85747528076172
 30
54.67550277709961
 70
   192
  0
VERTEX
  5
87D
  8
0
 10
960.0
 20
-18.51320457458496
 30
52.72312164306641
 70
   192
  0
VERTEX
  5
87E
  8
0
 10
960.0
 20
-17.96587181091309
 30
50.81565475463867
 70
   192
  0
VERTEX
  5
87F
  8
0
 10
960.0
 20
-17.22248840332031
 30
48.97501754760742
 70
   192
  0
VERTEX
  5
880
  8
0
 10
960.0
 20
-16.29007339477539
 30
47.22314834594727
 70
   192
  0
VERTEX
  5
881
  8
0
 10
960.0
 20
-15.47157859802246
 30
45.98015975952148
 70
   192
  0
VERTEX
  5
882
  8
0
 10
960.0
 20
-14.55757808685303
 30
44.80548095703125
 70
   192
  0
VERTEX
  5
883
  8
0
 10
960.0
 20
-13.55494594573975
 30
43.70515823364258
 70
   192
  0
VERTEX
  5
884
  8
0
 10
960.0
 20
-12.47056102752686
 30
42.68524551391602
 70
   192
  0
VERTEX
  5
885
  8
0
 10
960.0
 20
-11.31130027770996
 30
41.75178527832031
 70
   192
  0
VERTEX
  5
886
  8
0
 10
960.0
 20
-10.08404064178467
 30
40.91082382202148
 70
   192
  0
VERTEX
  5
887
  8
0
 10
960.0
 20
-8.795660972595215
 30
40.16840744018555
 70
   192
  0
VERTEX
  5
888
  8
0
 10
960.0
 20
-7.453038692474365
 30
39.53058242797852
 70
   192
  0
VERTEX
  5
889
  8
0
 10
960.0
 20
-6.063448429107666
 30
39.00253295898438
 70
   192
  0
VERTEX
  5
88A
  8
0
 10
960.0
 20
-4.635756015777588
 30
38.58600616455078
 70
   192
  0
VERTEX
  5
88B
  8
0
 10
960.0
 20
-3.179224967956543
 30
38.28186416625977
 70
   192
  0
VERTEX
  5
88C
  8
0
 10
960.0
 20
-1.703119874000549
 30
38.09099960327148
 70
   192
  0
VERTEX
  5
88D
  8
0
 10
960.0
 20
-0.2167035192251205
 30
38.01427841186523
 70
   192
  0
VERTEX
  5
88E
  8
0
 10
960.0
 20
1.270760059356689
 30
38.05257797241211
 70
   192
  0
VERTEX
  5
88F
  8
0
 10
960.0
 20
2.750007390975952
 30
38.20677947998047
 70
   192
  0
VERTEX
  5
890
  8
0
 10
960.0
 20
4.211774826049805
 30
38.47775650024414
 70
   192
  0
VERTEX
  5
891
  8
0
 10
960.0
 20
5.647024631500244
 30
38.86544036865234
 70
   192
  0
VERTEX
  5
892
  8
0
 10
960.0
 20
7.047627449035645
 30
39.36598205566406
 70
   192
  0
VERTEX
  5
893
  8
0
 10
960.0
 20
8.405678749084473
 30
39.97458267211914
 70
   192
  0
VERTEX
  5
894
  8
0
 10
960.0
 20
9.713274002075195
 30
40.68644714355469
 70
   192
  0
VERTEX
  5
895
  8
0
 10
960.0
 20
10.96251106262207
 30
41.49677658081055
 70
   192
  0
VERTEX
  5
896
  8
0
 10
960.0
 20
12.14548492431641
 30
42.40077590942383
 70
   192
  0
VERTEX
  5
897
  8
0
 10
960.0
 20
13.25429153442383
 30
43.39364624023438
 70
   192
  0
VERTEX
  5
898
  8
0
 10
960.0
 20
14.28102588653564
 30
44.4705924987793
 70
   192
  0
VERTEX
  5
899
  8
0
 10
960.0
 20
15.51025295257568
 30
46.027587890625
 70
   192
  0
VERTEX
  5
89A
  8
0
 10
960.0
 20
16.57022094726562
 30
47.70557403564453
 70
   192
  0
VERTEX
  5
89B
  8
0
 10
960.0
 20
17.45163345336914
 30
49.484619140625
 70
   192
  0
VERTEX
  5
89C
  8
0
 10
960.0
 20
18.14518165588379
 30
51.34476470947266
 70
   192
  0
VERTEX
  5
89D
  8
0
 10
960.0
 20
18.62543296813965
 30
53.26601791381836
 70
   192
  0
VERTEX
  5
89E
  8
0
 10
960.0
 20
18.90922546386719
 30
55.22715759277344
 70
   192
  0
VERTEX
  5
89F
  8
0
 10
960.0
 20
19.14817428588867
 30
59.19437026977539
 70
   192
  0
VERTEX
  5
8A0
  8
0
 10
960.0
 20
19.37435722351074
 30
63.15655517578125
 70
   192
  0
VERTEX
  5
8A1
  8
0
 10
960.0
 20
19.83012962341309
 30
71.08389282226562
 70
   192
  0
VERTEX
  5
8A2
  8
0
 10
960.0
 20
23.5
 30
134.5
 70
   192
  0
VERTEX
  5
8A3
  8
0
 10
960.0
 20
23.38467597961426
 30
136.6646270751953
 70
   192
  0
VERTEX
  5
8A4
  8
0
 10
960.0
 20
23.08821487426758
 30
138.8109436035156
 70
   192
  0
VERTEX
  5
8A5
  8
0
 10
960.0
 20
22.60239410400391
 30
140.9206390380859
 70
   192
  0
VERTEX
  5
8A6
  8
0
 10
960.0
 20
21.91898918151855
 30
142.9753875732422
 70
   192
  0
VERTEX
  5
8A7
  8
0
 10
960.0
 20
21.04249572753906
 30
144.9576568603516
 70
   192
  0
VERTEX
  5
8A8
  8
0
 10
960.0
 20
19.98889541625977
 30
146.8515167236328
 70
   192
  0
VERTEX
  5
8A9
  8
0
 10
960.0
 20
18.76718902587891
 30
148.6410064697266
 70
   192
  0
VERTEX
  5
8AA
  8
0
 10
960.0
 20
17.38638114929199
 30
150.3102416992188
 70
   192
  0
VERTEX
  5
8AB
  8
0
 10
960.0
 20
15.8564567565918
 30
151.8440551757812
 70
   192
  0
VERTEX
  5
8AC
  8
0
 10
960.0
 20
14.19135284423828
 30
153.2304534912109
 70
   192
  0
VERTEX
  5
8AD
  8
0
 10
960.0
 20
12.40598583221436
 30
154.4582366943359
 70
   192
  0
VERTEX
  5
8AE
  8
0
 10
960.0
 20
10.51527500152588
 30
155.5162200927734
 70
   192
  0
VERTEX
  5
8AF
  8
0
 10
960.0
 20
8.534625053405762
 30
156.3942260742188
 70
   192
  0
VERTEX
  5
8B0
  8
0
 10
960.0
 20
6.481393337249756
 30
157.0863800048828
 70
   192
  0
VERTEX
  5
8B1
  8
0
 10
960.0
 20
4.37341833114624
 30
157.5878143310547
 70
   192
  0
VERTEX
  5
8B2
  8
0
 10
960.0
 20
23.5
 30
134.5
 70
   192
  0
VERTEX
  5
8B3
  8
0
 10
960.0
 20
19.83012962341309
 30
71.08389282226562
 70
   192
  0
VERTEX
  5
8B4
  8
0
 10
960.0
 20
19.37435722351074
 30
63.15655517578125
 70
   192
  0
VERTEX
  5
8B5
  8
0
 10
960.0
 20
19.14817428588867
 30
59.19437026977539
 70
   192
  0
VERTEX
  5
8B6
  8
0
 10
960.0
 20
18.90922546386719
 30
55.22715759277344
 70
   192
  0
VERTEX
  5
8B7
  8
0
 10
960.0
 20
18.62543296813965
 30
53.26601791381836
 70
   192
  0
VERTEX
  5
8B8
  8
0
 10
960.0
 20
18.14518165588379
 30
51.34476470947266
 70
   192
  0
VERTEX
  5
8B9
  8
0
 10
960.0
 20
17.45163345336914
 30
49.484619140625
 70
   192
  0
VERTEX
  5
8BA
  8
0
 10
960.0
 20
16.57022094726562
 30
47.70557403564453
 70
   192
  0
VERTEX
  5
8BB
  8
0
 10
960.0
 20
15.51025295257568
 30
46.027587890625
 70
   192
  0
VERTEX
  5
8BC
  8
0
 10
960.0
 20
14.28102588653564
 30
44.4705924987793
 70
   192
  0
VERTEX
  5
8BD
  8
0
 10
960.0
 20
13.25429153442383
 30
43.39364624023438
 70
   192
  0
VERTEX
  5
8BE
  8
0
 10
960.0
 20
12.14548492431641
 30
42.40077590942383
 70
   192
  0
VERTEX
  5
8BF
  8
0
 10
960.0
 20
10.96251106262207
 30
41.49677658081055
 70
   192
  0
VERTEX
  5
8C0
  8
0
 10
960.0
 20
9.713274002075195
 30
40.68644714355469
 70
   192
  0
VERTEX
  5
8C1
  8
0
 10
960.0
 20
8.405678749084473
 30
39.97458267211914
 70
   192
  0
VERTEX
  5
8C2
  8
0
 10
960.0
 20
7.047627449035645
 30
39.36598205566406
 70
   192
  0
VERTEX
  5
8C3
  8
0
 10
960.0
 20
5.647024631500244
 30
38.86544036865234
 70
   192
  0
VERTEX
  5
8C4
  8
0
 10
960.0
 20
4.211774826049805
 30
38.47775650024414
 70
   192
  0
VERTEX
  5
8C5
  8
0
 10
960.0
 20
2.750007390975952
 30
38.20677947998047
 70
   192
  0
VERTEX
  5
8C6
  8
0
 10
960.0
 20
1.270760059356689
 30
38.05257797241211
 70
   192
  0
VERTEX
  5
8C7
  8
0
 10
960.0
 20
-0.2167035192251205
 30
38.01427841186523
 70
   192
  0
VERTEX
  5
8C8
  8
0
 10
960.0
 20
-1.703119874000549
 30
38.09099960327148
 70
   192
  0
VERTEX
  5
8C9
  8
0
 10
960.0
 20
-3.179224967956543
 30
38.28186416625977
 70
   192
  0
VERTEX
  5
8CA
  8
0
 10
960.0
 20
-4.635756015777588
 30
38.58600616455078
 70
   192
  0
VERTEX
  5
8CB
  8
0
 10
960.0
 20
-6.063448429107666
 30
39.00253295898438
 70
   192
  0
VERTEX
  5
8CC
  8
0
 10
960.0
 20
-7.453038692474365
 30
39.53058242797852
 70
   192
  0
VERTEX
  5
8CD
  8
0
 10
960.0
 20
-8.795660972595215
 30
40.16840744018555
 70
   192
  0
VERTEX
  5
8CE
  8
0
 10
960.0
 20
-10.08404064178467
 30
40.91082382202148
 70
   192
  0
VERTEX
  5
8CF
  8
0
 10
960.0
 20
-11.31130027770996
 30
41.75178527832031
 70
   192
  0
VERTEX
  5
8D0
  8
0
 10
960.0
 20
-12.47056102752686
 30
42.68524551391602
 70
   192
  0
VERTEX
  5
8D1
  8
0
 10
960.0
 20
-13.55494594573975
 30
43.70515823364258
 70
   192
  0
VERTEX
  5
8D2
  8
0
 10
960.0
 20
-14.55757808685303
 30
44.80548095703125
 70
   192
  0
VERTEX
  5
8D3
  8
0
 10
960.0
 20
-15.47157859802246
 30
45.98015975952148
 70
   192
  0
VERTEX
  5
8D4
  8
0
 10
960.0
 20
-16.29007339477539
 30
47.22314834594727
 70
   192
  0
VERTEX
  5
8D5
  8
0
 10
960.0
 20
-17.22248840332031
 30
48.97501754760742
 70
   192
  0
VERTEX
  5
8D6
  8
0
 10
960.0
 20
-17.96587181091309
 30
50.81565475463867
 70
   192
  0
VERTEX
  5
8D7
  8
0
 10
960.0
 20
-18.51320457458496
 30
52.72312164306641
 70
   192
  0
VERTEX
  5
8D8
  8
0
 10
960.0
 20
-18.85747528076172
 30
54.67550277709961
 70
   192
  0
VERTEX
  5
8D9
  8
0
 10
960.0
 20
-19.09605979919434
 30
58.63733673095703
 70
   192
  0
VERTEX
  5
8DA
  8
0
 10
960.0
 20
-19.32758331298828
 30
62.60090255737305
 70
   192
  0
VERTEX
  5
8DB
  8
0
 10
960.0
 20
-21.16609001159668
 30
94.30878448486328
 70
   192
  0
VERTEX
  5
8DC
  8
0
 10
960.0
 20
-23.00557518005371
 30
126.0167007446289
 70
   192
  0
VERTEX
  5
8DD
  8
0
 10
960.0
 20
-23.22904968261719
 30
129.9800567626953
 70
   192
  0
VERTEX
  5
8DE
  8
0
 10
960.0
 20
-23.46856307983398
 30
133.9433441162109
 70
   192
  0
VERTEX
  5
8DF
  8
0
 10
960.0
 20
-23.45349884033203
 30
135.9269104003906
 70
   192
  0
VERTEX
  5
8E0
  8
0
 10
960.0
 20
-23.24745178222656
 30
137.9013214111328
 70
   192
  0
VERTEX
  5
8E1
  8
0
 10
960.0
 20
-22.87891960144043
 30
139.8517303466797
 70
   192
  0
VERTEX
  5
8E2
  8
0
 10
960.0
 20
-22.34940719604492
 30
141.7629241943359
 70
   192
  0
VERTEX
  5
8E3
  8
0
 10
960.0
 20
-21.65602684020996
 30
143.6203155517578
 70
   192
  0
VERTEX
  5
8E4
  8
0
 10
960.0
 20
-20.8053092956543
 30
145.4118957519531
 70
   192
  0
VERTEX
  5
8E5
  8
0
 10
960.0
 20
-19.8061408996582
 30
147.1263427734375
 70
   192
  0
VERTEX
  5
8E6
  8
0
 10
960.0
 20
-18.66740417480469
 30
148.7522888183594
 70
   192
  0
VERTEX
  5
8E7
  8
0
 10
960.0
 20
-17.39798355102539
 30
150.2784271240234
 70
   192
  0
VERTEX
  5
8E8
  8
0
 10
960.0
 20
-16.00676345825195
 30
151.6933898925781
 70
   192
  0
VERTEX
  5
8E9
  8
0
 10
960.0
 20
-14.5026273727417
 30
152.9858551025391
 70
   192
  0
VERTEX
  5
8EA
  8
0
 10
960.0
 20
-12.89446067810059
 30
154.1444702148438
 70
   192
  0
VERTEX
  5
8EB
  8
0
 10
960.0
 20
-11.191969871521
 30
155.1591949462891
 70
   192
  0
VERTEX
  5
8EC
  8
0
 10
960.0
 20
-9.40815544128418
 30
156.0251312255859
 70
   192
  0
VERTEX
  5
8ED
  8
0
 10
960.0
 20
-7.556836605072021
 30
156.7386474609375
 70
   192
  0
VERTEX
  5
8EE
  8
0
 10
960.0
 20
-5.651836395263672
 30
157.2961578369141
 70
   192
  0
VERTEX
  5
8EF
  8
0
 10
960.0
 20
-3.706976890563965
 30
157.6940155029297
 70
   192
  0
VERTEX
  5
8F0
  8
0
 10
960.0
 20
-1.736079096794128
 30
157.9286499023438
 70
   192
  0
VERTEX
  5
8F1
  8
0
 10
960.0
 20
0.2470346689224243
 30
157.9964141845703
 70
   192
  0
VERTEX
  5
8F2
  8
0
 10
960.0
 20
2.228543043136597
 30
157.8937072753906
 70
   192
  0
VERTEX
  5
8F3
  8
0
 10
752.0
 20
0.0
 30
90.0
 70
   192
  0
VERTEX
  5
8F4
  8
0
 10
752.0
 20
-1.198447227478027
 30
89.95042419433594
 70
   192
  0
VERTEX
  5
8F5
  8
0
 10
752.0
 20
-2.397716760635376
 30
89.79914093017578
 70
   192
  0
VERTEX
  5
8F6
  8
0
 10
752.0
 20
-3.585875034332275
 30
89.54473876953125
 70
   192
  0
VERTEX
  5
8F7
  8
0
 10
752.0
 20
-4.740353584289551
 30
89.19315338134766
 70
   192
  0
VERTEX
  5
8F8
  8
0
 10
752.0
 20
-5.869226932525635
 30
88.74574279785156
 70
   192
  0
VERTEX
  5
8F9
  8
0
 10
752.0
 20
-6.953571796417236
 30
88.21208953857422
 70
   192
  0
VERTEX
  5
8FA
  8
0
 10
752.0
 20
-7.992342948913574
 30
87.5998306274414
 70
   192
  0
VERTEX
  5
8FB
  8
0
 10
752.0
 20
-8.984496116638184
 30
86.9166030883789
 70
   192
  0
VERTEX
  5
8FC
  8
0
 10
752.0
 20
-9.929268836975098
 30
86.16964721679688
 70
   192
  0
VERTEX
  5
8FD
  8
0
 10
752.0
 20
-10.8270378112793
 30
85.3646469116211
 70
   192
  0
VERTEX
  5
8FE
  8
0
 10
752.0
 20
-12.4841947555542
 30
83.60163879394531
 70
   192
  0
VERTEX
  5
8FF
  8
0
 10
752.0
 20
-13.9612340927124
 30
81.66986846923828
 70
   192
  0
VERTEX
  5
900
  8
0
 10
752.0
 20
-15.26342582702637
 30
79.61164093017578
 70
   192
  0
VERTEX
  5
901
  8
0
 10
752.0
 20
-16.39696311950684
 30
77.46533203125
 70
   192
  0
VERTEX
  5
902
  8
0
 10
752.0
 20
-17.37174224853516
 30
75.25373077392578
 70
   192
  0
VERTEX
  5
903
  8
0
 10
752.0
 20
-18.88928413391113
 30
70.67144775390625
 70
   192
  0
VERTEX
  5
904
  8
0
 10
752.0
 20
-19.86802291870117
 30
65.92089080810547
 70
   192
  0
VERTEX
  5
905
  8
0
 10
752.0
 20
-20.3353385925293
 30
61.10478973388672
 70
   192
  0
VERTEX
  5
906
  8
0
 10
752.0
 20
-20.34070587158203
 30
56.26775741577148
 70
   192
  0
VERTEX
  5
907
  8
0
 10
752.0
 20
-19.91542053222656
 30
51.44498825073242
 70
   192
  0
VERTEX
  5
908
  8
0
 10
752.0
 20
-19.08624267578125
 30
46.6693229675293
 70
   192
  0
VERTEX
  5
909
  8
0
 10
752.0
 20
-17.87992477416992
 30
41.97358703613281
 70
   192
  0
VERTEX
  5
90A
  8
0
 10
752.0
 20
-16.31263732910156
 30
37.39205551147461
 70
   192
  0
VERTEX
  5
90B
  8
0
 10
752.0
 20
-14.35819625854492
 30
32.96474456787109
 70
   192
  0
VERTEX
  5
90C
  8
0
 10
752.0
 20
-11.96413040161133
 30
28.75557899475098
 70
   192
  0
VERTEX
  5
90D
  8
0
 10
752.0
 20
-10.56720447540283
 30
26.77945709228516
 70
   192
  0
VERTEX
  5
90E
  8
0
 10
752.0
 20
-9.015191078186035
 30
24.91835021972656
 70
   192
  0
VERTEX
  5
90F
  8
0
 10
752.0
 20
-7.958605289459229
 30
23.82686233520508
 70
   192
  0
VERTEX
  5
910
  8
0
 10
752.0
 20
-6.827744007110596
 30
22.81533432006836
 70
   192
  0
VERTEX
  5
911
  8
0
 10
752.0
 20
-5.615307331085205
 30
21.91019248962402
 70
   192
  0
VERTEX
  5
912
  8
0
 10
752.0
 20
-4.313994884490967
 30
21.13785934448242
 70
   192
  0
VERTEX
  5
913
  8
0
 10
752.0
 20
-3.488863229751587
 30
20.75023460388184
 70
   192
  0
VERTEX
  5
914
  8
0
 10
752.0
 20
-2.635648488998413
 30
20.43182563781738
 70
   192
  0
VERTEX
  5
915
  8
0
 10
752.0
 20
-1.760891318321228
 30
20.19452667236328
 70
   192
  0
VERTEX
  5
916
  8
0
 10
752.0
 20
-0.8711320757865906
 30
20.05023193359375
 70
   192
  0
VERTEX
  5
917
  8
0
 10
752.0
 20
0.0266580265015364
 30
20.00780868530273
 70
   192
  0
VERTEX
  5
918
  8
0
 10
752.0
 20
0.923785924911499
 30
20.06403160095215
 70
   192
  0
VERTEX
  5
919
  8
0
 10
752.0
 20
1.811127662658691
 30
20.212646484375
 70
   192
  0
VERTEX
  5
91A
  8
0
 10
752.0
 20
2.679559469223022
 30
20.4474048614502
 70
   192
  0
VERTEX
  5
91B
  8
0
 10
752.0
 20
3.383102893829346
 30
20.70413398742676
 70
   192
  0
VERTEX
  5
91C
  8
0
 10
752.0
 20
4.067165374755859
 30
21.01154518127441
 70
   192
  0
VERTEX
  5
91D
  8
0
 10
752.0
 20
5.376794815063477
 30
21.75922775268555
 70
   192
  0
VERTEX
  5
91E
  8
0
 10
752.0
 20
6.60834264755249
 30
22.65206718444824
 70
   192
  0
VERTEX
  5
91F
  8
0
 10
752.0
 20
7.761703014373779
 30
23.65168380737305
 70
   192
  0
VERTEX
  5
920
  8
0
 10
752.0
 20
9.448057174682617
 30
25.39863014221191
 70
   192
  0
VERTEX
  5
921
  8
0
 10
752.0
 20
10.95676326751709
 30
27.29104804992676
 70
   192
  0
VERTEX
  5
922
  8
0
 10
752.0
 20
12.31060123443604
 30
29.29932594299316
 70
   192
  0
VERTEX
  5
923
  8
0
 10
752.0
 20
13.53234958648682
 30
31.39383506774902
 70
   192
  0
VERTEX
  5
924
  8
0
 10
752.0
 20
15.64552211761475
 30
35.75264739990234
 70
   192
  0
VERTEX
  5
925
  8
0
 10
752.0
 20
17.35262870788574
 30
40.27826309204102
 70
   192
  0
VERTEX
  5
926
  8
0
 10
752.0
 20
18.68058586120605
 30
44.92194747924805
 70
   192
  0
VERTEX
  5
927
  8
0
 10
752.0
 20
19.63929176330566
 30
49.67866134643555
 70
   192
  0
VERTEX
  5
928
  8
0
 10
752.0
 20
20.11356353759766
 30
53.29676055908203
 70
   192
  0
VERTEX
  5
929
  8
0
 10
752.0
 20
20.36044502258301
 30
56.92229461669922
 70
   192
  0
VERTEX
  5
92A
  8
0
 10
752.0
 20
20.3619270324707
 30
60.54631805419922
 70
   192
  0
VERTEX
  5
92B
  8
0
 10
752.0
 20
20.10000801086426
 30
64.15985870361328
 70
   192
  0
VERTEX
  5
92C
  8
0
 10
752.0
 20
19.31192398071289
 30
68.93599700927734
 70
   192
  0
VERTEX
  5
92D
  8
0
 10
752.0
 20
17.99290084838867
 30
73.59552764892578
 70
   192
  0
VERTEX
  5
92E
  8
0
 10
752.0
 20
16.8846607208252
 30
76.41009521484375
 70
   192
  0
VERTEX
  5
92F
  8
0
 10
752.0
 20
16.10972023010254
 30
78.04806518554688
 70
   192
  0
VERTEX
  5
930
  8
0
 10
960.0
 20
2.228543043136597
 30
157.8937072753906
 70
   192
  0
VERTEX
  5
931
  8
0
 10
960.0
 20
4.37341833114624
 30
157.5878143310547
 70
   192
  0
VERTEX
  5
932
  8
0
 10
960.0
 20
6.481393337249756
 30
157.0863800048828
 70
   192
  0
VERTEX
  5
933
  8
0
 10
960.0
 20
8.534625053405762
 30
156.3942260742188
 70
   192
  0
VERTEX
  5
934
  8
0
 10
960.0
 20
10.51527500152588
 30
155.5162200927734
 70
   192
  0
VERTEX
  5
935
  8
0
 10
960.0
 20
12.40598583221436
 30
154.4582366943359
 70
   192
  0
VERTEX
  5
936
  8
0
 10
960.0
 20
14.19135284423828
 30
153.2304534912109
 70
   192
  0
VERTEX
  5
937
  8
0
 10
960.0
 20
15.8564567565918
 30
151.8440551757812
 70
   192
  0
VERTEX
  5
938
  8
0
 10
960.0
 20
17.38638114929199
 30
150.3102416992188
 70
   192
  0
VERTEX
  5
939
  8
0
 10
960.0
 20
18.76718902587891
 30
148.6410064697266
 70
   192
  0
VERTEX
  5
93A
  8
0
 10
960.0
 20
19.98889541625977
 30
146.8515167236328
 70
   192
  0
VERTEX
  5
93B
  8
0
 10
960.0
 20
21.04249572753906
 30
144.9576568603516
 70
   192
  0
VERTEX
  5
93C
  8
0
 10
960.0
 20
21.91898918151855
 30
142.9753875732422
 70
   192
  0
VERTEX
  5
93D
  8
0
 10
960.0
 20
22.60239410400391
 30
140.9206390380859
 70
   192
  0
VERTEX
  5
93E
  8
0
 10
960.0
 20
23.08821487426758
 30
138.8109436035156
 70
   192
  0
VERTEX
  5
93F
  8
0
 10
960.0
 20
23.38467597961426
 30
136.6646270751953
 70
   192
  0
VERTEX
  5
940
  8
0
 10
960.0
 20
23.5
 30
134.5
 70
   192
  0
VERTEX
  5
941
  8
0
 10
752.0
 20
16.10972023010254
 30
78.04806518554688
 70
   192
  0
VERTEX
  5
942
  8
0
 10
752.0
 20
15.80581474304199
 30
78.63411712646484
 70
   192
  0
VERTEX
  5
943
  8
0
 10
752.0
 20
15.48925399780273
 30
79.21536254882812
 70
   192
  0
VERTEX
  5
944
  8
0
 10
752.0
 20
14.818434715271
 30
80.35879516601562
 70
   192
  0
VERTEX
  5
945
  8
0
 10
752.0
 20
13.32299518585205
 30
82.54931640625
 70
   192
  0
VERTEX
  5
946
  8
0
 10
752.0
 20
11.62746334075928
 30
84.56103515625
 70
   192
  0
VERTEX
  5
947
  8
0
 10
752.0
 20
10.69486618041992
 30
85.48851776123047
 70
   192
  0
VERTEX
  5
948
  8
0
 10
752.0
 20
9.697296142578125
 30
86.36109924316406
 70
   192
  0
VERTEX
  5
949
  8
0
 10
752.0
 20
8.644604682922363
 30
87.16259765625
 70
   192
  0
VERTEX
  5
94A
  8
0
 10
752.0
 20
7.538798332214355
 30
87.87974548339844
 70
   192
  0
VERTEX
  5
94B
  8
0
 10
752.0
 20
6.368695259094238
 30
88.51152801513672
 70
   192
  0
VERTEX
  5
94C
  8
0
 10
752.0
 20
5.150743007659912
 30
89.04341125488281
 70
   192
  0
VERTEX
  5
94D
  8
0
 10
752.0
 20
3.903064250946045
 30
89.46040344238281
 70
   192
  0
VERTEX
  5
94E
  8
0
 10
752.0
 20
2.622843027114868
 30
89.75928497314453
 70
   192
  0
VERTEX
  5
94F
  8
0
 10
752.0
 20
1.310458064079285
 30
89.93958282470703
 70
   192
  0
VERTEX
  5
950
  8
0
 10
752.0
 20
0.0
 30
90.0
 70
   192
  0
VERTEX
  5
951
  8
0
 10
0.0
 20
0.0
 30
0.0
 70
   128
 71
    75
 72
     1
 73
    12
  0
VERTEX
  5
952
  8
0
 10
0.0
 20
0.0
 30
0.0
 70
   128
 71
    74
 72
    12
 73
    13
  0
VERTEX
  5
953
  8
0
 10
0.0
 20
0.0
 30
0.0
 70
   128
 71
    73
 72
    13
 73
    72
  0
VERTEX
  5
954
  8
0
 10
0.0
 20
0.0
 30
0.0
 70
   128
 71
    73
 72
    74
 73
    13
  0
VERTEX
  5
955
  8
0
 10
0.0
 20
0.0
 30
0.0
 70
   128
 71
     8
 72
     9
 73
     4
  0
VERTEX
  5
956
  8
0
 10
0.0
 20
0.0
 30
0.0
 70
   128
 71
     7
 72
     4
 73
     6
  0
VERTEX
  5
957
  8
0
 10
0.0
 20
0.0
 30
0.0
 70
   128
 71
     7
 72
     8
 73
     4
  0
VERTEX
  5
958
  8
0
 10
0.0
 20
0.0
 30
0.0
 70
   128
 71
     4
 72
    10
 73
     3
  0
VERTEX
  5
959
  8
0
 10
0.0
 20
0.0
 30
0.0
 70
   128
 71
     4
 72
     9
 73
    10
  0
VERTEX
  5
95A
  8
0
 10
0.0
 20
0.0
 30
0.0
 70
   128
 71
     4
 72
     5
 73
     6
  0
VERTEX
  5
95B
  8
0
 10
0.0
 20
0.0
 30
0.0
 70
   128
 71
    10
 72
    11
 73
     3
  0
VERTEX
  5
95C
  8
0
 10
0.0
 20
0.0
 30
0.0
 70
   128
 71
     3
 72
    11
 73
     2
  0
VERTEX
  5
95D
  8
0
 10
0.0
 20
0.0
 30
0.0
 70
   128
 71
     2
 72
    11
 73
    12
  0
VERTEX
  5
95E
  8
0
 10
0.0
 20
0.0
 30
0.0
 70
   128
 71
     1
 72
     2
 73
    12
  0
VERTEX
  5
95F
  8
0
 10
0.0
 20
0.0
 30
0.0
 70
   128
 71
    13
 72
    14
 73
    72
  0
VERTEX
  5
960
  8
0
 10
0.0
 20
0.0
 30
0.0
 70
   128
 71
    72
 72
    14
 73
    71
  0
VERTEX
  5
961
  8
0
 10
0.0
 20
0.0
 30
0.0
 70
   128
 71
    71
 72
    14
 73
    15
  0
VERTEX
  5
962
  8
0
 10
0.0
 20
0.0
 30
0.0
 70
   128
 71
    70
 72
    15
 73
    16
  0
VERTEX
  5
963
  8
0
 10
0.0
 20
0.0
 30
0.0
 70
   128
 71
    69
 72
    16
 73
    68
  0
VERTEX
  5
964
  8
0
 10
0.0
 20
0.0
 30
0.0
 70
   128
 71
    69
 72
    70
 73
    16
  0
VERTEX
  5
965
  8
0
 10
0.0
 20
0.0
 30
0.0
 70
   128
 71
    16
 72
    17
 73
    68
  0
VERTEX
  5
966
  8
0
 10
0.0
 20
0.0
 30
0.0
 70
   128
 71
    68
 72
    17
 73
    67
  0
VERTEX
  5
967
  8
0
 10
0.0
 20
0.0
 30
0.0
 70
   128
 71
    67
 72
    17
 73
    18
  0
VERTEX
  5
968
  8
0
 10
0.0
 20
0.0
 30
0.0
 70
   128
 71
    66
 72
    18
 73
    19
  0
VERTEX
  5
969
  8
0
 10
0.0
 20
0.0
 30
0.0
 70
   128
 71
    65
 72
    19
 73
    20
  0
VERTEX
  5
96A
  8
0
 10
0.0
 20
0.0
 30
0.0
 70
   128
 71
    64
 72
    20
 73
    21
  0
VERTEX
  5
96B
  8
0
 10
0.0
 20
0.0
 30
0.0
 70
   128
 71
    63
 72
    21
 73
    22
  0
VERTEX
  5
96C
  8
0
 10
0.0
 20
0.0
 30
0.0
 70
   128
 71
    23
 72
    63
 73
    22
  0
VERTEX
  5
96D
  8
0
 10
0.0
 20
0.0
 30
0.0
 70
   128
 71
    23
 72
    62
 73
    63
  0
VERTEX
  5
96E
  8
0
 10
0.0
 20
0.0
 30
0.0
 70
   128
 71
    23
 72
    24
 73
    62
  0
VERTEX
  5
96F
  8
0
 10
0.0
 20
0.0
 30
0.0
 70
   128
 71
    62
 72
    24
 73
    61
  0
VERTEX
  5
970
  8
0
 10
0.0
 20
0.0
 30
0.0
 70
   128
 71
    61
 72
    24
 73
    25
  0
VERTEX
  5
971
  8
0
 10
0.0
 20
0.0
 30
0.0
 70
   128
 71
    26
 72
    61
 73
    25
  0
VERTEX
  5
972
  8
0
 10
0.0
 20
0.0
 30
0.0
 70
   128
 71
    26
 72
    60
 73
    61
  0
VERTEX
  5
973
  8
0
 10
0.0
 20
0.0
 30
0.0
 70
   128
 71
    26
 72
    27
 73
    60
  0
VERTEX
  5
974
  8
0
 10
0.0
 20
0.0
 30
0.0
 70
   128
 71
    60
 72
    27
 73
    59
  0
VERTEX
  5
975
  8
0
 10
0.0
 20
0.0
 30
0.0
 70
   128
 71
    59
 72
    27
 73
    28
  0
VERTEX
  5
976
  8
0
 10
0.0
 20
0.0
 30
0.0
 70
   128
 71
    58
 72
    28
 73
    29
  0
VERTEX
  5
977
  8
0
 10
0.0
 20
0.0
 30
0.0
 70
   128
 71
    30
 72
    58
 73
    29
  0
VERTEX
  5
978
  8
0
 10
0.0
 20
0.0
 30
0.0
 70
   128
 71
    30
 72
    57
 73
    58
  0
VERTEX
  5
979
  8
0
 10
0.0
 20
0.0
 30
0.0
 70
   128
 71
    30
 72
    31
 73
    57
  0
VERTEX
  5
97A
  8
0
 10
0.0
 20
0.0
 30
0.0
 70
   128
 71
    57
 72
    31
 73
    56
  0
VERTEX
  5
97B
  8
0
 10
0.0
 20
0.0
 30
0.0
 70
   128
 71
    56
 72
    31
 73
    32
  0
VERTEX
  5
97C
  8
0
 10
0.0
 20
0.0
 30
0.0
 70
   128
 71
    55
 72
    32
 73
    33
  0
VERTEX
  5
97D
  8
0
 10
0.0
 20
0.0
 30
0.0
 70
   128
 71
    54
 72
    33
 73
    34
  0
VERTEX
  5
97E
  8
0
 10
0.0
 20
0.0
 30
0.0
 70
   128
 71
    53
 72
    34
 73
    52
  0
VERTEX
  5
97F
  8
0
 10
0.0
 20
0.0
 30
0.0
 70
   128
 71
    53
 72
    54
 73
    34
  0
VERTEX
  5
980
  8
0
 10
0.0
 20
0.0
 30
0.0
 70
   128
 71
    34
 72
    35
 73
    52
  0
VERTEX
  5
981
  8
0
 10
0.0
 20
0.0
 30
0.0
 70
   128
 71
    52
 72
    35
 73
    51
  0
VERTEX
  5
982
  8
0
 10
0.0
 20
0.0
 30
0.0
 70
   128
 71
    51
 72
    35
 73
    36
  0
VERTEX
  5
983
  8
0
 10
0.0
 20
0.0
 30
0.0
 70
   128
 71
    50
 72
    36
 73
    37
  0
VERTEX
  5
984
  8
0
 10
0.0
 20
0.0
 30
0.0
 70
   128
 71
    49
 72
    37
 73
    48
  0
VERTEX
  5
985
  8
0
 10
0.0
 20
0.0
 30
0.0
 70
   128
 71
    49
 72
    50
 73
    37
  0
VERTEX
  5
986
  8
0
 10
0.0
 20
0.0
 30
0.0
 70
   128
 71
    37
 72
    38
 73
    48
  0
VERTEX
  5
987
  8
0
 10
0.0
 20
0.0
 30
0.0
 70
   128
 71
    48
 72
    38
 73
    47
  0
VERTEX
  5
988
  8
0
 10
0.0
 20
0.0
 30
0.0
 70
   128
 71
    47
 72
    38
 73
    39
  0
VERTEX
  5
989
  8
0
 10
0.0
 20
0.0
 30
0.0
 70
   128
 71
    46
 72
    39
 73
    45
  0
VERTEX
  5
98A
  8
0
 10
0.0
 20
0.0
 30
0.0
 70
   128
 71
    46
 72
    47
 73
    39
  0
VERTEX
  5
98B
  8
0
 10
0.0
 20
0.0
 30
0.0
 70
   128
 71
    39
 72
    40
 73
    45
  0
VERTEX
  5
98C
  8
0
 10
0.0
 20
0.0
 30
0.0
 70
   128
 71
    45
 72
    40
 73
    41
  0
VERTEX
  5
98D
  8
0
 10
0.0
 20
0.0
 30
0.0
 70
   128
 71
    42
 72
    45
 73
    41
  0
VERTEX
  5
98E
  8
0
 10
0.0
 20
0.0
 30
0.0
 70
   128
 71
    42
 72
    43
 73
    45
  0
VERTEX
  5
98F
  8
0
 10
0.0
 20
0.0
 30
0.0
 70
   128
 71
    45
 72
    43
 73
    44
  0
VERTEX
  5
990
  8
0
 10
0.0
 20
0.0
 30
0.0
 70
   128
 71
    50
 72
    51
 73
    36
  0
VERTEX
  5
991
  8
0
 10
0.0
 20
0.0
 30
0.0
 70
   128
 71
    54
 72
    55
 73
    33
  0
VERTEX
  5
992
  8
0
 10
0.0
 20
0.0
 30
0.0
 70
   128
 71
    55
 72
    56
 73
    32
  0
VERTEX
  5
993
  8
0
 10
0.0
 20
0.0
 30
0.0
 70
   128
 71
    58
 72
    59
 73
    28
  0
VERTEX
  5
994
  8
0
 10
0.0
 20
0.0
 30
0.0
 70
   128
 71
    63
 72
    64
 73
    21
  0
VERTEX
  5
995
  8
0
 10
0.0
 20
0.0
 30
0.0
 70
   128
 71
    64
 72
    65
 73
    20
  0
VERTEX
  5
996
  8
0
 10
0.0
 20
0.0
 30
0.0
 70
   128
 71
    65
 72
    66
 73
    19
  0
VERTEX
  5
997
  8
0
 10
0.0
 20
0.0
 30
0.0
 70
   128
 71
    66
 72
    67
 73
    18
  0
VERTEX
  5
998
  8
0
 10
0.0
 20
0.0
 30
0.0
 70
   128
 71
    70
 72
    71
 73
    15
  0
VERTEX
  5
999
  8
0
 10
0.0
 20
0.0
 30
0.0
 70
   128
 71
    74
 72
    75
 73
    12
  0
VERTEX
  5
99A
  8
0
 10
0.0
 20
0.0
 30
0.0
 70
   128
 71
   155
 72
    76
 73
   139
  0
VERTEX
  5
99B
  8
0
 10
0.0
 20
0.0
 30
0.0
 70
   128
 71
   154
 72
   139
 73
   153
  0
VERTEX
  5
99C
  8
0
 10
0.0
 20
0.0
 30
0.0
 70
   128
 71
   154
 72
   155
 73
   139
  0
VERTEX
  5
99D
  8
0
 10
0.0
 20
0.0
 30
0.0
 70
   128
 71
    78
 72
    99
 73
    77
  0
VERTEX
  5
99E
  8
0
 10
0.0
 20
0.0
 30
0.0
 70
   128
 71
    78
 72
    79
 73
    99
  0
VERTEX
  5
99F
  8
0
 10
0.0
 20
0.0
 30
0.0
 70
   128
 71
    99
 72
    79
 73
    80
  0
VERTEX
  5
9A0
  8
0
 10
0.0
 20
0.0
 30
0.0
 70
   128
 71
    81
 72
    99
 73
    80
  0
VERTEX
  5
9A1
  8
0
 10
0.0
 20
0.0
 30
0.0
 70
   128
 71
    81
 72
    82
 73
    99
  0
VERTEX
  5
9A2
  8
0
 10
0.0
 20
0.0
 30
0.0
 70
   128
 71
    99
 72
    82
 73
    83
  0
VERTEX
  5
9A3
  8
0
 10
0.0
 20
0.0
 30
0.0
 70
   128
 71
    84
 72
    99
 73
    83
  0
VERTEX
  5
9A4
  8
0
 10
0.0
 20
0.0
 30
0.0
 70
   128
 71
    84
 72
    98
 73
    99
  0
VERTEX
  5
9A5
  8
0
 10
0.0
 20
0.0
 30
0.0
 70
   128
 71
    84
 72
    85
 73
    98
  0
VERTEX
  5
9A6
  8
0
 10
0.0
 20
0.0
 30
0.0
 70
   128
 71
    98
 72
    85
 73
    86
  0
VERTEX
  5
9A7
  8
0
 10
0.0
 20
0.0
 30
0.0
 70
   128
 71
    87
 72
    98
 73
    86
  0
VERTEX
  5
9A8
  8
0
 10
0.0
 20
0.0
 30
0.0
 70
   128
 71
    87
 72
    88
 73
    98
  0
VERTEX
  5
9A9
  8
0
 10
0.0
 20
0.0
 30
0.0
 70
   128
 71
    98
 72
    88
 73
    89
  0
VERTEX
  5
9AA
  8
0
 10
0.0
 20
0.0
 30
0.0
 70
   128
 71
    90
 72
    98
 73
    89
  0
VERTEX
  5
9AB
  8
0
 10
0.0
 20
0.0
 30
0.0
 70
   128
 71
    90
 72
    97
 73
    98
  0
VERTEX
  5
9AC
  8
0
 10
0.0
 20
0.0
 30
0.0
 70
   128
 71
    90
 72
    91
 73
    97
  0
VERTEX
  5
9AD
  8
0
 10
0.0
 20
0.0
 30
0.0
 70
   128
 71
    97
 72
    91
 73
    92
  0
VERTEX
  5
9AE
  8
0
 10
0.0
 20
0.0
 30
0.0
 70
   128
 71
    93
 72
    97
 73
    92
  0
VERTEX
  5
9AF
  8
0
 10
0.0
 20
0.0
 30
0.0
 70
   128
 71
    93
 72
    94
 73
    97
  0
VERTEX
  5
9B0
  8
0
 10
0.0
 20
0.0
 30
0.0
 70
   128
 71
    97
 72
    94
 73
    96
  0
VERTEX
  5
9B1
  8
0
 10
0.0
 20
0.0
 30
0.0
 70
   128
 71
    96
 72
    94
 73
    95
  0
VERTEX
  5
9B2
  8
0
 10
0.0
 20
0.0
 30
0.0
 70
   128
 71
   114
 72
   115
 73
   100
  0
VERTEX
  5
9B3
  8
0
 10
0.0
 20
0.0
 30
0.0
 70
   128
 71
   113
 72
   100
 73
   112
  0
VERTEX
  5
9B4
  8
0
 10
0.0
 20
0.0
 30
0.0
 70
   128
 71
   113
 72
   114
 73
   100
  0
VERTEX
  5
9B5
  8
0
 10
0.0
 20
0.0
 30
0.0
 70
   128
 71
   108
 72
   109
 73
   101
  0
VERTEX
  5
9B6
  8
0
 10
0.0
 20
0.0
 30
0.0
 70
   128
 71
   107
 72
   101
 73
   106
  0
VERTEX
  5
9B7
  8
0
 10
0.0
 20
0.0
 30
0.0
 70
   128
 71
   107
 72
   108
 73
   101
  0
VERTEX
  5
9B8
  8
0
 10
0.0
 20
0.0
 30
0.0
 70
   128
 71
   102
 72
   103
 73
   101
  0
VERTEX
  5
9B9
  8
0
 10
0.0
 20
0.0
 30
0.0
 70
   128
 71
   101
 72
   103
 73
   104
  0
VERTEX
  5
9BA
  8
0
 10
0.0
 20
0.0
 30
0.0
 70
   128
 71
   105
 72
   101
 73
   104
  0
VERTEX
  5
9BB
  8
0
 10
0.0
 20
0.0
 30
0.0
 70
   128
 71
   105
 72
   106
 73
   101
  0
VERTEX
  5
9BC
  8
0
 10
0.0
 20
0.0
 30
0.0
 70
   128
 71
   109
 72
   110
 73
   101
  0
VERTEX
  5
9BD
  8
0
 10
0.0
 20
0.0
 30
0.0
 70
   128
 71
   101
 72
   110
 73
   100
  0
VERTEX
  5
9BE
  8
0
 10
0.0
 20
0.0
 30
0.0
 70
   128
 71
   100
 72
   110
 73
   111
  0
VERTEX
  5
9BF
  8
0
 10
0.0
 20
0.0
 30
0.0
 70
   128
 71
   112
 72
   100
 73
   111
  0
VERTEX
  5
9C0
  8
0
 10
0.0
 20
0.0
 30
0.0
 70
   128
 71
   115
 72
   116
 73
   100
  0
VERTEX
  5
9C1
  8
0
 10
0.0
 20
0.0
 30
0.0
 70
   128
 71
   100
 72
   116
 73
    99
  0
VERTEX
  5
9C2
  8
0
 10
0.0
 20
0.0
 30
0.0
 70
   128
 71
    99
 72
   116
 73
   117
  0
VERTEX
  5
9C3
  8
0
 10
0.0
 20
0.0
 30
0.0
 70
   128
 71
   118
 72
    99
 73
   117
  0
VERTEX
  5
9C4
  8
0
 10
0.0
 20
0.0
 30
0.0
 70
   128
 71
   118
 72
   119
 73
    99
  0
VERTEX
  5
9C5
  8
0
 10
0.0
 20
0.0
 30
0.0
 70
   128
 71
    99
 72
   119
 73
    77
  0
VERTEX
  5
9C6
  8
0
 10
0.0
 20
0.0
 30
0.0
 70
   128
 71
    77
 72
   119
 73
   139
  0
VERTEX
  5
9C7
  8
0
 10
0.0
 20
0.0
 30
0.0
 70
   128
 71
    76
 72
    77
 73
   139
  0
VERTEX
  5
9C8
  8
0
 10
0.0
 20
0.0
 30
0.0
 70
   128
 71
   119
 72
   120
 73
   139
  0
VERTEX
  5
9C9
  8
0
 10
0.0
 20
0.0
 30
0.0
 70
   128
 71
   139
 72
   120
 73
   121
  0
VERTEX
  5
9CA
  8
0
 10
0.0
 20
0.0
 30
0.0
 70
   128
 71
   122
 72
   139
 73
   121
  0
VERTEX
  5
9CB
  8
0
 10
0.0
 20
0.0
 30
0.0
 70
   128
 71
   122
 72
   123
 73
   139
  0
VERTEX
  5
9CC
  8
0
 10
0.0
 20
0.0
 30
0.0
 70
   128
 71
   139
 72
   123
 73
   124
  0
VERTEX
  5
9CD
  8
0
 10
0.0
 20
0.0
 30
0.0
 70
   128
 71
   125
 72
   139
 73
   124
  0
VERTEX
  5
9CE
  8
0
 10
0.0
 20
0.0
 30
0.0
 70
   128
 71
   125
 72
   126
 73
   139
  0
VERTEX
  5
9CF
  8
0
 10
0.0
 20
0.0
 30
0.0
 70
   128
 71
   139
 72
   126
 73
   127
  0
VERTEX
  5
9D0
  8
0
 10
0.0
 20
0.0
 30
0.0
 70
   128
 71
   128
 72
   139
 73
   127
  0
VERTEX
  5
9D1
  8
0
 10
0.0
 20
0.0
 30
0.0
 70
   128
 71
   128
 72
   129
 73
   139
  0
VERTEX
  5
9D2
  8
0
 10
0.0
 20
0.0
 30
0.0
 70
   128
 71
   139
 72
   129
 73
   138
  0
VERTEX
  5
9D3
  8
0
 10
0.0
 20
0.0
 30
0.0
 70
   128
 71
   138
 72
   129
 73
   130
  0
VERTEX
  5
9D4
  8
0
 10
0.0
 20
0.0
 30
0.0
 70
   128
 71
   131
 72
   138
 73
   130
  0
VERTEX
  5
9D5
  8
0
 10
0.0
 20
0.0
 30
0.0
 70
   128
 71
   131
 72
   137
 73
   138
  0
VERTEX
  5
9D6
  8
0
 10
0.0
 20
0.0
 30
0.0
 70
   128
 71
   131
 72
   132
 73
   137
  0
VERTEX
  5
9D7
  8
0
 10
0.0
 20
0.0
 30
0.0
 70
   128
 71
   137
 72
   132
 73
   133
  0
VERTEX
  5
9D8
  8
0
 10
0.0
 20
0.0
 30
0.0
 70
   128
 71
   134
 72
   137
 73
   133
  0
VERTEX
  5
9D9
  8
0
 10
0.0
 20
0.0
 30
0.0
 70
   128
 71
   134
 72
   136
 73
   137
  0
VERTEX
  5
9DA
  8
0
 10
0.0
 20
0.0
 30
0.0
 70
   128
 71
   134
 72
   135
 73
   136
  0
VERTEX
  5
9DB
  8
0
 10
0.0
 20
0.0
 30
0.0
 70
   128
 71
   149
 72
   150
 73
   140
  0
VERTEX
  5
9DC
  8
0
 10
0.0
 20
0.0
 30
0.0
 70
   128
 71
   148
 72
   140
 73
   147
  0
VERTEX
  5
9DD
  8
0
 10
0.0
 20
0.0
 30
0.0
 70
   128
 71
   148
 72
   149
 73
   140
  0
VERTEX
  5
9DE
  8
0
 10
0.0
 20
0.0
 30
0.0
 70
   128
 71
   141
 72
   142
 73
   140
  0
VERTEX
  5
9DF
  8
0
 10
0.0
 20
0.0
 30
0.0
 70
   128
 71
   140
 72
   142
 73
   143
  0
VERTEX
  5
9E0
  8
0
 10
0.0
 20
0.0
 30
0.0
 70
   128
 71
   144
 72
   140
 73
   143
  0
VERTEX
  5
9E1
  8
0
 10
0.0
 20
0.0
 30
0.0
 70
   128
 71
   144
 72
   145
 73
   140
  0
VERTEX
  5
9E2
  8
0
 10
0.0
 20
0.0
 30
0.0
 70
   128
 71
   140
 72
   145
 73
   146
  0
VERTEX
  5
9E3
  8
0
 10
0.0
 20
0.0
 30
0.0
 70
   128
 71
   147
 72
   140
 73
   146
  0
VERTEX
  5
9E4
  8
0
 10
0.0
 20
0.0
 30
0.0
 70
   128
 71
   150
 72
   151
 73
   140
  0
VERTEX
  5
9E5
  8
0
 10
0.0
 20
0.0
 30
0.0
 70
   128
 71
   140
 72
   151
 73
   139
  0
VERTEX
  5
9E6
  8
0
 10
0.0
 20
0.0
 30
0.0
 70
   128
 71
   139
 72
   151
 73
   152
  0
VERTEX
  5
9E7
  8
0
 10
0.0
 20
0.0
 30
0.0
 70
   128
 71
   153
 72
   139
 73
   152
  0
VERTEX
  5
9E8
  8
0
 10
0.0
 20
0.0
 30
0.0
 70
   128
 71
   274
 72
   275
 73
   157
  0
VERTEX
  5
9E9
  8
0
 10
0.0
 20
0.0
 30
0.0
 70
   128
 71
   273
 72
   157
 73
   272
  0
VERTEX
  5
9EA
  8
0
 10
0.0
 20
0.0
 30
0.0
 70
   128
 71
   273
 72
   274
 73
   157
  0
VERTEX
  5
9EB
  8
0
 10
0.0
 20
0.0
 30
0.0
 70
   128
 71
   272
 72
   157
 73
   271
  0
VERTEX
  5
9EC
  8
0
 10
0.0
 20
0.0
 30
0.0
 70
   128
 71
   271
 72
   157
 73
   158
  0
VERTEX
  5
9ED
  8
0
 10
0.0
 20
0.0
 30
0.0
 70
   128
 71
   270
 72
   158
 73
   159
  0
VERTEX
  5
9EE
  8
0
 10
0.0
 20
0.0
 30
0.0
 70
   128
 71
   269
 72
   159
 73
   160
  0
VERTEX
  5
9EF
  8
0
 10
0.0
 20
0.0
 30
0.0
 70
   128
 71
   161
 72
   269
 73
   160
  0
VERTEX
  5
9F0
  8
0
 10
0.0
 20
0.0
 30
0.0
 70
   128
 71
   161
 72
   268
 73
   269
  0
VERTEX
  5
9F1
  8
0
 10
0.0
 20
0.0
 30
0.0
 70
   128
 71
   161
 72
   162
 73
   268
  0
VERTEX
  5
9F2
  8
0
 10
0.0
 20
0.0
 30
0.0
 70
   128
 71
   268
 72
   162
 73
   163
  0
VERTEX
  5
9F3
  8
0
 10
0.0
 20
0.0
 30
0.0
 70
   128
 71
   267
 72
   163
 73
   164
  0
VERTEX
  5
9F4
  8
0
 10
0.0
 20
0.0
 30
0.0
 70
   128
 71
   165
 72
   267
 73
   164
  0
VERTEX
  5
9F5
  8
0
 10
0.0
 20
0.0
 30
0.0
 70
   128
 71
   165
 72
   266
 73
   267
  0
VERTEX
  5
9F6
  8
0
 10
0.0
 20
0.0
 30
0.0
 70
   128
 71
   165
 72
   166
 73
   266
  0
VERTEX
  5
9F7
  8
0
 10
0.0
 20
0.0
 30
0.0
 70
   128
 71
   266
 72
   166
 73
   167
  0
VERTEX
  5
9F8
  8
0
 10
0.0
 20
0.0
 30
0.0
 70
   128
 71
   265
 72
   167
 73
   168
  0
VERTEX
  5
9F9
  8
0
 10
0.0
 20
0.0
 30
0.0
 70
   128
 71
   169
 72
   265
 73
   168
  0
VERTEX
  5
9FA
  8
0
 10
0.0
 20
0.0
 30
0.0
 70
   128
 71
   169
 72
   170
 73
   265
  0
VERTEX
  5
9FB
  8
0
 10
0.0
 20
0.0
 30
0.0
 70
   128
 71
   265
 72
   170
 73
   264
  0
VERTEX
  5
9FC
  8
0
 10
0.0
 20
0.0
 30
0.0
 70
   128
 71
   264
 72
   170
 73
   171
  0
VERTEX
  5
9FD
  8
0
 10
0.0
 20
0.0
 30
0.0
 70
   128
 71
   263
 72
   171
 73
   172
  0
VERTEX
  5
9FE
  8
0
 10
0.0
 20
0.0
 30
0.0
 70
   128
 71
   173
 72
   263
 73
   172
  0
VERTEX
  5
9FF
  8
0
 10
0.0
 20
0.0
 30
0.0
 70
   128
 71
   173
 72
   262
 73
   263
  0
VERTEX
  5
A00
  8
0
 10
0.0
 20
0.0
 30
0.0
 70
   128
 71
   173
 72
   174
 73
   262
  0
VERTEX
  5
A01
  8
0
 10
0.0
 20
0.0
 30
0.0
 70
   128
 71
   262
 72
   174
 73
   261
  0
VERTEX
  5
A02
  8
0
 10
0.0
 20
0.0
 30
0.0
 70
   128
 71
   261
 72
   174
 73
   175
  0
VERTEX
  5
A03
  8
0
 10
0.0
 20
0.0
 30
0.0
 70
   128
 71
   260
 72
   175
 73
   176
  0
VERTEX
  5
A04
  8
0
 10
0.0
 20
0.0
 30
0.0
 70
   128
 71
   259
 72
   176
 73
   177
  0
VERTEX
  5
A05
  8
0
 10
0.0
 20
0.0
 30
0.0
 70
   128
 71
   258
 72
   177
 73
   178
  0
VERTEX
  5
A06
  8
0
 10
0.0
 20
0.0
 30
0.0
 70
   128
 71
   257
 72
   178
 73
   179
  0
VERTEX
  5
A07
  8
0
 10
0.0
 20
0.0
 30
0.0
 70
   128
 71
   256
 72
   179
 73
   180
  0
VERTEX
  5
A08
  8
0
 10
0.0
 20
0.0
 30
0.0
 70
   128
 71
   255
 72
   180
 73
   181
  0
VERTEX
  5
A09
  8
0
 10
0.0
 20
0.0
 30
0.0
 70
   128
 71
   254
 72
   181
 73
   182
  0
VERTEX
  5
A0A
  8
0
 10
0.0
 20
0.0
 30
0.0
 70
   128
 71
   253
 72
   182
 73
   183
  0
VERTEX
  5
A0B
  8
0
 10
0.0
 20
0.0
 30
0.0
 70
   128
 71
   252
 72
   183
 73
   184
  0
VERTEX
  5
A0C
  8
0
 10
0.0
 20
0.0
 30
0.0
 70
   128
 71
   251
 72
   184
 73
   185
  0
VERTEX
  5
A0D
  8
0
 10
0.0
 20
0.0
 30
0.0
 70
   128
 71
   186
 72
   251
 73
   185
  0
VERTEX
  5
A0E
  8
0
 10
0.0
 20
0.0
 30
0.0
 70
   128
 71
   186
 72
   250
 73
   251
  0
VERTEX
  5
A0F
  8
0
 10
0.0
 20
0.0
 30
0.0
 70
   128
 71
   186
 72
   187
 73
   250
  0
VERTEX
  5
A10
  8
0
 10
0.0
 20
0.0
 30
0.0
 70
   128
 71
   250
 72
   187
 73
   188
  0
VERTEX
  5
A11
  8
0
 10
0.0
 20
0.0
 30
0.0
 70
   128
 71
   249
 72
   188
 73
   189
  0
VERTEX
  5
A12
  8
0
 10
0.0
 20
0.0
 30
0.0
 70
   128
 71
   248
 72
   189
 73
   190
  0
VERTEX
  5
A13
  8
0
 10
0.0
 20
0.0
 30
0.0
 70
   128
 71
   191
 72
   248
 73
   190
  0
VERTEX
  5
A14
  8
0
 10
0.0
 20
0.0
 30
0.0
 70
   128
 71
   191
 72
   247
 73
   248
  0
VERTEX
  5
A15
  8
0
 10
0.0
 20
0.0
 30
0.0
 70
   128
 71
   191
 72
   192
 73
   247
  0
VERTEX
  5
A16
  8
0
 10
0.0
 20
0.0
 30
0.0
 70
   128
 71
   247
 72
   192
 73
   193
  0
VERTEX
  5
A17
  8
0
 10
0.0
 20
0.0
 30
0.0
 70
   128
 71
   246
 72
   193
 73
   194
  0
VERTEX
  5
A18
  8
0
 10
0.0
 20
0.0
 30
0.0
 70
   128
 71
   195
 72
   246
 73
   194
  0
VERTEX
  5
A19
  8
0
 10
0.0
 20
0.0
 30
0.0
 70
   128
 71
   195
 72
   245
 73
   246
  0
VERTEX
  5
A1A
  8
0
 10
0.0
 20
0.0
 30
0.0
 70
   128
 71
   195
 72
   196
 73
   245
  0
VERTEX
  5
A1B
  8
0
 10
0.0
 20
0.0
 30
0.0
 70
   128
 71
   245
 72
   196
 73
   244
  0
VERTEX
  5
A1C
  8
0
 10
0.0
 20
0.0
 30
0.0
 70
   128
 71
   244
 72
   196
 73
   243
  0
VERTEX
  5
A1D
  8
0
 10
0.0
 20
0.0
 30
0.0
 70
   128
 71
   243
 72
   196
 73
   197
  0
VERTEX
  5
A1E
  8
0
 10
0.0
 20
0.0
 30
0.0
 70
   128
 71
   242
 72
   197
 73
   241
  0
VERTEX
  5
A1F
  8
0
 10
0.0
 20
0.0
 30
0.0
 70
   128
 71
   242
 72
   243
 73
   197
  0
VERTEX
  5
A20
  8
0
 10
0.0
 20
0.0
 30
0.0
 70
   128
 71
   237
 72
   238
 73
   198
  0
VERTEX
  5
A21
  8
0
 10
0.0
 20
0.0
 30
0.0
 70
   128
 71
   199
 72
   237
 73
   198
  0
VERTEX
  5
A22
  8
0
 10
0.0
 20
0.0
 30
0.0
 70
   128
 71
   199
 72
   236
 73
   237
  0
VERTEX
  5
A23
  8
0
 10
0.0
 20
0.0
 30
0.0
 70
   128
 71
   199
 72
   200
 73
   236
  0
VERTEX
  5
A24
  8
0
 10
0.0
 20
0.0
 30
0.0
 70
   128
 71
   236
 72
   200
 73
   201
  0
VERTEX
  5
A25
  8
0
 10
0.0
 20
0.0
 30
0.0
 70
   128
 71
   235
 72
   201
 73
   202
  0
VERTEX
  5
A26
  8
0
 10
0.0
 20
0.0
 30
0.0
 70
   128
 71
   203
 72
   235
 73
   202
  0
VERTEX
  5
A27
  8
0
 10
0.0
 20
0.0
 30
0.0
 70
   128
 71
   203
 72
   234
 73
   235
  0
VERTEX
  5
A28
  8
0
 10
0.0
 20
0.0
 30
0.0
 70
   128
 71
   203
 72
   204
 73
   234
  0
VERTEX
  5
A29
  8
0
 10
0.0
 20
0.0
 30
0.0
 70
   128
 71
   234
 72
   204
 73
   205
  0
VERTEX
  5
A2A
  8
0
 10
0.0
 20
0.0
 30
0.0
 70
   128
 71
   233
 72
   205
 73
   206
  0
VERTEX
  5
A2B
  8
0
 10
0.0
 20
0.0
 30
0.0
 70
   128
 71
   207
 72
   233
 73
   206
  0
VERTEX
  5
A2C
  8
0
 10
0.0
 20
0.0
 30
0.0
 70
   128
 71
   207
 72
   232
 73
   233
  0
VERTEX
  5
A2D
  8
0
 10
0.0
 20
0.0
 30
0.0
 70
   128
 71
   207
 72
   208
 73
   232
  0
VERTEX
  5
A2E
  8
0
 10
0.0
 20
0.0
 30
0.0
 70
   128
 71
   232
 72
   208
 73
   209
  0
VERTEX
  5
A2F
  8
0
 10
0.0
 20
0.0
 30
0.0
 70
   128
 71
   231
 72
   209
 73
   210
  0
VERTEX
  5
A30
  8
0
 10
0.0
 20
0.0
 30
0.0
 70
   128
 71
   211
 72
   231
 73
   210
  0
VERTEX
  5
A31
  8
0
 10
0.0
 20
0.0
 30
0.0
 70
   128
 71
   211
 72
   230
 73
   231
  0
VERTEX
  5
A32
  8
0
 10
0.0
 20
0.0
 30
0.0
 70
   128
 71
   211
 72
   212
 73
   230
  0
VERTEX
  5
A33
  8
0
 10
0.0
 20
0.0
 30
0.0
 70
   128
 71
   230
 72
   212
 73
   229
  0
VERTEX
  5
A34
  8
0
 10
0.0
 20
0.0
 30
0.0
 70
   128
 71
   229
 72
   212
 73
   213
  0
VERTEX
  5
A35
  8
0
 10
0.0
 20
0.0
 30
0.0
 70
   128
 71
   228
 72
   213
 73
   214
  0
VERTEX
  5
A36
  8
0
 10
0.0
 20
0.0
 30
0.0
 70
   128
 71
   227
 72
   214
 73
   215
  0
VERTEX
  5
A37
  8
0
 10
0.0
 20
0.0
 30
0.0
 70
   128
 71
   226
 72
   215
 73
   216
  0
VERTEX
  5
A38
  8
0
 10
0.0
 20
0.0
 30
0.0
 70
   128
 71
   225
 72
   216
 73
   217
  0
VERTEX
  5
A39
  8
0
 10
0.0
 20
0.0
 30
0.0
 70
   128
 71
   224
 72
   217
 73
   218
  0
VERTEX
  5
A3A
  8
0
 10
0.0
 20
0.0
 30
0.0
 70
   128
 71
   223
 72
   218
 73
   219
  0
VERTEX
  5
A3B
  8
0
 10
0.0
 20
0.0
 30
0.0
 70
   128
 71
   222
 72
   219
 73
   220
  0
VERTEX
  5
A3C
  8
0
 10
0.0
 20
0.0
 30
0.0
 70
   128
 71
   221
 72
   222
 73
   220
  0
VERTEX
  5
A3D
  8
0
 10
0.0
 20
0.0
 30
0.0
 70
   128
 71
   222
 72
   223
 73
   219
  0
VERTEX
  5
A3E
  8
0
 10
0.0
 20
0.0
 30
0.0
 70
   128
 71
   223
 72
   224
 73
   218
  0
VERTEX
  5
A3F
  8
0
 10
0.0
 20
0.0
 30
0.0
 70
   128
 71
   224
 72
   225
 73
   217
  0
VERTEX
  5
A40
  8
0
 10
0.0
 20
0.0
 30
0.0
 70
   128
 71
   225
 72
   226
 73
   216
  0
VERTEX
  5
A41
  8
0
 10
0.0
 20
0.0
 30
0.0
 70
   128
 71
   226
 72
   227
 73
   215
  0
VERTEX
  5
A42
  8
0
 10
0.0
 20
0.0
 30
0.0
 70
   128
 71
   227
 72
   228
 73
   214
  0
VERTEX
  5
A43
  8
0
 10
0.0
 20
0.0
 30
0.0
 70
   128
 71
   228
 72
   229
 73
   213
  0
VERTEX
  5
A44
  8
0
 10
0.0
 20
0.0
 30
0.0
 70
   128
 71
   231
 72
   232
 73
   209
  0
VERTEX
  5
A45
  8
0
 10
0.0
 20
0.0
 30
0.0
 70
   128
 71
   233
 72
   234
 73
   205
  0
VERTEX
  5
A46
  8
0
 10
0.0
 20
0.0
 30
0.0
 70
   128
 71
   235
 72
   236
 73
   201
  0
VERTEX
  5
A47
  8
0
 10
0.0
 20
0.0
 30
0.0
 70
   128
 71
   238
 72
   239
 73
   198
  0
VERTEX
  5
A48
  8
0
 10
0.0
 20
0.0
 30
0.0
 70
   128
 71
   198
 72
   239
 73
   197
  0
VERTEX
  5
A49
  8
0
 10
0.0
 20
0.0
 30
0.0
 70
   128
 71
   197
 72
   239
 73
   240
  0
VERTEX
  5
A4A
  8
0
 10
0.0
 20
0.0
 30
0.0
 70
   128
 71
   241
 72
   197
 73
   240
  0
VERTEX
  5
A4B
  8
0
 10
0.0
 20
0.0
 30
0.0
 70
   128
 71
   246
 72
   247
 73
   193
  0
VERTEX
  5
A4C
  8
0
 10
0.0
 20
0.0
 30
0.0
 70
   128
 71
   248
 72
   249
 73
   189
  0
VERTEX
  5
A4D
  8
0
 10
0.0
 20
0.0
 30
0.0
 70
   128
 71
   249
 72
   250
 73
   188
  0
VERTEX
  5
A4E
  8
0
 10
0.0
 20
0.0
 30
0.0
 70
   128
 71
   251
 72
   252
 73
   184
  0
VERTEX
  5
A4F
  8
0
 10
0.0
 20
0.0
 30
0.0
 70
   128
 71
   252
 72
   253
 73
   183
  0
VERTEX
  5
A50
  8
0
 10
0.0
 20
0.0
 30
0.0
 70
   128
 71
   253
 72
   254
 73
   182
  0
VERTEX
  5
A51
  8
0
 10
0.0
 20
0.0
 30
0.0
 70
   128
 71
   254
 72
   255
 73
   181
  0
VERTEX
  5
A52
  8
0
 10
0.0
 20
0.0
 30
0.0
 70
   128
 71
   255
 72
   256
 73
   180
  0
VERTEX
  5
A53
  8
0
 10
0.0
 20
0.0
 30
0.0
 70
   128
 71
   256
 72
   257
 73
   179
  0
VERTEX
  5
A54
  8
0
 10
0.0
 20
0.0
 30
0.0
 70
   128
 71
   257
 72
   258
 73
   178
  0
VERTEX
  5
A55
  8
0
 10
0.0
 20
0.0
 30
0.0
 70
   128
 71
   258
 72
   259
 73
   177
  0
VERTEX
  5
A56
  8
0
 10
0.0
 20
0.0
 30
0.0
 70
   128
 71
   259
 72
   260
 73
   176
  0
VERTEX
  5
A57
  8
0
 10
0.0
 20
0.0
 30
0.0
 70
   128
 71
   260
 72
   261
 73
   175
  0
VERTEX
  5
A58
  8
0
 10
0.0
 20
0.0
 30
0.0
 70
   128
 71
   263
 72
   264
 73
   171
  0
VERTEX
  5
A59
  8
0
 10
0.0
 20
0.0
 30
0.0
 70
   128
 71
   265
 72
   266
 73
   167
  0
VERTEX
  5
A5A
  8
0
 10
0.0
 20
0.0
 30
0.0
 70
   128
 71
   267
 72
   268
 73
   163
  0
VERTEX
  5
A5B
  8
0
 10
0.0
 20
0.0
 30
0.0
 70
   128
 71
   269
 72
   270
 73
   159
  0
VERTEX
  5
A5C
  8
0
 10
0.0
 20
0.0
 30
0.0
 70
   128
 71
   270
 72
   271
 73
   158
  0
VERTEX
  5
A5D
  8
0
 10
0.0
 20
0.0
 30
0.0
 70
   128
 71
   275
 72
   276
 73
   157
  0
VERTEX
  5
A5E
  8
0
 10
0.0
 20
0.0
 30
0.0
 70
   128
 71
   157
 72
   276
 73
   156
  0
VERTEX
  5
A5F
  8
0
 10
0.0
 20
0.0
 30
0.0
 70
   128
 71
   156
 72
   276
 73
   277
  0
VERTEX
  5
A60
  8
0
 10
0.0
 20
0.0
 30
0.0
 70
   128
 71
   278
 72
   156
 73
   277
  0
VERTEX
  5
A61
  8
0
 10
0.0
 20
0.0
 30
0.0
 70
   128
 71
   278
 72
   279
 73
   156
  0
VERTEX
  5
A62
  8
0
 10
0.0
 20
0.0
 30
0.0
 70
   128
 71
   156
 72
   279
 73
   280
  0
VERTEX
  5
A63
  8
0
 10
0.0
 20
0.0
 30
0.0
 70
   128
 71
   281
 72
   156
 73
   280
  0
VERTEX
  5
A64
  8
0
 10
0.0
 20
0.0
 30
0.0
 70
   128
 71
   282
 72
   283
 73
   314
  0
VERTEX
  5
A65
  8
0
 10
0.0
 20
0.0
 30
0.0
 70
   128
 71
   314
 72
   283
 73
   313
  0
VERTEX
  5
A66
  8
0
 10
0.0
 20
0.0
 30
0.0
 70
   128
 71
   313
 72
   283
 73
   284
  0
VERTEX
  5
A67
  8
0
 10
0.0
 20
0.0
 30
0.0
 70
   128
 71
   312
 72
   284
 73
   285
  0
VERTEX
  5
A68
  8
0
 10
0.0
 20
0.0
 30
0.0
 70
   128
 71
   311
 72
   285
 73
   286
  0
VERTEX
  5
A69
  8
0
 10
0.0
 20
0.0
 30
0.0
 70
   128
 71
   310
 72
   286
 73
   287
  0
VERTEX
  5
A6A
  8
0
 10
0.0
 20
0.0
 30
0.0
 70
   128
 71
   309
 72
   287
 73
   288
  0
VERTEX
  5
A6B
  8
0
 10
0.0
 20
0.0
 30
0.0
 70
   128
 71
   308
 72
   288
 73
   289
  0
VERTEX
  5
A6C
  8
0
 10
0.0
 20
0.0
 30
0.0
 70
   128
 71
   307
 72
   289
 73
   290
  0
VERTEX
  5
A6D
  8
0
 10
0.0
 20
0.0
 30
0.0
 70
   128
 71
   306
 72
   290
 73
   291
  0
VERTEX
  5
A6E
  8
0
 10
0.0
 20
0.0
 30
0.0
 70
   128
 71
   305
 72
   291
 73
   292
  0
VERTEX
  5
A6F
  8
0
 10
0.0
 20
0.0
 30
0.0
 70
   128
 71
   304
 72
   292
 73
   293
  0
VERTEX
  5
A70
  8
0
 10
0.0
 20
0.0
 30
0.0
 70
   128
 71
   303
 72
   293
 73
   294
  0
VERTEX
  5
A71
  8
0
 10
0.0
 20
0.0
 30
0.0
 70
   128
 71
   295
 72
   303
 73
   294
  0
VERTEX
  5
A72
  8
0
 10
0.0
 20
0.0
 30
0.0
 70
   128
 71
   295
 72
   302
 73
   303
  0
VERTEX
  5
A73
  8
0
 10
0.0
 20
0.0
 30
0.0
 70
   128
 71
   295
 72
   296
 73
   302
  0
VERTEX
  5
A74
  8
0
 10
0.0
 20
0.0
 30
0.0
 70
   128
 71
   302
 72
   296
 73
   297
  0
VERTEX
  5
A75
  8
0
 10
0.0
 20
0.0
 30
0.0
 70
   128
 71
   301
 72
   297
 73
   300
  0
VERTEX
  5
A76
  8
0
 10
0.0
 20
0.0
 30
0.0
 70
   128
 71
   301
 72
   302
 73
   297
  0
VERTEX
  5
A77
  8
0
 10
0.0
 20
0.0
 30
0.0
 70
   128
 71
   297
 72
   298
 73
   300
  0
VERTEX
  5
A78
  8
0
 10
0.0
 20
0.0
 30
0.0
 70
   128
 71
   300
 72
   298
 73
   299
  0
VERTEX
  5
A79
  8
0
 10
0.0
 20
0.0
 30
0.0
 70
   128
 71
   303
 72
   304
 73
   293
  0
VERTEX
  5
A7A
  8
0
 10
0.0
 20
0.0
 30
0.0
 70
   128
 71
   304
 72
   305
 73
   292
  0
VERTEX
  5
A7B
  8
0
 10
0.0
 20
0.0
 30
0.0
 70
   128
 71
   305
 72
   306
 73
   291
  0
VERTEX
  5
A7C
  8
0
 10
0.0
 20
0.0
 30
0.0
 70
   128
 71
   306
 72
   307
 73
   290
  0
VERTEX
  5
A7D
  8
0
 10
0.0
 20
0.0
 30
0.0
 70
   128
 71
   307
 72
   308
 73
   289
  0
VERTEX
  5
A7E
  8
0
 10
0.0
 20
0.0
 30
0.0
 70
   128
 71
   308
 72
   309
 73
   288
  0
VERTEX
  5
A7F
  8
0
 10
0.0
 20
0.0
 30
0.0
 70
   128
 71
   309
 72
   310
 73
   287
  0
VERTEX
  5
A80
  8
0
 10
0.0
 20
0.0
 30
0.0
 70
   128
 71
   310
 72
   311
 73
   286
  0
VERTEX
  5
A81
  8
0
 10
0.0
 20
0.0
 30
0.0
 70
   128
 71
   311
 72
   312
 73
   285
  0
VERTEX
  5
A82
  8
0
 10
0.0
 20
0.0
 30
0.0
 70
   128
 71
   312
 72
   313
 73
   284
  0
SEQEND
  5
A83
  8
LAYER1
  6
VOLLINIE
 62
    18
  0
LINE
  5
A84
  8
LAYER1
  6
VOLLINIE
 62
    18
 10
725.0000000000001
 20
0.0
 30
0.0
 11
657.0000000000001
 21
0.0
 31
0.0
  0
LINE
  5
A85
  8
LAYER1
  6
VOLLINIE
 62
    18
 10
657.0000000000001
 20
0.0
 30
0.0
 11
657.0000000000001
 21
0.0
 31
55.0
  0
LINE
  5
A86
  8
LAYER1
  6
VOLLINIE
 62
    18
 10
657.0000000000001
 20
8.5
 30
55.0
 11
657.0000000000001
 21
-8.5
 31
55.0
  0
LINE
  5
A87
  8
LAYER1
  6
VOLLINIE
 62
    18
 10
657.0000000000001
 20
0.0
 30
0.0
 11
657.0000000000001
 21
0.0
 31
9.000000000000002
  0
LINE
  5
A88
  8
LAYER1
  6
VOLLINIE
 62
    18
 10
657.0000000000001
 20
9.0
 30
9.000000000000002
 11
657.0000000000001
 21
-9.0
 31
9.000000000000002
  0
LINE
  5
A89
  8
LAYER1
  6
VOLLINIE
 62
    18
 10
657.0000000000001
 20
0.0
 30
0.0
 11
657.0000000000001
 21
0.0
 31
30.0
  0
LINE
  5
A8A
  8
LAYER1
  6
VOLLINIE
 62
    18
 10
657.0000000000001
 20
22.0
 30
30.0
 11
657.0000000000001
 21
-22.0
 31
30.0
  0
LINE
  5
A8B
  8
LAYER1
  6
VOLLINIE
 62
    18
 10
657.0000000000001
 20
0.0
 30
9.000000000000002
 11
657.0000000000001
 21
0.0
 31
51.00000000000001
  0
LINE
  5
A8C
  8
LAYER1
  6
VOLLINIE
 62
    18
 10
657.0000000000001
 20
21.0
 30
51.00000000000001
 11
657.0000000000001
 21
-21.0
 31
51.00000000000001
  0
POLYLINE
  5
A8D
  8
LAYER1
  6
VOLLINIE
 62
    18
 10
0.0
 20
0.0
 30
0.0
 66
     1
 70
     8
  0
VERTEX
  5
A8E
  8
LAYER1
  6
VOLLINIE
 62
    18
 10
657.0000000000001
 20
-9.0
 30
9.000000000000002
 70
    32
  0
VERTEX
  5
A8F
  8
LAYER1
  6
VOLLINIE
 62
    18
 10
657.0000000000001
 20
-22.0
 30
30.0
 70
    32
  0
VERTEX
  5
A90
  8
LAYER1
  6
VOLLINIE
 62
    18
 10
657.0000000000001
 20
-21.0
 30
51.00000000000001
 70
    32
  0
VERTEX
  5
A91
  8
LAYER1
  6
VOLLINIE
 62
    18
 10
657.0000000000001
 20
-8.5
 30
55.0
 70
    32
  0
VERTEX
  5
A92
  8
LAYER1
  6
VOLLINIE
 62
    18
 10
657.0000000000001
 20
8.5
 30
55.0
 70
    32
  0
VERTEX
  5
A93
  8
LAYER1
  6
VOLLINIE
 62
    18
 10
657.0000000000001
 20
21.0
 30
51.00000000000001
 70
    32
  0
VERTEX
  5
A94
  8
LAYER1
  6
VOLLINIE
 62
    18
 10
657.0000000000001
 20
22.0
 30
30.0
 70
    32
  0
VERTEX
  5
A95
  8
LAYER1
  6
VOLLINIE
 62
    18
 10
657.0000000000001
 20
9.0
 30
9.000000000000002
 70
    32
  0
VERTEX
  5
A96
  8
LAYER1
  6
VOLLINIE
 62
    18
 10
657.0000000000001
 20
-9.0
 30
9.000000000000002
 70
    32
  0
SEQEND
  5
A97
  8
LAYER1
  6
VOLLINIE
 62
    18
  0
POLYLINE
  5
A98
  8
LAYER1
  6
VOLLINIE
 62
    18
 66
     1
 10
0.0
 20
0.0
 30
0.0
 70
    64
 71
   358
 72
   352
  0
VERTEX
  5
A99
  8
0
 10
725.0
 20
20.0
 30
61.0
 70
   192
  0
VERTEX
  5
A9A
  8
0
 10
725.0
 20
20.00316429138184
 30
62.29803085327148
 70
   192
  0
VERTEX
  5
A9B
  8
0
 10
725.0
 20
19.94744491577148
 30
63.59885406494141
 70
   192
  0
VERTEX
  5
A9C
  8
0
 10
725.0
 20
19.76659202575684
 30
65.53791809082031
 70
   192
  0
VERTEX
  5
A9D
  8
0
 10
725.0
 20
19.58859062194824
 30
66.82538604736328
 70
   192
  0
VERTEX
  5
A9E
  8
0
 10
725.0
 20
19.37095832824707
 30
68.09589385986328
 70
   192
  0
VERTEX
  5
A9F
  8
0
 10
725.0
 20
18.97435569763184
 30
69.98595428466797
 70
   192
  0
VERTEX
  5
AA0
  8
0
 10
725.0
 20
17.93798637390137
 30
73.77008819580078
 70
   192
  0
VERTEX
  5
AA1
  8
0
 10
725.0
 20
16.62885093688965
 30
77.44876098632812
 70
   192
  0
VERTEX
  5
AA2
  8
0
 10
725.0
 20
15.06372451782227
 30
81.00987243652344
 70
   192
  0
VERTEX
  5
AA3
  8
0
 10
725.0
 20
12.56938362121582
 30
85.56309509277344
 70
   192
  0
VERTEX
  5
AA4
  8
0
 10
725.0
 20
11.12259960174561
 30
87.72332763671875
 70
   192
  0
VERTEX
  5
AA5
  8
0
 10
725.0
 20
9.525065422058105
 30
89.78272247314453
 70
   192
  0
VERTEX
  5
AA6
  8
0
 10
725.0
 20
7.770516395568848
 30
91.69953155517578
 70
   192
  0
VERTEX
  5
AA7
  8
0
 10
725.0
 20
6.825442790985107
 30
92.58280944824219
 70
   192
  0
VERTEX
  5
AA8
  8
0
 10
725.0
 20
5.826382637023926
 30
93.40678405761719
 70
   192
  0
VERTEX
  5
AA9
  8
0
 10
725.0
 20
4.767963886260986
 30
94.16157531738281
 70
   192
  0
VERTEX
  5
AAA
  8
0
 10
725.0
 20
3.649685144424438
 30
94.82532501220703
 70
   192
  0
VERTEX
  5
AAB
  8
0
 10
725.0
 20
2.772493362426758
 30
95.24817657470703
 70
   192
  0
VERTEX
  5
AAC
  8
0
 10
725.0
 20
1.864543914794922
 30
95.59365844726562
 70
   192
  0
VERTEX
  5
AAD
  8
0
 10
725.0
 20
0.9095656871795654
 30
95.85103607177734
 70
   192
  0
VERTEX
  5
AAE
  8
0
 10
725.0
 20
-0.0162772666662931
 30
96.00170135498047
 70
   192
  0
VERTEX
  5
AAF
  8
0
 10
725.0
 20
-0.6475475430488586
 30
96.04100036621094
 70
   192
  0
VERTEX
  5
AB0
  8
0
 10
725.0
 20
-1.311879396438599
 30
96.03343963623047
 70
   192
  0
VERTEX
  5
AB1
  8
0
 10
725.0
 20
-1.954693794250488
 30
95.97421264648438
 70
   192
  0
VERTEX
  5
AB2
  8
0
 10
725.0
 20
-2.595532894134521
 30
95.86714935302734
 70
   192
  0
VERTEX
  5
AB3
  8
0
 10
725.0
 20
-3.229801893234253
 30
95.71566009521484
 70
   192
  0
VERTEX
  5
AB4
  8
0
 10
725.0
 20
-3.852905988693237
 30
95.52313995361328
 70
   192
  0
VERTEX
  5
AB5
  8
0
 10
725.0
 20
-5.053548812866211
 30
95.0278549194336
 70
   192
  0
VERTEX
  5
AB6
  8
0
 10
725.0
 20
-6.192245960235596
 30
94.40467834472656
 70
   192
  0
VERTEX
  5
AB7
  8
0
 10
725.0
 20
-7.270092964172363
 30
93.6762466430664
 70
   192
  0
VERTEX
  5
AB8
  8
0
 10
725.0
 20
-8.288182258605957
 30
92.86518859863281
 70
   192
  0
VERTEX
  5
AB9
  8
0
 10
725.0
 20
-10.15178775787354
 30
91.06280517578125
 70
   192
  0
VERTEX
  5
ABA
  8
0
 10
725.0
 20
-11.80340957641602
 30
89.06385803222656
 70
   192
  0
VERTEX
  5
ABB
  8
0
 10
725.0
 20
-13.26571464538574
 30
86.91175842285156
 70
   192
  0
VERTEX
  5
ABC
  8
0
 10
725.0
 20
-14.56136703491211
 30
84.64990997314453
 70
   192
  0
VERTEX
  5
ABD
  8
0
 10
725.0
 20
-16.71844673156738
 30
79.92227172851562
 70
   192
  0
VERTEX
  5
ABE
  8
0
 10
725.0
 20
-18.33129501342773
 30
74.98677825927734
 70
   192
  0
VERTEX
  5
ABF
  8
0
 10
725.0
 20
-19.41638565063477
 30
69.92172241210938
 70
   192
  0
VERTEX
  5
AC0
  8
0
 10
725.0
 20
-19.96191215515137
 30
64.7420425415039
 70
   192
  0
VERTEX
  5
AC1
  8
0
 10
725.0
 20
-19.9288501739502
 30
59.55033111572266
 70
   192
  0
VERTEX
  5
AC2
  8
0
 10
725.0
 20
-19.5139102935791
 30
55.67564010620117
 70
   192
  0
VERTEX
  5
AC3
  8
0
 10
725.0
 20
-18.76803779602051
 30
51.84823989868164
 70
   192
  0
VERTEX
  5
AC4
  8
0
 10
725.0
 20
-17.69801330566406
 30
48.09907531738281
 70
   192
  0
VERTEX
  5
AC5
  8
0
 10
725.0
 20
-16.31061935424805
 30
44.45909881591797
 70
   192
  0
VERTEX
  5
AC6
  8
0
 10
725.0
 20
-15.21026039123535
 30
42.10926818847656
 70
   192
  0
VERTEX
  5
AC7
  8
0
 10
725.0
 20
-13.95909786224365
 30
39.83614349365234
 70
   192
  0
VERTEX
  5
AC8
  8
0
 10
725.0
 20
-12.54252529144287
 30
37.65735626220703
 70
   192
  0
VERTEX
  5
AC9
  8
0
 10
725.0
 20
-10.93856239318848
 30
35.60336685180664
 70
   192
  0
VERTEX
  5
ACA
  8
0
 10
725.0
 20
-9.127528190612793
 30
33.71907424926758
 70
   192
  0
VERTEX
  5
ACB
  8
0
 10
725.0
 20
-8.143129348754883
 30
32.8679313659668
 70
   192
  0
VERTEX
  5
ACC
  8
0
 10
725.0
 20
-7.106316089630127
 30
32.09429931640625
 70
   192
  0
VERTEX
  5
ACD
  8
0
 10
725.0
 20
-6.013270854949951
 30
31.41042518615723
 70
   192
  0
VERTEX
  5
ACE
  8
0
 10
725.0
 20
-4.844393730163574
 30
30.82703399658203
 70
   192
  0
VERTEX
  5
ACF
  8
0
 10
725.0
 20
-3.619022607803345
 30
30.3745174407959
 70
   192
  0
VERTEX
  5
AD0
  8
0
 10
725.0
 20
-2.998589754104614
 30
30.20755767822266
 70
   192
  0
VERTEX
  5
AD1
  8
0
 10
725.0
 20
-2.373258590698242
 30
30.08137512207031
 70
   192
  0
VERTEX
  5
AD2
  8
0
 10
725.0
 20
-1.739424228668213
 30
29.99729919433594
 70
   192
  0
VERTEX
  5
AD3
  8
0
 10
725.0
 20
-1.07826554775238
 30
29.95821571350098
 70
   192
  0
VERTEX
  5
AD4
  8
0
 10
725.0
 20
-0.1019613295793533
 30
29.98835563659668
 70
   192
  0
VERTEX
  5
AD5
  8
0
 10
725.0
 20
0.8275155425071716
 30
30.12348175048828
 70
   192
  0
VERTEX
  5
AD6
  8
0
 10
725.0
 20
1.764493942260742
 30
30.35895156860352
 70
   192
  0
VERTEX
  5
AD7
  8
0
 10
725.0
 20
2.694711923599243
 30
30.68215942382812
 70
   192
  0
VERTEX
  5
AD8
  8
0
 10
725.0
 20
3.592314481735229
 30
31.07942008972168
 70
   192
  0
VERTEX
  5
AD9
  8
0
 10
725.0
 20
4.453670501708984
 30
31.54062843322754
 70
   192
  0
VERTEX
  5
ADA
  8
0
 10
725.0
 20
6.075339794158936
 30
32.6180534362793
 70
   192
  0
VERTEX
  5
ADB
  8
0
 10
725.0
 20
7.332844734191895
 30
33.6351318359375
 70
   192
  0
VERTEX
  5
ADC
  8
0
 10
725.0
 20
8.513891220092773
 30
34.74116134643555
 70
   192
  0
VERTEX
  5
ADD
  8
0
 10
725.0
 20
10.67936611175537
 30
37.17226028442383
 70
   192
  0
VERTEX
  5
ADE
  8
0
 10
725.0
 20
11.66840076446533
 30
38.46005630493164
 70
   192
  0
VERTEX
  5
ADF
  8
0
 10
725.0
 20
12.22170257568359
 30
39.23457336425781
 70
   192
  0
VERTEX
  5
AE0
  8
0
 10
725.0
 20
12.95947551727295
 30
40.33254241943359
 70
   192
  0
VERTEX
  5
AE1
  8
0
 10
725.0
 20
13.66029739379883
 30
41.44921875
 70
   192
  0
VERTEX
  5
AE2
  8
0
 10
725.0
 20
14.93387508392334
 30
43.69062423706055
 70
   192
  0
VERTEX
  5
AE3
  8
0
 10
725.0
 20
16.62189483642578
 30
47.20103073120117
 70
   192
  0
VERTEX
  5
AE4
  8
0
 10
725.0
 20
17.58853149414062
 30
49.61515045166016
 70
   192
  0
VERTEX
  5
AE5
  8
0
 10
725.0
 20
18.02947998046875
 30
50.86378479003906
 70
   192
  0
VERTEX
  5
AE6
  8
0
 10
725.0
 20
18.78160095214844
 30
53.32968521118164
 70
   192
  0
VERTEX
  5
AE7
  8
0
 10
725.0
 20
19.10155868530273
 30
54.58089065551758
 70
   192
  0
VERTEX
  5
AE8
  8
0
 10
725.0
 20
19.24537467956543
 30
55.20630264282227
 70
   192
  0
VERTEX
  5
AE9
  8
0
 10
725.0
 20
19.38253593444824
 30
55.85357284545898
 70
   192
  0
VERTEX
  5
AEA
  8
0
 10
725.0
 20
19.61627388000488
 30
57.12544250488281
 70
   192
  0
VERTEX
  5
AEB
  8
0
 10
725.0
 20
19.80196762084961
 30
58.41371917724609
 70
   192
  0
VERTEX
  5
AEC
  8
0
 10
725.0
 20
19.93168830871582
 30
59.70442199707031
 70
   192
  0
VERTEX
  5
AED
  8
0
 10
657.0
 20
21.72932052612305
 30
28.9770622253418
 70
   192
  0
VERTEX
  5
AEE
  8
0
 10
657.0
 20
21.56779098510742
 30
28.38544082641602
 70
   192
  0
VERTEX
  5
AEF
  8
0
 10
657.0
 20
21.40211486816406
 30
27.79342460632324
 70
   192
  0
VERTEX
  5
AF0
  8
0
 10
657.0
 20
21.05798721313477
 30
26.61163330078125
 70
   192
  0
VERTEX
  5
AF1
  8
0
 10
657.0
 20
20.10958671569824
 30
23.6807746887207
 70
   192
  0
VERTEX
  5
AF2
  8
0
 10
657.0
 20
19.46711730957031
 30
21.9473819732666
 70
   192
  0
VERTEX
  5
AF3
  8
0
 10
657.0
 20
18.51546669006348
 30
19.70534324645996
 70
   192
  0
VERTEX
  5
AF4
  8
0
 10
657.0
 20
17.40720558166504
 30
17.50502777099609
 70
   192
  0
VERTEX
  5
AF5
  8
0
 10
657.0
 20
16.13063049316406
 30
15.42044162750244
 70
   192
  0
VERTEX
  5
AF6
  8
0
 10
657.0
 20
14.64652729034424
 30
13.46556949615479
 70
   192
  0
VERTEX
  5
AF7
  8
0
 10
657.0
 20
13.59834480285645
 30
12.32855796813965
 70
   192
  0
VERTEX
  5
AF8
  8
0
 10
657.0
 20
12.46852016448975
 30
11.28389835357666
 70
   192
  0
VERTEX
  5
AF9
  8
0
 10
657.0
 20
11.01178741455078
 30
10.17597579956055
 70
   192
  0
VERTEX
  5
AFA
  8
0
 10
657.0
 20
9.965413093566895
 30
9.519911766052246
 70
   192
  0
VERTEX
  5
AFB
  8
0
 10
657.0
 20
8.900310516357422
 30
8.950886726379395
 70
   192
  0
VERTEX
  5
AFC
  8
0
 10
657.0
 20
7.775343894958496
 30
8.448339462280273
 70
   192
  0
VERTEX
  5
AFD
  8
0
 10
657.0
 20
6.623292922973633
 30
8.021947860717773
 70
   192
  0
VERTEX
  5
AFE
  8
0
 10
657.0
 20
4.851474761962891
 30
7.516667366027832
 70
   192
  0
VERTEX
  5
AFF
  8
0
 10
657.0
 20
3.045287609100342
 30
7.163972854614258
 70
   192
  0
VERTEX
  5
B00
  8
0
 10
657.0
 20
0.6036601066589355
 30
6.931085109710693
 70
   192
  0
VERTEX
  5
B01
  8
0
 10
657.0
 20
-0.6316320300102234
 30
6.916781425476074
 70
   192
  0
VERTEX
  5
B02
  8
0
 10
657.0
 20
-1.237501621246338
 30
6.935518741607666
 70
   192
  0
VERTEX
  5
B03
  8
0
 10
657.0
 20
-1.850317001342773
 30
6.972118854522705
 70
   192
  0
VERTEX
  5
B04
  8
0
 10
657.0
 20
-4.282344341278076
 30
7.30219841003418
 70
   192
  0
VERTEX
  5
B05
  8
0
 10
657.0
 20
-6.070111751556396
 30
7.75412654876709
 70
   192
  0
VERTEX
  5
B06
  8
0
 10
657.0
 20
-7.791750431060791
 30
8.39913558959961
 70
   192
  0
VERTEX
  5
B07
  8
0
 10
657.0
 20
-8.890998840332031
 30
8.941934585571289
 70
   192
  0
VERTEX
  5
B08
  8
0
 10
657.0
 20
-9.947796821594238
 30
9.563446998596191
 70
   192
  0
VERTEX
  5
B09
  8
0
 10
657.0
 20
-10.96021461486816
 30
10.2503662109375
 70
   192
  0
VERTEX
  5
B0A
  8
0
 10
657.0
 20
-11.92478847503662
 30
10.99675178527832
 70
   192
  0
VERTEX
  5
B0B
  8
0
 10
657.0
 20
-12.84195518493652
 30
11.80248641967773
 70
   192
  0
VERTEX
  5
B0C
  8
0
 10
657.0
 20
-14.14245796203613
 30
13.13074684143066
 70
   192
  0
VERTEX
  5
B0D
  8
0
 10
657.0
 20
-15.3141622543335
 30
14.55018997192383
 70
   192
  0
VERTEX
  5
B0E
  8
0
 10
657.0
 20
-16.70403289794922
 30
16.57520484924316
 70
   192
  0
VERTEX
  5
B0F
  8
0
 10
657.0
 20
-17.9161205291748
 30
18.72080993652344
 70
   192
  0
VERTEX
  5
B10
  8
0
 10
657.0
 20
-18.96534156799316
 30
20.93679618835449
 70
   192
  0
VERTEX
  5
B11
  8
0
 10
657.0
 20
-19.87486267089844
 30
23.19200134277344
 70
   192
  0
VERTEX
  5
B12
  8
0
 10
657.0
 20
-21.05768013000488
 30
26.68815040588379
 70
   192
  0
VERTEX
  5
B13
  8
0
 10
657.0
 20
-21.74523544311523
 30
29.05649566650391
 70
   192
  0
VERTEX
  5
B14
  8
0
 10
657.0
 20
-21.94377708435059
 30
29.78870391845703
 70
   192
  0
VERTEX
  5
B15
  8
0
 10
657.0
 20
-22.06637763977051
 30
30.2517261505127
 70
   192
  0
VERTEX
  5
B16
  8
0
 10
657.0
 20
-22.5146369934082
 30
32.0289421081543
 70
   192
  0
VERTEX
  5
B17
  8
0
 10
657.0
 20
-23.17263793945312
 30
35.02865219116211
 70
   192
  0
VERTEX
  5
B18
  8
0
 10
657.0
 20
-23.74824333190918
 30
38.66359329223633
 70
   192
  0
VERTEX
  5
B19
  8
0
 10
657.0
 20
-23.9711742401123
 30
41.73170852661133
 70
   192
  0
VERTEX
  5
B1A
  8
0
 10
657.0
 20
-23.94809150695801
 30
43.26864242553711
 70
   192
  0
VERTEX
  5
B1B
  8
0
 10
657.0
 20
-23.80793190002441
 30
44.8017578125
 70
   192
  0
VERTEX
  5
B1C
  8
0
 10
657.0
 20
-23.56356620788574
 30
46.17010498046875
 70
   192
  0
VERTEX
  5
B1D
  8
0
 10
657.0
 20
-23.18582916259766
 30
47.50093841552734
 70
   192
  0
VERTEX
  5
B1E
  8
0
 10
657.0
 20
-22.94009780883789
 30
48.14262008666992
 70
   192
  0
VERTEX
  5
B1F
  8
0
 10
657.0
 20
-22.65280532836914
 30
48.76332473754883
 70
   192
  0
VERTEX
  5
B20
  8
0
 10
657.0
 20
-22.32121276855469
 30
49.35917663574219
 70
   192
  0
VERTEX
  5
B21
  8
0
 10
657.0
 20
-21.94258499145508
 30
49.92631912231445
 70
   192
  0
VERTEX
  5
B22
  8
0
 10
657.0
 20
-21.36234283447266
 30
50.63101959228516
 70
   192
  0
VERTEX
  5
B23
  8
0
 10
657.0
 20
-20.7021427154541
 30
51.26779556274414
 70
   192
  0
VERTEX
  5
B24
  8
0
 10
657.0
 20
-20.22226333618164
 30
51.65048599243164
 70
   192
  0
VERTEX
  5
B25
  8
0
 10
657.0
 20
-19.7159595489502
 30
52.00067901611328
 70
   192
  0
VERTEX
  5
B26
  8
0
 10
657.0
 20
-18.64535140991211
 30
52.61207580566406
 70
   192
  0
VERTEX
  5
B27
  8
0
 10
657.0
 20
-17.52711486816406
 30
53.11874771118164
 70
   192
  0
VERTEX
  5
B28
  8
0
 10
657.0
 20
-16.37499237060547
 30
53.5363655090332
 70
   192
  0
VERTEX
  5
B29
  8
0
 10
657.0
 20
-14.00100326538086
 30
54.16595077514648
 70
   192
  0
VERTEX
  5
B2A
  8
0
 10
657.0
 20
-11.58757781982422
 30
54.60980987548828
 70
   192
  0
VERTEX
  5
B2B
  8
0
 10
657.0
 20
-10.36887454986572
 30
54.78182983398438
 70
   192
  0
VERTEX
  5
B2C
  8
0
 10
657.0
 20
-9.15599250793457
 30
54.92856979370117
 70
   192
  0
VERTEX
  5
B2D
  8
0
 10
657.0
 20
-7.92494535446167
 30
55.05889892578125
 70
   192
  0
VERTEX
  5
B2E
  8
0
 10
657.0
 20
-6.704112529754639
 30
55.17237854003906
 70
   192
  0
VERTEX
  5
B2F
  8
0
 10
657.0
 20
-4.253631114959717
 30
55.34843826293945
 70
   192
  0
VERTEX
  5
B30
  8
0
 10
657.0
 20
0.6341400146484375
 30
55.4686393737793
 70
   192
  0
VERTEX
  5
B31
  8
0
 10
657.0
 20
1.572386741638184
 30
55.45458602905273
 70
   192
  0
VERTEX
  5
B32
  8
0
 10
657.0
 20
3.104951143264771
 30
55.40586090087891
 70
   192
  0
VERTEX
  5
B33
  8
0
 10
657.0
 20
5.555694103240967
 30
55.26469421386719
 70
   192
  0
VERTEX
  5
B34
  8
0
 10
657.0
 20
10.44149684906006
 30
54.77103424072266
 70
   192
  0
VERTEX
  5
B35
  8
0
 10
657.0
 20
12.86826705932617
 30
54.39057540893555
 70
   192
  0
VERTEX
  5
B36
  8
0
 10
657.0
 20
15.27540016174316
 30
53.85079574584961
 70
   192
  0
VERTEX
  5
B37
  8
0
 10
657.0
 20
16.46465873718262
 30
53.4974479675293
 70
   192
  0
VERTEX
  5
B38
  8
0
 10
657.0
 20
17.6265869140625
 30
53.07207489013672
 70
   192
  0
VERTEX
  5
B39
  8
0
 10
657.0
 20
18.74197578430176
 30
52.56079864501953
 70
   192
  0
VERTEX
  5
B3A
  8
0
 10
657.0
 20
19.7916145324707
 30
51.94975280761719
 70
   192
  0
VERTEX
  5
B3B
  8
0
 10
657.0
 20
20.28603744506836
 30
51.60176849365234
 70
   192
  0
VERTEX
  5
B3C
  8
0
 10
657.0
 20
20.75840950012207
 30
51.21931076049805
 70
   192
  0
VERTEX
  5
B3D
  8
0
 10
657.0
 20
21.18974494934082
 30
50.81581115722656
 70
   192
  0
VERTEX
  5
B3E
  8
0
 10
657.0
 20
21.60361671447754
 30
50.36006164550781
 70
   192
  0
VERTEX
  5
B3F
  8
0
 10
657.0
 20
21.99098205566406
 30
49.86250686645508
 70
   192
  0
VERTEX
  5
B40
  8
0
 10
657.0
 20
22.32112312316895
 30
49.36122131347656
 70
   192
  0
VERTEX
  5
B41
  8
0
 10
657.0
 20
22.61870002746582
 30
48.83175277709961
 70
   192
  0
VERTEX
  5
B42
  8
0
 10
657.0
 20
22.88496780395508
 30
48.27804946899414
 70
   192
  0
VERTEX
  5
B43
  8
0
 10
657.0
 20
23.31434440612793
 30
47.12957763671875
 70
   192
  0
VERTEX
  5
B44
  8
0
 10
657.0
 20
23.61825370788574
 30
45.94139862060547
 70
   192
  0
VERTEX
  5
B45
  8
0
 10
657.0
 20
23.81485939025879
 30
44.72654724121094
 70
   192
  0
VERTEX
  5
B46
  8
0
 10
657.0
 20
23.92231941223145
 30
43.49804306030273
 70
   192
  0
VERTEX
  5
B47
  8
0
 10
657.0
 20
23.92984771728516
 30
41.03705978393555
 70
   192
  0
VERTEX
  5
B48
  8
0
 10
657.0
 20
23.72312927246094
 30
38.58683013916016
 70
   192
  0
VERTEX
  5
B49
  8
0
 10
657.0
 20
22.89543533325195
 30
33.7467155456543
 70
   192
  0
VERTEX
  5
B4A
  8
0
 10
657.0
 20
21.72932052612305
 30
28.9770622253418
 70
   192
  0
VERTEX
  5
B4B
  8
0
 10
657.0
 20
22.89543533325195
 30
33.7467155456543
 70
   192
  0
VERTEX
  5
B4C
  8
0
 10
657.0
 20
23.72312927246094
 30
38.58683013916016
 70
   192
  0
VERTEX
  5
B4D
  8
0
 10
657.0
 20
23.92984771728516
 30
41.03705978393555
 70
   192
  0
VERTEX
  5
B4E
  8
0
 10
657.0
 20
23.92231941223145
 30
43.49804306030273
 70
   192
  0
VERTEX
  5
B4F
  8
0
 10
657.0
 20
23.81485939025879
 30
44.72654724121094
 70
   192
  0
VERTEX
  5
B50
  8
0
 10
657.0
 20
23.61825370788574
 30
45.94139862060547
 70
   192
  0
VERTEX
  5
B51
  8
0
 10
657.0
 20
23.31434440612793
 30
47.12957763671875
 70
   192
  0
VERTEX
  5
B52
  8
0
 10
657.0
 20
22.88496780395508
 30
48.27804946899414
 70
   192
  0
VERTEX
  5
B53
  8
0
 10
657.0
 20
22.61870002746582
 30
48.83175277709961
 70
   192
  0
VERTEX
  5
B54
  8
0
 10
657.0
 20
22.32112312316895
 30
49.36122131347656
 70
   192
  0
VERTEX
  5
B55
  8
0
 10
657.0
 20
21.99098205566406
 30
49.86250686645508
 70
   192
  0
VERTEX
  5
B56
  8
0
 10
657.0
 20
21.60361671447754
 30
50.36006164550781
 70
   192
  0
VERTEX
  5
B57
  8
0
 10
657.0
 20
21.18974494934082
 30
50.81581115722656
 70
   192
  0
VERTEX
  5
B58
  8
0
 10
657.0
 20
20.75840950012207
 30
51.21931076049805
 70
   192
  0
VERTEX
  5
B59
  8
0
 10
657.0
 20
20.28603744506836
 30
51.60176849365234
 70
   192
  0
VERTEX
  5
B5A
  8
0
 10
657.0
 20
19.7916145324707
 30
51.94975280761719
 70
   192
  0
VERTEX
  5
B5B
  8
0
 10
657.0
 20
18.74197578430176
 30
52.56079864501953
 70
   192
  0
VERTEX
  5
B5C
  8
0
 10
657.0
 20
17.6265869140625
 30
53.07207489013672
 70
   192
  0
VERTEX
  5
B5D
  8
0
 10
657.0
 20
16.46465873718262
 30
53.4974479675293
 70
   192
  0
VERTEX
  5
B5E
  8
0
 10
657.0
 20
15.27540016174316
 30
53.85079574584961
 70
   192
  0
VERTEX
  5
B5F
  8
0
 10
657.0
 20
12.86826705932617
 30
54.39057540893555
 70
   192
  0
VERTEX
  5
B60
  8
0
 10
657.0
 20
10.44149684906006
 30
54.77103424072266
 70
   192
  0
VERTEX
  5
B61
  8
0
 10
657.0
 20
5.555694103240967
 30
55.26469421386719
 70
   192
  0
VERTEX
  5
B62
  8
0
 10
657.0
 20
3.104951143264771
 30
55.40586090087891
 70
   192
  0
VERTEX
  5
B63
  8
0
 10
657.0
 20
1.572386741638184
 30
55.45458602905273
 70
   192
  0
VERTEX
  5
B64
  8
0
 10
657.0
 20
0.6341400146484375
 30
55.4686393737793
 70
   192
  0
VERTEX
  5
B65
  8
0
 10
657.0
 20
-4.253631114959717
 30
55.34843826293945
 70
   192
  0
VERTEX
  5
B66
  8
0
 10
657.0
 20
-6.704112529754639
 30
55.17237854003906
 70
   192
  0
VERTEX
  5
B67
  8
0
 10
657.0
 20
-7.92494535446167
 30
55.05889892578125
 70
   192
  0
VERTEX
  5
B68
  8
0
 10
657.0
 20
-9.15599250793457
 30
54.92856979370117
 70
   192
  0
VERTEX
  5
B69
  8
0
 10
657.0
 20
-10.36887454986572
 30
54.78182983398438
 70
   192
  0
VERTEX
  5
B6A
  8
0
 10
657.0
 20
-11.58757781982422
 30
54.60980987548828
 70
   192
  0
VERTEX
  5
B6B
  8
0
 10
657.0
 20
-14.00100326538086
 30
54.16595077514648
 70
   192
  0
VERTEX
  5
B6C
  8
0
 10
657.0
 20
-16.37499237060547
 30
53.5363655090332
 70
   192
  0
VERTEX
  5
B6D
  8
0
 10
657.0
 20
-17.52711486816406
 30
53.11874771118164
 70
   192
  0
VERTEX
  5
B6E
  8
0
 10
657.0
 20
-18.64535140991211
 30
52.61207580566406
 70
   192
  0
VERTEX
  5
B6F
  8
0
 10
657.0
 20
-19.7159595489502
 30
52.00067901611328
 70
   192
  0
VERTEX
  5
B70
  8
0
 10
657.0
 20
-20.22226333618164
 30
51.65048599243164
 70
   192
  0
VERTEX
  5
B71
  8
0
 10
657.0
 20
-20.7021427154541
 30
51.26779556274414
 70
   192
  0
VERTEX
  5
B72
  8
0
 10
657.0
 20
-21.36234283447266
 30
50.63101959228516
 70
   192
  0
VERTEX
  5
B73
  8
0
 10
657.0
 20
-21.94258499145508
 30
49.92631912231445
 70
   192
  0
VERTEX
  5
B74
  8
0
 10
657.0
 20
-22.32121276855469
 30
49.35917663574219
 70
   192
  0
VERTEX
  5
B75
  8
0
 10
657.0
 20
-22.65280532836914
 30
48.76332473754883
 70
   192
  0
VERTEX
  5
B76
  8
0
 10
657.0
 20
-22.94009780883789
 30
48.14262008666992
 70
   192
  0
VERTEX
  5
B77
  8
0
 10
657.0
 20
-23.18582916259766
 30
47.50093841552734
 70
   192
  0
VERTEX
  5
B78
  8
0
 10
657.0
 20
-23.56356620788574
 30
46.17010498046875
 70
   192
  0
VERTEX
  5
B79
  8
0
 10
657.0
 20
-23.80793190002441
 30
44.8017578125
 70
   192
  0
VERTEX
  5
B7A
  8
0
 10
657.0
 20
-23.94809150695801
 30
43.26864242553711
 70
   192
  0
VERTEX
  5
B7B
  8
0
 10
657.0
 20
-23.9711742401123
 30
41.73170852661133
 70
   192
  0
VERTEX
  5
B7C
  8
0
 10
657.0
 20
-23.74824333190918
 30
38.66359329223633
 70
   192
  0
VERTEX
  5
B7D
  8
0
 10
657.0
 20
-23.17263793945312
 30
35.02865219116211
 70
   192
  0
VERTEX
  5
B7E
  8
0
 10
657.0
 20
-22.5146369934082
 30
32.0289421081543
 70
   192
  0
VERTEX
  5
B7F
  8
0
 10
657.0
 20
-22.06637763977051
 30
30.2517261505127
 70
   192
  0
VERTEX
  5
B80
  8
0
 10
657.0
 20
-21.94377708435059
 30
29.78870391845703
 70
   192
  0
VERTEX
  5
B81
  8
0
 10
657.0
 20
-21.74523544311523
 30
29.05649566650391
 70
   192
  0
VERTEX
  5
B82
  8
0
 10
657.0
 20
-21.05768013000488
 30
26.68815040588379
 70
   192
  0
VERTEX
  5
B83
  8
0
 10
657.0
 20
-19.87486267089844
 30
23.19200134277344
 70
   192
  0
VERTEX
  5
B84
  8
0
 10
657.0
 20
-18.96534156799316
 30
20.93679618835449
 70
   192
  0
VERTEX
  5
B85
  8
0
 10
657.0
 20
-17.9161205291748
 30
18.72080993652344
 70
   192
  0
VERTEX
  5
B86
  8
0
 10
657.0
 20
-16.70403289794922
 30
16.57520484924316
 70
   192
  0
VERTEX
  5
B87
  8
0
 10
657.0
 20
-15.3141622543335
 30
14.55018997192383
 70
   192
  0
VERTEX
  5
B88
  8
0
 10
657.0
 20
-14.14245796203613
 30
13.13074684143066
 70
   192
  0
VERTEX
  5
B89
  8
0
 10
657.0
 20
-12.84195518493652
 30
11.80248641967773
 70
   192
  0
VERTEX
  5
B8A
  8
0
 10
657.0
 20
-11.92478847503662
 30
10.99675178527832
 70
   192
  0
VERTEX
  5
B8B
  8
0
 10
657.0
 20
-10.96021461486816
 30
10.2503662109375
 70
   192
  0
VERTEX
  5
B8C
  8
0
 10
657.0
 20
-9.947796821594238
 30
9.563446998596191
 70
   192
  0
VERTEX
  5
B8D
  8
0
 10
657.0
 20
-8.890998840332031
 30
8.941934585571289
 70
   192
  0
VERTEX
  5
B8E
  8
0
 10
657.0
 20
-7.791750431060791
 30
8.39913558959961
 70
   192
  0
VERTEX
  5
B8F
  8
0
 10
657.0
 20
-6.070111751556396
 30
7.75412654876709
 70
   192
  0
VERTEX
  5
B90
  8
0
 10
657.0
 20
-4.282344341278076
 30
7.30219841003418
 70
   192
  0
VERTEX
  5
B91
  8
0
 10
657.0
 20
-1.850317001342773
 30
6.972118854522705
 70
   192
  0
VERTEX
  5
B92
  8
0
 10
657.0
 20
-1.237501621246338
 30
6.935518741607666
 70
   192
  0
VERTEX
  5
B93
  8
0
 10
657.0
 20
-0.6316320300102234
 30
6.916781425476074
 70
   192
  0
VERTEX
  5
B94
  8
0
 10
657.0
 20
0.6036601066589355
 30
6.931085109710693
 70
   192
  0
VERTEX
  5
B95
  8
0
 10
657.0
 20
3.045287609100342
 30
7.163972854614258
 70
   192
  0
VERTEX
  5
B96
  8
0
 10
657.0
 20
4.851474761962891
 30
7.516667366027832
 70
   192
  0
VERTEX
  5
B97
  8
0
 10
657.0
 20
6.623292922973633
 30
8.021947860717773
 70
   192
  0
VERTEX
  5
B98
  8
0
 10
657.0
 20
7.775343894958496
 30
8.448339462280273
 70
   192
  0
VERTEX
  5
B99
  8
0
 10
657.0
 20
8.900310516357422
 30
8.950886726379395
 70
   192
  0
VERTEX
  5
B9A
  8
0
 10
657.0
 20
9.965413093566895
 30
9.519911766052246
 70
   192
  0
VERTEX
  5
B9B
  8
0
 10
657.0
 20
11.01178741455078
 30
10.17597579956055
 70
   192
  0
VERTEX
  5
B9C
  8
0
 10
657.0
 20
12.46852016448975
 30
11.28389835357666
 70
   192
  0
VERTEX
  5
B9D
  8
0
 10
657.0
 20
13.59834480285645
 30
12.32855796813965
 70
   192
  0
VERTEX
  5
B9E
  8
0
 10
657.0
 20
14.64652729034424
 30
13.46556949615479
 70
   192
  0
VERTEX
  5
B9F
  8
0
 10
657.0
 20
16.13063049316406
 30
15.42044162750244
 70
   192
  0
VERTEX
  5
BA0
  8
0
 10
657.0
 20
17.40720558166504
 30
17.50502777099609
 70
   192
  0
VERTEX
  5
BA1
  8
0
 10
657.0
 20
18.51546669006348
 30
19.70534324645996
 70
   192
  0
VERTEX
  5
BA2
  8
0
 10
657.0
 20
19.46711730957031
 30
21.9473819732666
 70
   192
  0
VERTEX
  5
BA3
  8
0
 10
657.0
 20
20.10958671569824
 30
23.6807746887207
 70
   192
  0
VERTEX
  5
BA4
  8
0
 10
657.0
 20
21.05798721313477
 30
26.61163330078125
 70
   192
  0
VERTEX
  5
BA5
  8
0
 10
657.0
 20
21.40211486816406
 30
27.79342460632324
 70
   192
  0
VERTEX
  5
BA6
  8
0
 10
657.0
 20
21.56779098510742
 30
28.38544082641602
 70
   192
  0
VERTEX
  5
BA7
  8
0
 10
657.0
 20
21.72932052612305
 30
28.9770622253418
 70
   192
  0
VERTEX
  5
BA8
  8
0
 10
691.0
 20
20.86466026306152
 30
44.98852920532227
 70
   192
  0
VERTEX
  5
BA9
  8
0
 10
725.0
 20
20.0
 30
61.0
 70
   192
  0
VERTEX
  5
BAA
  8
0
 10
725.0
 20
19.93168830871582
 30
59.70442199707031
 70
   192
  0
VERTEX
  5
BAB
  8
0
 10
725.0
 20
19.80196762084961
 30
58.41371917724609
 70
   192
  0
VERTEX
  5
BAC
  8
0
 10
725.0
 20
19.61627388000488
 30
57.12544250488281
 70
   192
  0
VERTEX
  5
BAD
  8
0
 10
725.0
 20
19.38253593444824
 30
55.85357284545898
 70
   192
  0
VERTEX
  5
BAE
  8
0
 10
725.0
 20
19.24537467956543
 30
55.20630264282227
 70
   192
  0
VERTEX
  5
BAF
  8
0
 10
725.0
 20
19.10155868530273
 30
54.58089065551758
 70
   192
  0
VERTEX
  5
BB0
  8
0
 10
725.0
 20
18.78160095214844
 30
53.32968521118164
 70
   192
  0
VERTEX
  5
BB1
  8
0
 10
725.0
 20
18.02947998046875
 30
50.86378479003906
 70
   192
  0
VERTEX
  5
BB2
  8
0
 10
725.0
 20
17.58853149414062
 30
49.61515045166016
 70
   192
  0
VERTEX
  5
BB3
  8
0
 10
725.0
 20
16.62189483642578
 30
47.20103073120117
 70
   192
  0
VERTEX
  5
BB4
  8
0
 10
725.0
 20
14.93387508392334
 30
43.69062423706055
 70
   192
  0
VERTEX
  5
BB5
  8
0
 10
725.0
 20
13.66029739379883
 30
41.44921875
 70
   192
  0
VERTEX
  5
BB6
  8
0
 10
725.0
 20
12.95947551727295
 30
40.33254241943359
 70
   192
  0
VERTEX
  5
BB7
  8
0
 10
725.0
 20
12.22170257568359
 30
39.23457336425781
 70
   192
  0
VERTEX
  5
BB8
  8
0
 10
725.0
 20
11.66840076446533
 30
38.46005630493164
 70
   192
  0
VERTEX
  5
BB9
  8
0
 10
725.0
 20
10.67936611175537
 30
37.17226028442383
 70
   192
  0
VERTEX
  5
BBA
  8
0
 10
725.0
 20
8.513891220092773
 30
34.74116134643555
 70
   192
  0
VERTEX
  5
BBB
  8
0
 10
725.0
 20
7.332844734191895
 30
33.6351318359375
 70
   192
  0
VERTEX
  5
BBC
  8
0
 10
725.0
 20
6.075339794158936
 30
32.6180534362793
 70
   192
  0
VERTEX
  5
BBD
  8
0
 10
725.0
 20
4.453670501708984
 30
31.54062843322754
 70
   192
  0
VERTEX
  5
BBE
  8
0
 10
725.0
 20
3.592314481735229
 30
31.07942008972168
 70
   192
  0
VERTEX
  5
BBF
  8
0
 10
725.0
 20
2.694711923599243
 30
30.68215942382812
 70
   192
  0
VERTEX
  5
BC0
  8
0
 10
725.0
 20
1.764493942260742
 30
30.35895156860352
 70
   192
  0
VERTEX
  5
BC1
  8
0
 10
725.0
 20
0.8275155425071716
 30
30.12348175048828
 70
   192
  0
VERTEX
  5
BC2
  8
0
 10
725.0
 20
-0.1019613295793533
 30
29.98835563659668
 70
   192
  0
VERTEX
  5
BC3
  8
0
 10
725.0
 20
-1.07826554775238
 30
29.95821571350098
 70
   192
  0
VERTEX
  5
BC4
  8
0
 10
725.0
 20
-1.739424228668213
 30
29.99729919433594
 70
   192
  0
VERTEX
  5
BC5
  8
0
 10
725.0
 20
-2.373258590698242
 30
30.08137512207031
 70
   192
  0
VERTEX
  5
BC6
  8
0
 10
725.0
 20
-2.998589754104614
 30
30.20755767822266
 70
   192
  0
VERTEX
  5
BC7
  8
0
 10
725.0
 20
-3.619022607803345
 30
30.3745174407959
 70
   192
  0
VERTEX
  5
BC8
  8
0
 10
725.0
 20
-4.844393730163574
 30
30.82703399658203
 70
   192
  0
VERTEX
  5
BC9
  8
0
 10
725.0
 20
-6.013270854949951
 30
31.41042518615723
 70
   192
  0
VERTEX
  5
BCA
  8
0
 10
725.0
 20
-7.106316089630127
 30
32.09429931640625
 70
   192
  0
VERTEX
  5
BCB
  8
0
 10
725.0
 20
-8.143129348754883
 30
32.8679313659668
 70
   192
  0
VERTEX
  5
BCC
  8
0
 10
725.0
 20
-9.127528190612793
 30
33.71907424926758
 70
   192
  0
VERTEX
  5
BCD
  8
0
 10
725.0
 20
-10.93856239318848
 30
35.60336685180664
 70
   192
  0
VERTEX
  5
BCE
  8
0
 10
725.0
 20
-12.54252529144287
 30
37.65735626220703
 70
   192
  0
VERTEX
  5
BCF
  8
0
 10
725.0
 20
-13.95909786224365
 30
39.83614349365234
 70
   192
  0
VERTEX
  5
BD0
  8
0
 10
725.0
 20
-15.21026039123535
 30
42.10926818847656
 70
   192
  0
VERTEX
  5
BD1
  8
0
 10
725.0
 20
-16.31061935424805
 30
44.45909881591797
 70
   192
  0
VERTEX
  5
BD2
  8
0
 10
725.0
 20
-17.69801330566406
 30
48.09907531738281
 70
   192
  0
VERTEX
  5
BD3
  8
0
 10
725.0
 20
-18.76803779602051
 30
51.84823989868164
 70
   192
  0
VERTEX
  5
BD4
  8
0
 10
725.0
 20
-19.5139102935791
 30
55.67564010620117
 70
   192
  0
VERTEX
  5
BD5
  8
0
 10
725.0
 20
-19.9288501739502
 30
59.55033111572266
 70
   192
  0
VERTEX
  5
BD6
  8
0
 10
725.0
 20
-19.96191215515137
 30
64.7420425415039
 70
   192
  0
VERTEX
  5
BD7
  8
0
 10
725.0
 20
-19.41638565063477
 30
69.92172241210938
 70
   192
  0
VERTEX
  5
BD8
  8
0
 10
725.0
 20
-18.33129501342773
 30
74.98677825927734
 70
   192
  0
VERTEX
  5
BD9
  8
0
 10
725.0
 20
-16.71844673156738
 30
79.92227172851562
 70
   192
  0
VERTEX
  5
BDA
  8
0
 10
725.0
 20
-14.56136703491211
 30
84.64990997314453
 70
   192
  0
VERTEX
  5
BDB
  8
0
 10
725.0
 20
-13.26571464538574
 30
86.91175842285156
 70
   192
  0
VERTEX
  5
BDC
  8
0
 10
725.0
 20
-11.80340957641602
 30
89.06385803222656
 70
   192
  0
VERTEX
  5
BDD
  8
0
 10
725.0
 20
-10.15178775787354
 30
91.06280517578125
 70
   192
  0
VERTEX
  5
BDE
  8
0
 10
725.0
 20
-8.288182258605957
 30
92.86518859863281
 70
   192
  0
VERTEX
  5
BDF
  8
0
 10
725.0
 20
-7.270092964172363
 30
93.6762466430664
 70
   192
  0
VERTEX
  5
BE0
  8
0
 10
725.0
 20
-6.192245960235596
 30
94.40467834472656
 70
   192
  0
VERTEX
  5
BE1
  8
0
 10
725.0
 20
-5.053548812866211
 30
95.0278549194336
 70
   192
  0
VERTEX
  5
BE2
  8
0
 10
725.0
 20
-3.852905988693237
 30
95.52313995361328
 70
   192
  0
VERTEX
  5
BE3
  8
0
 10
725.0
 20
-3.229801893234253
 30
95.71566009521484
 70
   192
  0
VERTEX
  5
BE4
  8
0
 10
725.0
 20
-2.595532894134521
 30
95.86714935302734
 70
   192
  0
VERTEX
  5
BE5
  8
0
 10
725.0
 20
-1.954693794250488
 30
95.97421264648438
 70
   192
  0
VERTEX
  5
BE6
  8
0
 10
725.0
 20
-1.311879396438599
 30
96.03343963623047
 70
   192
  0
VERTEX
  5
BE7
  8
0
 10
725.0
 20
-0.6475475430488586
 30
96.04100036621094
 70
   192
  0
VERTEX
  5
BE8
  8
0
 10
725.0
 20
-0.0162772666662931
 30
96.00170135498047
 70
   192
  0
VERTEX
  5
BE9
  8
0
 10
725.0
 20
0.9095656871795654
 30
95.85103607177734
 70
   192
  0
VERTEX
  5
BEA
  8
0
 10
725.0
 20
1.864543914794922
 30
95.59365844726562
 70
   192
  0
VERTEX
  5
BEB
  8
0
 10
725.0
 20
2.772493362426758
 30
95.24817657470703
 70
   192
  0
VERTEX
  5
BEC
  8
0
 10
725.0
 20
3.649685144424438
 30
94.82532501220703
 70
   192
  0
VERTEX
  5
BED
  8
0
 10
725.0
 20
4.767963886260986
 30
94.16157531738281
 70
   192
  0
VERTEX
  5
BEE
  8
0
 10
725.0
 20
5.826382637023926
 30
93.40678405761719
 70
   192
  0
VERTEX
  5
BEF
  8
0
 10
725.0
 20
6.825442790985107
 30
92.58280944824219
 70
   192
  0
VERTEX
  5
BF0
  8
0
 10
725.0
 20
7.770516395568848
 30
91.69953155517578
 70
   192
  0
VERTEX
  5
BF1
  8
0
 10
725.0
 20
9.525065422058105
 30
89.78272247314453
 70
   192
  0
VERTEX
  5
BF2
  8
0
 10
725.0
 20
11.12259960174561
 30
87.72332763671875
 70
   192
  0
VERTEX
  5
BF3
  8
0
 10
725.0
 20
12.56938362121582
 30
85.56309509277344
 70
   192
  0
VERTEX
  5
BF4
  8
0
 10
725.0
 20
15.06372451782227
 30
81.00987243652344
 70
   192
  0
VERTEX
  5
BF5
  8
0
 10
725.0
 20
16.62885093688965
 30
77.44876098632812
 70
   192
  0
VERTEX
  5
BF6
  8
0
 10
725.0
 20
17.93798637390137
 30
73.77008819580078
 70
   192
  0
VERTEX
  5
BF7
  8
0
 10
725.0
 20
18.97435569763184
 30
69.98595428466797
 70
   192
  0
VERTEX
  5
BF8
  8
0
 10
725.0
 20
19.37095832824707
 30
68.09589385986328
 70
   192
  0
VERTEX
  5
BF9
  8
0
 10
725.0
 20
19.58859062194824
 30
66.82538604736328
 70
   192
  0
VERTEX
  5
BFA
  8
0
 10
725.0
 20
19.76659202575684
 30
65.53791809082031
 70
   192
  0
VERTEX
  5
BFB
  8
0
 10
725.0
 20
19.94744491577148
 30
63.59885406494141
 70
   192
  0
VERTEX
  5
BFC
  8
0
 10
725.0
 20
20.00316429138184
 30
62.29803085327148
 70
   192
  0
VERTEX
  5
BFD
  8
0
 10
725.0
 20
20.0
 30
61.0
 70
   192
  0
VERTEX
  5
BFE
  8
0
 10
691.0
 20
20.86466026306152
 30
44.98852920532227
 70
   192
  0
VERTEX
  5
BFF
  8
0
 10
0.0
 20
0.0
 30
0.0
 70
   128
 71
     1
 72
     2
 73
    84
  0
VERTEX
  5
C00
  8
0
 10
0.0
 20
0.0
 30
0.0
 70
   128
 71
    84
 72
     2
 73
     3
  0
VERTEX
  5
C01
  8
0
 10
0.0
 20
0.0
 30
0.0
 70
   128
 71
     4
 72
    84
 73
     3
  0
VERTEX
  5
C02
  8
0
 10
0.0
 20
0.0
 30
0.0
 70
   128
 71
     4
 72
    83
 73
    84
  0
VERTEX
  5
C03
  8
0
 10
0.0
 20
0.0
 30
0.0
 70
   128
 71
     4
 72
    82
 73
    83
  0
VERTEX
  5
C04
  8
0
 10
0.0
 20
0.0
 30
0.0
 70
   128
 71
     4
 72
     5
 73
    82
  0
VERTEX
  5
C05
  8
0
 10
0.0
 20
0.0
 30
0.0
 70
   128
 71
    82
 72
     5
 73
    81
  0
VERTEX
  5
C06
  8
0
 10
0.0
 20
0.0
 30
0.0
 70
   128
 71
    81
 72
     5
 73
     6
  0
VERTEX
  5
C07
  8
0
 10
0.0
 20
0.0
 30
0.0
 70
   128
 71
    80
 72
     6
 73
     7
  0
VERTEX
  5
C08
  8
0
 10
0.0
 20
0.0
 30
0.0
 70
   128
 71
    79
 72
     7
 73
    78
  0
VERTEX
  5
C09
  8
0
 10
0.0
 20
0.0
 30
0.0
 70
   128
 71
    79
 72
    80
 73
     7
  0
VERTEX
  5
C0A
  8
0
 10
0.0
 20
0.0
 30
0.0
 70
   128
 71
     7
 72
     8
 73
    78
  0
VERTEX
  5
C0B
  8
0
 10
0.0
 20
0.0
 30
0.0
 70
   128
 71
    78
 72
     8
 73
    77
  0
VERTEX
  5
C0C
  8
0
 10
0.0
 20
0.0
 30
0.0
 70
   128
 71
    77
 72
     8
 73
    76
  0
VERTEX
  5
C0D
  8
0
 10
0.0
 20
0.0
 30
0.0
 70
   128
 71
    76
 72
     8
 73
     9
  0
VERTEX
  5
C0E
  8
0
 10
0.0
 20
0.0
 30
0.0
 70
   128
 71
    75
 72
     9
 73
    10
  0
VERTEX
  5
C0F
  8
0
 10
0.0
 20
0.0
 30
0.0
 70
   128
 71
    74
 72
    10
 73
    11
  0
VERTEX
  5
C10
  8
0
 10
0.0
 20
0.0
 30
0.0
 70
   128
 71
    73
 72
    11
 73
    72
  0
VERTEX
  5
C11
  8
0
 10
0.0
 20
0.0
 30
0.0
 70
   128
 71
    73
 72
    74
 73
    11
  0
VERTEX
  5
C12
  8
0
 10
0.0
 20
0.0
 30
0.0
 70
   128
 71
    72
 72
    11
 73
    71
  0
VERTEX
  5
C13
  8
0
 10
0.0
 20
0.0
 30
0.0
 70
   128
 71
    71
 72
    11
 73
    12
  0
VERTEX
  5
C14
  8
0
 10
0.0
 20
0.0
 30
0.0
 70
   128
 71
    70
 72
    12
 73
    69
  0
VERTEX
  5
C15
  8
0
 10
0.0
 20
0.0
 30
0.0
 70
   128
 71
    70
 72
    71
 73
    12
  0
VERTEX
  5
C16
  8
0
 10
0.0
 20
0.0
 30
0.0
 70
   128
 71
    12
 72
    13
 73
    69
  0
VERTEX
  5
C17
  8
0
 10
0.0
 20
0.0
 30
0.0
 70
   128
 71
    69
 72
    13
 73
    68
  0
VERTEX
  5
C18
  8
0
 10
0.0
 20
0.0
 30
0.0
 70
   128
 71
    68
 72
    13
 73
    14
  0
VERTEX
  5
C19
  8
0
 10
0.0
 20
0.0
 30
0.0
 70
   128
 71
    67
 72
    14
 73
    15
  0
VERTEX
  5
C1A
  8
0
 10
0.0
 20
0.0
 30
0.0
 70
   128
 71
    66
 72
    15
 73
    16
  0
VERTEX
  5
C1B
  8
0
 10
0.0
 20
0.0
 30
0.0
 70
   128
 71
    65
 72
    16
 73
    17
  0
VERTEX
  5
C1C
  8
0
 10
0.0
 20
0.0
 30
0.0
 70
   128
 71
    18
 72
    65
 73
    17
  0
VERTEX
  5
C1D
  8
0
 10
0.0
 20
0.0
 30
0.0
 70
   128
 71
    18
 72
    64
 73
    65
  0
VERTEX
  5
C1E
  8
0
 10
0.0
 20
0.0
 30
0.0
 70
   128
 71
    18
 72
    19
 73
    64
  0
VERTEX
  5
C1F
  8
0
 10
0.0
 20
0.0
 30
0.0
 70
   128
 71
    64
 72
    19
 73
    63
  0
VERTEX
  5
C20
  8
0
 10
0.0
 20
0.0
 30
0.0
 70
   128
 71
    63
 72
    19
 73
    20
  0
VERTEX
  5
C21
  8
0
 10
0.0
 20
0.0
 30
0.0
 70
   128
 71
    62
 72
    20
 73
    21
  0
VERTEX
  5
C22
  8
0
 10
0.0
 20
0.0
 30
0.0
 70
   128
 71
    61
 72
    21
 73
    22
  0
VERTEX
  5
C23
  8
0
 10
0.0
 20
0.0
 30
0.0
 70
   128
 71
    60
 72
    22
 73
    23
  0
VERTEX
  5
C24
  8
0
 10
0.0
 20
0.0
 30
0.0
 70
   128
 71
    59
 72
    23
 73
    24
  0
VERTEX
  5
C25
  8
0
 10
0.0
 20
0.0
 30
0.0
 70
   128
 71
    58
 72
    24
 73
    25
  0
VERTEX
  5
C26
  8
0
 10
0.0
 20
0.0
 30
0.0
 70
   128
 71
    57
 72
    25
 73
    26
  0
VERTEX
  5
C27
  8
0
 10
0.0
 20
0.0
 30
0.0
 70
   128
 71
    56
 72
    26
 73
    27
  0
VERTEX
  5
C28
  8
0
 10
0.0
 20
0.0
 30
0.0
 70
   128
 71
    55
 72
    27
 73
    28
  0
VERTEX
  5
C29
  8
0
 10
0.0
 20
0.0
 30
0.0
 70
   128
 71
    54
 72
    28
 73
    29
  0
VERTEX
  5
C2A
  8
0
 10
0.0
 20
0.0
 30
0.0
 70
   128
 71
    53
 72
    29
 73
    30
  0
VERTEX
  5
C2B
  8
0
 10
0.0
 20
0.0
 30
0.0
 70
   128
 71
    52
 72
    30
 73
    31
  0
VERTEX
  5
C2C
  8
0
 10
0.0
 20
0.0
 30
0.0
 70
   128
 71
    51
 72
    31
 73
    32
  0
VERTEX
  5
C2D
  8
0
 10
0.0
 20
0.0
 30
0.0
 70
   128
 71
    50
 72
    32
 73
    33
  0
VERTEX
  5
C2E
  8
0
 10
0.0
 20
0.0
 30
0.0
 70
   128
 71
    49
 72
    33
 73
    34
  0
VERTEX
  5
C2F
  8
0
 10
0.0
 20
0.0
 30
0.0
 70
   128
 71
    48
 72
    34
 73
    35
  0
VERTEX
  5
C30
  8
0
 10
0.0
 20
0.0
 30
0.0
 70
   128
 71
    47
 72
    35
 73
    36
  0
VERTEX
  5
C31
  8
0
 10
0.0
 20
0.0
 30
0.0
 70
   128
 71
    46
 72
    36
 73
    37
  0
VERTEX
  5
C32
  8
0
 10
0.0
 20
0.0
 30
0.0
 70
   128
 71
    45
 72
    37
 73
    44
  0
VERTEX
  5
C33
  8
0
 10
0.0
 20
0.0
 30
0.0
 70
   128
 71
    45
 72
    46
 73
    37
  0
VERTEX
  5
C34
  8
0
 10
0.0
 20
0.0
 30
0.0
 70
   128
 71
    37
 72
    38
 73
    44
  0
VERTEX
  5
C35
  8
0
 10
0.0
 20
0.0
 30
0.0
 70
   128
 71
    44
 72
    38
 73
    43
  0
VERTEX
  5
C36
  8
0
 10
0.0
 20
0.0
 30
0.0
 70
   128
 71
    43
 72
    38
 73
    39
  0
VERTEX
  5
C37
  8
0
 10
0.0
 20
0.0
 30
0.0
 70
   128
 71
    42
 72
    39
 73
    41
  0
VERTEX
  5
C38
  8
0
 10
0.0
 20
0.0
 30
0.0
 70
   128
 71
    42
 72
    43
 73
    39
  0
VERTEX
  5
C39
  8
0
 10
0.0
 20
0.0
 30
0.0
 70
   128
 71
    39
 72
    40
 73
    41
  0
VERTEX
  5
C3A
  8
0
 10
0.0
 20
0.0
 30
0.0
 70
   128
 71
    46
 72
    47
 73
    36
  0
VERTEX
  5
C3B
  8
0
 10
0.0
 20
0.0
 30
0.0
 70
   128
 71
    47
 72
    48
 73
    35
  0
VERTEX
  5
C3C
  8
0
 10
0.0
 20
0.0
 30
0.0
 70
   128
 71
    48
 72
    49
 73
    34
  0
VERTEX
  5
C3D
  8
0
 10
0.0
 20
0.0
 30
0.0
 70
   128
 71
    49
 72
    50
 73
    33
  0
VERTEX
  5
C3E
  8
0
 10
0.0
 20
0.0
 30
0.0
 70
   128
 71
    50
 72
    51
 73
    32
  0
VERTEX
  5
C3F
  8
0
 10
0.0
 20
0.0
 30
0.0
 70
   128
 71
    51
 72
    52
 73
    31
  0
VERTEX
  5
C40
  8
0
 10
0.0
 20
0.0
 30
0.0
 70
   128
 71
    52
 72
    53
 73
    30
  0
VERTEX
  5
C41
  8
0
 10
0.0
 20
0.0
 30
0.0
 70
   128
 71
    53
 72
    54
 73
    29
  0
VERTEX
  5
C42
  8
0
 10
0.0
 20
0.0
 30
0.0
 70
   128
 71
    54
 72
    55
 73
    28
  0
VERTEX
  5
C43
  8
0
 10
0.0
 20
0.0
 30
0.0
 70
   128
 71
    55
 72
    56
 73
    27
  0
VERTEX
  5
C44
  8
0
 10
0.0
 20
0.0
 30
0.0
 70
   128
 71
    56
 72
    57
 73
    26
  0
VERTEX
  5
C45
  8
0
 10
0.0
 20
0.0
 30
0.0
 70
   128
 71
    57
 72
    58
 73
    25
  0
VERTEX
  5
C46
  8
0
 10
0.0
 20
0.0
 30
0.0
 70
   128
 71
    58
 72
    59
 73
    24
  0
VERTEX
  5
C47
  8
0
 10
0.0
 20
0.0
 30
0.0
 70
   128
 71
    59
 72
    60
 73
    23
  0
VERTEX
  5
C48
  8
0
 10
0.0
 20
0.0
 30
0.0
 70
   128
 71
    60
 72
    61
 73
    22
  0
VERTEX
  5
C49
  8
0
 10
0.0
 20
0.0
 30
0.0
 70
   128
 71
    61
 72
    62
 73
    21
  0
VERTEX
  5
C4A
  8
0
 10
0.0
 20
0.0
 30
0.0
 70
   128
 71
    62
 72
    63
 73
    20
  0
VERTEX
  5
C4B
  8
0
 10
0.0
 20
0.0
 30
0.0
 70
   128
 71
    65
 72
    66
 73
    16
  0
VERTEX
  5
C4C
  8
0
 10
0.0
 20
0.0
 30
0.0
 70
   128
 71
    66
 72
    67
 73
    15
  0
VERTEX
  5
C4D
  8
0
 10
0.0
 20
0.0
 30
0.0
 70
   128
 71
    67
 72
    68
 73
    14
  0
VERTEX
  5
C4E
  8
0
 10
0.0
 20
0.0
 30
0.0
 70
   128
 71
    74
 72
    75
 73
    10
  0
VERTEX
  5
C4F
  8
0
 10
0.0
 20
0.0
 30
0.0
 70
   128
 71
    75
 72
    76
 73
     9
  0
VERTEX
  5
C50
  8
0
 10
0.0
 20
0.0
 30
0.0
 70
   128
 71
    80
 72
    81
 73
     6
  0
VERTEX
  5
C51
  8
0
 10
0.0
 20
0.0
 30
0.0
 70
   128
 71
   177
 72
    85
 73
   159
  0
VERTEX
  5
C52
  8
0
 10
0.0
 20
0.0
 30
0.0
 70
   128
 71
   176
 72
   159
 73
   160
  0
VERTEX
  5
C53
  8
0
 10
0.0
 20
0.0
 30
0.0
 70
   128
 71
   175
 72
   160
 73
   161
  0
VERTEX
  5
C54
  8
0
 10
0.0
 20
0.0
 30
0.0
 70
   128
 71
   174
 72
   161
 73
   162
  0
VERTEX
  5
C55
  8
0
 10
0.0
 20
0.0
 30
0.0
 70
   128
 71
   163
 72
   174
 73
   162
  0
VERTEX
  5
C56
  8
0
 10
0.0
 20
0.0
 30
0.0
 70
   128
 71
   163
 72
   173
 73
   174
  0
VERTEX
  5
C57
  8
0
 10
0.0
 20
0.0
 30
0.0
 70
   128
 71
   163
 72
   172
 73
   173
  0
VERTEX
  5
C58
  8
0
 10
0.0
 20
0.0
 30
0.0
 70
   128
 71
   163
 72
   171
 73
   172
  0
VERTEX
  5
C59
  8
0
 10
0.0
 20
0.0
 30
0.0
 70
   128
 71
   163
 72
   170
 73
   171
  0
VERTEX
  5
C5A
  8
0
 10
0.0
 20
0.0
 30
0.0
 70
   128
 71
   163
 72
   169
 73
   170
  0
VERTEX
  5
C5B
  8
0
 10
0.0
 20
0.0
 30
0.0
 70
   128
 71
   163
 72
   168
 73
   169
  0
VERTEX
  5
C5C
  8
0
 10
0.0
 20
0.0
 30
0.0
 70
   128
 71
   163
 72
   167
 73
   168
  0
VERTEX
  5
C5D
  8
0
 10
0.0
 20
0.0
 30
0.0
 70
   128
 71
   163
 72
   166
 73
   167
  0
VERTEX
  5
C5E
  8
0
 10
0.0
 20
0.0
 30
0.0
 70
   128
 71
   163
 72
   164
 73
   166
  0
VERTEX
  5
C5F
  8
0
 10
0.0
 20
0.0
 30
0.0
 70
   128
 71
   166
 72
   164
 73
   165
  0
VERTEX
  5
C60
  8
0
 10
0.0
 20
0.0
 30
0.0
 70
   128
 71
    85
 72
    86
 73
   159
  0
VERTEX
  5
C61
  8
0
 10
0.0
 20
0.0
 30
0.0
 70
   128
 71
   159
 72
    86
 73
    87
  0
VERTEX
  5
C62
  8
0
 10
0.0
 20
0.0
 30
0.0
 70
   128
 71
    88
 72
   159
 73
    87
  0
VERTEX
  5
C63
  8
0
 10
0.0
 20
0.0
 30
0.0
 70
   128
 71
    88
 72
    89
 73
   159
  0
VERTEX
  5
C64
  8
0
 10
0.0
 20
0.0
 30
0.0
 70
   128
 71
   159
 72
    89
 73
    90
  0
VERTEX
  5
C65
  8
0
 10
0.0
 20
0.0
 30
0.0
 70
   128
 71
    91
 72
   159
 73
    90
  0
VERTEX
  5
C66
  8
0
 10
0.0
 20
0.0
 30
0.0
 70
   128
 71
    91
 72
    92
 73
   159
  0
VERTEX
  5
C67
  8
0
 10
0.0
 20
0.0
 30
0.0
 70
   128
 71
   159
 72
    92
 73
    93
  0
VERTEX
  5
C68
  8
0
 10
0.0
 20
0.0
 30
0.0
 70
   128
 71
   158
 72
    93
 73
   157
  0
VERTEX
  5
C69
  8
0
 10
0.0
 20
0.0
 30
0.0
 70
   128
 71
   158
 72
   159
 73
    93
  0
VERTEX
  5
C6A
  8
0
 10
0.0
 20
0.0
 30
0.0
 70
   128
 71
    94
 72
    95
 73
    93
  0
VERTEX
  5
C6B
  8
0
 10
0.0
 20
0.0
 30
0.0
 70
   128
 71
    93
 72
    95
 73
    96
  0
VERTEX
  5
C6C
  8
0
 10
0.0
 20
0.0
 30
0.0
 70
   128
 71
    97
 72
    93
 73
    96
  0
VERTEX
  5
C6D
  8
0
 10
0.0
 20
0.0
 30
0.0
 70
   128
 71
    97
 72
    98
 73
    93
  0
VERTEX
  5
C6E
  8
0
 10
0.0
 20
0.0
 30
0.0
 70
   128
 71
    93
 72
    98
 73
    99
  0
VERTEX
  5
C6F
  8
0
 10
0.0
 20
0.0
 30
0.0
 70
   128
 71
   100
 72
    93
 73
    99
  0
VERTEX
  5
C70
  8
0
 10
0.0
 20
0.0
 30
0.0
 70
   128
 71
   100
 72
   101
 73
    93
  0
VERTEX
  5
C71
  8
0
 10
0.0
 20
0.0
 30
0.0
 70
   128
 71
    93
 72
   101
 73
   102
  0
VERTEX
  5
C72
  8
0
 10
0.0
 20
0.0
 30
0.0
 70
   128
 71
   103
 72
    93
 73
   102
  0
VERTEX
  5
C73
  8
0
 10
0.0
 20
0.0
 30
0.0
 70
   128
 71
   103
 72
   104
 73
    93
  0
VERTEX
  5
C74
  8
0
 10
0.0
 20
0.0
 30
0.0
 70
   128
 71
    93
 72
   104
 73
   152
  0
VERTEX
  5
C75
  8
0
 10
0.0
 20
0.0
 30
0.0
 70
   128
 71
   153
 72
    93
 73
   152
  0
VERTEX
  5
C76
  8
0
 10
0.0
 20
0.0
 30
0.0
 70
   128
 71
   153
 72
   154
 73
    93
  0
VERTEX
  5
C77
  8
0
 10
0.0
 20
0.0
 30
0.0
 70
   128
 71
    93
 72
   154
 73
   155
  0
VERTEX
  5
C78
  8
0
 10
0.0
 20
0.0
 30
0.0
 70
   128
 71
   156
 72
    93
 73
   155
  0
VERTEX
  5
C79
  8
0
 10
0.0
 20
0.0
 30
0.0
 70
   128
 71
   156
 72
   157
 73
    93
  0
VERTEX
  5
C7A
  8
0
 10
0.0
 20
0.0
 30
0.0
 70
   128
 71
   152
 72
   104
 73
   117
  0
VERTEX
  5
C7B
  8
0
 10
0.0
 20
0.0
 30
0.0
 70
   128
 71
   151
 72
   117
 73
   150
  0
VERTEX
  5
C7C
  8
0
 10
0.0
 20
0.0
 30
0.0
 70
   128
 71
   151
 72
   152
 73
   117
  0
VERTEX
  5
C7D
  8
0
 10
0.0
 20
0.0
 30
0.0
 70
   128
 71
   104
 72
   105
 73
   117
  0
VERTEX
  5
C7E
  8
0
 10
0.0
 20
0.0
 30
0.0
 70
   128
 71
   117
 72
   105
 73
   106
  0
VERTEX
  5
C7F
  8
0
 10
0.0
 20
0.0
 30
0.0
 70
   128
 71
   107
 72
   117
 73
   106
  0
VERTEX
  5
C80
  8
0
 10
0.0
 20
0.0
 30
0.0
 70
   128
 71
   107
 72
   108
 73
   117
  0
VERTEX
  5
C81
  8
0
 10
0.0
 20
0.0
 30
0.0
 70
   128
 71
   117
 72
   108
 73
   109
  0
VERTEX
  5
C82
  8
0
 10
0.0
 20
0.0
 30
0.0
 70
   128
 71
   110
 72
   117
 73
   109
  0
VERTEX
  5
C83
  8
0
 10
0.0
 20
0.0
 30
0.0
 70
   128
 71
   110
 72
   111
 73
   117
  0
VERTEX
  5
C84
  8
0
 10
0.0
 20
0.0
 30
0.0
 70
   128
 71
   117
 72
   111
 73
   112
  0
VERTEX
  5
C85
  8
0
 10
0.0
 20
0.0
 30
0.0
 70
   128
 71
   113
 72
   117
 73
   112
  0
VERTEX
  5
C86
  8
0
 10
0.0
 20
0.0
 30
0.0
 70
   128
 71
   113
 72
   114
 73
   117
  0
VERTEX
  5
C87
  8
0
 10
0.0
 20
0.0
 30
0.0
 70
   128
 71
   117
 72
   114
 73
   115
  0
VERTEX
  5
C88
  8
0
 10
0.0
 20
0.0
 30
0.0
 70
   128
 71
   116
 72
   117
 73
   115
  0
VERTEX
  5
C89
  8
0
 10
0.0
 20
0.0
 30
0.0
 70
   128
 71
   144
 72
   145
 73
   118
  0
VERTEX
  5
C8A
  8
0
 10
0.0
 20
0.0
 30
0.0
 70
   128
 71
   143
 72
   118
 73
   119
  0
VERTEX
  5
C8B
  8
0
 10
0.0
 20
0.0
 30
0.0
 70
   128
 71
   120
 72
   143
 73
   119
  0
VERTEX
  5
C8C
  8
0
 10
0.0
 20
0.0
 30
0.0
 70
   128
 71
   120
 72
   121
 73
   143
  0
VERTEX
  5
C8D
  8
0
 10
0.0
 20
0.0
 30
0.0
 70
   128
 71
   143
 72
   121
 73
   122
  0
VERTEX
  5
C8E
  8
0
 10
0.0
 20
0.0
 30
0.0
 70
   128
 71
   123
 72
   143
 73
   122
  0
VERTEX
  5
C8F
  8
0
 10
0.0
 20
0.0
 30
0.0
 70
   128
 71
   123
 72
   124
 73
   143
  0
VERTEX
  5
C90
  8
0
 10
0.0
 20
0.0
 30
0.0
 70
   128
 71
   143
 72
   124
 73
   125
  0
VERTEX
  5
C91
  8
0
 10
0.0
 20
0.0
 30
0.0
 70
   128
 71
   126
 72
   143
 73
   125
  0
VERTEX
  5
C92
  8
0
 10
0.0
 20
0.0
 30
0.0
 70
   128
 71
   126
 72
   127
 73
   143
  0
VERTEX
  5
C93
  8
0
 10
0.0
 20
0.0
 30
0.0
 70
   128
 71
   143
 72
   127
 73
   128
  0
VERTEX
  5
C94
  8
0
 10
0.0
 20
0.0
 30
0.0
 70
   128
 71
   132
 72
   128
 73
   131
  0
VERTEX
  5
C95
  8
0
 10
0.0
 20
0.0
 30
0.0
 70
   128
 71
   132
 72
   143
 73
   128
  0
VERTEX
  5
C96
  8
0
 10
0.0
 20
0.0
 30
0.0
 70
   128
 71
   132
 72
   133
 73
   143
  0
VERTEX
  5
C97
  8
0
 10
0.0
 20
0.0
 30
0.0
 70
   128
 71
   143
 72
   133
 73
   134
  0
VERTEX
  5
C98
  8
0
 10
0.0
 20
0.0
 30
0.0
 70
   128
 71
   135
 72
   143
 73
   134
  0
VERTEX
  5
C99
  8
0
 10
0.0
 20
0.0
 30
0.0
 70
   128
 71
   135
 72
   136
 73
   143
  0
VERTEX
  5
C9A
  8
0
 10
0.0
 20
0.0
 30
0.0
 70
   128
 71
   143
 72
   136
 73
   137
  0
VERTEX
  5
C9B
  8
0
 10
0.0
 20
0.0
 30
0.0
 70
   128
 71
   138
 72
   143
 73
   137
  0
VERTEX
  5
C9C
  8
0
 10
0.0
 20
0.0
 30
0.0
 70
   128
 71
   138
 72
   142
 73
   143
  0
VERTEX
  5
C9D
  8
0
 10
0.0
 20
0.0
 30
0.0
 70
   128
 71
   138
 72
   139
 73
   142
  0
VERTEX
  5
C9E
  8
0
 10
0.0
 20
0.0
 30
0.0
 70
   128
 71
   142
 72
   139
 73
   140
  0
VERTEX
  5
C9F
  8
0
 10
0.0
 20
0.0
 30
0.0
 70
   128
 71
   141
 72
   142
 73
   140
  0
VERTEX
  5
CA0
  8
0
 10
0.0
 20
0.0
 30
0.0
 70
   128
 71
   128
 72
   129
 73
   131
  0
VERTEX
  5
CA1
  8
0
 10
0.0
 20
0.0
 30
0.0
 70
   128
 71
   131
 72
   129
 73
   130
  0
VERTEX
  5
CA2
  8
0
 10
0.0
 20
0.0
 30
0.0
 70
   128
 71
   143
 72
   144
 73
   118
  0
VERTEX
  5
CA3
  8
0
 10
0.0
 20
0.0
 30
0.0
 70
   128
 71
   145
 72
   146
 73
   118
  0
VERTEX
  5
CA4
  8
0
 10
0.0
 20
0.0
 30
0.0
 70
   128
 71
   118
 72
   146
 73
   117
  0
VERTEX
  5
CA5
  8
0
 10
0.0
 20
0.0
 30
0.0
 70
   128
 71
   117
 72
   146
 73
   147
  0
VERTEX
  5
CA6
  8
0
 10
0.0
 20
0.0
 30
0.0
 70
   128
 71
   148
 72
   117
 73
   147
  0
VERTEX
  5
CA7
  8
0
 10
0.0
 20
0.0
 30
0.0
 70
   128
 71
   148
 72
   149
 73
   117
  0
VERTEX
  5
CA8
  8
0
 10
0.0
 20
0.0
 30
0.0
 70
   128
 71
   117
 72
   149
 73
   150
  0
VERTEX
  5
CA9
  8
0
 10
0.0
 20
0.0
 30
0.0
 70
   128
 71
   174
 72
   175
 73
   161
  0
VERTEX
  5
CAA
  8
0
 10
0.0
 20
0.0
 30
0.0
 70
   128
 71
   175
 72
   176
 73
   160
  0
VERTEX
  5
CAB
  8
0
 10
0.0
 20
0.0
 30
0.0
 70
   128
 71
   176
 72
   177
 73
   159
  0
VERTEX
  5
CAC
  8
0
 10
0.0
 20
0.0
 30
0.0
 70
   128
 71
   353
 72
   354
 73
   179
  0
VERTEX
  5
CAD
  8
0
 10
0.0
 20
0.0
 30
0.0
 70
   128
 71
   352
 72
   179
 73
   180
  0
VERTEX
  5
CAE
  8
0
 10
0.0
 20
0.0
 30
0.0
 70
   128
 71
   351
 72
   180
 73
   350
  0
VERTEX
  5
CAF
  8
0
 10
0.0
 20
0.0
 30
0.0
 70
   128
 71
   351
 72
   352
 73
   180
  0
VERTEX
  5
CB0
  8
0
 10
0.0
 20
0.0
 30
0.0
 70
   128
 71
   180
 72
   181
 73
   350
  0
VERTEX
  5
CB1
  8
0
 10
0.0
 20
0.0
 30
0.0
 70
   128
 71
   350
 72
   181
 73
   182
  0
VERTEX
  5
CB2
  8
0
 10
0.0
 20
0.0
 30
0.0
 70
   128
 71
   349
 72
   182
 73
   183
  0
VERTEX
  5
CB3
  8
0
 10
0.0
 20
0.0
 30
0.0
 70
   128
 71
   184
 72
   349
 73
   183
  0
VERTEX
  5
CB4
  8
0
 10
0.0
 20
0.0
 30
0.0
 70
   128
 71
   184
 72
   185
 73
   349
  0
VERTEX
  5
CB5
  8
0
 10
0.0
 20
0.0
 30
0.0
 70
   128
 71
   349
 72
   185
 73
   348
  0
VERTEX
  5
CB6
  8
0
 10
0.0
 20
0.0
 30
0.0
 70
   128
 71
   348
 72
   185
 73
   186
  0
VERTEX
  5
CB7
  8
0
 10
0.0
 20
0.0
 30
0.0
 70
   128
 71
   187
 72
   348
 73
   186
  0
VERTEX
  5
CB8
  8
0
 10
0.0
 20
0.0
 30
0.0
 70
   128
 71
   187
 72
   188
 73
   348
  0
VERTEX
  5
CB9
  8
0
 10
0.0
 20
0.0
 30
0.0
 70
   128
 71
   348
 72
   188
 73
   189
  0
VERTEX
  5
CBA
  8
0
 10
0.0
 20
0.0
 30
0.0
 70
   128
 71
   190
 72
   348
 73
   189
  0
VERTEX
  5
CBB
  8
0
 10
0.0
 20
0.0
 30
0.0
 70
   128
 71
   190
 72
   347
 73
   348
  0
VERTEX
  5
CBC
  8
0
 10
0.0
 20
0.0
 30
0.0
 70
   128
 71
   190
 72
   191
 73
   347
  0
VERTEX
  5
CBD
  8
0
 10
0.0
 20
0.0
 30
0.0
 70
   128
 71
   347
 72
   191
 73
   192
  0
VERTEX
  5
CBE
  8
0
 10
0.0
 20
0.0
 30
0.0
 70
   128
 71
   193
 72
   347
 73
   192
  0
VERTEX
  5
CBF
  8
0
 10
0.0
 20
0.0
 30
0.0
 70
   128
 71
   193
 72
   194
 73
   347
  0
VERTEX
  5
CC0
  8
0
 10
0.0
 20
0.0
 30
0.0
 70
   128
 71
   347
 72
   194
 73
   195
  0
VERTEX
  5
CC1
  8
0
 10
0.0
 20
0.0
 30
0.0
 70
   128
 71
   346
 72
   195
 73
   196
  0
VERTEX
  5
CC2
  8
0
 10
0.0
 20
0.0
 30
0.0
 70
   128
 71
   197
 72
   346
 73
   196
  0
VERTEX
  5
CC3
  8
0
 10
0.0
 20
0.0
 30
0.0
 70
   128
 71
   197
 72
   345
 73
   346
  0
VERTEX
  5
CC4
  8
0
 10
0.0
 20
0.0
 30
0.0
 70
   128
 71
   197
 72
   198
 73
   345
  0
VERTEX
  5
CC5
  8
0
 10
0.0
 20
0.0
 30
0.0
 70
   128
 71
   345
 72
   198
 73
   199
  0
VERTEX
  5
CC6
  8
0
 10
0.0
 20
0.0
 30
0.0
 70
   128
 71
   344
 72
   199
 73
   343
  0
VERTEX
  5
CC7
  8
0
 10
0.0
 20
0.0
 30
0.0
 70
   128
 71
   344
 72
   345
 73
   199
  0
VERTEX
  5
CC8
  8
0
 10
0.0
 20
0.0
 30
0.0
 70
   128
 71
   199
 72
   200
 73
   343
  0
VERTEX
  5
CC9
  8
0
 10
0.0
 20
0.0
 30
0.0
 70
   128
 71
   343
 72
   200
 73
   342
  0
VERTEX
  5
CCA
  8
0
 10
0.0
 20
0.0
 30
0.0
 70
   128
 71
   342
 72
   200
 73
   341
  0
VERTEX
  5
CCB
  8
0
 10
0.0
 20
0.0
 30
0.0
 70
   128
 71
   341
 72
   200
 73
   340
  0
VERTEX
  5
CCC
  8
0
 10
0.0
 20
0.0
 30
0.0
 70
   128
 71
   340
 72
   200
 73
   201
  0
VERTEX
  5
CCD
  8
0
 10
0.0
 20
0.0
 30
0.0
 70
   128
 71
   339
 72
   201
 73
   338
  0
VERTEX
  5
CCE
  8
0
 10
0.0
 20
0.0
 30
0.0
 70
   128
 71
   339
 72
   340
 73
   201
  0
VERTEX
  5
CCF
  8
0
 10
0.0
 20
0.0
 30
0.0
 70
   128
 71
   334
 72
   335
 73
   202
  0
VERTEX
  5
CD0
  8
0
 10
0.0
 20
0.0
 30
0.0
 70
   128
 71
   333
 72
   202
 73
   203
  0
VERTEX
  5
CD1
  8
0
 10
0.0
 20
0.0
 30
0.0
 70
   128
 71
   332
 72
   203
 73
   331
  0
VERTEX
  5
CD2
  8
0
 10
0.0
 20
0.0
 30
0.0
 70
   128
 71
   332
 72
   333
 73
   203
  0
VERTEX
  5
CD3
  8
0
 10
0.0
 20
0.0
 30
0.0
 70
   128
 71
   203
 72
   204
 73
   331
  0
VERTEX
  5
CD4
  8
0
 10
0.0
 20
0.0
 30
0.0
 70
   128
 71
   331
 72
   204
 73
   330
  0
VERTEX
  5
CD5
  8
0
 10
0.0
 20
0.0
 30
0.0
 70
   128
 71
   330
 72
   204
 73
   329
  0
VERTEX
  5
CD6
  8
0
 10
0.0
 20
0.0
 30
0.0
 70
   128
 71
   329
 72
   204
 73
   328
  0
VERTEX
  5
CD7
  8
0
 10
0.0
 20
0.0
 30
0.0
 70
   128
 71
   328
 72
   204
 73
   205
  0
VERTEX
  5
CD8
  8
0
 10
0.0
 20
0.0
 30
0.0
 70
   128
 71
   327
 72
   205
 73
   326
  0
VERTEX
  5
CD9
  8
0
 10
0.0
 20
0.0
 30
0.0
 70
   128
 71
   327
 72
   328
 73
   205
  0
VERTEX
  5
CDA
  8
0
 10
0.0
 20
0.0
 30
0.0
 70
   128
 71
   205
 72
   206
 73
   326
  0
VERTEX
  5
CDB
  8
0
 10
0.0
 20
0.0
 30
0.0
 70
   128
 71
   326
 72
   206
 73
   325
  0
VERTEX
  5
CDC
  8
0
 10
0.0
 20
0.0
 30
0.0
 70
   128
 71
   325
 72
   206
 73
   207
  0
VERTEX
  5
CDD
  8
0
 10
0.0
 20
0.0
 30
0.0
 70
   128
 71
   324
 72
   207
 73
   208
  0
VERTEX
  5
CDE
  8
0
 10
0.0
 20
0.0
 30
0.0
 70
   128
 71
   209
 72
   324
 73
   208
  0
VERTEX
  5
CDF
  8
0
 10
0.0
 20
0.0
 30
0.0
 70
   128
 71
   209
 72
   323
 73
   324
  0
VERTEX
  5
CE0
  8
0
 10
0.0
 20
0.0
 30
0.0
 70
   128
 71
   209
 72
   210
 73
   323
  0
VERTEX
  5
CE1
  8
0
 10
0.0
 20
0.0
 30
0.0
 70
   128
 71
   323
 72
   210
 73
   211
  0
VERTEX
  5
CE2
  8
0
 10
0.0
 20
0.0
 30
0.0
 70
   128
 71
   322
 72
   211
 73
   212
  0
VERTEX
  5
CE3
  8
0
 10
0.0
 20
0.0
 30
0.0
 70
   128
 71
   321
 72
   212
 73
   213
  0
VERTEX
  5
CE4
  8
0
 10
0.0
 20
0.0
 30
0.0
 70
   128
 71
   214
 72
   321
 73
   213
  0
VERTEX
  5
CE5
  8
0
 10
0.0
 20
0.0
 30
0.0
 70
   128
 71
   214
 72
   215
 73
   321
  0
VERTEX
  5
CE6
  8
0
 10
0.0
 20
0.0
 30
0.0
 70
   128
 71
   321
 72
   215
 73
   216
  0
VERTEX
  5
CE7
  8
0
 10
0.0
 20
0.0
 30
0.0
 70
   128
 71
   217
 72
   321
 73
   216
  0
VERTEX
  5
CE8
  8
0
 10
0.0
 20
0.0
 30
0.0
 70
   128
 71
   217
 72
   320
 73
   321
  0
VERTEX
  5
CE9
  8
0
 10
0.0
 20
0.0
 30
0.0
 70
   128
 71
   217
 72
   218
 73
   320
  0
VERTEX
  5
CEA
  8
0
 10
0.0
 20
0.0
 30
0.0
 70
   128
 71
   320
 72
   218
 73
   219
  0
VERTEX
  5
CEB
  8
0
 10
0.0
 20
0.0
 30
0.0
 70
   128
 71
   220
 72
   320
 73
   219
  0
VERTEX
  5
CEC
  8
0
 10
0.0
 20
0.0
 30
0.0
 70
   128
 71
   220
 72
   221
 73
   320
  0
VERTEX
  5
CED
  8
0
 10
0.0
 20
0.0
 30
0.0
 70
   128
 71
   320
 72
   221
 73
   222
  0
VERTEX
  5
CEE
  8
0
 10
0.0
 20
0.0
 30
0.0
 70
   128
 71
   223
 72
   320
 73
   222
  0
VERTEX
  5
CEF
  8
0
 10
0.0
 20
0.0
 30
0.0
 70
   128
 71
   223
 72
   319
 73
   320
  0
VERTEX
  5
CF0
  8
0
 10
0.0
 20
0.0
 30
0.0
 70
   128
 71
   223
 72
   224
 73
   319
  0
VERTEX
  5
CF1
  8
0
 10
0.0
 20
0.0
 30
0.0
 70
   128
 71
   319
 72
   224
 73
   225
  0
VERTEX
  5
CF2
  8
0
 10
0.0
 20
0.0
 30
0.0
 70
   128
 71
   226
 72
   319
 73
   225
  0
VERTEX
  5
CF3
  8
0
 10
0.0
 20
0.0
 30
0.0
 70
   128
 71
   226
 72
   227
 73
   319
  0
VERTEX
  5
CF4
  8
0
 10
0.0
 20
0.0
 30
0.0
 70
   128
 71
   319
 72
   227
 73
   318
  0
VERTEX
  5
CF5
  8
0
 10
0.0
 20
0.0
 30
0.0
 70
   128
 71
   318
 72
   227
 73
   228
  0
VERTEX
  5
CF6
  8
0
 10
0.0
 20
0.0
 30
0.0
 70
   128
 71
   317
 72
   228
 73
   229
  0
VERTEX
  5
CF7
  8
0
 10
0.0
 20
0.0
 30
0.0
 70
   128
 71
   230
 72
   317
 73
   229
  0
VERTEX
  5
CF8
  8
0
 10
0.0
 20
0.0
 30
0.0
 70
   128
 71
   230
 72
   316
 73
   317
  0
VERTEX
  5
CF9
  8
0
 10
0.0
 20
0.0
 30
0.0
 70
   128
 71
   230
 72
   231
 73
   316
  0
VERTEX
  5
CFA
  8
0
 10
0.0
 20
0.0
 30
0.0
 70
   128
 71
   316
 72
   231
 73
   232
  0
VERTEX
  5
CFB
  8
0
 10
0.0
 20
0.0
 30
0.0
 70
   128
 71
   315
 72
   232
 73
   233
  0
VERTEX
  5
CFC
  8
0
 10
0.0
 20
0.0
 30
0.0
 70
   128
 71
   234
 72
   315
 73
   233
  0
VERTEX
  5
CFD
  8
0
 10
0.0
 20
0.0
 30
0.0
 70
   128
 71
   234
 72
   314
 73
   315
  0
VERTEX
  5
CFE
  8
0
 10
0.0
 20
0.0
 30
0.0
 70
   128
 71
   234
 72
   235
 73
   314
  0
VERTEX
  5
CFF
  8
0
 10
0.0
 20
0.0
 30
0.0
 70
   128
 71
   314
 72
   235
 73
   313
  0
VERTEX
  5
D00
  8
0
 10
0.0
 20
0.0
 30
0.0
 70
   128
 71
   313
 72
   235
 73
   236
  0
VERTEX
  5
D01
  8
0
 10
0.0
 20
0.0
 30
0.0
 70
   128
 71
   237
 72
   313
 73
   236
  0
VERTEX
  5
D02
  8
0
 10
0.0
 20
0.0
 30
0.0
 70
   128
 71
   237
 72
   312
 73
   313
  0
VERTEX
  5
D03
  8
0
 10
0.0
 20
0.0
 30
0.0
 70
   128
 71
   237
 72
   238
 73
   312
  0
VERTEX
  5
D04
  8
0
 10
0.0
 20
0.0
 30
0.0
 70
   128
 71
   312
 72
   238
 73
   311
  0
VERTEX
  5
D05
  8
0
 10
0.0
 20
0.0
 30
0.0
 70
   128
 71
   311
 72
   238
 73
   239
  0
VERTEX
  5
D06
  8
0
 10
0.0
 20
0.0
 30
0.0
 70
   128
 71
   310
 72
   239
 73
   240
  0
VERTEX
  5
D07
  8
0
 10
0.0
 20
0.0
 30
0.0
 70
   128
 71
   309
 72
   240
 73
   241
  0
VERTEX
  5
D08
  8
0
 10
0.0
 20
0.0
 30
0.0
 70
   128
 71
   308
 72
   241
 73
   242
  0
VERTEX
  5
D09
  8
0
 10
0.0
 20
0.0
 30
0.0
 70
   128
 71
   243
 72
   308
 73
   242
  0
VERTEX
  5
D0A
  8
0
 10
0.0
 20
0.0
 30
0.0
 70
   128
 71
   243
 72
   307
 73
   308
  0
VERTEX
  5
D0B
  8
0
 10
0.0
 20
0.0
 30
0.0
 70
   128
 71
   243
 72
   244
 73
   307
  0
VERTEX
  5
D0C
  8
0
 10
0.0
 20
0.0
 30
0.0
 70
   128
 71
   307
 72
   244
 73
   306
  0
VERTEX
  5
D0D
  8
0
 10
0.0
 20
0.0
 30
0.0
 70
   128
 71
   306
 72
   244
 73
   245
  0
VERTEX
  5
D0E
  8
0
 10
0.0
 20
0.0
 30
0.0
 70
   128
 71
   305
 72
   245
 73
   246
  0
VERTEX
  5
D0F
  8
0
 10
0.0
 20
0.0
 30
0.0
 70
   128
 71
   304
 72
   246
 73
   303
  0
VERTEX
  5
D10
  8
0
 10
0.0
 20
0.0
 30
0.0
 70
   128
 71
   304
 72
   305
 73
   246
  0
VERTEX
  5
D11
  8
0
 10
0.0
 20
0.0
 30
0.0
 70
   128
 71
   246
 72
   247
 73
   303
  0
VERTEX
  5
D12
  8
0
 10
0.0
 20
0.0
 30
0.0
 70
   128
 71
   303
 72
   247
 73
   302
  0
VERTEX
  5
D13
  8
0
 10
0.0
 20
0.0
 30
0.0
 70
   128
 71
   302
 72
   247
 73
   301
  0
VERTEX
  5
D14
  8
0
 10
0.0
 20
0.0
 30
0.0
 70
   128
 71
   301
 72
   247
 73
   248
  0
VERTEX
  5
D15
  8
0
 10
0.0
 20
0.0
 30
0.0
 70
   128
 71
   300
 72
   248
 73
   299
  0
VERTEX
  5
D16
  8
0
 10
0.0
 20
0.0
 30
0.0
 70
   128
 71
   300
 72
   301
 73
   248
  0
VERTEX
  5
D17
  8
0
 10
0.0
 20
0.0
 30
0.0
 70
   128
 71
   299
 72
   248
 73
   298
  0
VERTEX
  5
D18
  8
0
 10
0.0
 20
0.0
 30
0.0
 70
   128
 71
   298
 72
   248
 73
   249
  0
VERTEX
  5
D19
  8
0
 10
0.0
 20
0.0
 30
0.0
 70
   128
 71
   297
 72
   249
 73
   296
  0
VERTEX
  5
D1A
  8
0
 10
0.0
 20
0.0
 30
0.0
 70
   128
 71
   297
 72
   298
 73
   249
  0
VERTEX
  5
D1B
  8
0
 10
0.0
 20
0.0
 30
0.0
 70
   128
 71
   249
 72
   250
 73
   296
  0
VERTEX
  5
D1C
  8
0
 10
0.0
 20
0.0
 30
0.0
 70
   128
 71
   296
 72
   250
 73
   295
  0
VERTEX
  5
D1D
  8
0
 10
0.0
 20
0.0
 30
0.0
 70
   128
 71
   295
 72
   250
 73
   251
  0
VERTEX
  5
D1E
  8
0
 10
0.0
 20
0.0
 30
0.0
 70
   128
 71
   294
 72
   251
 73
   252
  0
VERTEX
  5
D1F
  8
0
 10
0.0
 20
0.0
 30
0.0
 70
   128
 71
   293
 72
   252
 73
   253
  0
VERTEX
  5
D20
  8
0
 10
0.0
 20
0.0
 30
0.0
 70
   128
 71
   292
 72
   253
 73
   291
  0
VERTEX
  5
D21
  8
0
 10
0.0
 20
0.0
 30
0.0
 70
   128
 71
   292
 72
   293
 73
   253
  0
VERTEX
  5
D22
  8
0
 10
0.0
 20
0.0
 30
0.0
 70
   128
 71
   253
 72
   254
 73
   291
  0
VERTEX
  5
D23
  8
0
 10
0.0
 20
0.0
 30
0.0
 70
   128
 71
   291
 72
   254
 73
   290
  0
VERTEX
  5
D24
  8
0
 10
0.0
 20
0.0
 30
0.0
 70
   128
 71
   290
 72
   254
 73
   255
  0
VERTEX
  5
D25
  8
0
 10
0.0
 20
0.0
 30
0.0
 70
   128
 71
   256
 72
   290
 73
   255
  0
VERTEX
  5
D26
  8
0
 10
0.0
 20
0.0
 30
0.0
 70
   128
 71
   256
 72
   289
 73
   290
  0
VERTEX
  5
D27
  8
0
 10
0.0
 20
0.0
 30
0.0
 70
   128
 71
   256
 72
   257
 73
   289
  0
VERTEX
  5
D28
  8
0
 10
0.0
 20
0.0
 30
0.0
 70
   128
 71
   289
 72
   257
 73
   258
  0
VERTEX
  5
D29
  8
0
 10
0.0
 20
0.0
 30
0.0
 70
   128
 71
   288
 72
   258
 73
   259
  0
VERTEX
  5
D2A
  8
0
 10
0.0
 20
0.0
 30
0.0
 70
   128
 71
   287
 72
   259
 73
   286
  0
VERTEX
  5
D2B
  8
0
 10
0.0
 20
0.0
 30
0.0
 70
   128
 71
   287
 72
   288
 73
   259
  0
VERTEX
  5
D2C
  8
0
 10
0.0
 20
0.0
 30
0.0
 70
   128
 71
   259
 72
   260
 73
   286
  0
VERTEX
  5
D2D
  8
0
 10
0.0
 20
0.0
 30
0.0
 70
   128
 71
   286
 72
   260
 73
   285
  0
VERTEX
  5
D2E
  8
0
 10
0.0
 20
0.0
 30
0.0
 70
   128
 71
   285
 72
   260
 73
   261
  0
VERTEX
  5
D2F
  8
0
 10
0.0
 20
0.0
 30
0.0
 70
   128
 71
   284
 72
   261
 73
   262
  0
VERTEX
  5
D30
  8
0
 10
0.0
 20
0.0
 30
0.0
 70
   128
 71
   263
 72
   284
 73
   262
  0
VERTEX
  5
D31
  8
0
 10
0.0
 20
0.0
 30
0.0
 70
   128
 71
   263
 72
   283
 73
   284
  0
VERTEX
  5
D32
  8
0
 10
0.0
 20
0.0
 30
0.0
 70
   128
 71
   263
 72
   264
 73
   283
  0
VERTEX
  5
D33
  8
0
 10
0.0
 20
0.0
 30
0.0
 70
   128
 71
   283
 72
   264
 73
   282
  0
VERTEX
  5
D34
  8
0
 10
0.0
 20
0.0
 30
0.0
 70
   128
 71
   282
 72
   264
 73
   265
  0
VERTEX
  5
D35
  8
0
 10
0.0
 20
0.0
 30
0.0
 70
   128
 71
   281
 72
   265
 73
   266
  0
VERTEX
  5
D36
  8
0
 10
0.0
 20
0.0
 30
0.0
 70
   128
 71
   280
 72
   266
 73
   279
  0
VERTEX
  5
D37
  8
0
 10
0.0
 20
0.0
 30
0.0
 70
   128
 71
   280
 72
   281
 73
   266
  0
VERTEX
  5
D38
  8
0
 10
0.0
 20
0.0
 30
0.0
 70
   128
 71
   266
 72
   267
 73
   279
  0
VERTEX
  5
D39
  8
0
 10
0.0
 20
0.0
 30
0.0
 70
   128
 71
   279
 72
   267
 73
   278
  0
VERTEX
  5
D3A
  8
0
 10
0.0
 20
0.0
 30
0.0
 70
   128
 71
   278
 72
   267
 73
   277
  0
VERTEX
  5
D3B
  8
0
 10
0.0
 20
0.0
 30
0.0
 70
   128
 71
   277
 72
   267
 73
   276
  0
VERTEX
  5
D3C
  8
0
 10
0.0
 20
0.0
 30
0.0
 70
   128
 71
   276
 72
   267
 73
   268
  0
VERTEX
  5
D3D
  8
0
 10
0.0
 20
0.0
 30
0.0
 70
   128
 71
   275
 72
   268
 73
   269
  0
VERTEX
  5
D3E
  8
0
 10
0.0
 20
0.0
 30
0.0
 70
   128
 71
   274
 72
   269
 73
   272
  0
VERTEX
  5
D3F
  8
0
 10
0.0
 20
0.0
 30
0.0
 70
   128
 71
   273
 72
   274
 73
   272
  0
VERTEX
  5
D40
  8
0
 10
0.0
 20
0.0
 30
0.0
 70
   128
 71
   269
 72
   270
 73
   272
  0
VERTEX
  5
D41
  8
0
 10
0.0
 20
0.0
 30
0.0
 70
   128
 71
   272
 72
   270
 73
   271
  0
VERTEX
  5
D42
  8
0
 10
0.0
 20
0.0
 30
0.0
 70
   128
 71
   274
 72
   275
 73
   269
  0
VERTEX
  5
D43
  8
0
 10
0.0
 20
0.0
 30
0.0
 70
   128
 71
   275
 72
   276
 73
   268
  0
VERTEX
  5
D44
  8
0
 10
0.0
 20
0.0
 30
0.0
 70
   128
 71
   281
 72
   282
 73
   265
  0
VERTEX
  5
D45
  8
0
 10
0.0
 20
0.0
 30
0.0
 70
   128
 71
   284
 72
   285
 73
   261
  0
VERTEX
  5
D46
  8
0
 10
0.0
 20
0.0
 30
0.0
 70
   128
 71
   288
 72
   289
 73
   258
  0
VERTEX
  5
D47
  8
0
 10
0.0
 20
0.0
 30
0.0
 70
   128
 71
   293
 72
   294
 73
   252
  0
VERTEX
  5
D48
  8
0
 10
0.0
 20
0.0
 30
0.0
 70
   128
 71
   294
 72
   295
 73
   251
  0
VERTEX
  5
D49
  8
0
 10
0.0
 20
0.0
 30
0.0
 70
   128
 71
   305
 72
   306
 73
   245
  0
VERTEX
  5
D4A
  8
0
 10
0.0
 20
0.0
 30
0.0
 70
   128
 71
   308
 72
   309
 73
   241
  0
VERTEX
  5
D4B
  8
0
 10
0.0
 20
0.0
 30
0.0
 70
   128
 71
   309
 72
   310
 73
   240
  0
VERTEX
  5
D4C
  8
0
 10
0.0
 20
0.0
 30
0.0
 70
   128
 71
   310
 72
   311
 73
   239
  0
VERTEX
  5
D4D
  8
0
 10
0.0
 20
0.0
 30
0.0
 70
   128
 71
   315
 72
   316
 73
   232
  0
VERTEX
  5
D4E
  8
0
 10
0.0
 20
0.0
 30
0.0
 70
   128
 71
   317
 72
   318
 73
   228
  0
VERTEX
  5
D4F
  8
0
 10
0.0
 20
0.0
 30
0.0
 70
   128
 71
   321
 72
   322
 73
   212
  0
VERTEX
  5
D50
  8
0
 10
0.0
 20
0.0
 30
0.0
 70
   128
 71
   322
 72
   323
 73
   211
  0
VERTEX
  5
D51
  8
0
 10
0.0
 20
0.0
 30
0.0
 70
   128
 71
   324
 72
   325
 73
   207
  0
VERTEX
  5
D52
  8
0
 10
0.0
 20
0.0
 30
0.0
 70
   128
 71
   333
 72
   334
 73
   202
  0
VERTEX
  5
D53
  8
0
 10
0.0
 20
0.0
 30
0.0
 70
   128
 71
   335
 72
   336
 73
   202
  0
VERTEX
  5
D54
  8
0
 10
0.0
 20
0.0
 30
0.0
 70
   128
 71
   202
 72
   336
 73
   201
  0
VERTEX
  5
D55
  8
0
 10
0.0
 20
0.0
 30
0.0
 70
   128
 71
   201
 72
   336
 73
   337
  0
VERTEX
  5
D56
  8
0
 10
0.0
 20
0.0
 30
0.0
 70
   128
 71
   338
 72
   201
 73
   337
  0
VERTEX
  5
D57
  8
0
 10
0.0
 20
0.0
 30
0.0
 70
   128
 71
   346
 72
   347
 73
   195
  0
VERTEX
  5
D58
  8
0
 10
0.0
 20
0.0
 30
0.0
 70
   128
 71
   349
 72
   350
 73
   182
  0
VERTEX
  5
D59
  8
0
 10
0.0
 20
0.0
 30
0.0
 70
   128
 71
   352
 72
   353
 73
   179
  0
VERTEX
  5
D5A
  8
0
 10
0.0
 20
0.0
 30
0.0
 70
   128
 71
   354
 72
   355
 73
   179
  0
VERTEX
  5
D5B
  8
0
 10
0.0
 20
0.0
 30
0.0
 70
   128
 71
   179
 72
   355
 73
   178
  0
VERTEX
  5
D5C
  8
0
 10
0.0
 20
0.0
 30
0.0
 70
   128
 71
   178
 72
   355
 73
   356
  0
VERTEX
  5
D5D
  8
0
 10
0.0
 20
0.0
 30
0.0
 70
   128
 71
   358
 72
   356
 73
   357
  0
VERTEX
  5
D5E
  8
0
 10
0.0
 20
0.0
 30
0.0
 70
   128
 71
   358
 72
   178
 73
   356
  0
SEQEND
  5
D5F
  8
LAYER1
  6
VOLLINIE
 62
    18
  0
ENDSEC
  0
EOF
