  0
SECTION
  2
HEADER
  9
$ACADVER
  1
AC1027
  9
$ACADMAINTVER
 70
    19
  9
$DWGCODEPAGE
  3
ANSI_1252
  9
$REQUIREDVERSIONS
160
                 0
  9
$INSBASE
 10
0.0
 20
0.0
 30
0.0
  9
$EXTMIN
 10
-150.854549407959
 20
456.8536376953125
 30
0.5
  9
$EXTMAX
 10
-69.32867050170898
 20
790.5347442626953
 30
0.5000000000000001
  9
$LIMMIN
 10
0.0
 20
0.0
  9
$LIMMAX
 10
12.0
 20
9.0
  9
$ORTHOMODE
 70
     0
  9
$REGENMODE
 70
     1
  9
$FILLMODE
 70
     1
  9
$QTEXTMODE
 70
     0
  9
$MIRRTEXT
 70
     0
  9
$LTSCALE
 40
1.0
  9
$ATTMODE
 70
     1
  9
$TEXTSIZE
 40
0.2
  9
$TRACEWID
 40
0.05
  9
$TEXTSTYLE
  7
Standard
  9
$CLAYER
  8
0
  9
$CELTYPE
  6
ByLayer
  9
$CECOLOR
 62
   256
  9
$CELTSCALE
 40
1.0
  9
$DISPSILH
 70
     0
  9
$DIMSCALE
 40
1.0
  9
$DIMASZ
 40
0.18
  9
$DIMEXO
 40
0.0625
  9
$DIMDLI
 40
0.38
  9
$DIMRND
 40
0.0
  9
$DIMDLE
 40
0.0
  9
$DIMEXE
 40
0.18
  9
$DIMTP
 40
0.0
  9
$DIMTM
 40
0.0
  9
$DIMTXT
 40
0.18
  9
$DIMCEN
 40
0.09
  9
$DIMTSZ
 40
0.0
  9
$DIMTOL
 70
     0
  9
$DIMLIM
 70
     0
  9
$DIMTIH
 70
     1
  9
$DIMTOH
 70
     1
  9
$DIMSE1
 70
     0
  9
$DIMSE2
 70
     0
  9
$DIMTAD
 70
     0
  9
$DIMZIN
 70
     0
  9
$DIMBLK
  1

  9
$DIMASO
 70
     1
  9
$DIMSHO
 70
     1
  9
$DIMPOST
  1

  9
$DIMAPOST
  1

  9
$DIMALT
 70
     0
  9
$DIMALTD
 70
     2
  9
$DIMALTF
 40
25.4
  9
$DIMLFAC
 40
1.0
  9
$DIMTOFL
 70
     0
  9
$DIMTVP
 40
0.0
  9
$DIMTIX
 70
     0
  9
$DIMSOXD
 70
     0
  9
$DIMSAH
 70
     0
  9
$DIMBLK1
  1

  9
$DIMBLK2
  1

  9
$DIMSTYLE
  2
Standard
  9
$DIMCLRD
 70
     0
  9
$DIMCLRE
 70
     0
  9
$DIMCLRT
 70
     0
  9
$DIMTFAC
 40
1.0
  9
$DIMGAP
 40
0.09
  9
$DIMJUST
 70
     0
  9
$DIMSD1
 70
     0
  9
$DIMSD2
 70
     0
  9
$DIMTOLJ
 70
     1
  9
$DIMTZIN
 70
     0
  9
$DIMALTZ
 70
     0
  9
$DIMALTTZ
 70
     0
  9
$DIMUPT
 70
     0
  9
$DIMDEC
 70
     4
  9
$DIMTDEC
 70
     4
  9
$DIMALTU
 70
     2
  9
$DIMALTTD
 70
     2
  9
$DIMTXSTY
  7
Standard
  9
$DIMAUNIT
 70
     0
  9
$DIMADEC
 70
     0
  9
$DIMALTRND
 40
0.0
  9
$DIMAZIN
 70
     0
  9
$DIMDSEP
 70
    46
  9
$DIMATFIT
 70
     3
  9
$DIMFRAC
 70
     0
  9
$DIMLDRBLK
  1

  9
$DIMLUNIT
 70
     2
  9
$DIMLWD
 70
    -2
  9
$DIMLWE
 70
    -2
  9
$DIMTMOVE
 70
     0
  9
$DIMFXL
 40
1.0
  9
$DIMFXLON
 70
     0
  9
$DIMJOGANG
 40
0.7853981633974483
  9
$DIMTFILL
 70
     0
  9
$DIMTFILLCLR
 70
     0
  9
$DIMARCSYM
 70
     0
  9
$DIMLTYPE
  6

  9
$DIMLTEX1
  6

  9
$DIMLTEX2
  6

  9
$DIMTXTDIRECTION
 70
     0
  9
$LUNITS
 70
     2
  9
$LUPREC
 70
     4
  9
$SKETCHINC
 40
0.1
  9
$FILLETRAD
 40
0.0
  9
$AUNITS
 70
     0
  9
$AUPREC
 70
     0
  9
$MENU
  1
.
  9
$ELEVATION
 40
0.0
  9
$PELEVATION
 40
0.0
  9
$THICKNESS
 40
0.0
  9
$LIMCHECK
 70
     0
  9
$CHAMFERA
 40
0.0
  9
$CHAMFERB
 40
0.0
  9
$CHAMFERC
 40
0.0
  9
$CHAMFERD
 40
0.0
  9
$SKPOLY
 70
     0
  9
$TDCREATE
 40
2460281.569035903
  9
$TDUCREATE
 40
2460281.527369236
  9
$TDUPDATE
 40
2460281.569035903
  9
$TDUUPDATE
 40
2460281.527369236
  9
$TDINDWG
 40
0.0000000810
  9
$TDUSRTIMER
 40
0.0000000810
  9
$USRTIMER
 70
     1
  9
$ANGBASE
 50
0.0
  9
$ANGDIR
 70
     0
  9
$PDMODE
 70
     0
  9
$PDSIZE
 40
0.0
  9
$PLINEWID
 40
0.0
  9
$SPLFRAME
 70
     0
  9
$SPLINETYPE
 70
     6
  9
$SPLINESEGS
 70
     8
  9
$HANDSEED
  5
53A
  9
$SURFTAB1
 70
     6
  9
$SURFTAB2
 70
     6
  9
$SURFTYPE
 70
     6
  9
$SURFU
 70
     6
  9
$SURFV
 70
     6
  9
$UCSBASE
  2

  9
$UCSNAME
  2

  9
$UCSORG
 10
0.0
 20
0.0
 30
0.0
  9
$UCSXDIR
 10
1.0
 20
0.0
 30
0.0
  9
$UCSYDIR
 10
0.0
 20
1.0
 30
0.0
  9
$UCSORTHOREF
  2

  9
$UCSORTHOVIEW
 70
     0
  9
$UCSORGTOP
 10
0.0
 20
0.0
 30
0.0
  9
$UCSORGBOTTOM
 10
0.0
 20
0.0
 30
0.0
  9
$UCSORGLEFT
 10
0.0
 20
0.0
 30
0.0
  9
$UCSORGRIGHT
 10
0.0
 20
0.0
 30
0.0
  9
$UCSORGFRONT
 10
0.0
 20
0.0
 30
0.0
  9
$UCSORGBACK
 10
0.0
 20
0.0
 30
0.0
  9
$PUCSBASE
  2

  9
$PUCSNAME
  2

  9
$PUCSORG
 10
0.0
 20
0.0
 30
0.0
  9
$PUCSXDIR
 10
1.0
 20
0.0
 30
0.0
  9
$PUCSYDIR
 10
0.0
 20
1.0
 30
0.0
  9
$PUCSORTHOREF
  2

  9
$PUCSORTHOVIEW
 70
     0
  9
$PUCSORGTOP
 10
0.0
 20
0.0
 30
0.0
  9
$PUCSORGBOTTOM
 10
0.0
 20
0.0
 30
0.0
  9
$PUCSORGLEFT
 10
0.0
 20
0.0
 30
0.0
  9
$PUCSORGRIGHT
 10
0.0
 20
0.0
 30
0.0
  9
$PUCSORGFRONT
 10
0.0
 20
0.0
 30
0.0
  9
$PUCSORGBACK
 10
0.0
 20
0.0
 30
0.0
  9
$USERI1
 70
     0
  9
$USERI2
 70
     0
  9
$USERI3
 70
     0
  9
$USERI4
 70
     0
  9
$USERI5
 70
     0
  9
$USERR1
 40
0.0
  9
$USERR2
 40
0.0
  9
$USERR3
 40
0.0
  9
$USERR4
 40
0.0
  9
$USERR5
 40
0.0
  9
$WORLDVIEW
 70
     1
  9
$SHADEDGE
 70
     3
  9
$SHADEDIF
 70
    70
  9
$TILEMODE
 70
     1
  9
$MAXACTVP
 70
    64
  9
$PINSBASE
 10
0.0
 20
0.0
 30
0.0
  9
$PLIMCHECK
 70
     0
  9
$PEXTMIN
 10
1.000000000000000E+20
 20
1.000000000000000E+20
 30
1.000000000000000E+20
  9
$PEXTMAX
 10
-1.000000000000000E+20
 20
-1.000000000000000E+20
 30
-1.000000000000000E+20
  9
$PLIMMIN
 10
0.0
 20
0.0
  9
$PLIMMAX
 10
12.0
 20
9.0
  9
$UNITMODE
 70
     0
  9
$VISRETAIN
 70
     1
  9
$PLINEGEN
 70
     0
  9
$PSLTSCALE
 70
     1
  9
$TREEDEPTH
 70
  3020
  9
$CMLSTYLE
  2
Standard
  9
$CMLJUST
 70
     0
  9
$CMLSCALE
 40
1.0
  9
$PROXYGRAPHICS
 70
     1
  9
$MEASUREMENT
 70
     0
  9
$CELWEIGHT
370
    -1
  9
$ENDCAPS
280
     0
  9
$JOINSTYLE
280
     0
  9
$LWDISPLAY
290
     0
  9
$INSUNITS
 70
     0
  9
$HYPERLINKBASE
  1

  9
$STYLESHEET
  1

  9
$XEDIT
290
     1
  9
$CEPSNTYPE
380
     0
  9
$PSTYLEMODE
290
     1
  9
$FINGERPRINTGUID
  2
{8F9A22A5-5A09-4B48-9FE4-BEDB29CD9145}
  9
$VERSIONGUID
  2
{80674AB8-4A78-47D6-8D9F-507880E86F09}
  9
$EXTNAMES
290
     1
  9
$PSVPSCALE
 40
0.0
  9
$OLESTARTUP
290
     0
  9
$SORTENTS
280
   127
  9
$INDEXCTL
280
     0
  9
$HIDETEXT
280
     1
  9
$XCLIPFRAME
280
     2
  9
$HALOGAP
280
     0
  9
$OBSCOLOR
 70
   257
  9
$OBSLTYPE
280
     0
  9
$INTERSECTIONDISPLAY
280
     0
  9
$INTERSECTIONCOLOR
 70
   257
  9
$DIMASSOC
280
     2
  9
$PROJECTNAME
  1

  9
$CAMERADISPLAY
290
     0
  9
$LENSLENGTH
 40
50.0
  9
$CAMERAHEIGHT
 40
0.0
  9
$STEPSPERSEC
 40
2.0
  9
$STEPSIZE
 40
6.0
  9
$3DDWFPREC
 40
2.0
  9
$PSOLWIDTH
 40
0.25
  9
$PSOLHEIGHT
 40
4.0
  9
$LOFTANG1
 40
1.570796326794896
  9
$LOFTANG2
 40
1.570796326794896
  9
$LOFTMAG1
 40
0.0
  9
$LOFTMAG2
 40
0.0
  9
$LOFTPARAM
 70
     7
  9
$LOFTNORMALS
280
     1
  9
$LATITUDE
 40
37.795
  9
$LONGITUDE
 40
-122.394
  9
$NORTHDIRECTION
 40
0.0
  9
$TIMEZONE
 70
 -8000
  9
$LIGHTGLYPHDISPLAY
280
     1
  9
$TILEMODELIGHTSYNCH
280
     1
  9
$CMATERIAL
347
11
  9
$SOLIDHIST
280
     0
  9
$SHOWHIST
280
     1
  9
$DWFFRAME
280
     2
  9
$DGNFRAME
280
     0
  9
$REALWORLDSCALE
290
     1
  9
$INTERFERECOLOR
 62
     1
  9
$INTERFEREOBJVS
345
36
  9
$INTERFEREVPVS
346
33
  9
$CSHADOW
280
     0
  9
$SHADOWPLANELOCATION
 40
0.0
  0
ENDSEC
  0
SECTION
  2
CLASSES
  0
CLASS
  1
ACDBDICTIONARYWDFLT
  2
AcDbDictionaryWithDefault
  3
ObjectDBX Classes
 90
        0
 91
        1
280
     0
281
     0
  0
CLASS
  1
MATERIAL
  2
AcDbMaterial
  3
ObjectDBX Classes
 90
     1153
 91
        3
280
     0
281
     0
  0
CLASS
  1
VISUALSTYLE
  2
AcDbVisualStyle
  3
ObjectDBX Classes
 90
     4095
 91
       40
280
     0
281
     0
  0
CLASS
  1
SCENESTYLE
  2
AcDbSceneStyle
  3
ObjectDBX Classes
 90
     4095
 91
       14
280
     0
281
     0
  0
CLASS
  1
GROUNDPLANE
  2
AcDbGroundPlane
  3
ObjectDBX Classes
 90
     1153
 91
       14
280
     0
281
     0
  0
CLASS
  1
SUN
  2
AcDbSun
  3
ObjectDBX Classes
 90
     1153
 91
        3
280
     0
281
     0
  0
CLASS
  1
SKYLIGHT_BACKGROUND
  2
AcDbSkyBackground
  3
ObjectDBX Classes
 90
     4095
 91
        3
280
     0
281
     0
  0
CLASS
  1
IBL_BACKGROUND
  2
AcDbImageBasedLightingBackground
  3
ObjectDBX Classes
 90
     4095
 91
        1
280
     0
281
     0
  0
CLASS
  1
SOLID_BACKGROUND
  2
AcDbSolidBackground
  3
ObjectDBX Classes
 90
     4095
 91
        6
280
     0
281
     0
  0
CLASS
  1
GRADIENT_BACKGROUND
  2
AcDbGradientBackground
  3
ObjectDBX Classes
 90
     4095
 91
        2
280
     0
281
     0
  0
CLASS
  1
SCALE
  2
AcDbScale
  3
ObjectDBX Classes
 90
     1153
 91
       17
280
     0
281
     0
  0
CLASS
  1
TABLESTYLE
  2
AcDbTableStyle
  3
ObjectDBX Classes
 90
     4095
 91
        1
280
     0
281
     0
  0
CLASS
  1
MLEADERSTYLE
  2
AcDbMLeaderStyle
  3
ACDB_MLEADERSTYLE_CLASS
 90
     4095
 91
        1
280
     0
281
     0
  0
CLASS
  1
ACDBSECTIONVIEWSTYLE
  2
AcDbSectionViewStyle
  3
ObjectDBX Classes
 90
     1025
 91
        1
280
     0
281
     0
  0
CLASS
  1
ACDBDETAILVIEWSTYLE
  2
AcDbDetailViewStyle
  3
ObjectDBX Classes
 90
     1025
 91
        1
280
     0
281
     0
  0
CLASS
  1
DICTIONARYVAR
  2
AcDbDictionaryVar
  3
ObjectDBX Classes
 90
        0
 91
        5
280
     0
281
     0
  0
CLASS
  1
CELLSTYLEMAP
  2
AcDbCellStyleMap
  3
ObjectDBX Classes
 90
     1152
 91
        1
280
     0
281
     0
  0
ENDSEC
  0
SECTION
  2
TABLES
  0
TABLE
  2
VPORT
  5
8
330
0
100
AcDbSymbolTable
 70
     1
  0
VPORT
  5
B2
102
{ACAD_XDICTIONARY
360
535
102
}
330
8
100
AcDbSymbolTableRecord
100
AcDbViewportTableRecord
  2
*Active
 70
     0
 10
0.0
 20
0.0
 11
1.0
 21
1.0
 12
0.0
 22
0.0
 13
0.0
 23
0.0
 14
1.0
 24
1.0
 15
0.0
 25
0.0
 16
0.8032737562125008
 26
-0.5213701361077364
 36
0.2879660635478776
 17
-110.091609954834
 27
623.6941909790039
 37
0.5
 40
343.4960695720835
 41
1.0
 42
50.0
 43
0.0
 44
0.0
 50
0.0
 51
0.0
 71
     0
 72
   100
 73
     1
 74
     1
 75
     0
 76
     1
 77
     0
 78
     0
281
     0
 65
     1
110
0.0
120
0.0
130
0.0
111
1.0
121
0.0
131
0.0
112
0.0
122
1.0
132
0.0
 79
     0
146
0.0
348
32
 60
     3
 61
     5
292
     1
282
     1
141
0.0
142
0.0
 63
   250
421
  3355443
  0
ENDTAB
  0
TABLE
  2
LTYPE
  5
5
330
0
100
AcDbSymbolTable
 70
     2
  0
LTYPE
  5
B6
330
5
100
AcDbSymbolTableRecord
100
AcDbLinetypeTableRecord
  2
ByBlock
 70
     0
  3

 72
    65
 73
     0
 40
0.0
  0
LTYPE
  5
B7
330
5
100
AcDbSymbolTableRecord
100
AcDbLinetypeTableRecord
  2
ByLayer
 70
     0
  3

 72
    65
 73
     0
 40
0.0
  0
LTYPE
  5
B8
330
5
100
AcDbSymbolTableRecord
100
AcDbLinetypeTableRecord
  2
Continuous
 70
     0
  3
Solid line
 72
    65
 73
     0
 40
0.0
  0
LTYPE
  5
C4
330
5
100
AcDbSymbolTableRecord
100
AcDbLinetypeTableRecord
  2
PHANTOM2
 70
     0
  3
___ _ _ ___ _ _ ___ _ _ ___ _ _
 72
    65
 73
     6
 40
1.25
 49
0.625
 74
     0
 49
-0.125
 74
     0
 49
0.125
 74
     0
 49
-0.125
 74
     0
 49
0.125
 74
     0
 49
-0.125
 74
     0
  0
ENDTAB
  0
TABLE
  2
LAYER
  5
2
330
0
100
AcDbSymbolTable
 70
     2
  0
LAYER
  5
AF
330
2
100
AcDbSymbolTableRecord
100
AcDbLayerTableRecord
  2
0
 70
     0
 62
     7
  6
Continuous
370
    -3
390
F
347
21
348
2A
  0
LAYER
  5
D6
330
2
100
AcDbSymbolTableRecord
100
AcDbLayerTableRecord
  2
Sketch2
 70
     0
 62
     7
  6
Continuous
370
    -3
390
F
347
21
348
2A
1001
NFusion_SketchTransform
1000
1.000000;0.000000;0.000000;0.000000;0.000000;1.000000;0.000000;0.000000;0.000000;0.000000;1.000000;0.000000;0.000000;0.000000;0.000000;1.000000
  0
ENDTAB
  0
TABLE
  2
STYLE
  5
3
330
0
100
AcDbSymbolTable
 70
     2
  0
STYLE
  5
B0
330
3
100
AcDbSymbolTableRecord
100
AcDbTextStyleTableRecord
  2
Standard
 70
     0
 40
0.0
 41
1.0
 50
0.0
 71
     0
 42
0.2
  3
txt
  4

  0
STYLE
  5
B5
330
3
100
AcDbSymbolTableRecord
100
AcDbTextStyleTableRecord
  2
Annotative
 70
     0
 40
0.0
 41
1.0
 50
0.0
 71
     0
 42
0.2
  3
txt
  4

1001
AcadAnnotative
1000
AnnotativeData
1002
{
1070
     1
1070
     1
1002
}
  0
ENDTAB
  0
TABLE
  2
VIEW
  5
6
330
0
100
AcDbSymbolTable
 70
     0
  0
ENDTAB
  0
TABLE
  2
UCS
  5
7
330
0
100
AcDbSymbolTable
 70
     0
  0
ENDTAB
  0
TABLE
  2
APPID
  5
9
330
0
100
AcDbSymbolTable
 70
     4
  0
APPID
  5
B1
330
9
100
AcDbSymbolTableRecord
100
AcDbRegAppTableRecord
  2
ACAD
 70
     0
  0
APPID
  5
B9
330
9
100
AcDbSymbolTableRecord
100
AcDbRegAppTableRecord
  2
AcadAnnotative
 70
     0
  0
APPID
  5
D4
330
9
100
AcDbSymbolTableRecord
100
AcDbRegAppTableRecord
  2
EDIT_IN_FUSION_ACAD_ADDIN
 70
     0
  0
APPID
  5
D5
330
9
100
AcDbSymbolTableRecord
100
AcDbRegAppTableRecord
  2
NFusion_SketchTransform
 70
     0
  0
ENDTAB
  0
TABLE
  2
DIMSTYLE
  5
A
330
0
100
AcDbSymbolTable
 70
     2
100
AcDbDimStyleTable
 71
     0
  0
DIMSTYLE
105
B3
330
A
100
AcDbSymbolTableRecord
100
AcDbDimStyleTableRecord
  2
Standard
 70
     0
340
B0
  0
DIMSTYLE
105
B4
330
A
100
AcDbSymbolTableRecord
100
AcDbDimStyleTableRecord
  2
Annotative
 70
     0
340
B0
1001
AcadAnnotative
1000
AnnotativeData
1002
{
1070
     1
1070
     1
1002
}
  0
ENDTAB
  0
TABLE
  2
BLOCK_RECORD
  5
1
330
0
100
AcDbSymbolTable
 70
     1
  0
BLOCK_RECORD
  5
CC
330
1
100
AcDbSymbolTableRecord
100
AcDbBlockTableRecord
  2
*Model_Space
340
CF
 70
     0
280
     1
281
     0
  0
BLOCK_RECORD
  5
C8
330
1
100
AcDbSymbolTableRecord
100
AcDbBlockTableRecord
  2
*Paper_Space
340
CB
 70
     0
280
     1
281
     0
  0
BLOCK_RECORD
  5
D0
330
1
100
AcDbSymbolTableRecord
100
AcDbBlockTableRecord
  2
*Paper_Space0
340
D3
 70
     0
280
     1
281
     0
  0
ENDTAB
  0
ENDSEC
  0
SECTION
  2
BLOCKS
  0
BLOCK
  5
CD
330
CC
100
AcDbEntity
  8
0
100
AcDbBlockBegin
  2
*Model_Space
 70
     0
 10
0.0
 20
0.0
 30
0.0
  3
*Model_Space
  1

  0
ENDBLK
  5
CE
330
CC
100
AcDbEntity
  8
0
100
AcDbBlockEnd
  0
BLOCK
  5
C9
330
C8
100
AcDbEntity
 67
     1
  8
0
100
AcDbBlockBegin
  2
*Paper_Space
 70
     0
 10
0.0
 20
0.0
 30
0.0
  3
*Paper_Space
  1

  0
ENDBLK
  5
CA
330
C8
100
AcDbEntity
 67
     1
  8
0
100
AcDbBlockEnd
  0
BLOCK
  5
D1
330
D0
100
AcDbEntity
 67
     1
  8
0
100
AcDbBlockBegin
  2
*Paper_Space0
 70
     0
 10
0.0
 20
0.0
 30
0.0
  3
*Paper_Space0
  1

  0
ENDBLK
  5
D2
330
D0
100
AcDbEntity
 67
     1
  8
0
100
AcDbBlockEnd
  0
ENDSEC
  0
SECTION
  2
ENTITIES
  0
LINE
  5
D7
330
CC
100
AcDbEntity
  8
Sketch2
100
AcDbLine
 10
-124.6612086659543
 20
618.2119946003086
 30
0.5
 11
-124.7950458526611
 21
618.2511520385742
 31
0.5
  0
LINE
  5
D8
330
CC
100
AcDbEntity
  8
Sketch2
100
AcDbLine
 10
-124.1649735369817
 20
617.9666909682164
 30
0.5
 11
-124.2773532867431
 21
618.0492401123046
 31
0.5
  0
LINE
  5
D9
330
CC
100
AcDbEntity
  8
Sketch2
100
AcDbLine
 10
-124.2773532867431
 20
618.0492401123046
 30
0.5
 11
-124.4023622862082
 21
618.1110388853085
 31
0.5
  0
LINE
  5
DA
330
CC
100
AcDbEntity
  8
Sketch2
100
AcDbLine
 10
-124.4023622862082
 20
618.1110388853085
 30
0.5
 11
-124.5273685455322
 21
618.1728363037109
 31
0.5
  0
LINE
  5
DB
330
CC
100
AcDbEntity
  8
Sketch2
100
AcDbLine
 10
-109.4791830699937
 20
688.2165898005933
 30
0.5
 11
-109.5777893066406
 21
688.315200805664
 31
0.5
  0
LINE
  5
DC
330
CC
100
AcDbEntity
  8
Sketch2
100
AcDbLine
 10
-109.6920191642988
 20
688.3951559840416
 30
0.5
 11
-109.8062515258789
 21
688.475112915039
 31
0.5
  0
LINE
  5
DD
330
CC
100
AcDbEntity
  8
Sketch2
100
AcDbLine
 10
-109.8062515258789
 20
688.475112915039
 30
0.5
 11
-109.9326358294868
 21
688.5340493418488
 31
0.5
  0
LINE
  5
DE
330
CC
100
AcDbEntity
  8
Sketch2
100
AcDbLine
 10
-110.1937183876271
 20
688.6290737011695
 30
0.5
 11
-110.3284168243408
 21
688.6651611328125
 31
0.5
  0
LINE
  5
DF
330
CC
100
AcDbEntity
  8
Sketch2
100
AcDbLine
 10
-111.1534786224365
 20
688.5929870605468
 30
0.5
 11
-111.2798629260444
 21
688.5340506337371
 31
0.5
  0
LINE
  5
E0
330
CC
100
AcDbEntity
  8
Sketch2
100
AcDbLine
 10
-109.5777893066406
 20
688.315200805664
 30
0.5
 11
-109.6920191642988
 21
688.3951559840416
 31
0.5
  0
LINE
  5
E1
330
CC
100
AcDbEntity
  8
Sketch2
100
AcDbLine
 10
-111.5204798576582
 20
688.3951577366615
 30
0.5
 11
-111.6347122192383
 21
688.315200805664
 31
0.5
  0
LINE
  5
E2
330
CC
100
AcDbEntity
  8
Sketch2
100
AcDbLine
 10
-111.9119063194214
 20
688.0037320260957
 30
0.5
 11
-111.9918918609619
 21
687.8894805908203
 31
0.5
  0
LINE
  5
E3
330
CC
100
AcDbEntity
  8
Sketch2
100
AcDbLine
 10
-111.2798629260444
 20
688.5340506337371
 30
0.5
 11
-111.40625
 21
688.475112915039
 31
0.5
  0
LINE
  5
E4
330
CC
100
AcDbEntity
  8
Sketch2
100
AcDbLine
 10
-111.733316294481
 20
688.216591962102
 30
0.5
 11
-111.8319225311279
 21
688.1179809570312
 31
0.5
  0
LINE
  5
E5
330
CC
100
AcDbEntity
  8
Sketch2
100
AcDbLine
 10
-111.8319225311279
 20
688.1179809570312
 30
0.5
 11
-111.9119063194214
 21
688.0037320260957
 31
0.5
  0
LINE
  5
E6
330
CC
100
AcDbEntity
  8
Sketch2
100
AcDbLine
 10
-109.3805789947509
 20
688.1179809570312
 30
0.5
 11
-109.4791830699937
 21
688.2165898005933
 31
0.5
  0
LINE
  5
E7
330
CC
100
AcDbEntity
  8
Sketch2
100
AcDbLine
 10
-110.3284168243408
 20
688.6651611328125
 30
0.5
 11
-110.4673322711248
 21
688.6773298837201
 31
0.5
  0
LINE
  5
E8
330
CC
100
AcDbEntity
  8
Sketch2
100
AcDbLine
 10
-110.0590229034424
 20
688.5929870605468
 30
0.5
 11
-110.1937183876271
 21
688.6290737011695
 31
0.5
  0
LINE
  5
E9
330
CC
100
AcDbEntity
  8
Sketch2
100
AcDbLine
 10
-111.6347122192383
 20
688.315200805664
 30
0.5
 11
-111.733316294481
 21
688.216591962102
 31
0.5
  0
LINE
  5
EA
330
CC
100
AcDbEntity
  8
Sketch2
100
AcDbLine
 10
-111.9918918609619
 20
687.8894805908203
 30
0.5
 11
-112.0508235194524
 21
687.7631010555317
 31
0.5
  0
LINE
  5
EB
330
CC
100
AcDbEntity
  8
Sketch2
100
AcDbLine
 10
-112.0508235194524
 20
687.7631010555317
 30
0.5
 11
-112.1097564697265
 21
687.63671875
 31
0.5
  0
LINE
  5
EC
330
CC
100
AcDbEntity
  8
Sketch2
100
AcDbLine
 10
-112.1097564697265
 20
687.63671875
 30
0.5
 11
-112.1458478786685
 21
687.5020232658153
 31
0.5
  0
LINE
  5
ED
330
CC
100
AcDbEntity
  8
Sketch2
100
AcDbLine
 10
-109.9326358294868
 20
688.5340493418488
 30
0.5
 11
-110.0590229034424
 21
688.5929870605468
 31
0.5
  0
LINE
  5
EE
330
CC
100
AcDbEntity
  8
Sketch2
100
AcDbLine
 10
-110.7451662097234
 20
688.6773301504595
 30
0.5
 11
-110.8840847015381
 21
688.6651611328125
 31
0.5
  0
LINE
  5
EF
330
CC
100
AcDbEntity
  8
Sketch2
100
AcDbLine
 10
-110.8840847015381
 20
688.6651611328125
 30
0.5
 11
-111.0187801857228
 21
688.6290744921898
 31
0.5
  0
LINE
  5
F0
330
CC
100
AcDbEntity
  8
Sketch2
100
AcDbLine
 10
-111.0187801857228
 20
688.6290744921898
 30
0.5
 11
-111.1534786224365
 21
688.5929870605468
 31
0.5
  0
LINE
  5
F1
330
CC
100
AcDbEntity
  8
Sketch2
100
AcDbLine
 10
-111.40625
 20
688.475112915039
 30
0.5
 11
-111.5204798576582
 21
688.3951577366615
 31
0.5
  0
LINE
  5
F2
330
CC
100
AcDbEntity
  8
Sketch2
100
AcDbLine
 10
-110.4673322711248
 20
688.6773298837201
 30
0.5
 11
-110.6062507629394
 21
688.6894989013671
 31
0.5
  0
LINE
  5
F3
330
CC
100
AcDbEntity
  8
Sketch2
100
AcDbLine
 10
-110.6062507629394
 20
688.6894989013671
 30
0.5
 11
-110.7451662097234
 21
688.6773301504595
 31
0.5
  0
LINE
  5
F4
330
CC
100
AcDbEntity
  8
Sketch2
100
AcDbLine
 10
-112.1819400787353
 20
687.3673248291015
 30
0.5
 11
-112.194094524685
 21
687.2284332239141
 31
0.5
  0
LINE
  5
F5
330
CC
100
AcDbEntity
  8
Sketch2
100
AcDbLine
 10
-111.9918918609619
 20
686.2895202636718
 30
0.5
 11
-111.9119080726684
 21
686.1752713327364
 31
0.5
  0
LINE
  5
F6
330
CC
100
AcDbEntity
  8
Sketch2
100
AcDbLine
 10
-123.7416362762451
 20
615.850830078125
 30
0.5
 11
-123.6798422716651
 21
615.97583907759
 31
0.5
  0
LINE
  5
F7
330
CC
100
AcDbEntity
  8
Sketch2
100
AcDbLine
 10
-112.2062492370605
 20
687.0895385742187
 30
0.5
 11
-112.1940947911108
 21
686.9506088224767
 31
0.5
  0
LINE
  5
F8
330
CC
100
AcDbEntity
  8
Sketch2
100
AcDbLine
 10
-123.6798422716651
 20
615.97583907759
 30
0.5
 11
-123.618049621582
 21
616.1008453369141
 31
0.5
  0
LINE
  5
F9
330
CC
100
AcDbEntity
  8
Sketch2
100
AcDbLine
 10
-123.5397434234619
 20
616.3685607910156
 30
0.5
 11
-123.5244272460785
 21
616.5071693352806
 31
0.5
  0
LINE
  5
FA
330
CC
100
AcDbEntity
  8
Sketch2
100
AcDbLine
 10
-123.5091114044189
 20
616.6457748413086
 30
0.5
 11
-123.5180998833627
 21
616.784917449044
 31
0.5
  0
LINE
  5
FB
330
CC
100
AcDbEntity
  8
Sketch2
100
AcDbLine
 10
-109.0666528560855
 20
687.5020203132862
 30
0.5
 11
-109.1027450561523
 21
687.63671875
 31
0.5
  0
LINE
  5
FC
330
CC
100
AcDbEntity
  8
Sketch2
100
AcDbLine
 10
-110.7451692547541
 20
685.501670970772
 30
0.5
 11
-110.6062507629394
 21
685.489501953125
 31
0.5
  0
LINE
  5
FD
330
CC
100
AcDbEntity
  8
Sketch2
100
AcDbLine
 10
-110.0590229034424
 20
685.5860137939453
 30
0.5
 11
-109.9326385998344
 21
685.644950220755
 31
0.5
  0
LINE
  5
FE
330
CC
100
AcDbEntity
  8
Sketch2
100
AcDbLine
 10
-123.5180998833627
 20
616.784917449044
 30
0.5
 11
-123.5270881652832
 21
616.9240570068359
 31
0.5
  0
LINE
  5
FF
330
CC
100
AcDbEntity
  8
Sketch2
100
AcDbLine
 10
-123.5270881652832
 20
616.9240570068359
 30
0.5
 11
-123.5601047319713
 21
617.0595565387554
 31
0.5
  0
LINE
  5
100
330
CC
100
AcDbEntity
  8
Sketch2
100
AcDbLine
 10
-110.3284168243408
 20
685.5138397216797
 30
0.5
 11
-110.1937213401561
 21
685.5499263623023
 31
0.5
  0
LINE
  5
101
330
CC
100
AcDbEntity
  8
Sketch2
100
AcDbLine
 10
-110.6062507629394
 20
685.489501953125
 30
0.5
 11
-110.4673353161554
 21
685.5016707040326
 31
0.5
  0
LINE
  5
102
330
CC
100
AcDbEntity
  8
Sketch2
100
AcDbLine
 10
-109.9326385998344
 20
685.644950220755
 30
0.5
 11
-109.8062515258789
 21
685.7038879394531
 31
0.5
  0
LINE
  5
103
330
CC
100
AcDbEntity
  8
Sketch2
100
AcDbLine
 10
-109.4791852313979
 20
685.9624088923901
 30
0.5
 11
-109.3805789947509
 21
686.0610198974609
 31
0.5
  0
LINE
  5
104
330
CC
100
AcDbEntity
  8
Sketch2
100
AcDbLine
 10
-109.8062515258789
 20
685.7038879394531
 30
0.5
 11
-109.6920216682207
 21
685.7838431178306
 31
0.5
  0
LINE
  5
105
330
CC
100
AcDbEntity
  8
Sketch2
100
AcDbLine
 10
-110.1937213401561
 20
685.5499263623023
 30
0.5
 11
-110.0590229034424
 21
685.5860137939453
 31
0.5
  0
LINE
  5
106
330
CC
100
AcDbEntity
  8
Sketch2
100
AcDbLine
 10
-111.1534786224365
 20
685.5860137939453
 30
0.5
 11
-111.0187831382518
 21
685.5499271533226
 31
0.5
  0
LINE
  5
107
330
CC
100
AcDbEntity
  8
Sketch2
100
AcDbLine
 10
-123.5601047319713
 20
617.0595565387554
 30
0.5
 11
-123.5931205749511
 21
617.1950531005859
 31
0.5
  0
LINE
  5
108
330
CC
100
AcDbEntity
  8
Sketch2
100
AcDbLine
 10
-123.5931205749511
 20
617.1950531005859
 30
0.5
 11
-123.6491590919527
 21
617.3227514910983
 31
0.5
  0
LINE
  5
109
330
CC
100
AcDbEntity
  8
Sketch2
100
AcDbLine
 10
-109.018406734768
 20
687.2284301794061
 30
0.5
 11
-109.0305614471435
 21
687.3673248291015
 31
0.5
  0
LINE
  5
10A
330
CC
100
AcDbEntity
  8
Sketch2
100
AcDbLine
 10
-123.6491590919527
 20
617.3227514910983
 30
0.5
 11
-123.7051963806152
 21
617.4504470825195
 31
0.5
  0
LINE
  5
10B
330
CC
100
AcDbEntity
  8
Sketch2
100
AcDbLine
 10
-111.52048236158
 20
685.7838448704505
 30
0.5
 11
-111.40625
 21
685.7038879394531
 31
0.5
  0
LINE
  5
10C
330
CC
100
AcDbEntity
  8
Sketch2
100
AcDbLine
 10
-111.279865696392
 20
685.6449515126434
 30
0.5
 11
-111.1534786224365
 21
685.5860137939453
 31
0.5
  0
LINE
  5
10D
330
CC
100
AcDbEntity
  8
Sketch2
100
AcDbLine
 10
-110.4673353161554
 20
685.5016707040326
 30
0.5
 11
-110.3284168243408
 21
685.5138397216797
 31
0.5
  0
LINE
  5
10E
330
CC
100
AcDbEntity
  8
Sketch2
100
AcDbLine
 10
-109.6920216682207
 20
685.7838431178306
 30
0.5
 11
-109.5777893066406
 21
685.8638000488281
 31
0.5
  0
LINE
  5
10F
330
CC
100
AcDbEntity
  8
Sketch2
100
AcDbLine
 10
-109.1616767146428
 20
687.7630982852886
 30
0.5
 11
-109.220609664917
 21
687.8894805908203
 31
0.5
  0
LINE
  5
110
330
CC
100
AcDbEntity
  8
Sketch2
100
AcDbLine
 10
-112.194094524685
 20
687.2284332239141
 30
0.5
 11
-112.2062492370605
 21
687.0895385742187
 31
0.5
  0
LINE
  5
111
330
CC
100
AcDbEntity
  8
Sketch2
100
AcDbLine
 10
-109.220609664917
 20
687.8894805908203
 30
0.5
 11
-109.3005934532105
 21
688.0037295217557
 31
0.5
  0
LINE
  5
112
330
CC
100
AcDbEntity
  8
Sketch2
100
AcDbLine
 10
-123.5244272460785
 20
616.5071693352806
 30
0.5
 11
-123.5091114044189
 21
616.6457748413086
 31
0.5
  0
LINE
  5
113
330
CC
100
AcDbEntity
  8
Sketch2
100
AcDbLine
 10
-109.1027450561523
 20
687.63671875
 30
0.5
 11
-109.1616767146428
 21
687.7630982852886
 31
0.5
  0
LINE
  5
114
330
CC
100
AcDbEntity
  8
Sketch2
100
AcDbLine
 10
-123.7051963806152
 20
617.4504470825195
 30
0.5
 11
-123.7825592890422
 21
617.5664532977692
 31
0.5
  0
LINE
  5
115
330
CC
100
AcDbEntity
  8
Sketch2
100
AcDbLine
 10
-109.3805789947509
 20
686.0610198974609
 30
0.5
 11
-109.3005952064574
 21
686.1752688283964
 31
0.5
  0
LINE
  5
116
330
CC
100
AcDbEntity
  8
Sketch2
100
AcDbLine
 10
-123.7825592890422
 20
617.5664532977692
 30
0.5
 11
-123.859920501709
 21
617.6824569702148
 31
0.5
  0
LINE
  5
117
330
CC
100
AcDbEntity
  8
Sketch2
100
AcDbLine
 10
-123.859920501709
 20
617.6824569702148
 30
0.5
 11
-123.9562569686068
 21
617.7832995976441
 31
0.5
  0
LINE
  5
118
330
CC
100
AcDbEntity
  8
Sketch2
100
AcDbLine
 10
-123.9562569686068
 20
617.7832995976441
 30
0.5
 11
-124.0525913238525
 21
617.8841400146484
 31
0.5
  0
LINE
  5
119
330
CC
100
AcDbEntity
  8
Sketch2
100
AcDbLine
 10
-124.0525913238525
 20
617.8841400146484
 30
0.5
 11
-124.1649735369817
 21
617.9666909682164
 31
0.5
  0
LINE
  5
11A
330
CC
100
AcDbEntity
  8
Sketch2
100
AcDbLine
 10
-112.0508248112361
 20
686.4159025692035
 30
0.5
 11
-111.9918918609619
 21
686.2895202636718
 31
0.5
  0
LINE
  5
11B
330
CC
100
AcDbEntity
  8
Sketch2
100
AcDbLine
 10
-112.1458486697933
 20
686.6769805412059
 30
0.5
 11
-112.1097564697265
 21
686.5422821044922
 31
0.5
  0
LINE
  5
11C
330
CC
100
AcDbEntity
  8
Sketch2
100
AcDbLine
 10
-111.6347122192383
 20
685.8638000488281
 30
0.5
 11
-111.52048236158
 21
685.7838448704505
 31
0.5
  0
LINE
  5
11D
330
CC
100
AcDbEntity
  8
Sketch2
100
AcDbLine
 10
-111.9119080726684
 20
686.1752713327364
 30
0.5
 11
-111.8319225311279
 21
686.0610198974609
 31
0.5
  0
LINE
  5
11E
330
CC
100
AcDbEntity
  8
Sketch2
100
AcDbLine
 10
-111.8319225311279
 20
686.0610198974609
 30
0.5
 11
-111.7333184558852
 21
685.9624110538988
 31
0.5
  0
LINE
  5
11F
330
CC
100
AcDbEntity
  8
Sketch2
100
AcDbLine
 10
-112.1458478786685
 20
687.5020232658153
 30
0.5
 11
-112.1819400787353
 21
687.3673248291015
 31
0.5
  0
LINE
  5
120
330
CC
100
AcDbEntity
  8
Sketch2
100
AcDbLine
 10
-109.3005952064574
 20
686.1752688283964
 30
0.5
 11
-109.220609664917
 21
686.2895202636718
 31
0.5
  0
LINE
  5
121
330
CC
100
AcDbEntity
  8
Sketch2
100
AcDbLine
 10
-112.1940947911108
 20
686.9506088224767
 30
0.5
 11
-112.1819400787353
 21
686.8116760253906
 31
0.5
  0
LINE
  5
122
330
CC
100
AcDbEntity
  8
Sketch2
100
AcDbLine
 10
-109.220609664917
 20
686.2895202636718
 30
0.5
 11
-109.1616780064265
 21
686.4158997989605
 31
0.5
  0
LINE
  5
123
330
CC
100
AcDbEntity
  8
Sketch2
100
AcDbLine
 10
-109.0666536472103
 20
686.6769775886768
 30
0.5
 11
-109.0305614471435
 21
686.8116760253906
 31
0.5
  0
LINE
  5
124
330
CC
100
AcDbEntity
  8
Sketch2
100
AcDbLine
 10
-111.40625
 20
685.7038879394531
 30
0.5
 11
-111.279865696392
 21
685.6449515126434
 31
0.5
  0
LINE
  5
125
330
CC
100
AcDbEntity
  8
Sketch2
100
AcDbLine
 10
-111.0187831382518
 20
685.5499271533226
 30
0.5
 11
-110.8840847015381
 21
685.5138397216797
 31
0.5
  0
LINE
  5
126
330
CC
100
AcDbEntity
  8
Sketch2
100
AcDbLine
 10
-110.8840847015381
 20
685.5138397216797
 30
0.5
 11
-110.7451692547541
 21
685.501670970772
 31
0.5
  0
LINE
  5
127
330
CC
100
AcDbEntity
  8
Sketch2
100
AcDbLine
 10
-111.7333184558852
 20
685.9624110538988
 30
0.5
 11
-111.6347122192383
 21
685.8638000488281
 31
0.5
  0
LINE
  5
128
330
CC
100
AcDbEntity
  8
Sketch2
100
AcDbLine
 10
-109.0305614471435
 20
686.8116760253906
 30
0.5
 11
-109.0184070011938
 21
686.9506057771326
 31
0.5
  0
LINE
  5
129
330
CC
100
AcDbEntity
  8
Sketch2
100
AcDbLine
 10
-112.1097564697265
 20
686.5422821044922
 30
0.5
 11
-112.0508248112361
 21
686.4159025692035
 31
0.5
  0
LINE
  5
12A
330
CC
100
AcDbEntity
  8
Sketch2
100
AcDbLine
 10
-109.0184070011938
 20
686.9506057771326
 30
0.5
 11
-109.0062522888183
 21
687.0895385742187
 31
0.5
  0
LINE
  5
12B
330
CC
100
AcDbEntity
  8
Sketch2
100
AcDbLine
 10
-112.1819400787353
 20
686.8116760253906
 30
0.5
 11
-112.1458486697933
 21
686.6769805412059
 31
0.5
  0
LINE
  5
12C
330
CC
100
AcDbEntity
  8
Sketch2
100
AcDbLine
 10
-109.1027450561523
 20
686.5422821044922
 30
0.5
 11
-109.0666536472103
 21
686.6769775886768
 31
0.5
  0
LINE
  5
12D
330
CC
100
AcDbEntity
  8
Sketch2
100
AcDbLine
 10
-109.0305614471435
 20
687.3673248291015
 30
0.5
 11
-109.0666528560855
 21
687.5020203132862
 31
0.5
  0
LINE
  5
12E
330
CC
100
AcDbEntity
  8
Sketch2
100
AcDbLine
 10
-109.3005934532105
 20
688.0037295217557
 30
0.5
 11
-109.3805789947509
 21
688.1179809570312
 31
0.5
  0
LINE
  5
12F
330
CC
100
AcDbEntity
  8
Sketch2
100
AcDbLine
 10
-123.618049621582
 20
616.1008453369141
 30
0.5
 11
-123.5788960934081
 21
616.2347045310316
 31
0.5
  0
LINE
  5
130
330
CC
100
AcDbEntity
  8
Sketch2
100
AcDbLine
 10
-109.1616780064265
 20
686.4158997989605
 30
0.5
 11
-109.1027450561523
 21
686.5422821044922
 31
0.5
  0
LINE
  5
131
330
CC
100
AcDbEntity
  8
Sketch2
100
AcDbLine
 10
-109.0062522888183
 20
687.0895385742187
 30
0.5
 11
-109.018406734768
 21
687.2284301794061
 31
0.5
  0
LINE
  5
132
330
CC
100
AcDbEntity
  8
Sketch2
100
AcDbLine
 10
-123.5788960934081
 20
616.2347045310316
 30
0.5
 11
-123.5397434234619
 21
616.3685607910156
 31
0.5
  0
LINE
  5
133
330
CC
100
AcDbEntity
  8
Sketch2
100
AcDbLine
 10
-109.5777893066406
 20
685.8638000488281
 30
0.5
 11
-109.4791852313979
 21
685.9624088923901
 31
0.5
  0
LINE
  5
134
330
CC
100
AcDbEntity
  8
Sketch2
100
AcDbLine
 10
-126.3931998718767
 20
617.6259219250543
 30
0.5
 11
-126.4757633209228
 21
617.5135421752929
 31
0.5
  0
LINE
  5
135
330
CC
100
AcDbEntity
  8
Sketch2
100
AcDbLine
 10
-126.6903114318847
 20
616.440315246582
 30
0.5
 11
-126.6572948651966
 21
616.3048347883578
 31
0.5
  0
LINE
  5
136
330
CC
100
AcDbEntity
  8
Sketch2
100
AcDbLine
 10
-125.5561909312136
 20
615.1523967268047
 30
0.5
 11
-125.4223537445068
 21
615.1132583618164
 31
0.5
  0
LINE
  5
137
330
CC
100
AcDbEntity
  8
Sketch2
100
AcDbLine
 10
-123.906774520874
 20
615.626106262207
 30
0.5
 11
-123.8242044936106
 21
615.7384694016408
 31
0.5
  0
LINE
  5
138
330
CC
100
AcDbEntity
  8
Sketch2
100
AcDbLine
 10
-124.5958518981933
 20
615.1666259765625
 30
0.5
 11
-124.4681582761047
 21
615.222664493564
 31
0.5
  0
LINE
  5
139
330
CC
100
AcDbEntity
  8
Sketch2
100
AcDbLine
 10
-108.8442393956942
 20
488.6504352073114
 30
0.5
 11
-108.6555385589599
 21
488.7593841552734
 31
0.5000000000000001
  0
LINE
  5
13A
330
CC
100
AcDbEntity
  8
Sketch2
100
AcDbLine
 10
-125.1451396942139
 20
615.0826263427734
 30
0.5
 11
-125.0059780127831
 21
615.0916100532935
 31
0.5
  0
LINE
  5
13B
330
CC
100
AcDbEntity
  8
Sketch2
100
AcDbLine
 10
-124.2244421640578
 20
615.3560646906535
 30
0.5
 11
-124.1084194183349
 21
615.4334259033203
 31
0.5
  0
LINE
  5
13C
330
CC
100
AcDbEntity
  8
Sketch2
100
AcDbLine
 10
-125.0722599029541
 20
618.2817840576172
 30
0.5
 11
-125.2114215843848
 21
618.2728003470971
 31
0.5
  0
LINE
  5
13D
330
CC
100
AcDbEntity
  8
Sketch2
100
AcDbLine
 10
-108.1816593261433
 20
489.206407625007
 30
0.5
 11
-108.0416011810303
 21
489.3733215332031
 31
0.5000000000000001
  0
LINE
  5
13E
330
CC
100
AcDbEntity
  8
Sketch2
100
AcDbLine
 10
-125.6215476989746
 20
618.1977844238281
 30
0.5
 11
-125.7492413210632
 21
618.1417459068265
 31
0.5
  0
LINE
  5
13F
330
CC
100
AcDbEntity
  8
Sketch2
100
AcDbLine
 10
-125.3505802154541
 20
618.263816833496
 30
0.5
 11
-125.486065442102
 21
618.2308002668079
 31
0.5
  0
LINE
  5
140
330
CC
100
AcDbEntity
  8
Sketch2
100
AcDbLine
 10
-125.876932144165
 20
618.085708618164
 30
0.5
 11
-125.9929574331101
 21
618.0083457097371
 31
0.5
  0
LINE
  5
141
330
CC
100
AcDbEntity
  8
Sketch2
100
AcDbLine
 10
-126.6992997138052
 20
616.5794738776512
 30
0.5
 11
-126.6903114318847
 21
616.440315246582
 31
0.5
  0
LINE
  5
142
330
CC
100
AcDbEntity
  8
Sketch2
100
AcDbLine
 10
-126.6572948651966
 20
616.3048347883578
 30
0.5
 11
-126.6242790222168
 21
616.1693572998046
 31
0.5
  0
LINE
  5
143
330
CC
100
AcDbEntity
  8
Sketch2
100
AcDbLine
 10
-125.0059780127831
 20
615.0916100532935
 30
0.5
 11
-124.8668193817138
 21
615.1005935668945
 31
0.5
  0
LINE
  5
144
330
CC
100
AcDbEntity
  8
Sketch2
100
AcDbLine
 10
-124.8668193817138
 20
615.1005935668945
 30
0.5
 11
-124.7313341550659
 21
615.1336101335827
 31
0.5
  0
LINE
  5
145
330
CC
100
AcDbEntity
  8
Sketch2
100
AcDbLine
 10
-124.4681582761047
 20
615.222664493564
 30
0.5
 11
-124.3404674530029
 21
615.2787017822265
 31
0.5
  0
LINE
  5
146
330
CC
100
AcDbEntity
  8
Sketch2
100
AcDbLine
 10
-124.3404674530029
 20
615.2787017822265
 30
0.5
 11
-124.2244421640578
 21
615.3560646906535
 31
0.5
  0
LINE
  5
147
330
CC
100
AcDbEntity
  8
Sketch2
100
AcDbLine
 10
-125.4223537445068
 20
615.1132583618164
 30
0.5
 11
-125.2837452002418
 21
615.097942184433
 31
0.5
  0
LINE
  5
148
330
CC
100
AcDbEntity
  8
Sketch2
100
AcDbLine
 10
-125.2114215843848
 20
618.2728003470971
 30
0.5
 11
-125.3505802154541
 21
618.263816833496
 31
0.5
  0
LINE
  5
149
330
CC
100
AcDbEntity
  8
Sketch2
100
AcDbLine
 10
-126.5993595123291
 20
617.2635269165039
 30
0.5
 11
-126.6385082720792
 21
617.1296867960817
 31
0.5
  0
LINE
  5
14A
330
CC
100
AcDbEntity
  8
Sketch2
100
AcDbLine
 10
-126.6929723510894
 20
616.8572410651099
 30
0.5
 11
-126.708288192749
 21
616.718635559082
 31
0.5
  0
LINE
  5
14B
330
CC
100
AcDbEntity
  8
Sketch2
100
AcDbLine
 10
-126.2098085009908
 20
617.8346432617486
 30
0.5
 11
-126.3106346130371
 21
617.7383041381836
 31
0.5
  0
LINE
  5
14C
330
CC
100
AcDbEntity
  8
Sketch2
100
AcDbLine
 10
-126.6242790222168
 20
616.1693572998046
 30
0.5
 11
-126.5682405052152
 21
616.0416589092922
 31
0.5
  0
LINE
  5
14D
330
CC
100
AcDbEntity
  8
Sketch2
100
AcDbLine
 10
-125.6900310516357
 20
615.191535949707
 30
0.5
 11
-125.5561909312136
 21
615.1523967268047
 31
0.5
  0
LINE
  5
14E
330
CC
100
AcDbEntity
  8
Sketch2
100
AcDbLine
 10
-125.2837452002418
 20
615.097942184433
 30
0.5
 11
-125.1451396942139
 21
615.0826263427734
 31
0.5
  0
LINE
  5
14F
330
CC
100
AcDbEntity
  8
Sketch2
100
AcDbLine
 10
-109.2376874475807
 20
488.4669677196444
 30
0.5000000000000001
 11
-109.0329360961914
 21
488.5414886474609
 31
0.5
  0
LINE
  5
150
330
CC
100
AcDbEntity
  8
Sketch2
100
AcDbLine
 10
-126.4348403081257
 20
615.7979380289259
 30
0.5
 11
-126.357479095459
 21
615.6819152832031
 31
0.5
  0
LINE
  5
151
330
CC
100
AcDbEntity
  8
Sketch2
100
AcDbLine
 10
-124.7313341550659
 20
615.1336101335827
 30
0.5
 11
-124.5958518981933
 21
615.1666259765625
 31
0.5
  0
LINE
  5
152
330
CC
100
AcDbEntity
  8
Sketch2
100
AcDbLine
 10
-125.9400463104248
 20
615.3151321411132
 30
0.5
 11
-125.8150373109597
 21
615.2533333681094
 31
0.5
  0
LINE
  5
153
330
CC
100
AcDbEntity
  8
Sketch2
100
AcDbLine
 10
-126.108980178833
 20
617.9309844970703
 30
0.5
 11
-126.2098085009908
 21
617.8346432617486
 31
0.5
  0
LINE
  5
154
330
CC
100
AcDbEntity
  8
Sketch2
100
AcDbLine
 10
-124.9336543969261
 20
618.2664682159575
 30
0.5
 11
-125.0722599029541
 21
618.2817840576172
 31
0.5
  0
LINE
  5
155
330
CC
100
AcDbEntity
  8
Sketch2
100
AcDbLine
 10
-126.677656173706
 20
616.995849609375
 30
0.5
 11
-126.6929723510894
 21
616.8572410651099
 31
0.5
  0
LINE
  5
156
330
CC
100
AcDbEntity
  8
Sketch2
100
AcDbLine
 10
-126.708288192749
 20
616.718635559082
 30
0.5
 11
-126.6992997138052
 21
616.5794738776512
 31
0.5
  0
LINE
  5
157
330
CC
100
AcDbEntity
  8
Sketch2
100
AcDbLine
 10
-126.5682405052152
 20
616.0416589092922
 30
0.5
 11
-126.5122032165527
 21
615.913963317871
 31
0.5
  0
LINE
  5
158
330
CC
100
AcDbEntity
  8
Sketch2
100
AcDbLine
 10
-124.0075958646009
 20
615.529767138642
 30
0.5
 11
-123.906774520874
 21
615.626106262207
 31
0.5
  0
LINE
  5
159
330
CC
100
AcDbEntity
  8
Sketch2
100
AcDbLine
 10
-123.8242044936106
 20
615.7384694016408
 30
0.5
 11
-123.7416362762451
 21
615.850830078125
 31
0.5
  0
LINE
  5
15A
330
CC
100
AcDbEntity
  8
Sketch2
100
AcDbLine
 10
-126.0524260601863
 20
615.3977003584787
 30
0.5
 11
-125.9400463104248
 21
615.3151321411132
 31
0.5
  0
LINE
  5
15B
330
CC
100
AcDbEntity
  8
Sketch2
100
AcDbLine
 10
-109.0329360961914
 20
488.5414886474609
 30
0.5
 11
-108.8442393956942
 21
488.6504352073114
 31
0.5
  0
LINE
  5
15C
330
CC
100
AcDbEntity
  8
Sketch2
100
AcDbLine
 10
-108.3217144012451
 20
489.0394973754882
 30
0.5000000000000001
 11
-108.1816593261433
 21
489.206407625007
 31
0.5
  0
LINE
  5
15D
330
CC
100
AcDbEntity
  8
Sketch2
100
AcDbLine
 10
-126.3106346130371
 20
617.7383041381836
 30
0.5
 11
-126.3931998718767
 21
617.6259219250543
 31
0.5
  0
LINE
  5
15E
330
CC
100
AcDbEntity
  8
Sketch2
100
AcDbLine
 10
-108.0416011810303
 20
489.3733215332031
 30
0.5000000000000001
 11
-107.9326593894991
 21
489.5620134653809
 31
0.5
  0
LINE
  5
15F
330
CC
100
AcDbEntity
  8
Sketch2
100
AcDbLine
 10
-126.4757633209228
 20
617.5135421752929
 30
0.5
 11
-126.5375620939266
 21
617.3885331758278
 31
0.5
  0
LINE
  5
160
330
CC
100
AcDbEntity
  8
Sketch2
100
AcDbLine
 10
-107.9326593894991
 20
489.5620134653809
 30
0.5
 11
-107.8237152099609
 21
489.7507095336914
 31
0.5000000000000001
  0
LINE
  5
161
330
CC
100
AcDbEntity
  8
Sketch2
100
AcDbLine
 10
-124.1084194183349
 20
615.4334259033203
 30
0.5
 11
-124.0075958646009
 21
615.529767138642
 31
0.5
  0
LINE
  5
162
330
CC
100
AcDbEntity
  8
Sketch2
100
AcDbLine
 10
-107.8237152099609
 20
489.7507095336914
 30
0.5000000000000001
 11
-107.7491911472901
 21
489.9554611653431
 31
0.5
  0
LINE
  5
163
330
CC
100
AcDbEntity
  8
Sketch2
100
AcDbLine
 10
-126.5122032165527
 20
615.913963317871
 30
0.5
 11
-126.4348403081257
 21
615.7979380289259
 31
0.5
  0
LINE
  5
164
330
CC
100
AcDbEntity
  8
Sketch2
100
AcDbLine
 10
-107.7491911472901
 20
489.9554611653431
 30
0.5
 11
-107.6746654510498
 21
490.1602172851562
 31
0.5000000000000001
  0
LINE
  5
165
330
CC
100
AcDbEntity
  8
Sketch2
100
AcDbLine
 10
-125.8150373109597
 20
615.2533333681094
 30
0.5
 11
-125.6900310516357
 21
615.191535949707
 31
0.5
  0
LINE
  5
166
330
CC
100
AcDbEntity
  8
Sketch2
100
AcDbLine
 10
-108.6555385589599
 20
488.7593841552734
 30
0.5000000000000001
 11
-108.4886283094412
 21
488.8994392303752
 31
0.5
  0
LINE
  5
167
330
CC
100
AcDbEntity
  8
Sketch2
100
AcDbLine
 10
-108.4886283094412
 20
488.8994392303752
 30
0.5
 11
-108.3217144012451
 21
489.0394973754882
 31
0.5000000000000001
  0
LINE
  5
168
330
CC
100
AcDbEntity
  8
Sketch2
100
AcDbLine
 10
-107.6746654510498
 20
490.1602172851562
 30
0.5000000000000001
 11
-107.6368288372362
 21
490.3747916546095
 31
0.5
  0
LINE
  5
169
330
CC
100
AcDbEntity
  8
Sketch2
100
AcDbLine
 10
-107.6368288372362
 20
490.3747916546095
 30
0.5
 11
-107.5989913940429
 21
490.589370727539
 31
0.5000000000000001
  0
LINE
  5
16A
330
CC
100
AcDbEntity
  8
Sketch2
100
AcDbLine
 10
-107.5989913940429
 20
490.589370727539
 30
0.5000000000000001
 11
-107.5989913940429
 21
490.8072638472399
 31
0.5
  0
LINE
  5
16B
330
CC
100
AcDbEntity
  8
Sketch2
100
AcDbLine
 10
-125.9929574331101
 20
618.0083457097371
 30
0.5
 11
-126.108980178833
 21
617.9309844970703
 31
0.5
  0
LINE
  5
16C
330
CC
100
AcDbEntity
  8
Sketch2
100
AcDbLine
 10
-124.7950458526611
 20
618.2511520385742
 30
0.5
 11
-124.9336543969261
 21
618.2664682159575
 31
0.5
  0
LINE
  5
16D
330
CC
100
AcDbEntity
  8
Sketch2
100
AcDbLine
 10
-126.5375620939266
 20
617.3885331758278
 30
0.5
 11
-126.5993595123291
 21
617.2635269165039
 31
0.5
  0
LINE
  5
16E
330
CC
100
AcDbEntity
  8
Sketch2
100
AcDbLine
 10
-125.7492413210632
 20
618.1417459068265
 30
0.5
 11
-125.876932144165
 21
618.085708618164
 31
0.5
  0
LINE
  5
16F
330
CC
100
AcDbEntity
  8
Sketch2
100
AcDbLine
 10
-126.6385082720792
 20
617.1296867960817
 30
0.5
 11
-126.677656173706
 21
616.995849609375
 31
0.5
  0
LINE
  5
170
330
CC
100
AcDbEntity
  8
Sketch2
100
AcDbLine
 10
-126.357479095459
 20
615.6819152832031
 30
0.5
 11
-126.2611426285611
 21
615.5810917294691
 31
0.5
  0
LINE
  5
171
330
CC
100
AcDbEntity
  8
Sketch2
100
AcDbLine
 10
-126.2611426285611
 20
615.5810917294691
 30
0.5
 11
-126.1648082733154
 21
615.4802703857422
 31
0.5
  0
LINE
  5
172
330
CC
100
AcDbEntity
  8
Sketch2
100
AcDbLine
 10
-126.1648082733154
 20
615.4802703857422
 30
0.5
 11
-126.0524260601863
 21
615.3977003584787
 31
0.5
  0
LINE
  5
173
330
CC
100
AcDbEntity
  8
Sketch2
100
AcDbLine
 10
-125.486065442102
 20
618.2308002668079
 30
0.5
 11
-125.6215476989746
 21
618.1977844238281
 31
0.5
  0
LINE
  5
174
330
CC
100
AcDbEntity
  8
Sketch2
100
AcDbLine
 10
-107.8237152099609
 20
491.8638229370117
 30
0.5000000000000001
 11
-107.932657001492
 21
492.0525148691896
 31
0.5
  0
LINE
  5
175
330
CC
100
AcDbEntity
  8
Sketch2
100
AcDbLine
 10
-110.941283562693
 20
488.4669693531094
 30
0.5
 11
-110.7365322113037
 21
488.3924484252929
 31
0.5000000000000001
  0
LINE
  5
176
330
CC
100
AcDbEntity
  8
Sketch2
100
AcDbLine
 10
-110.7365322113037
 20
488.3924484252929
 30
0.5000000000000001
 11
-110.5219530735311
 21
488.35460704316
 31
0.5
  0
LINE
  5
177
330
CC
100
AcDbEntity
  8
Sketch2
100
AcDbLine
 10
-109.2376829595237
 20
493.1475631175937
 30
0.5
 11
-109.4424343109131
 21
493.2220840454101
 31
0.5000000000000001
  0
LINE
  5
178
330
CC
100
AcDbEntity
  8
Sketch2
100
AcDbLine
 10
-109.4424343109131
 20
493.2220840454101
 30
0.5000000000000001
 11
-109.6570134486857
 21
493.259925427543
 31
0.5
  0
LINE
  5
179
330
CC
100
AcDbEntity
  8
Sketch2
100
AcDbLine
 10
-107.6368280078566
 20
491.2397361126173
 30
0.5
 11
-107.6746654510498
 21
491.4543151855468
 31
0.5000000000000001
  0
LINE
  5
17A
330
CC
100
AcDbEntity
  8
Sketch2
100
AcDbLine
 10
-112.5799655914306
 20
491.025161743164
 30
0.5000000000000001
 11
-112.5799655914306
 21
490.8072686234632
 31
0.5
  0
LINE
  5
17B
330
CC
100
AcDbEntity
  8
Sketch2
100
AcDbLine
 10
-112.2463095207247
 20
489.5620176015134
 30
0.5
 11
-112.1373653411865
 21
489.3733215332031
 31
0.5000000000000001
  0
LINE
  5
17C
330
CC
100
AcDbEntity
  8
Sketch2
100
AcDbLine
 10
-110.5219530735311
 20
488.35460704316
 30
0.5
 11
-110.3073692321777
 21
488.316764831543
 31
0.5000000000000001
  0
LINE
  5
17D
330
CC
100
AcDbEntity
  8
Sketch2
100
AcDbLine
 10
-107.932657001492
 20
492.0525148691896
 30
0.5
 11
-108.0416011810303
 21
492.2412109375
 31
0.5000000000000001
  0
LINE
  5
17E
330
CC
100
AcDbEntity
  8
Sketch2
100
AcDbLine
 10
-108.6555385589599
 20
492.8551483154296
 30
0.5000000000000001
 11
-108.8442352594572
 21
492.9640948752801
 31
0.5
  0
LINE
  5
17F
330
CC
100
AcDbEntity
  8
Sketch2
100
AcDbLine
 10
-111.9973071960735
 20
492.408124845696
 30
0.5
 11
-112.1373653411865
 21
492.2412109375
 31
0.5000000000000001
  0
LINE
  5
180
330
CC
100
AcDbEntity
  8
Sketch2
100
AcDbLine
 10
-110.3073692321777
 20
488.316764831543
 30
0.5000000000000001
 11
-110.0894808807962
 21
488.316764831543
 31
0.5
  0
LINE
  5
181
330
CC
100
AcDbEntity
  8
Sketch2
100
AcDbLine
 10
-109.6570133838426
 20
488.3546062136758
 30
0.5
 11
-109.4424343109131
 21
488.3924484252929
 31
0.5000000000000001
  0
LINE
  5
182
330
CC
100
AcDbEntity
  8
Sketch2
100
AcDbLine
 10
-130.2942992588843
 20
722.1789184534066
 30
0.5
 11
-130.306453704834
 21
722.3178100585937
 31
0.5
  0
LINE
  5
183
330
CC
100
AcDbEntity
  8
Sketch2
100
AcDbLine
 10
-130.306453704834
 20
722.3178100585937
 30
0.5
 11
-130.2942989924584
 21
722.4567428556802
 31
0.5
  0
LINE
  5
184
330
CC
100
AcDbEntity
  8
Sketch2
100
AcDbLine
 10
-112.5799655914306
 20
490.589370727539
 30
0.5000000000000001
 11
-112.5421337459364
 21
490.3747963580857
 31
0.5
  0
LINE
  5
185
330
CC
100
AcDbEntity
  8
Sketch2
100
AcDbLine
 10
-109.4424343109131
 20
488.3924484252929
 30
0.5000000000000001
 11
-109.2376874475807
 21
488.4669677196444
 31
0.5000000000000001
  0
LINE
  5
186
330
CC
100
AcDbEntity
  8
Sketch2
100
AcDbLine
 10
-130.2942989924584
 20
722.4567428556802
 30
0.5
 11
-130.2821445465088
 21
722.5956726074218
 31
0.5
  0
LINE
  5
187
330
CC
100
AcDbEntity
  8
Sketch2
100
AcDbLine
 10
-130.2821445465088
 20
722.5956726074218
 30
0.5
 11
-130.246052346442
 21
722.7303710441357
 31
0.5
  0
LINE
  5
188
330
CC
100
AcDbEntity
  8
Sketch2
100
AcDbLine
 10
-108.3217144012451
 20
492.5750350952148
 30
0.5000000000000001
 11
-108.4886246507638
 21
492.7150901703166
 31
0.5
  0
LINE
  5
189
330
CC
100
AcDbEntity
  8
Sketch2
100
AcDbLine
 10
-107.6746654510498
 20
491.4543151855468
 30
0.5000000000000001
 11
-107.7491895137206
 21
491.6590668171985
 31
0.5
  0
LINE
  5
18A
330
CC
100
AcDbEntity
  8
Sketch2
100
AcDbLine
 10
-110.3073692321777
 20
493.2977676391601
 30
0.5000000000000001
 11
-110.5219483699503
 21
493.2599262570272
 31
0.5
  0
LINE
  5
18B
330
CC
100
AcDbEntity
  8
Sketch2
100
AcDbLine
 10
-110.0894808731013
 20
493.2977676391601
 30
0.5
 11
-110.3073692321777
 21
493.2977676391601
 31
0.5000000000000001
  0
LINE
  5
18C
330
CC
100
AcDbEntity
  8
Sketch2
100
AcDbLine
 10
-112.5421329166613
 20
491.2397408160935
 30
0.5
 11
-112.5799655914306
 21
491.025161743164
 31
0.5000000000000001
  0
LINE
  5
18D
330
CC
100
AcDbEntity
  8
Sketch2
100
AcDbLine
 10
-111.3347271265226
 20
492.9640972633917
 30
0.5
 11
-111.5234279632568
 21
492.8551483154296
 31
0.5000000000000001
  0
LINE
  5
18E
330
CC
100
AcDbEntity
  8
Sketch2
100
AcDbLine
 10
-112.1373653411865
 20
492.2412109375
 30
0.5000000000000001
 11
-112.2463071327176
 21
492.052519005322
 31
0.5
  0
LINE
  5
18F
330
CC
100
AcDbEntity
  8
Sketch2
100
AcDbLine
 10
-111.8572521209717
 20
492.5750350952148
 30
0.5000000000000001
 11
-111.9973071960735
 21
492.408124845696
 31
0.5
  0
LINE
  5
190
330
CC
100
AcDbEntity
  8
Sketch2
100
AcDbLine
 10
-107.5989913940429
 20
490.8072638472399
 30
0.5
 11
-107.5989913940429
 21
491.025161743164
 31
0.5000000000000001
  0
LINE
  5
191
330
CC
100
AcDbEntity
  8
Sketch2
100
AcDbLine
 10
-112.3552513122558
 20
489.7507095336914
 30
0.5000000000000001
 11
-112.2463095207247
 21
489.5620176015134
 31
0.5
  0
LINE
  5
192
330
CC
100
AcDbEntity
  8
Sketch2
100
AcDbLine
 10
-111.9973102660847
 20
489.2064112836843
 30
0.5
 11
-111.8572521209717
 21
489.0394973754882
 31
0.5000000000000001
  0
LINE
  5
193
330
CC
100
AcDbEntity
  8
Sketch2
100
AcDbLine
 10
-110.7365322113037
 20
493.2220840454101
 30
0.5000000000000001
 11
-110.941279074636
 21
493.1475647510587
 31
0.5
  0
LINE
  5
194
330
CC
100
AcDbEntity
  8
Sketch2
100
AcDbLine
 10
-110.941279074636
 20
493.1475647510587
 30
0.5
 11
-111.1460304260254
 21
493.0730438232422
 31
0.5000000000000001
  0
LINE
  5
195
330
CC
100
AcDbEntity
  8
Sketch2
100
AcDbLine
 10
-111.1460304260254
 20
493.0730438232422
 30
0.5000000000000001
 11
-111.3347271265226
 21
492.9640972633917
 31
0.5
  0
LINE
  5
196
330
CC
100
AcDbEntity
  8
Sketch2
100
AcDbLine
 10
-111.6903382127755
 20
492.7150932403278
 30
0.5
 11
-111.8572521209717
 21
492.5750350952148
 31
0.5000000000000001
  0
LINE
  5
197
330
CC
100
AcDbEntity
  8
Sketch2
100
AcDbLine
 10
-109.871597290039
 20
493.2977676391601
 30
0.5000000000000001
 11
-110.0894808731013
 21
493.2977676391601
 31
0.5
  0
LINE
  5
198
330
CC
100
AcDbEntity
  8
Sketch2
100
AcDbLine
 10
-112.4297770084962
 20
489.9554656535046
 30
0.5
 11
-112.3552513122558
 21
489.7507095336914
 31
0.5000000000000001
  0
LINE
  5
199
330
CC
100
AcDbEntity
  8
Sketch2
100
AcDbLine
 10
-108.8442352594572
 20
492.9640948752801
 30
0.5
 11
-109.0329360961914
 21
493.0730438232422
 31
0.5000000000000001
  0
LINE
  5
19A
330
CC
100
AcDbEntity
  8
Sketch2
100
AcDbLine
 10
-112.1373653411865
 20
489.3733215332031
 30
0.5000000000000001
 11
-111.9973102660847
 21
489.2064112836843
 31
0.5
  0
LINE
  5
19B
330
CC
100
AcDbEntity
  8
Sketch2
100
AcDbLine
 10
-111.8572521209717
 20
489.0394973754882
 30
0.5000000000000001
 11
-111.6903371031336
 21
488.8994423003864
 31
0.5
  0
LINE
  5
19C
330
CC
100
AcDbEntity
  8
Sketch2
100
AcDbLine
 10
-108.1816562561321
 20
492.4081211870187
 30
0.5
 11
-108.3217144012451
 21
492.5750350952148
 31
0.5000000000000001
  0
LINE
  5
19D
330
CC
100
AcDbEntity
  8
Sketch2
100
AcDbLine
 10
-108.0416011810303
 20
492.2412109375
 30
0.5000000000000001
 11
-108.1816562561321
 21
492.4081211870187
 31
0.5
  0
LINE
  5
19E
330
CC
100
AcDbEntity
  8
Sketch2
100
AcDbLine
 10
-107.5989913940429
 20
491.025161743164
 30
0.5000000000000001
 11
-107.6368280078566
 21
491.2397361126173
 31
0.5
  0
LINE
  5
19F
330
CC
100
AcDbEntity
  8
Sketch2
100
AcDbLine
 10
-109.0329360961914
 20
493.0730438232422
 30
0.5000000000000001
 11
-109.2376829595237
 21
493.1475631175937
 31
0.5
  0
LINE
  5
1A0
330
CC
100
AcDbEntity
  8
Sketch2
100
AcDbLine
 10
-108.4886246507638
 20
492.7150901703166
 30
0.5
 11
-108.6555385589599
 21
492.8551483154296
 31
0.5000000000000001
  0
LINE
  5
1A1
330
CC
100
AcDbEntity
  8
Sketch2
100
AcDbLine
 10
-111.5234279632568
 20
492.8551483154296
 30
0.5000000000000001
 11
-111.6903382127755
 21
492.7150932403278
 31
0.5
  0
LINE
  5
1A2
330
CC
100
AcDbEntity
  8
Sketch2
100
AcDbLine
 10
-112.2463071327176
 20
492.052519005322
 30
0.5
 11
-112.3552513122558
 21
491.8638229370117
 31
0.5000000000000001
  0
LINE
  5
1A3
330
CC
100
AcDbEntity
  8
Sketch2
100
AcDbLine
 10
-112.3552513122558
 20
491.8638229370117
 30
0.5000000000000001
 11
-112.4297753749266
 21
491.65907130536
 31
0.5
  0
LINE
  5
1A4
330
CC
100
AcDbEntity
  8
Sketch2
100
AcDbLine
 10
-112.504301071167
 20
491.4543151855468
 30
0.5000000000000001
 11
-112.5421329166613
 21
491.2397408160935
 31
0.5
  0
LINE
  5
1A5
330
CC
100
AcDbEntity
  8
Sketch2
100
AcDbLine
 10
-112.5421337459364
 20
490.3747963580857
 30
0.5
 11
-112.504301071167
 21
490.1602172851562
 31
0.5000000000000001
  0
LINE
  5
1A6
330
CC
100
AcDbEntity
  8
Sketch2
100
AcDbLine
 10
-111.6903371031336
 20
488.8994423003864
 30
0.5
 11
-111.5234184265136
 21
488.7593841552734
 31
0.5000000000000001
  0
LINE
  5
1A7
330
CC
100
AcDbEntity
  8
Sketch2
100
AcDbLine
 10
-111.5234184265136
 20
488.7593841552734
 30
0.5000000000000001
 11
-111.3347264943358
 21
488.6504375954229
 31
0.5
  0
LINE
  5
1A8
330
CC
100
AcDbEntity
  8
Sketch2
100
AcDbLine
 10
-107.7491895137206
 20
491.6590668171985
 30
0.5
 11
-107.8237152099609
 21
491.8638229370117
 31
0.5000000000000001
  0
LINE
  5
1A9
330
CC
100
AcDbEntity
  8
Sketch2
100
AcDbLine
 10
-112.5799655914306
 20
490.8072686234632
 30
0.5
 11
-112.5799655914306
 21
490.589370727539
 31
0.5000000000000001
  0
LINE
  5
1AA
330
CC
100
AcDbEntity
  8
Sketch2
100
AcDbLine
 10
-112.504301071167
 20
490.1602172851562
 30
0.5000000000000001
 11
-112.4297770084962
 21
489.9554656535046
 31
0.5
  0
LINE
  5
1AB
330
CC
100
AcDbEntity
  8
Sketch2
100
AcDbLine
 10
-111.1460304260254
 20
488.5414886474609
 30
0.5000000000000001
 11
-110.941283562693
 21
488.4669693531094
 31
0.5
  0
LINE
  5
1AC
330
CC
100
AcDbEntity
  8
Sketch2
100
AcDbLine
 10
-110.0894808807962
 20
488.316764831543
 30
0.5
 11
-109.8715877532959
 21
488.316764831543
 31
0.5000000000000001
  0
LINE
  5
1AD
330
CC
100
AcDbEntity
  8
Sketch2
100
AcDbLine
 10
-112.4297753749266
 20
491.65907130536
 30
0.5
 11
-112.504301071167
 21
491.4543151855468
 31
0.5000000000000001
  0
LINE
  5
1AE
330
CC
100
AcDbEntity
  8
Sketch2
100
AcDbLine
 10
-109.8715877532959
 20
488.316764831543
 30
0.5000000000000001
 11
-109.6570133838426
 21
488.3546062136758
 31
0.5
  0
LINE
  5
1AF
330
CC
100
AcDbEntity
  8
Sketch2
100
AcDbLine
 10
-130.2460531375668
 20
721.9052901729718
 30
0.5
 11
-130.2821445465088
 21
722.0400238037109
 31
0.5
  0
LINE
  5
1B0
330
CC
100
AcDbEntity
  8
Sketch2
100
AcDbLine
 10
-109.6570134486857
 20
493.259925427543
 30
0.5
 11
-109.871597290039
 21
493.2977676391601
 31
0.5000000000000001
  0
LINE
  5
1B1
330
CC
100
AcDbEntity
  8
Sketch2
100
AcDbLine
 10
-130.2821445465088
 20
722.0400238037109
 30
0.5
 11
-130.2942992588843
 21
722.1789184534066
 31
0.5
  0
LINE
  5
1B2
330
CC
100
AcDbEntity
  8
Sketch2
100
AcDbLine
 10
-111.3347264943358
 20
488.6504375954229
 30
0.5
 11
-111.1460304260254
 21
488.5414886474609
 31
0.5000000000000001
  0
LINE
  5
1B3
330
CC
100
AcDbEntity
  8
Sketch2
100
AcDbLine
 10
-110.5219483699503
 20
493.2599262570272
 30
0.5
 11
-110.7365322113037
 21
493.2220840454101
 31
0.5000000000000001
  0
LINE
  5
1B4
330
CC
100
AcDbEntity
  8
Sketch2
100
AcDbLine
 10
-130.246052346442
 20
722.7303710441357
 30
0.5
 11
-130.2099609375
 21
722.8650665283203
 31
0.5
  0
LINE
  5
1B5
330
CC
100
AcDbEntity
  8
Sketch2
100
AcDbLine
 10
-128.8453706774967
 20
723.9056779287798
 30
0.5
 11
-128.7064552307129
 21
723.9178466796874
 31
0.5
  0
LINE
  5
1B6
330
CC
100
AcDbEntity
  8
Sketch2
100
AcDbLine
 10
-127.7922236320721
 20
723.6234656149711
 30
0.5
 11
-127.677993774414
 21
723.543472290039
 31
0.5
  0
LINE
  5
1B7
330
CC
100
AcDbEntity
  8
Sketch2
100
AcDbLine
 10
-129.2536830902099
 20
723.8213348388671
 30
0.5
 11
-129.1189846534961
 21
723.8574222705101
 31
0.5
  0
LINE
  5
1B8
330
CC
100
AcDbEntity
  8
Sketch2
100
AcDbLine
 10
-128.5675319704742
 20
723.9056776620405
 30
0.5
 11
-128.4286117553711
 21
723.8935089111328
 31
0.5
  0
LINE
  5
1B9
330
CC
100
AcDbEntity
  8
Sketch2
100
AcDbLine
 10
-127.1668477871158
 20
722.7303680916064
 30
0.5
 11
-127.1307563781738
 21
722.5956726074218
 31
0.5
  0
LINE
  5
1BA
330
CC
100
AcDbEntity
  8
Sketch2
100
AcDbLine
 10
-127.5793896991714
 20
721.1907566707102
 30
0.5
 11
-127.677993774414
 21
721.0921478271484
 31
0.5
  0
LINE
  5
1BB
330
CC
100
AcDbEntity
  8
Sketch2
100
AcDbLine
 10
-128.5675350156097
 20
720.7299803357983
 30
0.5
 11
-128.7064552307129
 21
720.7178497314453
 31
0.5
  0
LINE
  5
1BC
330
CC
100
AcDbEntity
  8
Sketch2
100
AcDbLine
 10
-127.1307563781738
 20
722.5956726074218
 30
0.5
 11
-127.1186016657983
 21
722.4567398103354
 31
0.5
  0
LINE
  5
1BD
330
CC
100
AcDbEntity
  8
Sketch2
100
AcDbLine
 10
-127.1064472198486
 20
722.3178100585937
 30
0.5
 11
-127.1186019322241
 21
722.178915408898
 31
0.5
  0
LINE
  5
1BE
330
CC
100
AcDbEntity
  8
Sketch2
100
AcDbLine
 10
-127.2618777058807
 20
721.6441712833353
 30
0.5
 11
-127.3208141326904
 21
721.5177917480469
 31
0.5
  0
LINE
  5
1BF
330
CC
100
AcDbEntity
  8
Sketch2
100
AcDbLine
 10
-129.2536830902099
 20
720.8142852783203
 30
0.5
 11
-129.3800701641656
 21
720.8732229970183
 31
0.5
  0
LINE
  5
1C0
330
CC
100
AcDbEntity
  8
Sketch2
100
AcDbLine
 10
-127.1668485782406
 20
721.9052872196063
 30
0.5
 11
-127.2029399871826
 21
721.7705535888671
 31
0.5
  0
LINE
  5
1C1
330
CC
100
AcDbEntity
  8
Sketch2
100
AcDbLine
 10
-127.1186019322241
 20
722.178915408898
 30
0.5
 11
-127.1307563781738
 21
722.0400238037109
 31
0.5
  0
LINE
  5
1C2
330
CC
100
AcDbEntity
  8
Sketch2
100
AcDbLine
 10
-127.3208141326904
 20
721.5177917480469
 30
0.5
 11
-127.400799674231
 21
721.403578460162
 31
0.5
  0
LINE
  5
1C3
330
CC
100
AcDbEntity
  8
Sketch2
100
AcDbLine
 10
-130.0121107871948
 20
723.2320416570255
 30
0.5
 11
-129.9321269989013
 21
723.3462524414062
 31
0.5
  0
LINE
  5
1C4
330
CC
100
AcDbEntity
  8
Sketch2
100
AcDbLine
 10
-129.7349071502685
 20
723.543472290039
 30
0.5
 11
-129.6206795571122
 21
723.6234673684273
 31
0.5
  0
LINE
  5
1C5
330
CC
100
AcDbEntity
  8
Sketch2
100
AcDbLine
 10
-127.2029399871826
 20
721.7705535888671
 30
0.5
 11
-127.2618777058807
 21
721.6441712833353
 31
0.5
  0
LINE
  5
1C6
330
CC
100
AcDbEntity
  8
Sketch2
100
AcDbLine
 10
-127.400799674231
 20
721.403578460162
 30
0.5
 11
-127.4807834625244
 21
721.2893676757812
 31
0.5
  0
LINE
  5
1C7
330
CC
100
AcDbEntity
  8
Sketch2
100
AcDbLine
 10
-127.677993774414
 20
721.0921478271484
 30
0.5
 11
-127.7922261359942
 21
721.0121527487602
 31
0.5
  0
LINE
  5
1C8
330
CC
100
AcDbEntity
  8
Sketch2
100
AcDbLine
 10
-128.2939162711865
 20
720.7781978466774
 30
0.5
 11
-128.4286117553711
 21
720.7421112060546
 31
0.5
  0
LINE
  5
1C9
330
CC
100
AcDbEntity
  8
Sketch2
100
AcDbLine
 10
-129.9321269989013
 20
721.2893676757812
 30
0.5
 11
-130.0121125404419
 21
721.4035809636661
 31
0.5
  0
LINE
  5
1CA
330
CC
100
AcDbEntity
  8
Sketch2
100
AcDbLine
 10
-129.3800701641656
 20
720.8732229970183
 30
0.5
 11
-129.5064544677734
 21
720.9321594238281
 31
0.5
  0
LINE
  5
1CB
330
CC
100
AcDbEntity
  8
Sketch2
100
AcDbLine
 10
-129.6206795571122
 20
723.6234673684273
 30
0.5
 11
-129.5064544677734
 21
723.7034606933593
 31
0.5
  0
LINE
  5
1CC
330
CC
100
AcDbEntity
  8
Sketch2
100
AcDbLine
 10
-127.3208141326904
 20
723.1178283691406
 30
0.5
 11
-127.2618764139923
 21
722.9914460636088
 31
0.5
  0
LINE
  5
1CD
330
CC
100
AcDbEntity
  8
Sketch2
100
AcDbLine
 10
-127.2029399871826
 20
722.8650665283203
 30
0.5
 11
-127.1668477871158
 21
722.7303680916064
 31
0.5
  0
LINE
  5
1CE
330
CC
100
AcDbEntity
  8
Sketch2
100
AcDbLine
 10
-127.1307563781738
 20
722.0400238037109
 30
0.5
 11
-127.1668485782406
 21
721.9052872196063
 31
0.5
  0
LINE
  5
1CF
330
CC
100
AcDbEntity
  8
Sketch2
100
AcDbLine
 10
-127.4807834625244
 20
721.2893676757812
 30
0.5
 11
-127.5793896991714
 21
721.1907566707102
 31
0.5
  0
LINE
  5
1D0
330
CC
100
AcDbEntity
  8
Sketch2
100
AcDbLine
 10
-128.7064552307129
 20
723.9178466796874
 30
0.5
 11
-128.5675319704742
 21
723.9056776620405
 31
0.5
  0
LINE
  5
1D1
330
CC
100
AcDbEntity
  8
Sketch2
100
AcDbLine
 10
-128.7064552307129
 20
720.7178497314453
 30
0.5
 11
-128.8453737225277
 21
720.7299806017016
 31
0.5
  0
LINE
  5
1D2
330
CC
100
AcDbEntity
  8
Sketch2
100
AcDbLine
 10
-128.9842891693115
 20
720.7421112060546
 30
0.5
 11
-129.1189876060254
 21
720.7781986376976
 31
0.5
  0
LINE
  5
1D3
330
CC
100
AcDbEntity
  8
Sketch2
100
AcDbLine
 10
-129.5064544677734
 20
720.9321594238281
 30
0.5
 11
-129.6206820609297
 21
721.0121545022164
 31
0.5
  0
LINE
  5
1D4
330
CC
100
AcDbEntity
  8
Sketch2
100
AcDbLine
 10
-129.7349071502685
 20
721.0921478271484
 30
0.5
 11
-129.8335181553394
 21
721.1907588322194
 31
0.5
  0
LINE
  5
1D5
330
CC
100
AcDbEntity
  8
Sketch2
100
AcDbLine
 10
-127.7922261359942
 20
721.0121527487602
 30
0.5
 11
-127.9064559936523
 21
720.9321594238281
 31
0.5
  0
LINE
  5
1D6
330
CC
100
AcDbEntity
  8
Sketch2
100
AcDbLine
 10
-129.8335181553394
 20
721.1907588322194
 30
0.5
 11
-129.9321269989013
 21
721.2893676757812
 31
0.5
  0
LINE
  5
1D7
330
CC
100
AcDbEntity
  8
Sketch2
100
AcDbLine
 10
-130.0121125404419
 20
721.4035809636661
 30
0.5
 11
-130.0920963287353
 21
721.5177917480469
 31
0.5
  0
LINE
  5
1D8
330
CC
100
AcDbEntity
  8
Sketch2
100
AcDbLine
 10
-130.1510279872257
 20
722.9914488338521
 30
0.5
 11
-130.0920963287353
 21
723.1178283691406
 31
0.5
  0
LINE
  5
1D9
330
CC
100
AcDbEntity
  8
Sketch2
100
AcDbLine
 10
-128.4286117553711
 20
720.7421112060546
 30
0.5
 11
-128.5675350156097
 21
720.7299803357983
 31
0.5
  0
LINE
  5
1DA
330
CC
100
AcDbEntity
  8
Sketch2
100
AcDbLine
 10
-127.9064559936523
 20
723.7034606933593
 30
0.5
 11
-127.7922236320721
 21
723.6234656149711
 31
0.5
  0
LINE
  5
1DB
330
CC
100
AcDbEntity
  8
Sketch2
100
AcDbLine
 10
-128.1592178344726
 20
723.8213348388671
 30
0.5
 11
-128.0328355289408
 21
723.7623971201691
 31
0.5
  0
LINE
  5
1DC
330
CC
100
AcDbEntity
  8
Sketch2
100
AcDbLine
 10
-127.4007979209838
 20
723.2320391535213
 30
0.5
 11
-127.3208141326904
 21
723.1178283691406
 31
0.5
  0
LINE
  5
1DD
330
CC
100
AcDbEntity
  8
Sketch2
100
AcDbLine
 10
-127.677993774414
 20
723.543472290039
 30
0.5
 11
-127.579387537767
 21
723.444861284968
 31
0.5
  0
LINE
  5
1DE
330
CC
100
AcDbEntity
  8
Sketch2
100
AcDbLine
 10
-127.579387537767
 20
723.444861284968
 30
0.5
 11
-127.4807834625244
 21
723.3462524414062
 31
0.5
  0
LINE
  5
1DF
330
CC
100
AcDbEntity
  8
Sketch2
100
AcDbLine
 10
-128.9842891693115
 20
723.8935089111328
 30
0.5
 11
-128.8453706774967
 21
723.9056779287798
 31
0.5
  0
LINE
  5
1E0
330
CC
100
AcDbEntity
  8
Sketch2
100
AcDbLine
 10
-127.9064559936523
 20
720.9321594238281
 30
0.5
 11
-128.0328382991842
 21
720.87322170513
 31
0.5
  0
LINE
  5
1E1
330
CC
100
AcDbEntity
  8
Sketch2
100
AcDbLine
 10
-129.1189846534961
 20
723.8574222705101
 30
0.5
 11
-128.9842891693115
 21
723.8935089111328
 31
0.5
  0
LINE
  5
1E2
330
CC
100
AcDbEntity
  8
Sketch2
100
AcDbLine
 10
-128.4286117553711
 20
723.8935089111328
 30
0.5
 11
-128.2939133186572
 21
723.8574214794899
 31
0.5
  0
LINE
  5
1E3
330
CC
100
AcDbEntity
  8
Sketch2
100
AcDbLine
 10
-128.0328382991842
 20
720.87322170513
 30
0.5
 11
-128.1592178344726
 21
720.8142852783203
 31
0.5
  0
LINE
  5
1E4
330
CC
100
AcDbEntity
  8
Sketch2
100
AcDbLine
 10
-127.2618764139923
 20
722.9914460636088
 30
0.5
 11
-127.2029399871826
 21
722.8650665283203
 31
0.5
  0
LINE
  5
1E5
330
CC
100
AcDbEntity
  8
Sketch2
100
AcDbLine
 10
-129.9321269989013
 20
723.3462524414062
 30
0.5
 11
-129.8335159938305
 21
723.4448634464772
 31
0.5
  0
LINE
  5
1E6
330
CC
100
AcDbEntity
  8
Sketch2
100
AcDbLine
 10
-128.8453737225277
 20
720.7299806017016
 30
0.5
 11
-128.9842891693115
 21
720.7421112060546
 31
0.5
  0
LINE
  5
1E7
330
CC
100
AcDbEntity
  8
Sketch2
100
AcDbLine
 10
-127.4807834625244
 20
723.3462524414062
 30
0.5
 11
-127.4007979209838
 21
723.2320391535213
 31
0.5
  0
LINE
  5
1E8
330
CC
100
AcDbEntity
  8
Sketch2
100
AcDbLine
 10
-129.5064544677734
 20
723.7034606933593
 30
0.5
 11
-129.3800673938177
 21
723.7623984120574
 31
0.5
  0
LINE
  5
1E9
330
CC
100
AcDbEntity
  8
Sketch2
100
AcDbLine
 10
-130.0920963287353
 20
723.1178283691406
 30
0.5
 11
-130.0121107871948
 21
723.2320416570255
 31
0.5
  0
LINE
  5
1EA
330
CC
100
AcDbEntity
  8
Sketch2
100
AcDbLine
 10
-129.8335159938305
 20
723.4448634464772
 30
0.5
 11
-129.7349071502685
 21
723.543472290039
 31
0.5
  0
LINE
  5
1EB
330
CC
100
AcDbEntity
  8
Sketch2
100
AcDbLine
 10
-128.2939133186572
 20
723.8574214794899
 30
0.5
 11
-128.1592178344726
 21
723.8213348388671
 31
0.5
  0
LINE
  5
1EC
330
CC
100
AcDbEntity
  8
Sketch2
100
AcDbLine
 10
-128.0328355289408
 20
723.7623971201691
 30
0.5
 11
-127.9064559936523
 21
723.7034606933593
 31
0.5
  0
LINE
  5
1ED
330
CC
100
AcDbEntity
  8
Sketch2
100
AcDbLine
 10
-127.1186016657983
 20
722.4567398103354
 30
0.5
 11
-127.1064472198486
 21
722.3178100585937
 31
0.5
  0
LINE
  5
1EE
330
CC
100
AcDbEntity
  8
Sketch2
100
AcDbLine
 10
-128.1592178344726
 20
720.8142852783203
 30
0.5
 11
-128.2939162711865
 21
720.7781978466774
 31
0.5
  0
LINE
  5
1EF
330
CC
100
AcDbEntity
  8
Sketch2
100
AcDbLine
 10
-130.2099609375
 20
722.8650665283203
 30
0.5
 11
-130.1510279872257
 21
722.9914488338521
 31
0.5
  0
LINE
  5
1F0
330
CC
100
AcDbEntity
  8
Sketch2
100
AcDbLine
 10
-129.1189876060254
 20
720.7781986376976
 30
0.5
 11
-129.2536830902099
 21
720.8142852783203
 31
0.5
  0
LINE
  5
1F1
330
CC
100
AcDbEntity
  8
Sketch2
100
AcDbLine
 10
-129.6206820609297
 20
721.0121545022164
 30
0.5
 11
-129.7349071502685
 21
721.0921478271484
 31
0.5
  0
LINE
  5
1F2
330
CC
100
AcDbEntity
  8
Sketch2
100
AcDbLine
 10
-130.0920963287353
 20
721.5177917480469
 30
0.5
 11
-130.1510292790096
 21
721.6441740535787
 31
0.5
  0
LINE
  5
1F3
330
CC
100
AcDbEntity
  8
Sketch2
100
AcDbLine
 10
-129.3800673938177
 20
723.7623984120574
 30
0.5
 11
-129.2536830902099
 21
723.8213348388671
 31
0.5
  0
LINE
  5
1F4
330
CC
100
AcDbEntity
  8
Sketch2
100
AcDbLine
 10
-139.5223659056535
 20
693.8779853998469
 30
0.5
 11
-139.5787620544433
 21
693.6675262451172
 31
0.5
  0
LINE
  5
1F5
330
CC
100
AcDbEntity
  8
Sketch2
100
AcDbLine
 10
-139.6167373657226
 20
693.2333374023437
 30
0.5
 11
-139.5977499181857
 21
693.0162835068438
 31
0.5
  0
LINE
  5
1F6
330
CC
100
AcDbEntity
  8
Sketch2
100
AcDbLine
 10
-139.5977499181857
 20
693.0162835068438
 30
0.5
 11
-139.5787620544433
 21
692.7992248535156
 31
0.5
  0
LINE
  5
1F7
330
CC
100
AcDbEntity
  8
Sketch2
100
AcDbLine
 10
-137.1167469024658
 20
695.7333374023437
 30
0.5
 11
-137.3338007979657
 21
695.7143785647226
 31
0.5
  0
LINE
  5
1F8
330
CC
100
AcDbEntity
  8
Sketch2
100
AcDbLine
 10
-135.8667469024658
 20
695.3984069824218
 30
0.5
 11
-136.0642173105137
 21
695.4904927651524
 31
0.5
  0
LINE
  5
1F9
330
CC
100
AcDbEntity
  8
Sketch2
100
AcDbLine
 10
-139.5787620544433
 20
693.6675262451172
 30
0.5
 11
-139.5977495019802
 21
693.4504342030627
 31
0.5
  0
LINE
  5
1FA
330
CC
100
AcDbEntity
  8
Sketch2
100
AcDbLine
 10
-136.4721561253172
 20
695.6389993206144
 30
0.5
 11
-136.6826248168945
 21
695.6954193115234
 31
0.5
  0
LINE
  5
1FB
330
CC
100
AcDbEntity
  8
Sketch2
100
AcDbLine
 10
-134.6547222137451
 20
692.7992248535156
 30
0.5
 11
-134.6357299978888
 21
693.0162787490155
 31
0.5
  0
LINE
  5
1FC
330
CC
100
AcDbEntity
  8
Sketch2
100
AcDbLine
 10
-135.2016353607178
 20
694.8403167724609
 30
0.5
 11
-135.3557045263043
 21
694.9943907063668
 31
0.5
  0
LINE
  5
1FD
330
CC
100
AcDbEntity
  8
Sketch2
100
AcDbLine
 10
-139.0318489074707
 20
694.8403167724609
 30
0.5
 11
-139.1568265568787
 21
694.6618290436306
 31
0.5
  0
LINE
  5
1FE
330
CC
100
AcDbEntity
  8
Sketch2
100
AcDbLine
 10
-135.5097770690918
 20
695.1484680175781
 30
0.5
 11
-135.6882600296027
 21
695.2734361303474
 31
0.5
  0
LINE
  5
1FF
330
CC
100
AcDbEntity
  8
Sketch2
100
AcDbLine
 10
-135.8667373657226
 20
691.0682678222656
 30
0.5
 11
-135.688259173531
 21
691.1932740815895
 31
0.5
  0
LINE
  5
200
330
CC
100
AcDbEntity
  8
Sketch2
100
AcDbLine
 10
-136.2616920471191
 20
695.5825805664062
 30
0.5
 11
-136.4721561253172
 21
695.6389993206144
 31
0.5
  0
LINE
  5
201
330
CC
100
AcDbEntity
  8
Sketch2
100
AcDbLine
 10
-139.5223671418318
 20
692.5887703119562
 30
0.5
 11
-139.465970993042
 21
692.3783111572265
 31
0.5
  0
LINE
  5
202
330
CC
100
AcDbEntity
  8
Sketch2
100
AcDbLine
 10
-135.6882600296027
 20
695.2734361303474
 30
0.5
 11
-135.8667469024658
 21
695.3984069824218
 31
0.5
  0
LINE
  5
203
330
CC
100
AcDbEntity
  8
Sketch2
100
AcDbLine
 10
-134.9516773223877
 20
691.9833374023437
 30
0.5
 11
-134.8595963079764
 21
692.1808221153496
 31
0.5
  0
LINE
  5
204
330
CC
100
AcDbEntity
  8
Sketch2
100
AcDbLine
 10
-139.465970993042
 20
692.3783111572265
 30
0.5
 11
-139.3738899786307
 21
692.1808264442206
 31
0.5
  0
LINE
  5
205
330
CC
100
AcDbEntity
  8
Sketch2
100
AcDbLine
 10
-136.0642173105137
 20
695.4904927651524
 30
0.5
 11
-136.2616920471191
 21
695.5825805664062
 31
0.5
  0
LINE
  5
206
330
CC
100
AcDbEntity
  8
Sketch2
100
AcDbLine
 10
-139.3738899786307
 20
692.1808264442206
 30
0.5
 11
-139.2818069458008
 21
691.9833374023437
 31
0.5
  0
LINE
  5
207
330
CC
100
AcDbEntity
  8
Sketch2
100
AcDbLine
 10
-139.1568292963927
 20
691.804887820068
 30
0.5
 11
-139.0318489074707
 21
691.6264343261718
 31
0.5
  0
LINE
  5
208
330
CC
100
AcDbEntity
  8
Sketch2
100
AcDbLine
 10
-139.0318489074707
 20
691.6264343261718
 30
0.5
 11
-138.8777797418842
 21
691.4723603922659
 31
0.5
  0
LINE
  5
209
330
CC
100
AcDbEntity
  8
Sketch2
100
AcDbLine
 10
-138.7237071990967
 20
695.1484680175781
 30
0.5
 11
-138.8777763646832
 21
694.9943940836722
 31
0.5
  0
LINE
  5
20A
330
CC
100
AcDbEntity
  8
Sketch2
100
AcDbLine
 10
-138.8777797418842
 20
691.4723603922659
 30
0.5
 11
-138.7237071990967
 21
691.3182830810547
 31
0.5
  0
LINE
  5
20B
330
CC
100
AcDbEntity
  8
Sketch2
100
AcDbLine
 10
-135.5097770690918
 20
691.3182830810547
 30
0.5
 11
-135.3557079035053
 21
691.4723570149606
 31
0.5
  0
LINE
  5
20C
330
CC
100
AcDbEntity
  8
Sketch2
100
AcDbLine
 10
-135.2016353607178
 20
691.6264343261718
 30
0.5
 11
-135.0766577113097
 21
691.8048839084475
 31
0.5
  0
LINE
  5
20D
330
CC
100
AcDbEntity
  8
Sketch2
100
AcDbLine
 10
-134.9516773223877
 20
694.4833374023438
 30
0.5
 11
-135.0766549717957
 21
694.661825131174
 31
0.5
  0
LINE
  5
20E
330
CC
100
AcDbEntity
  8
Sketch2
100
AcDbLine
 10
-139.2818069458008
 20
694.4833374023438
 30
0.5
 11
-139.373887960212
 21
694.2858908358925
 31
0.5
  0
LINE
  5
20F
330
CC
100
AcDbEntity
  8
Sketch2
100
AcDbLine
 10
-139.373887960212
 20
694.2858908358925
 30
0.5
 11
-139.465970993042
 21
694.0884399414062
 31
0.5
  0
LINE
  5
210
330
CC
100
AcDbEntity
  8
Sketch2
100
AcDbLine
 10
-139.5787620544433
 20
692.7992248535156
 30
0.5
 11
-139.5223671418318
 21
692.5887703119562
 31
0.5
  0
LINE
  5
211
330
CC
100
AcDbEntity
  8
Sketch2
100
AcDbLine
 10
-130.1510292790096
 20
721.6441740535787
 30
0.5
 11
-130.2099609375
 21
721.7705535888671
 31
0.5
  0
LINE
  5
212
330
CC
100
AcDbEntity
  8
Sketch2
100
AcDbLine
 10
-130.2099609375
 20
721.7705535888671
 30
0.5
 11
-130.2460531375668
 21
721.9052901729718
 31
0.5
  0
LINE
  5
213
330
CC
100
AcDbEntity
  8
Sketch2
100
AcDbLine
 10
-136.4721607386964
 20
690.8277505413175
 30
0.5
 11
-136.2616920471191
 21
690.8841705322266
 31
0.5
  0
LINE
  5
214
330
CC
100
AcDbEntity
  8
Sketch2
100
AcDbLine
 10
-139.1568265568787
 20
694.6618290436306
 30
0.5
 11
-139.2818069458008
 21
694.4833374023438
 31
0.5
  0
LINE
  5
215
330
CC
100
AcDbEntity
  8
Sketch2
100
AcDbLine
 10
-137.3338007979657
 20
695.7143785647226
 30
0.5
 11
-137.5508594512939
 21
695.6954193115234
 31
0.5
  0
LINE
  5
216
330
CC
100
AcDbEntity
  8
Sketch2
100
AcDbLine
 10
-138.7237071990967
 20
691.3182830810547
 30
0.5
 11
-138.5452242385857
 21
691.1932768217308
 31
0.5
  0
LINE
  5
217
330
CC
100
AcDbEntity
  8
Sketch2
100
AcDbLine
 10
-135.0766577113097
 20
691.8048839084475
 30
0.5
 11
-134.9516773223877
 21
691.9833374023437
 31
0.5
  0
LINE
  5
218
330
CC
100
AcDbEntity
  8
Sketch2
100
AcDbLine
 10
-134.7111171263566
 20
693.8779807866765
 30
0.5
 11
-134.7675132751465
 21
694.0884399414062
 31
0.5
  0
LINE
  5
219
330
CC
100
AcDbEntity
  8
Sketch2
100
AcDbLine
 10
-135.3557079035053
 20
691.4723570149606
 30
0.5
 11
-135.2016353607178
 21
691.6264343261718
 31
0.5
  0
LINE
  5
21A
330
CC
100
AcDbEntity
  8
Sketch2
100
AcDbLine
 10
-135.3557045263043
 20
694.9943907063668
 30
0.5
 11
-135.5097770690918
 21
695.1484680175781
 31
0.5
  0
LINE
  5
21B
330
CC
100
AcDbEntity
  8
Sketch2
100
AcDbLine
 10
-134.6357299978888
 20
693.0162787490155
 30
0.5
 11
-134.6167373657226
 21
693.2333374023437
 31
0.5
  0
LINE
  5
21C
330
CC
100
AcDbEntity
  8
Sketch2
100
AcDbLine
 10
-134.7111183625349
 20
692.5887656987859
 30
0.5
 11
-134.6547222137451
 21
692.7992248535156
 31
0.5
  0
LINE
  5
21D
330
CC
100
AcDbEntity
  8
Sketch2
100
AcDbLine
 10
-136.8996834807138
 20
695.7143781491445
 30
0.5
 11
-137.1167469024658
 21
695.7333374023437
 31
0.5
  0
LINE
  5
21E
330
CC
100
AcDbEntity
  8
Sketch2
100
AcDbLine
 10
-139.2818069458008
 20
691.9833374023437
 30
0.5
 11
-139.1568292963927
 21
691.804887820068
 31
0.5
  0
LINE
  5
21F
330
CC
100
AcDbEntity
  8
Sketch2
100
AcDbLine
 10
-138.8777763646832
 20
694.9943940836722
 30
0.5
 11
-139.0318489074707
 21
694.8403167724609
 31
0.5
  0
LINE
  5
220
330
CC
100
AcDbEntity
  8
Sketch2
100
AcDbLine
 10
-135.688259173531
 20
691.1932740815895
 30
0.5
 11
-135.5097770690918
 21
691.3182830810547
 31
0.5
  0
LINE
  5
221
330
CC
100
AcDbEntity
  8
Sketch2
100
AcDbLine
 10
-134.7675132751465
 20
694.0884399414062
 30
0.5
 11
-134.8595942895577
 21
694.2858865078575
 31
0.5
  0
LINE
  5
222
330
CC
100
AcDbEntity
  8
Sketch2
100
AcDbLine
 10
-135.0766549717957
 20
694.661825131174
 30
0.5
 11
-135.2016353607178
 21
694.8403167724609
 31
0.5
  0
LINE
  5
223
330
CC
100
AcDbEntity
  8
Sketch2
100
AcDbLine
 10
-134.8595942895577
 20
694.2858865078575
 30
0.5
 11
-134.9516773223877
 21
694.4833374023438
 31
0.5
  0
LINE
  5
224
330
CC
100
AcDbEntity
  8
Sketch2
100
AcDbLine
 10
-134.6357295815789
 20
693.4504294443982
 30
0.5
 11
-134.6547222137451
 21
693.6675262451172
 31
0.5
  0
LINE
  5
225
330
CC
100
AcDbEntity
  8
Sketch2
100
AcDbLine
 10
-136.6826248168945
 20
695.6954193115234
 30
0.5
 11
-136.8996834807138
 21
695.7143781491445
 31
0.5
  0
LINE
  5
226
330
CC
100
AcDbEntity
  8
Sketch2
100
AcDbLine
 10
-137.9717922210693
 20
695.5825805664062
 30
0.5
 11
-138.1692673974365
 21
695.4904947836756
 31
0.5
  0
LINE
  5
227
330
CC
100
AcDbEntity
  8
Sketch2
100
AcDbLine
 10
-138.1692673974365
 20
695.4904947836756
 30
0.5
 11
-138.3667469024658
 21
695.3984069824218
 31
0.5
  0
LINE
  5
228
330
CC
100
AcDbEntity
  8
Sketch2
100
AcDbLine
 10
-134.8595963079764
 20
692.1808221153496
 30
0.5
 11
-134.7675132751465
 21
692.3783111572265
 31
0.5
  0
LINE
  5
229
330
CC
100
AcDbEntity
  8
Sketch2
100
AcDbLine
 10
-138.3667469024658
 20
695.3984069824218
 30
0.5
 11
-138.5452250946574
 21
695.2734388696525
 31
0.5
  0
LINE
  5
22A
330
CC
100
AcDbEntity
  8
Sketch2
100
AcDbLine
 10
-134.6167373657226
 20
693.2333374023437
 30
0.5
 11
-134.6357295815789
 21
693.4504294443982
 31
0.5
  0
LINE
  5
22B
330
CC
100
AcDbEntity
  8
Sketch2
100
AcDbLine
 10
-139.465970993042
 20
694.0884399414062
 30
0.5
 11
-139.5223659056535
 21
693.8779853998469
 31
0.5
  0
LINE
  5
22C
330
CC
100
AcDbEntity
  8
Sketch2
100
AcDbLine
 10
-134.6547222137451
 20
693.6675262451172
 30
0.5
 11
-134.7111171263566
 21
693.8779807866765
 31
0.5
  0
LINE
  5
22D
330
CC
100
AcDbEntity
  8
Sketch2
100
AcDbLine
 10
-136.2616920471191
 20
690.8841705322266
 30
0.5
 11
-136.0642168707519
 21
690.9762181684026
 31
0.5
  0
LINE
  5
22E
330
CC
100
AcDbEntity
  8
Sketch2
100
AcDbLine
 10
-137.761323529492
 20
695.6390005573153
 30
0.5
 11
-137.9717922210693
 21
695.5825805664062
 31
0.5
  0
LINE
  5
22F
330
CC
100
AcDbEntity
  8
Sketch2
100
AcDbLine
 10
-139.5977495019802
 20
693.4504342030627
 30
0.5
 11
-139.6167373657226
 21
693.2333374023437
 31
0.5
  0
LINE
  5
230
330
CC
100
AcDbEntity
  8
Sketch2
100
AcDbLine
 10
-137.5508594512939
 20
695.6954193115234
 30
0.5
 11
-137.761323529492
 21
695.6390005573153
 31
0.5
  0
LINE
  5
231
330
CC
100
AcDbEntity
  8
Sketch2
100
AcDbLine
 10
-136.0642168707519
 20
690.9762181684026
 30
0.5
 11
-135.8667373657226
 21
691.0682678222656
 31
0.5
  0
LINE
  5
232
330
CC
100
AcDbEntity
  8
Sketch2
100
AcDbLine
 10
-138.5452250946574
 20
695.2734388696525
 30
0.5
 11
-138.7237071990967
 21
695.1484680175781
 31
0.5
  0
LINE
  5
233
330
CC
100
AcDbEntity
  8
Sketch2
100
AcDbLine
 10
-134.7675132751465
 20
692.3783111572265
 30
0.5
 11
-134.7111183625349
 21
692.5887656987859
 31
0.5
  0
LINE
  5
234
330
CC
100
AcDbEntity
  8
Sketch2
100
AcDbLine
 10
-96.94787448095532
 20
610.2967846094461
 30
0.5
 11
-97.0068073272705
 21
610.1704025268555
 31
0.5
  0
LINE
  5
235
330
CC
100
AcDbEntity
  8
Sketch2
100
AcDbLine
 10
-97.0068073272705
 20
610.1704025268555
 30
0.5
 11
-97.04289879987994
 21
610.0357068050598
 31
0.5
  0
LINE
  5
236
330
CC
100
AcDbEntity
  8
Sketch2
100
AcDbLine
 10
-93.96370444108686
 20
609.2106234561706
 30
0.5
 11
-93.9276123046875
 21
609.3453216552734
 31
0.5
  0
LINE
  5
237
330
CC
100
AcDbEntity
  8
Sketch2
100
AcDbLine
 10
-96.63036732596843
 20
610.7502183443711
 30
0.5
 11
-96.72897338867187
 21
610.651626586914
 31
0.5
  0
LINE
  5
238
330
CC
100
AcDbEntity
  8
Sketch2
100
AcDbLine
 10
-96.72897338867187
 20
610.651626586914
 30
0.5
 11
-96.80895731806154
 21
610.5373965277475
 31
0.5
  0
LINE
  5
239
330
CC
100
AcDbEntity
  8
Sketch2
100
AcDbLine
 10
-137.3338007874747
 20
690.7523348029338
 30
0.5
 11
-137.1167373657226
 21
690.7333374023437
 31
0.5
  0
LINE
  5
23A
330
CC
100
AcDbEntity
  8
Sketch2
100
AcDbLine
 10
-97.04289879987994
 20
610.0357068050598
 30
0.5
 11
-97.07899093627929
 21
609.901008605957
 31
0.5
  0
LINE
  5
23B
330
CC
100
AcDbEntity
  8
Sketch2
100
AcDbLine
 10
-97.07899093627929
 20
609.901008605957
 30
0.5
 11
-97.09114540367018
 21
609.7620786091347
 31
0.5
  0
LINE
  5
23C
330
CC
100
AcDbEntity
  8
Sketch2
100
AcDbLine
 10
-137.1167373657226
 20
690.7333374023437
 30
0.5
 11
-136.8996834702227
 21
690.7523343865193
 31
0.5
  0
LINE
  5
23D
330
CC
100
AcDbEntity
  8
Sketch2
100
AcDbLine
 10
-136.6826248168945
 20
690.7713317871094
 30
0.5
 11
-136.4721607386964
 21
690.8277505413175
 31
0.5
  0
LINE
  5
23E
330
CC
100
AcDbEntity
  8
Sketch2
100
AcDbLine
 10
-95.09077196008915
 20
608.0835529821825
 30
0.5
 11
-94.95607376098632
 21
608.1196594238281
 31
0.5
  0
LINE
  5
23F
330
CC
100
AcDbEntity
  8
Sketch2
100
AcDbLine
 10
-93.9276123046875
 20
609.901008605957
 30
0.5
 11
-93.96370377729693
 21
610.0357043277527
 31
0.5
  0
LINE
  5
240
330
CC
100
AcDbEntity
  8
Sketch2
100
AcDbLine
 10
-95.36438592864428
 20
608.0352972820709
 30
0.5
 11
-95.22546768188476
 21
608.0474472045898
 31
0.5
  0
LINE
  5
241
330
CC
100
AcDbEntity
  8
Sketch2
100
AcDbLine
 10
-95.64222463565833
 20
608.0352975055267
 30
0.5
 11
-95.50330162048339
 21
608.0231475830077
 31
0.5
  0
LINE
  5
242
330
CC
100
AcDbEntity
  8
Sketch2
100
AcDbLine
 10
-94.95607376098632
 20
608.1196594238281
 30
0.5
 11
-94.82968923442895
 21
608.1785768812943
 31
0.5
  0
LINE
  5
243
330
CC
100
AcDbEntity
  8
Sketch2
100
AcDbLine
 10
-94.47484016418457
 20
608.3974838256835
 30
0.5
 11
-94.37623591499837
 21
608.4960928431975
 31
0.5
  0
LINE
  5
244
330
CC
100
AcDbEntity
  8
Sketch2
100
AcDbLine
 10
-94.82968923442895
 20
608.1785768812943
 30
0.5
 11
-94.70330238342285
 21
608.2374954223633
 31
0.5
  0
LINE
  5
245
330
CC
100
AcDbEntity
  8
Sketch2
100
AcDbLine
 10
-95.22546768188476
 20
608.0474472045898
 30
0.5
 11
-95.09077196008915
 21
608.0835529821825
 31
0.5
  0
LINE
  5
246
330
CC
100
AcDbEntity
  8
Sketch2
100
AcDbLine
 10
-94.27762985229492
 20
610.651626586914
 30
0.5
 11
-94.37623410148111
 21
610.7502165311171
 31
0.5
  0
LINE
  5
247
330
CC
100
AcDbEntity
  8
Sketch2
100
AcDbLine
 10
-95.22546768188476
 20
611.198844909668
 30
0.5
 11
-95.36438337372388
 21
611.210994608731
 31
0.5
  0
LINE
  5
248
330
CC
100
AcDbEntity
  8
Sketch2
100
AcDbLine
 10
-94.05872876001149
 20
608.9495456517843
 30
0.5
 11
-93.99979591369628
 21
609.075927734375
 31
0.5
  0
LINE
  5
249
330
CC
100
AcDbEntity
  8
Sketch2
100
AcDbLine
 10
-96.05053901672363
 20
611.1266708374023
 30
0.5
 11
-96.17691877495326
 21
611.0677343066251
 31
0.5
  0
LINE
  5
24A
330
CC
100
AcDbEntity
  8
Sketch2
100
AcDbLine
 10
-93.96370377729693
 20
610.0357043277527
 30
0.5
 11
-93.99979591369628
 21
610.1704025268555
 31
0.5
  0
LINE
  5
24B
330
CC
100
AcDbEntity
  8
Sketch2
100
AcDbLine
 10
-137.9717922210693
 20
690.8841705322266
 30
0.5
 11
-137.7613281428712
 21
690.8277517780184
 31
0.5
  0
LINE
  5
24C
330
CC
100
AcDbEntity
  8
Sketch2
100
AcDbLine
 10
-137.5508594512939
 20
690.7713317871094
 30
0.5
 11
-137.3338007874747
 21
690.7523348029338
 31
0.5
  0
LINE
  5
24D
330
CC
100
AcDbEntity
  8
Sketch2
100
AcDbLine
 10
-95.50330162048339
 20
608.0231475830077
 30
0.5
 11
-95.36438592864428
 21
608.0352972820709
 31
0.5
  0
LINE
  5
24E
330
CC
100
AcDbEntity
  8
Sketch2
100
AcDbLine
 10
-94.70330238342285
 20
608.2374954223633
 30
0.5
 11
-94.58907232425634
 21
608.3174888884084
 31
0.5
  0
LINE
  5
24F
330
CC
100
AcDbEntity
  8
Sketch2
100
AcDbLine
 10
-93.9033031463623
 20
609.6231460571289
 30
0.5
 11
-93.91545761375317
 21
609.7620760539512
 31
0.5
  0
LINE
  5
250
330
CC
100
AcDbEntity
  8
Sketch2
100
AcDbLine
 10
-95.50330162048339
 20
611.22314453125
 30
0.5
 11
-95.64221731232251
 21
611.2109948321869
 31
0.5
  0
LINE
  5
251
330
CC
100
AcDbEntity
  8
Sketch2
100
AcDbLine
 10
-93.9276123046875
 20
609.3453216552734
 30
0.5
 11
-93.91545783729663
 21
609.4842325787848
 31
0.5
  0
LINE
  5
252
330
CC
100
AcDbEntity
  8
Sketch2
100
AcDbLine
 10
-93.99979591369628
 20
610.1704025268555
 30
0.5
 11
-94.05872767614573
 21
610.2967822850851
 31
0.5
  0
LINE
  5
253
330
CC
100
AcDbEntity
  8
Sketch2
100
AcDbLine
 10
-94.11766052246093
 20
610.4231643676757
 30
0.5
 11
-94.19764445185061
 21
610.5373944268422
 31
0.5
  0
LINE
  5
254
330
CC
100
AcDbEntity
  8
Sketch2
100
AcDbLine
 10
-94.19764445185061
 20
610.5373944268422
 30
0.5
 11
-94.27762985229492
 21
610.651626586914
 31
0.5
  0
LINE
  5
255
330
CC
100
AcDbEntity
  8
Sketch2
100
AcDbLine
 10
-94.37623591499837
 20
608.4960928431975
 30
0.5
 11
-94.27762985229492
 21
608.5947036743164
 31
0.5
  0
LINE
  5
256
330
CC
100
AcDbEntity
  8
Sketch2
100
AcDbLine
 10
-94.37623410148111
 20
610.7502165311171
 30
0.5
 11
-94.47484016418457
 21
610.8488082885742
 31
0.5
  0
LINE
  5
257
330
CC
100
AcDbEntity
  8
Sketch2
100
AcDbLine
 10
-94.58907022335109
 20
610.9288017546194
 30
0.5
 11
-94.70330238342285
 21
611.0087966918945
 31
0.5
  0
LINE
  5
258
330
CC
100
AcDbEntity
  8
Sketch2
100
AcDbLine
 10
-94.05872767614573
 20
610.2967822850851
 30
0.5
 11
-94.11766052246093
 21
610.4231643676757
 31
0.5
  0
LINE
  5
259
330
CC
100
AcDbEntity
  8
Sketch2
100
AcDbLine
 10
-93.99979591369628
 20
609.075927734375
 30
0.5
 11
-93.96370444108686
 21
609.2106234561706
 31
0.5
  0
LINE
  5
25A
330
CC
100
AcDbEntity
  8
Sketch2
100
AcDbLine
 10
-94.70330238342285
 20
611.0087966918945
 30
0.5
 11
-94.82968690998022
 21
611.0677332226717
 31
0.5
  0
LINE
  5
25B
330
CC
100
AcDbEntity
  8
Sketch2
100
AcDbLine
 10
-94.82968690998022
 20
611.0677332226717
 30
0.5
 11
-94.95607376098632
 21
611.1266708374023
 31
0.5
  0
LINE
  5
25C
330
CC
100
AcDbEntity
  8
Sketch2
100
AcDbLine
 10
-138.1692669576747
 20
690.9762201860895
 30
0.5
 11
-137.9717922210693
 21
690.8841705322266
 31
0.5
  0
LINE
  5
25D
330
CC
100
AcDbEntity
  8
Sketch2
100
AcDbLine
 10
-93.91545783729663
 20
609.4842325787848
 30
0.5
 11
-93.9033031463623
 21
609.6231460571289
 31
0.5
  0
LINE
  5
25E
330
CC
100
AcDbEntity
  8
Sketch2
100
AcDbLine
 10
-138.5452242385857
 20
691.1932768217308
 30
0.5
 11
-138.3667373657226
 21
691.0682678222656
 31
0.5
  0
LINE
  5
25F
330
CC
100
AcDbEntity
  8
Sketch2
100
AcDbLine
 10
-94.27762985229492
 20
608.5947036743164
 30
0.5
 11
-94.19764592290524
 21
608.7089337334829
 31
0.5
  0
LINE
  5
260
330
CC
100
AcDbEntity
  8
Sketch2
100
AcDbLine
 10
-94.47484016418457
 20
610.8488082885742
 30
0.5
 11
-94.58907022335109
 21
610.9288017546194
 31
0.5
  0
LINE
  5
261
330
CC
100
AcDbEntity
  8
Sketch2
100
AcDbLine
 10
-94.19764592290524
 20
608.7089337334829
 30
0.5
 11
-94.11766052246093
 21
608.8231658935547
 31
0.5
  0
LINE
  5
262
330
CC
100
AcDbEntity
  8
Sketch2
100
AcDbLine
 10
-95.36438337372388
 20
611.210994608731
 30
0.5
 11
-95.50330162048339
 21
611.22314453125
 31
0.5
  0
LINE
  5
263
330
CC
100
AcDbEntity
  8
Sketch2
100
AcDbLine
 10
-95.64221731232251
 20
611.2109948321869
 30
0.5
 11
-95.78113555908203
 21
611.198844909668
 31
0.5
  0
LINE
  5
264
330
CC
100
AcDbEntity
  8
Sketch2
100
AcDbLine
 10
-137.7613281428712
 20
690.8277517780184
 30
0.5
 11
-137.5508594512939
 21
690.7713317871094
 31
0.5
  0
LINE
  5
265
330
CC
100
AcDbEntity
  8
Sketch2
100
AcDbLine
 10
-93.91545761375317
 20
609.7620760539512
 30
0.5
 11
-93.9276123046875
 21
609.901008605957
 31
0.5
  0
LINE
  5
266
330
CC
100
AcDbEntity
  8
Sketch2
100
AcDbLine
 10
-95.78113555908203
 20
611.198844909668
 30
0.5
 11
-95.91583604920536
 21
611.1627582053862
 31
0.5
  0
LINE
  5
267
330
CC
100
AcDbEntity
  8
Sketch2
100
AcDbLine
 10
-138.3667373657226
 20
691.0682678222656
 30
0.5
 11
-138.1692669576747
 21
690.9762201860895
 31
0.5
  0
LINE
  5
268
330
CC
100
AcDbEntity
  8
Sketch2
100
AcDbLine
 10
-95.91583604920536
 20
611.1627582053862
 30
0.5
 11
-96.05053901672363
 21
611.1266708374023
 31
0.5
  0
LINE
  5
269
330
CC
100
AcDbEntity
  8
Sketch2
100
AcDbLine
 10
-96.17691877495326
 20
611.0677343066251
 30
0.5
 11
-96.30330085754394
 21
611.0087966918945
 31
0.5
  0
LINE
  5
26A
330
CC
100
AcDbEntity
  8
Sketch2
100
AcDbLine
 10
-96.30330085754394
 20
611.0087966918945
 30
0.5
 11
-96.41753091671047
 21
610.9288032258493
 31
0.5
  0
LINE
  5
26B
330
CC
100
AcDbEntity
  8
Sketch2
100
AcDbLine
 10
-136.8996834702227
 20
690.7523343865193
 30
0.5
 11
-136.6826248168945
 21
690.7713317871094
 31
0.5
  0
LINE
  5
26C
330
CC
100
AcDbEntity
  8
Sketch2
100
AcDbLine
 10
-94.11766052246093
 20
608.8231658935547
 30
0.5
 11
-94.05872876001149
 21
608.9495456517843
 31
0.5
  0
LINE
  5
26D
330
CC
100
AcDbEntity
  8
Sketch2
100
AcDbLine
 10
-94.95607376098632
 20
611.1266708374023
 30
0.5
 11
-95.09076948278194
 21
611.162757541684
 31
0.5
  0
LINE
  5
26E
330
CC
100
AcDbEntity
  8
Sketch2
100
AcDbLine
 10
-96.41753091671047
 20
610.9288032258493
 30
0.5
 11
-96.53176307678222
 21
610.8488082885742
 31
0.5
  0
LINE
  5
26F
330
CC
100
AcDbEntity
  8
Sketch2
100
AcDbLine
 10
-96.53176307678222
 20
610.8488082885742
 30
0.5
 11
-96.63036732596843
 21
610.7502183443711
 31
0.5
  0
LINE
  5
270
330
CC
100
AcDbEntity
  8
Sketch2
100
AcDbLine
 10
-96.80895731806154
 20
610.5373965277475
 30
0.5
 11
-96.88894271850585
 21
610.4231643676757
 31
0.5
  0
LINE
  5
271
330
CC
100
AcDbEntity
  8
Sketch2
100
AcDbLine
 10
-95.09076948278194
 20
611.162757541684
 30
0.5
 11
-95.22546768188476
 21
611.198844909668
 31
0.5
  0
LINE
  5
272
330
CC
100
AcDbEntity
  8
Sketch2
100
AcDbLine
 10
-96.88894271850585
 20
610.4231643676757
 30
0.5
 11
-96.94787448095532
 21
610.2967846094461
 31
0.5
  0
LINE
  5
273
330
CC
100
AcDbEntity
  8
Sketch2
100
AcDbLine
 10
-94.58907232425634
 20
608.3174888884084
 30
0.5
 11
-94.47484016418457
 21
608.3974838256835
 31
0.5
  0
LINE
  5
274
330
CC
100
AcDbEntity
  8
Sketch2
100
AcDbLine
 10
-131.3694359912519
 20
739.1363660807028
 30
0.5
 11
-131.6439217109511
 21
737.9133739721201
 31
0.5
  0
LINE
  5
275
330
CC
100
AcDbEntity
  8
Sketch2
100
AcDbLine
 10
-131.6439217109511
 20
737.9133739721201
 30
0.5
 11
-131.9927749625012
 21
736.7090738409192
 31
0.5
  0
LINE
  5
276
330
CC
100
AcDbEntity
  8
Sketch2
100
AcDbLine
 10
-138.6133956909179
 20
709.3347930908203
 30
0.5
 11
-138.9328683171174
 21
708.4763430267902
 31
0.5
  0
LINE
  5
277
330
CC
100
AcDbEntity
  8
Sketch2
100
AcDbLine
 10
-131.9119593164872
 20
749.0595374894758
 30
0.5
 11
-131.5788686944233
 21
747.8506601946958
 31
0.5
  0
LINE
  5
278
330
CC
100
AcDbEntity
  8
Sketch2
100
AcDbLine
 10
-138.9328683171174
 20
708.4763430267902
 30
0.5
 11
-139.252347946167
 21
707.6178741455078
 31
0.5
  0
LINE
  5
279
330
CC
100
AcDbEntity
  8
Sketch2
100
AcDbLine
 10
-96.30330085754394
 20
608.2374954223633
 30
0.5
 11
-96.17692109931432
 21
608.178577964897
 31
0.5
  0
LINE
  5
27A
330
CC
100
AcDbEntity
  8
Sketch2
100
AcDbLine
 10
-131.9927749625012
 20
736.7090738409192
 30
0.5
 11
-132.4152183532715
 21
735.5267333984374
 31
0.5
  0
LINE
  5
27B
330
CC
100
AcDbEntity
  8
Sketch2
100
AcDbLine
 10
-132.4152183532715
 20
735.5267333984374
 30
0.5
 11
-132.668557163278
 21
734.860382090008
 31
0.5
  0
LINE
  5
27C
330
CC
100
AcDbEntity
  8
Sketch2
100
AcDbLine
 10
-145.5120199963103
 20
699.8838479986074
 30
0.5
 11
-146.2574672698974
 21
699.3515014648437
 31
0.5
  0
LINE
  5
27D
330
CC
100
AcDbEntity
  8
Sketch2
100
AcDbLine
 10
-147.8793715359546
 20
698.0197191893467
 30
0.5
 11
-148.3772468566894
 21
697.5260925292968
 31
0.5
  0
LINE
  5
27E
330
CC
100
AcDbEntity
  8
Sketch2
100
AcDbLine
 10
-138.3803914282591
 20
710.220689946047
 30
0.5
 11
-138.6133956909179
 21
709.3347930908203
 31
0.5
  0
LINE
  5
27F
330
CC
100
AcDbEntity
  8
Sketch2
100
AcDbLine
 10
-96.94787556482106
 20
608.9495479761453
 30
0.5
 11
-96.88894271850585
 21
608.8231658935547
 31
0.5
  0
LINE
  5
280
330
CC
100
AcDbEntity
  8
Sketch2
100
AcDbLine
 10
-133.1612062418562
 20
733.5224914650853
 30
0.5
 11
-133.4005165100097
 21
732.8509521484375
 31
0.5
  0
LINE
  5
281
330
CC
100
AcDbEntity
  8
Sketch2
100
AcDbLine
 10
-142.7622249650365
 20
702.291724857523
 30
0.5
 11
-143.3883094787598
 21
701.6230773925781
 31
0.5
  0
LINE
  5
282
330
CC
100
AcDbEntity
  8
Sketch2
100
AcDbLine
 10
-148.3772468566894
 20
697.5260925292968
 30
0.5
 11
-148.8011795490858
 21
696.9677026117391
 31
0.5
  0
LINE
  5
283
330
CC
100
AcDbEntity
  8
Sketch2
100
AcDbLine
 10
-140.5401892264301
 20
705.1937188628094
 30
0.5
 11
-141.0224056243896
 21
704.4149017333984
 31
0.5
  0
LINE
  5
284
330
CC
100
AcDbEntity
  8
Sketch2
100
AcDbLine
 10
-96.05053901672363
 20
608.1196594238281
 30
0.5
 11
-95.91584329492802
 21
608.0835536462354
 31
0.5
  0
LINE
  5
285
330
CC
100
AcDbEntity
  8
Sketch2
100
AcDbLine
 10
-133.4005165100097
 20
732.8509521484375
 30
0.5
 11
-133.6256945593758
 21
732.1745644571329
 31
0.5000000000000001
  0
LINE
  5
286
330
CC
100
AcDbEntity
  8
Sketch2
100
AcDbLine
 10
-142.1361541748047
 20
702.9603576660156
 30
0.5
 11
-142.7622249650365
 21
702.291724857523
 31
0.5
  0
LINE
  5
287
330
CC
100
AcDbEntity
  8
Sketch2
100
AcDbLine
 10
-144.7665882110595
 20
700.4161834716796
 30
0.5
 11
-145.5120199963103
 21
699.8838479986074
 31
0.5
  0
LINE
  5
288
330
CC
100
AcDbEntity
  8
Sketch2
100
AcDbLine
 10
-96.41753301761571
 20
608.3174903596384
 30
0.5
 11
-96.30330085754394
 21
608.2374954223633
 31
0.5
  0
LINE
  5
289
330
CC
100
AcDbEntity
  8
Sketch2
100
AcDbLine
 10
-148.8011795490858
 20
696.9677026117391
 30
0.5
 11
-149.2251205444336
 21
696.4093017578124
 31
0.5
  0
LINE
  5
28A
330
CC
100
AcDbEntity
  8
Sketch2
100
AcDbLine
 10
-149.2251205444336
 20
696.4093017578124
 30
0.5
 11
-149.5667805592311
 21
695.7971251355303
 31
0.5
  0
LINE
  5
28B
330
CC
100
AcDbEntity
  8
Sketch2
100
AcDbLine
 10
-149.5667805592311
 20
695.7971251355303
 30
0.5
 11
-149.908447265625
 21
695.1849365234375
 31
0.5
  0
LINE
  5
28C
330
CC
100
AcDbEntity
  8
Sketch2
100
AcDbLine
 10
-149.908447265625
 20
695.1849365234375
 30
0.5
 11
-150.1611255697077
 21
694.5309893751459
 31
0.5
  0
LINE
  5
28D
330
CC
100
AcDbEntity
  8
Sketch2
100
AcDbLine
 10
-97.09114562721362
 20
609.4842351336175
 30
0.5
 11
-97.07899093627929
 21
609.3453216552734
 31
0.5
  0
LINE
  5
28E
330
CC
100
AcDbEntity
  8
Sketch2
100
AcDbLine
 10
-96.88894271850585
 20
608.8231658935547
 30
0.5
 11
-96.8089587891162
 21
608.7089358343881
 31
0.5
  0
LINE
  5
28F
330
CC
100
AcDbEntity
  8
Sketch2
100
AcDbLine
 10
-97.0068073272705
 20
609.075927734375
 30
0.5
 11
-96.94787556482106
 21
608.9495479761453
 31
0.5
  0
LINE
  5
290
330
CC
100
AcDbEntity
  8
Sketch2
100
AcDbLine
 10
-132.3176054651058
 20
750.2438480988177
 30
0.5
 11
-131.9119593164872
 21
749.0595374894758
 31
0.5
  0
LINE
  5
291
330
CC
100
AcDbEntity
  8
Sketch2
100
AcDbLine
 10
-131.3199548429571
 20
746.6216412499545
 30
0.5
 11
-131.1369915946484
 21
745.3807203596226
 31
0.5
  0
LINE
  5
292
330
CC
100
AcDbEntity
  8
Sketch2
100
AcDbLine
 10
-131.0303032146193
 20
744.1318648555863
 30
0.5
 11
-131.0001376590267
 21
742.8785079712257
 31
0.5
  0
LINE
  5
293
330
CC
100
AcDbEntity
  8
Sketch2
100
AcDbLine
 10
-97.09114540367018
 20
609.7620786091347
 30
0.5
 11
-97.10330009460449
 21
609.6231460571289
 31
0.5
  0
LINE
  5
294
330
CC
100
AcDbEntity
  8
Sketch2
100
AcDbLine
 10
-97.10330009460449
 20
609.6231460571289
 30
0.5
 11
-97.09114562721362
 21
609.4842351336175
 31
0.5
  0
LINE
  5
295
330
CC
100
AcDbEntity
  8
Sketch2
100
AcDbLine
 10
-131.5788686944233
 20
747.8506601946958
 30
0.5
 11
-131.3199548429571
 21
746.6216412499545
 31
0.5
  0
LINE
  5
296
330
CC
100
AcDbEntity
  8
Sketch2
100
AcDbLine
 10
-97.04289946366987
 20
609.2106259334777
 30
0.5
 11
-97.0068073272705
 21
609.075927734375
 31
0.5
  0
LINE
  5
297
330
CC
100
AcDbEntity
  8
Sketch2
100
AcDbLine
 10
-132.7943957024994
 20
751.4003876753498
 30
0.5
 11
-132.3176054651058
 21
750.2438480988177
 31
0.5
  0
LINE
  5
298
330
CC
100
AcDbEntity
  8
Sketch2
100
AcDbLine
 10
-131.1369915946484
 20
745.3807203596226
 30
0.5
 11
-131.0303032146193
 21
744.1318648555863
 31
0.5
  0
LINE
  5
299
330
CC
100
AcDbEntity
  8
Sketch2
100
AcDbLine
 10
-131.0001376590267
 20
742.8785079712257
 30
0.5
 11
-131.0467428831928
 21
741.6242355203017
 31
0.5
  0
LINE
  5
29A
330
CC
100
AcDbEntity
  8
Sketch2
100
AcDbLine
 10
-131.1701093531905
 20
740.3744643529067
 30
0.5
 11
-131.3694359912519
 21
739.1363660807028
 31
0.5
  0
LINE
  5
29B
330
CC
100
AcDbEntity
  8
Sketch2
100
AcDbLine
 10
-132.668557163278
 20
734.860382090008
 30
0.5
 11
-132.9218959808349
 21
734.1940307617187
 31
0.5
  0
LINE
  5
29C
330
CC
100
AcDbEntity
  8
Sketch2
100
AcDbLine
 10
-132.9218959808349
 20
734.1940307617187
 30
0.5
 11
-133.1612062418562
 21
733.5224914650853
 31
0.5
  0
LINE
  5
29D
330
CC
100
AcDbEntity
  8
Sketch2
100
AcDbLine
 10
-96.8089587891162
 20
608.7089358343881
 30
0.5
 11
-96.72897338867187
 21
608.5947036743164
 31
0.5
  0
LINE
  5
29E
330
CC
100
AcDbEntity
  8
Sketch2
100
AcDbLine
 10
-96.72897338867187
 20
608.5947036743164
 30
0.5
 11
-96.63036913948568
 21
608.4960946568024
 31
0.5
  0
LINE
  5
29F
330
CC
100
AcDbEntity
  8
Sketch2
100
AcDbLine
 10
-97.07899093627929
 20
609.3453216552734
 30
0.5
 11
-97.04289946366987
 21
609.2106259334777
 31
0.5
  0
LINE
  5
2A0
330
CC
100
AcDbEntity
  8
Sketch2
100
AcDbLine
 10
-95.91584329492802
 20
608.0835536462354
 30
0.5
 11
-95.78114509582519
 21
608.0474472045898
 31
0.5
  0
LINE
  5
2A1
330
CC
100
AcDbEntity
  8
Sketch2
100
AcDbLine
 10
-133.6256945593758
 20
732.1745644571329
 30
0.5000000000000001
 11
-133.8508701324463
 21
731.4981842041015
 31
0.5
  0
LINE
  5
2A2
330
CC
100
AcDbEntity
  8
Sketch2
100
AcDbLine
 10
-96.53176307678222
 20
608.3974838256835
 30
0.5
 11
-96.41753301761571
 21
608.3174903596384
 31
0.5
  0
LINE
  5
2A3
330
CC
100
AcDbEntity
  8
Sketch2
100
AcDbLine
 10
-133.8508701324463
 20
731.4981842041015
 30
0.5
 11
-135.9991076579806
 21
721.3024875384531
 31
0.5
  0
LINE
  5
2A4
330
CC
100
AcDbEntity
  8
Sketch2
100
AcDbLine
 10
-135.9991076579806
 20
721.3024875384531
 30
0.5
 11
-138.1473922729492
 21
711.1065673828124
 31
0.5
  0
LINE
  5
2A5
330
CC
100
AcDbEntity
  8
Sketch2
100
AcDbLine
 10
-138.1473922729492
 20
711.1065673828124
 30
0.5
 11
-138.3803914282591
 21
710.220689946047
 31
0.5
  0
LINE
  5
2A6
330
CC
100
AcDbEntity
  8
Sketch2
100
AcDbLine
 10
-139.655161257462
 20
706.7952055496639
 30
0.5
 11
-140.0579833984375
 21
705.9725189208984
 31
0.5
  0
LINE
  5
2A7
330
CC
100
AcDbEntity
  8
Sketch2
100
AcDbLine
 10
-141.0224056243896
 20
704.4149017333984
 30
0.5
 11
-141.5792737963132
 21
703.6876376705326
 31
0.5
  0
LINE
  5
2A8
330
CC
100
AcDbEntity
  8
Sketch2
100
AcDbLine
 10
-96.17692109931432
 20
608.178577964897
 30
0.5
 11
-96.05053901672363
 21
608.1196594238281
 31
0.5
  0
LINE
  5
2A9
330
CC
100
AcDbEntity
  8
Sketch2
100
AcDbLine
 10
-95.78114509582519
 20
608.0474472045898
 30
0.5
 11
-95.64222463565833
 21
608.0352975055267
 31
0.5
  0
LINE
  5
2AA
330
CC
100
AcDbEntity
  8
Sketch2
100
AcDbLine
 10
-140.0579833984375
 20
705.9725189208984
 30
0.5
 11
-140.5401892264301
 21
705.1937188628094
 31
0.5
  0
LINE
  5
2AB
330
CC
100
AcDbEntity
  8
Sketch2
100
AcDbLine
 10
-141.5792737963132
 20
703.6876376705326
 30
0.5
 11
-142.1361541748047
 21
702.9603576660156
 31
0.5
  0
LINE
  5
2AC
330
CC
100
AcDbEntity
  8
Sketch2
100
AcDbLine
 10
-143.3883094787598
 20
701.6230773925781
 30
0.5
 11
-144.0774412920141
 21
701.0196370458446
 31
0.5
  0
LINE
  5
2AD
330
CC
100
AcDbEntity
  8
Sketch2
100
AcDbLine
 10
-96.63036913948568
 20
608.4960946568024
 30
0.5
 11
-96.53176307678222
 21
608.3974838256835
 31
0.5
  0
LINE
  5
2AE
330
CC
100
AcDbEntity
  8
Sketch2
100
AcDbLine
 10
-144.0774412920141
 20
701.0196370458446
 30
0.5
 11
-144.7665882110595
 21
700.4161834716796
 31
0.5
  0
LINE
  5
2AF
330
CC
100
AcDbEntity
  8
Sketch2
100
AcDbLine
 10
-139.252347946167
 20
707.6178741455078
 30
0.5
 11
-139.655161257462
 21
706.7952055496639
 31
0.5
  0
LINE
  5
2B0
330
CC
100
AcDbEntity
  8
Sketch2
100
AcDbLine
 10
-146.2574672698974
 20
699.3515014648437
 30
0.5
 11
-146.8194811143692
 21
698.9324229271822
 31
0.5
  0
LINE
  5
2B1
330
CC
100
AcDbEntity
  8
Sketch2
100
AcDbLine
 10
-146.8194811143692
 20
698.9324229271822
 30
0.5
 11
-147.3815059661865
 21
698.5133361816406
 31
0.5
  0
LINE
  5
2B2
330
CC
100
AcDbEntity
  8
Sketch2
100
AcDbLine
 10
-131.0467428831928
 20
741.6242355203017
 30
0.5
 11
-131.1701093531905
 21
740.3744643529067
 31
0.5
  0
LINE
  5
2B3
330
CC
100
AcDbEntity
  8
Sketch2
100
AcDbLine
 10
-147.3815059661865
 20
698.5133361816406
 30
0.5
 11
-147.8793715359546
 21
698.0197191893467
 31
0.5
  0
LINE
  5
2B4
330
CC
100
AcDbEntity
  8
Sketch2
100
AcDbLine
 10
-147.1015495171976
 20
683.1573443346208
 30
0.5
 11
-146.5548801422119
 21
682.7184295654297
 31
0.5
  0
LINE
  5
2B5
330
CC
100
AcDbEntity
  8
Sketch2
100
AcDbLine
 10
-145.4580999172416
 20
681.8959898304444
 30
0.5
 11
-144.4274140016583
 21
680.996627865195
 31
0.5
  0
LINE
  5
2B6
330
CC
100
AcDbEntity
  8
Sketch2
100
AcDbLine
 10
-150.6470550328008
 20
689.0261526737236
 30
0.5
 11
-150.5128479003906
 21
688.3380126953125
 31
0.5
  0
LINE
  5
2B7
330
CC
100
AcDbEntity
  8
Sketch2
100
AcDbLine
 10
-150.5128479003906
 20
688.3380126953125
 30
0.5
 11
-150.2837108162746
 21
687.6754444156254
 31
0.5
  0
LINE
  5
2B8
330
CC
100
AcDbEntity
  8
Sketch2
100
AcDbLine
 10
-118.5207653045654
 20
460.8399963378906
 30
0.5
 11
-117.8997192273361
 21
460.2724318245122
 31
0.5
  0
LINE
  5
2B9
330
CC
100
AcDbEntity
  8
Sketch2
100
AcDbLine
 10
-112.8293228149414
 20
457.3805999755859
 30
0.5
 11
-112.008703148784
 21
457.1950929534694
 31
0.5
  0
LINE
  5
2BA
330
CC
100
AcDbEntity
  8
Sketch2
100
AcDbLine
 10
-109.5126342773437
 20
456.8536376953125
 30
0.5
 11
-108.6718731948431
 21
456.88451738571
 31
0.5
  0
LINE
  5
2BB
330
CC
100
AcDbEntity
  8
Sketch2
100
AcDbLine
 10
-105.3668239215223
 20
457.4390961030753
 30
0.5
 11
-104.5620155334472
 21
457.684326171875
 31
0.5
  0
LINE
  5
2BC
330
CC
100
AcDbEntity
  8
Sketch2
100
AcDbLine
 10
-127.6293133621275
 20
532.8963172395383
 30
0.5
 11
-119.6058368682861
 21
462.1260833740234
 31
0.5
  0
LINE
  5
2BD
330
CC
100
AcDbEntity
  8
Sketch2
100
AcDbLine
 10
-100.9470999583407
 20
459.7969006264581
 30
0.5
 11
-100.2952003479004
 21
460.3287887573242
 31
0.5
  0
LINE
  5
2BE
330
CC
100
AcDbEntity
  8
Sketch2
100
AcDbLine
 10
-117.8997192273361
 20
460.2724318245122
 30
0.5
 11
-117.2786617279053
 21
459.7048568725585
 31
0.5
  0
LINE
  5
2BF
330
CC
100
AcDbEntity
  8
Sketch2
100
AcDbLine
 10
-119.0633060755049
 20
461.4830457692906
 30
0.5
 11
-118.5207653045654
 21
460.8399963378906
 31
0.5
  0
LINE
  5
2C0
330
CC
100
AcDbEntity
  8
Sketch2
100
AcDbLine
 10
-116.5895096256686
 20
459.2222448860676
 30
0.5
 11
-115.9003448486328
 21
458.7396240234375
 31
0.5
  0
LINE
  5
2C1
330
CC
100
AcDbEntity
  8
Sketch2
100
AcDbLine
 10
-106.1716175079346
 20
457.1938705444336
 30
0.5
 11
-105.3668239215223
 21
457.4390961030753
 31
0.5
  0
LINE
  5
2C2
330
CC
100
AcDbEntity
  8
Sketch2
100
AcDbLine
 10
-150.7812595367431
 20
689.7142791748047
 30
0.5
 11
-150.6470550328008
 21
689.0261526737236
 31
0.5
  0
LINE
  5
2C3
330
CC
100
AcDbEntity
  8
Sketch2
100
AcDbLine
 10
-150.7928985280538
 20
691.8128654203224
 30
0.5
 11
-150.854549407959
 21
691.1145019531249
 31
0.5
  0
LINE
  5
2C4
330
CC
100
AcDbEntity
  8
Sketch2
100
AcDbLine
 10
-150.854549407959
 20
691.1145019531249
 30
0.5
 11
-150.817904831203
 21
690.414397419928
 31
0.5
  0
LINE
  5
2C5
330
CC
100
AcDbEntity
  8
Sketch2
100
AcDbLine
 10
-148.128132888918
 20
684.1073558348748
 30
0.5
 11
-147.648229598999
 21
683.5962677001953
 31
0.5
  0
LINE
  5
2C6
330
CC
100
AcDbEntity
  8
Sketch2
100
AcDbLine
 10
-147.648229598999
 20
683.5962677001953
 30
0.5
 11
-147.1015495171976
 21
683.1573443346208
 31
0.5
  0
LINE
  5
2C7
330
CC
100
AcDbEntity
  8
Sketch2
100
AcDbLine
 10
-146.5548801422119
 20
682.7184295654297
 30
0.5
 11
-145.4580999172416
 21
681.8959898304444
 31
0.5
  0
LINE
  5
2C8
330
CC
100
AcDbEntity
  8
Sketch2
100
AcDbLine
 10
-119.6058368682861
 20
462.1260833740234
 30
0.5
 11
-119.0633060755049
 21
461.4830457692906
 31
0.5
  0
LINE
  5
2C9
330
CC
100
AcDbEntity
  8
Sketch2
100
AcDbLine
 10
-110.3503590371409
 20
456.9316108244446
 30
0.5
 11
-109.5126342773437
 21
456.8536376953125
 31
0.5
  0
LINE
  5
2CA
330
CC
100
AcDbEntity
  8
Sketch2
100
AcDbLine
 10
-107.8310966491699
 20
456.9153976440429
 30
0.5
 11
-107.0013647087152
 21
457.0546328138403
 31
0.5
  0
LINE
  5
2CB
330
CC
100
AcDbEntity
  8
Sketch2
100
AcDbLine
 10
-114.4089031219482
 20
457.9605484008789
 30
0.5
 11
-113.6191202312388
 21
457.6705768547925
 31
0.5
  0
LINE
  5
2CC
330
CC
100
AcDbEntity
  8
Sketch2
100
AcDbLine
 10
-142.5896835327148
 20
678.9955902099609
 30
0.5
 11
-139.1211937535332
 21
641.3307694049301
 31
0.5
  0
LINE
  5
2CD
330
CC
100
AcDbEntity
  8
Sketch2
100
AcDbLine
 10
-104.5620155334472
 20
457.684326171875
 30
0.5
 11
-103.7956355952503
 21
458.0314604308219
 31
0.5
  0
LINE
  5
2CE
330
CC
100
AcDbEntity
  8
Sketch2
100
AcDbLine
 10
-103.7956355952503
 20
458.0314604308219
 30
0.5
 11
-103.0292415618896
 21
458.3786010742187
 31
0.5
  0
LINE
  5
2CF
330
CC
100
AcDbEntity
  8
Sketch2
100
AcDbLine
 10
-100.2952003479004
 20
460.3287887573242
 30
0.5
 11
-99.71747929645125
 21
460.9403935456425
 31
0.5
  0
LINE
  5
2D0
330
CC
100
AcDbEntity
  8
Sketch2
100
AcDbLine
 10
-101.5989875793457
 20
459.265022277832
 30
0.5
 11
-100.9470999583407
 21
459.7969006264581
 31
0.5
  0
LINE
  5
2D1
330
CC
100
AcDbEntity
  8
Sketch2
100
AcDbLine
 10
-99.71747929645125
 20
460.9403935456425
 30
0.5
 11
-99.1397476196289
 21
461.5520095825195
 31
0.5
  0
LINE
  5
2D2
330
CC
100
AcDbEntity
  8
Sketch2
100
AcDbLine
 10
-150.1611255697077
 20
694.5309893751459
 30
0.5
 11
-150.4138088226318
 21
693.8770294189453
 31
0.5
  0
LINE
  5
2D3
330
CC
100
AcDbEntity
  8
Sketch2
100
AcDbLine
 10
-149.7350104154381
 20
686.3888610911779
 30
0.5
 11
-149.4154453277588
 21
685.7648468017578
 31
0.5
  0
LINE
  5
2D4
330
CC
100
AcDbEntity
  8
Sketch2
100
AcDbLine
 10
-135.6526279449463
 20
603.6651229858398
 30
0.5
 11
-127.6293133621275
 21
532.8963172395383
 31
0.5
  0
LINE
  5
2D5
330
CC
100
AcDbEntity
  8
Sketch2
100
AcDbLine
 10
-115.1546308428298
 20
458.3500897942905
 30
0.5
 11
-114.4089031219482
 21
457.9605484008789
 31
0.5
  0
LINE
  5
2D6
330
CC
100
AcDbEntity
  8
Sketch2
100
AcDbLine
 10
-108.6718731948431
 20
456.88451738571
 30
0.5
 11
-107.8310966491699
 21
456.9153976440429
 31
0.5
  0
LINE
  5
2D7
330
CC
100
AcDbEntity
  8
Sketch2
100
AcDbLine
 10
-107.0013647087152
 20
457.0546328138403
 30
0.5
 11
-106.1716175079346
 21
457.1938705444336
 31
0.5
  0
LINE
  5
2D8
330
CC
100
AcDbEntity
  8
Sketch2
100
AcDbLine
 10
-150.7312488555908
 20
692.5112152099609
 30
0.5
 11
-150.7928985280538
 21
691.8128654203224
 31
0.5
  0
LINE
  5
2D9
330
CC
100
AcDbEntity
  8
Sketch2
100
AcDbLine
 10
-148.6080455780029
 20
684.6184539794921
 30
0.5
 11
-148.128132888918
 21
684.1073558348748
 31
0.5
  0
LINE
  5
2DA
330
CC
100
AcDbEntity
  8
Sketch2
100
AcDbLine
 10
-103.0292415618896
 20
458.3786010742187
 30
0.5
 11
-102.3141211468202
 21
458.821807600326
 31
0.5
  0
LINE
  5
2DB
330
CC
100
AcDbEntity
  8
Sketch2
100
AcDbLine
 10
-144.4274140016583
 20
680.996627865195
 30
0.5
 11
-143.4719848917572
 21
680.0301361392735
 31
0.5
  0
LINE
  5
2DC
330
CC
100
AcDbEntity
  8
Sketch2
100
AcDbLine
 10
-99.1397476196289
 20
461.5520095825195
 30
0.5
 11
-98.64585853804991
 21
462.2331175158709
 31
0.5
  0
LINE
  5
2DD
330
CC
100
AcDbEntity
  8
Sketch2
100
AcDbLine
 10
-150.5725272848178
 20
693.1941290019404
 30
0.5
 11
-150.7312488555908
 21
692.5112152099609
 31
0.5
  0
LINE
  5
2DE
330
CC
100
AcDbEntity
  8
Sketch2
100
AcDbLine
 10
-149.0117494061824
 20
685.191656003751
 30
0.5
 11
-148.6080455780029
 21
684.6184539794921
 31
0.5
  0
LINE
  5
2DF
330
CC
100
AcDbEntity
  8
Sketch2
100
AcDbLine
 10
-113.6191202312388
 20
457.6705768547925
 30
0.5
 11
-112.8293228149414
 21
457.3805999755859
 31
0.5
  0
LINE
  5
2E0
330
CC
100
AcDbEntity
  8
Sketch2
100
AcDbLine
 10
-112.008703148784
 20
457.1950929534694
 30
0.5
 11
-111.1880683898926
 21
457.0095825195312
 31
0.5
  0
LINE
  5
2E1
330
CC
100
AcDbEntity
  8
Sketch2
100
AcDbLine
 10
-143.4719848917572
 20
680.0301361392735
 30
0.5
 11
-142.5896835327148
 21
678.9955902099609
 31
0.5
  0
LINE
  5
2E2
330
CC
100
AcDbEntity
  8
Sketch2
100
AcDbLine
 10
-98.64585853804991
 20
462.2331175158709
 30
0.5
 11
-98.1519603729248
 21
462.9142379760742
 31
0.5
  0
LINE
  5
2E3
330
CC
100
AcDbEntity
  8
Sketch2
100
AcDbLine
 10
-102.3141211468202
 20
458.821807600326
 30
0.5
 11
-101.5989875793457
 21
459.265022277832
 31
0.5
  0
LINE
  5
2E4
330
CC
100
AcDbEntity
  8
Sketch2
100
AcDbLine
 10
-97.75019061481556
 20
463.653443214522
 30
0.5
 11
-97.34841346740722
 21
464.3926620483398
 31
0.5
  0
LINE
  5
2E5
330
CC
100
AcDbEntity
  8
Sketch2
100
AcDbLine
 10
-98.1519603729248
 20
462.9142379760742
 30
0.5
 11
-97.75019061481556
 21
463.653443214522
 31
0.5
  0
LINE
  5
2E6
330
CC
100
AcDbEntity
  8
Sketch2
100
AcDbLine
 10
-97.34841346740722
 20
464.3926620483398
 30
0.5
 11
-97.04548160654319
 21
465.1775478664677
 31
0.5
  0
LINE
  5
2E7
330
CC
100
AcDbEntity
  8
Sketch2
100
AcDbLine
 10
-97.04548160654319
 20
465.1775478664677
 30
0.5
 11
-96.74254417419433
 21
465.9624481201172
 31
0.5
  0
LINE
  5
2E8
330
CC
100
AcDbEntity
  8
Sketch2
100
AcDbLine
 10
-96.74254417419433
 20
465.9624481201172
 30
0.5
 11
-96.54353324793897
 21
466.7799111533143
 31
0.5
  0
LINE
  5
2E9
330
CC
100
AcDbEntity
  8
Sketch2
100
AcDbLine
 10
-96.54353324793897
 20
466.7799111533143
 30
0.5
 11
-96.34451866149902
 21
467.5973892211914
 31
0.5
  0
LINE
  5
2EA
330
CC
100
AcDbEntity
  8
Sketch2
100
AcDbLine
 10
-96.34451866149902
 20
467.5973892211914
 30
0.5
 11
-90.5807357579113
 21
547.4366856940751
 31
0.5
  0
LINE
  5
2EB
330
CC
100
AcDbEntity
  8
Sketch2
100
AcDbLine
 10
-150.2837108162746
 20
687.6754444156254
 30
0.5
 11
-150.0545692443847
 21
687.0128631591796
 31
0.5
  0
LINE
  5
2EC
330
CC
100
AcDbEntity
  8
Sketch2
100
AcDbLine
 10
-150.4138088226318
 20
693.8770294189453
 30
0.5
 11
-150.5725272848178
 21
693.1941290019404
 31
0.5
  0
LINE
  5
2ED
330
CC
100
AcDbEntity
  8
Sketch2
100
AcDbLine
 10
-149.4154453277588
 20
685.7648468017578
 30
0.5
 11
-149.0117494061824
 21
685.191656003751
 31
0.5
  0
LINE
  5
2EE
330
CC
100
AcDbEntity
  8
Sketch2
100
AcDbLine
 10
-139.1211937535332
 20
641.3307694049301
 30
0.5
 11
-135.6526279449463
 21
603.6651229858398
 31
0.5
  0
LINE
  5
2EF
330
CC
100
AcDbEntity
  8
Sketch2
100
AcDbLine
 10
-117.2786617279053
 20
459.7048568725585
 30
0.5
 11
-116.5895096256686
 21
459.2222448860676
 31
0.5
  0
LINE
  5
2F0
330
CC
100
AcDbEntity
  8
Sketch2
100
AcDbLine
 10
-115.9003448486328
 20
458.7396240234375
 30
0.5
 11
-115.1546308428298
 21
458.3500897942905
 31
0.5
  0
LINE
  5
2F1
330
CC
100
AcDbEntity
  8
Sketch2
100
AcDbLine
 10
-150.0545692443847
 20
687.0128631591796
 30
0.5
 11
-149.7350104154381
 21
686.3888610911779
 31
0.5
  0
LINE
  5
2F2
330
CC
100
AcDbEntity
  8
Sketch2
100
AcDbLine
 10
-111.1880683898926
 20
457.0095825195312
 30
0.5
 11
-110.3503590371409
 21
456.9316108244446
 31
0.5
  0
LINE
  5
2F3
330
CC
100
AcDbEntity
  8
Sketch2
100
AcDbLine
 10
-150.817904831203
 20
690.414397419928
 30
0.5
 11
-150.7812595367431
 21
689.7142791748047
 31
0.5
  0
LINE
  5
2F4
330
CC
100
AcDbEntity
  8
Sketch2
100
AcDbLine
 10
-69.32867050170898
 20
705.6800079345703
 30
0.5
 11
-69.70483774862434
 21
742.9473445504038
 31
0.5
  0
LINE
  5
2F5
330
CC
100
AcDbEntity
  8
Sketch2
100
AcDbLine
 10
-132.7815246582031
 20
769.230728149414
 30
0.5000000000000001
 11
-133.3672809688115
 21
768.9413833575048
 31
0.5
  0
LINE
  5
2F6
330
CC
100
AcDbEntity
  8
Sketch2
100
AcDbLine
 10
-136.6989421844482
 20
765.9035491943359
 30
0.5
 11
-136.9877624554756
 21
765.3175353916583
 31
0.5
  0
LINE
  5
2F7
330
CC
100
AcDbEntity
  8
Sketch2
100
AcDbLine
 10
-78.38357447249752
 20
687.4452972511261
 30
0.5
 11
-77.49233722686767
 21
688.1106567382812
 31
0.5
  0
LINE
  5
2F8
330
CC
100
AcDbEntity
  8
Sketch2
100
AcDbLine
 10
-84.00321482399096
 20
655.9772304996853
 30
0.5
 11
-83.18921089172363
 21
684.6772003173827
 31
0.5
  0
LINE
  5
2F9
330
CC
100
AcDbEntity
  8
Sketch2
100
AcDbLine
 10
-69.56948518524622
 20
702.355651871885
 30
0.5
 11
-69.41619873046875
 21
703.4572601318359
 31
0.5
  0
LINE
  5
2FA
330
CC
100
AcDbEntity
  8
Sketch2
100
AcDbLine
 10
-81.17997169494628
 20
685.6317138671875
 30
0.5
 11
-80.22739170562273
 21
686.2058258142195
 31
0.5
  0
LINE
  5
2FB
330
CC
100
AcDbEntity
  8
Sketch2
100
AcDbLine
 10
-71.44764661090519
 20
695.9832382352458
 30
0.5
 11
-70.9789752960205
 21
696.9918823242188
 31
0.5
  0
LINE
  5
2FC
330
CC
100
AcDbEntity
  8
Sketch2
100
AcDbLine
 10
-75.75252541410278
 20
785.3747177892934
 30
0.5
 11
-81.42404556274414
 21
790.5347442626953
 31
0.5
  0
LINE
  5
2FD
330
CC
100
AcDbEntity
  8
Sketch2
100
AcDbLine
 10
-128.3543968200683
 20
770.3000640869141
 30
0.5
 11
-129.9429178474625
 21
769.9555587717219
 31
0.5
  0
LINE
  5
2FE
330
CC
100
AcDbEntity
  8
Sketch2
100
AcDbLine
 10
-90.5807357579113
 20
547.4366856940751
 30
0.5
 11
-84.81684684753417
 21
627.2774505615234
 31
0.5
  0
LINE
  5
2FF
330
CC
100
AcDbEntity
  8
Sketch2
100
AcDbLine
 10
-82.18459127836409
 20
685.1544570993972
 30
0.5
 11
-81.17997169494628
 21
685.6317138671875
 31
0.5
  0
LINE
  5
300
330
CC
100
AcDbEntity
  8
Sketch2
100
AcDbLine
 10
-99.61512565612792
 20
790.4283905029297
 30
0.5
 11
-113.9847614522239
 21
780.364227144953
 31
0.5
  0
LINE
  5
301
330
CC
100
AcDbEntity
  8
Sketch2
100
AcDbLine
 10
-81.42404556274414
 20
790.5347442626953
 30
0.5
 11
-90.51958574497128
 21
790.4815673820201
 31
0.5
  0
LINE
  5
302
330
CC
100
AcDbEntity
  8
Sketch2
100
AcDbLine
 10
-129.9429178474625
 20
769.9555587717219
 30
0.5
 11
-131.5314388275146
 21
769.6110534667968
 31
0.5
  0
LINE
  5
303
330
CC
100
AcDbEntity
  8
Sketch2
100
AcDbLine
 10
-133.3672809688115
 20
768.9413833575048
 30
0.5
 11
-133.9530372619629
 21
768.6520385742187
 31
0.5
  0
LINE
  5
304
330
CC
100
AcDbEntity
  8
Sketch2
100
AcDbLine
 10
-131.5314388275146
 20
769.6110534667968
 30
0.5
 11
-132.1564817521728
 21
769.4208908052718
 31
0.5
  0
LINE
  5
305
330
CC
100
AcDbEntity
  8
Sketch2
100
AcDbLine
 10
-83.18921089172363
 20
684.6772003173827
 30
0.5
 11
-82.18459127836409
 21
685.1544570993972
 31
0.5
  0
LINE
  5
306
330
CC
100
AcDbEntity
  8
Sketch2
100
AcDbLine
 10
-113.9847614522239
 20
780.364227144953
 30
0.5
 11
-128.3543968200683
 21
770.3000640869141
 31
0.5
  0
LINE
  5
307
330
CC
100
AcDbEntity
  8
Sketch2
100
AcDbLine
 10
-137.7409791959116
 20
762.8333282374183
 30
0.5
 11
-137.8262424468994
 21
762.1855926513672
 31
0.5
  0
LINE
  5
308
330
CC
100
AcDbEntity
  8
Sketch2
100
AcDbLine
 10
-135.9382247924804
 20
766.9659423828124
 30
0.5
 11
-136.3185834941322
 21
766.4347457806587
 31
0.5
  0
LINE
  5
309
330
CC
100
AcDbEntity
  8
Sketch2
100
AcDbLine
 10
-72.48229741206739
 20
694.0171814107519
 30
0.5
 11
-71.9163179397583
 21
694.9745941162109
 31
0.5
  0
LINE
  5
30A
330
CC
100
AcDbEntity
  8
Sketch2
100
AcDbLine
 10
-137.8262424468994
 20
762.1855926513672
 30
0.5
 11
-137.8049230572384
 21
761.5326309106802
 31
0.5
  0
LINE
  5
30B
330
CC
100
AcDbEntity
  8
Sketch2
100
AcDbLine
 10
-70.61218738009315
 20
698.0418777622292
 30
0.5000000000000001
 11
-70.24539947509765
 21
699.0918731689453
 31
0.5
  0
LINE
  5
30C
330
CC
100
AcDbEntity
  8
Sketch2
100
AcDbLine
 10
-70.24539947509765
 20
699.0918731689453
 30
0.5
 11
-69.98408555595083
 21
700.1729583901338
 31
0.5
  0
LINE
  5
30D
330
CC
100
AcDbEntity
  8
Sketch2
100
AcDbLine
 10
-90.51958574497128
 20
790.4815673820201
 30
0.5
 11
-99.61512565612792
 21
790.4283905029297
 31
0.5
  0
LINE
  5
30E
330
CC
100
AcDbEntity
  8
Sketch2
100
AcDbLine
 10
-132.1564817521728
 20
769.4208908052718
 30
0.5
 11
-132.7815246582031
 21
769.230728149414
 31
0.5000000000000001
  0
LINE
  5
30F
330
CC
100
AcDbEntity
  8
Sketch2
100
AcDbLine
 10
-137.4661493329639
 20
764.1062927152927
 30
0.5
 11
-137.6557159423828
 21
763.4810638427734
 31
0.5
  0
LINE
  5
310
330
CC
100
AcDbEntity
  8
Sketch2
100
AcDbLine
 10
-69.70483774862434
 20
742.9473445504038
 30
0.5
 11
-70.08100509643554
 21
780.2146911621093
 31
0.5
  0
LINE
  5
311
330
CC
100
AcDbEntity
  8
Sketch2
100
AcDbLine
 10
-84.81684684753417
 20
627.2774505615234
 30
0.5
 11
-84.00321482399096
 21
655.9772304996853
 31
0.5
  0
LINE
  5
312
330
CC
100
AcDbEntity
  8
Sketch2
100
AcDbLine
 10
-136.9877624554756
 20
765.3175353916583
 30
0.5
 11
-137.2765827178955
 21
764.7315216064453
 31
0.5
  0
LINE
  5
313
330
CC
100
AcDbEntity
  8
Sketch2
100
AcDbLine
 10
-70.9789752960205
 20
696.9918823242188
 30
0.5
 11
-70.61218738009315
 21
698.0418777622292
 31
0.5000000000000001
  0
LINE
  5
314
330
CC
100
AcDbEntity
  8
Sketch2
100
AcDbLine
 10
-137.8049230572384
 20
761.5326309106802
 30
0.5
 11
-137.7836036682129
 21
760.8796691894531
 31
0.5
  0
LINE
  5
315
330
CC
100
AcDbEntity
  8
Sketch2
100
AcDbLine
 10
-77.49233722686767
 20
688.1106567382812
 30
0.5
 11
-76.67115687100242
 21
688.8607788197721
 31
0.5
  0
LINE
  5
316
330
CC
100
AcDbEntity
  8
Sketch2
100
AcDbLine
 10
-133.9530372619629
 20
768.6520385742187
 30
0.5
 11
-134.483871467871
 21
768.2711791935434
 31
0.5000000000000001
  0
LINE
  5
317
330
CC
100
AcDbEntity
  8
Sketch2
100
AcDbLine
 10
-137.6562786083322
 20
760.2388763332249
 30
0.5
 11
-137.5289535522461
 21
759.5980834960937
 31
0.5
  0
LINE
  5
318
330
CC
100
AcDbEntity
  8
Sketch2
100
AcDbLine
 10
-79.27481174468994
 20
686.7799377441406
 30
0.5
 11
-78.38357447249752
 21
687.4452972511261
 31
0.5
  0
LINE
  5
319
330
CC
100
AcDbEntity
  8
Sketch2
100
AcDbLine
 10
-136.3185834941322
 20
766.4347457806587
 30
0.5
 11
-136.6989421844482
 21
765.9035491943359
 31
0.5
  0
LINE
  5
31A
330
CC
100
AcDbEntity
  8
Sketch2
100
AcDbLine
 10
-137.7836036682129
 20
760.8796691894531
 30
0.5
 11
-137.6562786083322
 21
760.2388763332249
 31
0.5
  0
LINE
  5
31B
330
CC
100
AcDbEntity
  8
Sketch2
100
AcDbLine
 10
-137.5289535522461
 20
759.5980834960937
 30
0.5
 11
-137.2990083660193
 21
758.9865493683288
 31
0.5
  0
LINE
  5
31C
330
CC
100
AcDbEntity
  8
Sketch2
100
AcDbLine
 10
-137.2990083660193
 20
758.9865493683288
 30
0.5
 11
-137.0690631866455
 21
758.375015258789
 31
0.5
  0
LINE
  5
31D
330
CC
100
AcDbEntity
  8
Sketch2
100
AcDbLine
 10
-137.2765827178955
 20
764.7315216064453
 30
0.5
 11
-137.4661493329639
 21
764.1062927152927
 31
0.5
  0
LINE
  5
31E
330
CC
100
AcDbEntity
  8
Sketch2
100
AcDbLine
 10
-137.0690631866455
 20
758.375015258789
 30
0.5
 11
-136.7426395367618
 21
757.8090667640276
 31
0.5
  0
LINE
  5
31F
330
CC
100
AcDbEntity
  8
Sketch2
100
AcDbLine
 10
-71.9163179397583
 20
694.9745941162109
 30
0.5
 11
-71.44764661090519
 21
695.9832382352458
 31
0.5
  0
LINE
  5
320
330
CC
100
AcDbEntity
  8
Sketch2
100
AcDbLine
 10
-69.37243462264433
 20
704.5686338667293
 30
0.5
 11
-69.32867050170898
 21
705.6800079345703
 31
0.5
  0
LINE
  5
321
330
CC
100
AcDbEntity
  8
Sketch2
100
AcDbLine
 10
-80.22739170562273
 20
686.2058258142195
 30
0.5
 11
-79.27481174468994
 21
686.7799377441406
 31
0.5
  0
LINE
  5
322
330
CC
100
AcDbEntity
  8
Sketch2
100
AcDbLine
 10
-69.41619873046875
 20
703.4572601318359
 30
0.5
 11
-69.37243462264433
 21
704.5686338667293
 31
0.5
  0
LINE
  5
323
330
CC
100
AcDbEntity
  8
Sketch2
100
AcDbLine
 10
-75.1068782695659
 20
690.4384613160434
 30
0.5
 11
-74.36378002166748
 21
691.2660217285156
 31
0.5
  0
LINE
  5
324
330
CC
100
AcDbEntity
  8
Sketch2
100
AcDbLine
 10
-74.36378002166748
 20
691.2660217285156
 30
0.5
 11
-73.70602845165439
 21
692.162895216002
 31
0.5
  0
LINE
  5
325
330
CC
100
AcDbEntity
  8
Sketch2
100
AcDbLine
 10
-134.483871467871
 20
768.2711791935434
 30
0.5000000000000001
 11
-135.014705657959
 21
767.8903198242188
 31
0.5
  0
LINE
  5
326
330
CC
100
AcDbEntity
  8
Sketch2
100
AcDbLine
 10
-135.014705657959
 20
767.8903198242188
 30
0.5
 11
-135.4764652321005
 21
767.4281310966285
 31
0.5
  0
LINE
  5
327
330
CC
100
AcDbEntity
  8
Sketch2
100
AcDbLine
 10
-73.70602845165439
 20
692.162895216002
 30
0.5
 11
-73.04827690124511
 21
693.0597686767578
 31
0.5
  0
LINE
  5
328
330
CC
100
AcDbEntity
  8
Sketch2
100
AcDbLine
 10
-69.98408555595083
 20
700.1729583901338
 30
0.5
 11
-69.72277164459228
 21
701.2540435791016
 31
0.5
  0
LINE
  5
329
330
CC
100
AcDbEntity
  8
Sketch2
100
AcDbLine
 10
-137.6557159423828
 20
763.4810638427734
 30
0.5
 11
-137.7409791959116
 21
762.8333282374183
 31
0.5
  0
LINE
  5
32A
330
CC
100
AcDbEntity
  8
Sketch2
100
AcDbLine
 10
-136.7426395367618
 20
757.8090667640276
 30
0.5
 11
-136.4162158966064
 21
757.2431182861328
 31
0.5
  0
LINE
  5
32B
330
CC
100
AcDbEntity
  8
Sketch2
100
AcDbLine
 10
-70.08100509643554
 20
780.2146911621093
 30
0.5
 11
-75.75252541410278
 21
785.3747177892934
 31
0.5
  0
LINE
  5
32C
330
CC
100
AcDbEntity
  8
Sketch2
100
AcDbLine
 10
-75.84997653961181
 20
689.6109008789062
 30
0.5
 11
-75.1068782695659
 21
690.4384613160434
 31
0.5
  0
LINE
  5
32D
330
CC
100
AcDbEntity
  8
Sketch2
100
AcDbLine
 10
-135.4764652321005
 20
767.4281310966285
 30
0.5
 11
-135.9382247924804
 21
766.9659423828124
 31
0.5
  0
LINE
  5
32E
330
CC
100
AcDbEntity
  8
Sketch2
100
AcDbLine
 10
-136.4162158966064
 20
757.2431182861328
 30
0.5
 11
-135.5269241200492
 21
755.956916789916
 31
0.5
  0
LINE
  5
32F
330
CC
100
AcDbEntity
  8
Sketch2
100
AcDbLine
 10
-135.5269241200492
 20
755.956916789916
 30
0.5
 11
-134.6376323699951
 21
754.6707153320312
 31
0.5
  0
LINE
  5
330
330
CC
100
AcDbEntity
  8
Sketch2
100
AcDbLine
 10
-76.67115687100242
 20
688.8607788197721
 30
0.5
 11
-75.84997653961181
 21
689.6109008789062
 31
0.5
  0
LINE
  5
331
330
CC
100
AcDbEntity
  8
Sketch2
100
AcDbLine
 10
-73.04827690124511
 20
693.0597686767578
 30
0.5
 11
-72.48229741206739
 21
694.0171814107519
 31
0.5
  0
LINE
  5
332
330
CC
100
AcDbEntity
  8
Sketch2
100
AcDbLine
 10
-134.6376323699951
 20
754.6707153320312
 30
0.5
 11
-133.9558199115146
 21
753.6170311779402
 31
0.5
  0
LINE
  5
333
330
CC
100
AcDbEntity
  8
Sketch2
100
AcDbLine
 10
-69.72277164459228
 20
701.2540435791016
 30
0.5
 11
-69.56948518524622
 21
702.355651871885
 31
0.5
  0
LINE
  5
334
330
CC
100
AcDbEntity
  8
Sketch2
100
AcDbLine
 10
-128.9203262329101
 20
760.7925415039062
 30
0.5
 11
-129.071685542531
 21
760.6357938753428
 31
0.5
  0
LINE
  5
335
330
CC
100
AcDbEntity
  8
Sketch2
100
AcDbLine
 10
-129.5755958557129
 20
760.2229309082031
 30
0.5
 11
-129.7714350229402
 21
760.1274098417823
 31
0.5
  0
LINE
  5
336
330
CC
100
AcDbEntity
  8
Sketch2
100
AcDbLine
 10
-130.3861713409424
 20
759.9118041992187
 30
0.5
 11
-130.6028675940585
 21
759.8890302069451
 31
0.5
  0
LINE
  5
337
330
CC
100
AcDbEntity
  8
Sketch2
100
AcDbLine
 10
-132.2558565864264
 20
760.3011335375178
 30
0.5
 11
-132.4364948272705
 21
760.4229736328124
 31
0.5
  0
LINE
  5
338
330
CC
100
AcDbEntity
  8
Sketch2
100
AcDbLine
 10
-133.3172607421875
 20
761.8888092041015
 30
0.5
 11
-133.3400347344611
 21
762.105524530913
 31
0.5
  0
LINE
  5
339
330
CC
100
AcDbEntity
  8
Sketch2
100
AcDbLine
 10
-131.6771125793457
 20
760.0020599365234
 30
0.5
 11
-131.8761656642431
 21
760.0906763252196
 31
0.5
  0
LINE
  5
33A
330
CC
100
AcDbEntity
  8
Sketch2
100
AcDbLine
 10
-129.7714350229402
 20
760.1274098417823
 30
0.5
 11
-129.9672698974609
 21
760.0318908691406
 31
0.5
  0
LINE
  5
33B
330
CC
100
AcDbEntity
  8
Sketch2
100
AcDbLine
 10
-128.7202739715576
 20
763.6534118652344
 30
0.5
 11
-128.6247576735607
 21
763.4576013085501
 31
0.5
  0
LINE
  5
33C
330
CC
100
AcDbEntity
  8
Sketch2
100
AcDbLine
 10
-128.4993934631347
 20
761.5518951416015
 30
0.5
 11
-128.5880193886786
 21
761.3528420567042
 31
0.5
  0
LINE
  5
33D
330
CC
100
AcDbEntity
  8
Sketch2
100
AcDbLine
 10
-132.4364948272705
 20
760.4229736328124
 30
0.5
 11
-132.5932329189862
 21
760.5743424792811
 31
0.5
  0
LINE
  5
33E
330
CC
100
AcDbEntity
  8
Sketch2
100
AcDbLine
 10
-128.676643371582
 20
761.1537933349609
 30
0.5
 11
-128.7984861376154
 21
760.9731654397924
 31
0.5
  0
LINE
  5
33F
330
CC
100
AcDbEntity
  8
Sketch2
100
AcDbLine
 10
-130.4721069335937
 20
764.8350524902343
 30
0.5
 11
-130.2606845572478
 21
764.7823327962274
 31
0.5
  0
LINE
  5
340
330
CC
100
AcDbEntity
  8
Sketch2
100
AcDbLine
 10
-133.1016264893943
 20
761.2741110331764
 30
0.5
 11
-133.1971454620361
 21
761.4699554443359
 31
0.5
  0
LINE
  5
341
330
CC
100
AcDbEntity
  8
Sketch2
100
AcDbLine
 10
-133.3476112607518
 20
762.539598939876
 30
0.5
 11
-133.3324146270752
 21
762.7569580078125
 31
0.5
  0
LINE
  5
342
330
CC
100
AcDbEntity
  8
Sketch2
100
AcDbLine
 10
-128.7984861376154
 20
760.9731654397924
 30
0.5
 11
-128.9203262329101
 21
760.7925415039062
 31
0.5
  0
LINE
  5
343
330
CC
100
AcDbEntity
  8
Sketch2
100
AcDbLine
 10
-129.2898941040039
 20
764.3087005615234
 30
0.5
 11
-129.1331560122882
 21
764.1573317150548
 31
0.5
  0
LINE
  5
344
330
CC
100
AcDbEntity
  8
Sketch2
100
AcDbLine
 10
-133.2269859313965
 20
763.1797790527343
 30
0.5
 11
-133.1383600058526
 21
763.3788321376317
 31
0.5
  0
LINE
  5
345
330
CC
100
AcDbEntity
  8
Sketch2
100
AcDbLine
 10
-133.0497360229492
 20
763.577880859375
 30
0.5
 11
-132.9278932569158
 21
763.7585087545435
 31
0.5
  0
LINE
  5
346
330
CC
100
AcDbEntity
  8
Sketch2
100
AcDbLine
 10
-132.9278932569158
 20
763.7585087545435
 30
0.5
 11
-132.8060531616211
 21
763.9391326904297
 31
0.5
  0
LINE
  5
347
330
CC
100
AcDbEntity
  8
Sketch2
100
AcDbLine
 10
-132.8060531616211
 20
763.9391326904297
 30
0.5
 11
-132.6546938520002
 21
764.095880318993
 31
0.5
  0
LINE
  5
348
330
CC
100
AcDbEntity
  8
Sketch2
100
AcDbLine
 10
-132.8780379026454
 20
760.9019871004363
 30
0.5
 11
-133.0061054229736
 21
761.0782623291015
 31
0.5
  0
LINE
  5
349
330
CC
100
AcDbEntity
  8
Sketch2
100
AcDbLine
 10
-131.8761656642431
 20
760.0906763252196
 30
0.5
 11
-132.0752143859863
 21
760.1792907714844
 31
0.5
  0
LINE
  5
34A
330
CC
100
AcDbEntity
  8
Sketch2
100
AcDbLine
 10
-132.6546938520002
 20
764.095880318993
 30
0.5
 11
-132.5033378601074
 21
764.2526245117188
 31
0.5
  0
LINE
  5
34B
330
CC
100
AcDbEntity
  8
Sketch2
100
AcDbLine
 10
-130.0492668151855
 20
764.7296142578125
 30
0.5
 11
-129.8502137302881
 21
764.6409978691163
 31
0.5
  0
LINE
  5
34C
330
CC
100
AcDbEntity
  8
Sketch2
100
AcDbLine
 10
-129.6511650085449
 20
764.5523834228515
 30
0.5
 11
-129.4705275765287
 21
764.430540656818
 31
0.5
  0
LINE
  5
34D
330
CC
100
AcDbEntity
  8
Sketch2
100
AcDbLine
 10
-128.3939743041992
 20
761.9747924804687
 30
0.5
 11
-128.4466844613584
 21
761.7633414935799
 31
0.5
  0
LINE
  5
34E
330
CC
100
AcDbEntity
  8
Sketch2
100
AcDbLine
 10
-129.9672698974609
 20
760.0318908691406
 30
0.5
 11
-130.1767229147597
 21
759.9718468761109
 31
0.5
  0
LINE
  5
34F
330
CC
100
AcDbEntity
  8
Sketch2
100
AcDbLine
 10
-130.6028675940585
 20
759.8890302069451
 30
0.5
 11
-130.81955909729
 21
759.8662567138672
 31
0.5
  0
LINE
  5
350
330
CC
100
AcDbEntity
  8
Sketch2
100
AcDbLine
 10
-131.2542724609375
 20
759.8966217041016
 30
0.5
 11
-131.4656948372834
 21
759.9493413981085
 31
0.5
  0
LINE
  5
351
330
CC
100
AcDbEntity
  8
Sketch2
100
AcDbLine
 10
-133.2572037603373
 20
761.6793846195155
 30
0.5
 11
-133.3172607421875
 21
761.8888092041015
 31
0.5
  0
LINE
  5
352
330
CC
100
AcDbEntity
  8
Sketch2
100
AcDbLine
 10
-133.362808227539
 20
762.3222351074218
 30
0.5
 11
-133.3476112607518
 21
762.539598939876
 31
0.5
  0
LINE
  5
353
330
CC
100
AcDbEntity
  8
Sketch2
100
AcDbLine
 10
-133.3400347344611
 20
762.105524530913
 30
0.5
 11
-133.362808227539
 21
762.3222351074218
 31
0.5
  0
LINE
  5
354
330
CC
100
AcDbEntity
  8
Sketch2
100
AcDbLine
 10
-133.3324146270752
 20
762.7569580078125
 30
0.5
 11
-133.2796997014921
 21
762.9683708473106
 31
0.5
  0
LINE
  5
355
330
CC
100
AcDbEntity
  8
Sketch2
100
AcDbLine
 10
-133.2796997014921
 20
762.9683708473106
 30
0.5
 11
-133.2269859313965
 21
763.1797790527343
 31
0.5
  0
LINE
  5
356
330
CC
100
AcDbEntity
  8
Sketch2
100
AcDbLine
 10
-133.1383600058526
 20
763.3788321376317
 30
0.5
 11
-133.0497360229492
 21
763.577880859375
 31
0.5
  0
LINE
  5
357
330
CC
100
AcDbEntity
  8
Sketch2
100
AcDbLine
 10
-129.4705275765287
 20
764.430540656818
 30
0.5
 11
-129.2898941040039
 21
764.3087005615234
 31
0.5
  0
LINE
  5
358
330
CC
100
AcDbEntity
  8
Sketch2
100
AcDbLine
 10
-128.3863446600701
 20
762.6261878108135
 30
0.5
 11
-128.3635711669922
 21
762.4095153808593
 31
0.5
  0
LINE
  5
359
330
CC
100
AcDbEntity
  8
Sketch2
100
AcDbLine
 10
-129.8502137302881
 20
764.6409978691163
 30
0.5
 11
-129.6511650085449
 21
764.5523834228515
 31
0.5
  0
LINE
  5
35A
330
CC
100
AcDbEntity
  8
Sketch2
100
AcDbLine
 10
-128.5880193886786
 20
761.3528420567042
 30
0.5
 11
-128.676643371582
 21
761.1537933349609
 31
0.5
  0
LINE
  5
35B
330
CC
100
AcDbEntity
  8
Sketch2
100
AcDbLine
 10
-128.6247576735607
 20
763.4576013085501
 30
0.5
 11
-128.5292434692383
 21
763.2617950439453
 31
0.5
  0
LINE
  5
35C
330
CC
100
AcDbEntity
  8
Sketch2
100
AcDbLine
 10
-128.8483462602051
 20
763.8296870938996
 30
0.5
 11
-128.7202739715576
 21
763.6534118652344
 31
0.5
  0
LINE
  5
35D
330
CC
100
AcDbEntity
  8
Sketch2
100
AcDbLine
 10
-129.3993206270476
 20
760.3509888918925
 30
0.5
 11
-129.5755958557129
 21
760.2229309082031
 31
0.5
  0
LINE
  5
35E
330
CC
100
AcDbEntity
  8
Sketch2
100
AcDbLine
 10
-130.1767229147597
 20
759.9718468761109
 30
0.5
 11
-130.3861713409424
 21
759.9118041992187
 31
0.5
  0
LINE
  5
35F
330
CC
100
AcDbEntity
  8
Sketch2
100
AcDbLine
 10
-131.4656948372834
 20
759.9493413981085
 30
0.5
 11
-131.6771125793457
 21
760.0020599365234
 31
0.5
  0
LINE
  5
360
330
CC
100
AcDbEntity
  8
Sketch2
100
AcDbLine
 10
-130.2606845572478
 20
764.7823327962274
 30
0.5
 11
-130.0492668151855
 21
764.7296142578125
 31
0.5
  0
LINE
  5
361
330
CC
100
AcDbEntity
  8
Sketch2
100
AcDbLine
 10
-128.3635711669922
 20
762.4095153808593
 30
0.5
 11
-128.3787729022033
 21
762.1921515484053
 31
0.5
  0
LINE
  5
362
330
CC
100
AcDbEntity
  8
Sketch2
100
AcDbLine
 10
-128.4466844613584
 20
761.7633414935799
 30
0.5
 11
-128.4993934631347
 21
761.5518951416015
 31
0.5
  0
LINE
  5
363
330
CC
100
AcDbEntity
  8
Sketch2
100
AcDbLine
 10
-128.3787729022033
 20
762.1921515484053
 30
0.5
 11
-128.3939743041992
 21
761.9747924804687
 31
0.5
  0
LINE
  5
364
330
CC
100
AcDbEntity
  8
Sketch2
100
AcDbLine
 10
-128.4691804025132
 20
763.052327721375
 30
0.5
 11
-128.4091186523437
 21
762.8428649902343
 31
0.5
  0
LINE
  5
365
330
CC
100
AcDbEntity
  8
Sketch2
100
AcDbLine
 10
-132.5932329189862
 20
760.5743424792811
 30
0.5
 11
-132.7499675750732
 21
760.7257080078125
 31
0.5
  0
LINE
  5
366
330
CC
100
AcDbEntity
  8
Sketch2
100
AcDbLine
 10
-129.071685542531
 20
760.6357938753428
 30
0.5
 11
-129.2230415344238
 21
760.4790496826171
 31
0.5
  0
LINE
  5
367
330
CC
100
AcDbEntity
  8
Sketch2
100
AcDbLine
 10
-129.2230415344238
 20
760.4790496826171
 30
0.5
 11
-129.3993206270476
 21
760.3509888918925
 31
0.5
  0
LINE
  5
368
330
CC
100
AcDbEntity
  8
Sketch2
100
AcDbLine
 10
-129.1331560122882
 20
764.1573317150548
 30
0.5
 11
-128.9764213562011
 21
764.0059661865234
 31
0.5
  0
LINE
  5
369
330
CC
100
AcDbEntity
  8
Sketch2
100
AcDbLine
 10
-132.0752143859863
 20
760.1792907714844
 30
0.5
 11
-132.2558565864264
 21
760.3011335375178
 31
0.5
  0
LINE
  5
36A
330
CC
100
AcDbEntity
  8
Sketch2
100
AcDbLine
 10
-128.5292434692383
 20
763.2617950439453
 30
0.5
 11
-128.4691804025132
 21
763.052327721375
 31
0.5
  0
LINE
  5
36B
330
CC
100
AcDbEntity
  8
Sketch2
100
AcDbLine
 10
-132.7499675750732
 20
760.7257080078125
 30
0.5
 11
-132.8780379026454
 21
760.9019871004363
 31
0.5
  0
LINE
  5
36C
330
CC
100
AcDbEntity
  8
Sketch2
100
AcDbLine
 10
-128.4091186523437
 20
762.8428649902343
 30
0.5
 11
-128.3863446600701
 21
762.6261878108135
 31
0.5
  0
LINE
  5
36D
330
CC
100
AcDbEntity
  8
Sketch2
100
AcDbLine
 10
-133.9558199115146
 20
753.6170311779402
 30
0.5
 11
-133.3409376639573
 21
752.5257992888157
 31
0.5
  0
LINE
  5
36E
330
CC
100
AcDbEntity
  8
Sketch2
100
AcDbLine
 10
-133.0061054229736
 20
761.0782623291015
 30
0.5
 11
-133.1016264893943
 21
761.2741110331764
 31
0.5
  0
LINE
  5
36F
330
CC
100
AcDbEntity
  8
Sketch2
100
AcDbLine
 10
-131.0369181613203
 20
759.881439375383
 30
0.5
 11
-131.2542724609375
 21
759.8966217041016
 31
0.5
  0
LINE
  5
370
330
CC
100
AcDbEntity
  8
Sketch2
100
AcDbLine
 10
-133.1971454620361
 20
761.4699554443359
 30
0.5
 11
-133.2572037603373
 21
761.6793846195155
 31
0.5
  0
LINE
  5
371
330
CC
100
AcDbEntity
  8
Sketch2
100
AcDbLine
 10
-133.3409376639573
 20
752.5257992888157
 30
0.5
 11
-132.7943957024994
 21
751.4003876753498
 31
0.5
  0
LINE
  5
372
330
CC
100
AcDbEntity
  8
Sketch2
100
AcDbLine
 10
-130.81955909729
 20
759.8662567138672
 30
0.5
 11
-131.0369181613203
 21
759.881439375383
 31
0.5
  0
LINE
  5
373
330
CC
100
AcDbEntity
  8
Sketch2
100
AcDbLine
 10
-128.9764213562011
 20
764.0059661865234
 30
0.5
 11
-128.8483462602051
 21
763.8296870938996
 31
0.5
  0
LINE
  5
374
330
CC
100
AcDbEntity
  8
Sketch2
100
AcDbLine
 10
-117.6976203918457
 20
516.5277481079101
 30
0.5
 11
-117.6386887333552
 21
516.6541276431988
 31
0.5000000000000001
  0
LINE
  5
375
330
CC
100
AcDbEntity
  8
Sketch2
100
AcDbLine
 10
-130.6894612332109
 20
764.8502729655075
 30
0.5
 11
-130.4721069335937
 21
764.8350524902343
 31
0.5
  0
LINE
  5
376
330
CC
100
AcDbEntity
  8
Sketch2
100
AcDbLine
 10
-118.2832622528076
 20
518.71337890625
 30
0.5000000000000001
 11
-118.4096417880963
 21
518.7723153330598
 31
0.5
  0
LINE
  5
377
330
CC
100
AcDbEntity
  8
Sketch2
100
AcDbLine
 10
-118.4096417880963
 20
518.7723153330598
 30
0.5
 11
-118.5360240936279
 21
518.8312530517578
 31
0.5000000000000001
  0
LINE
  5
378
330
CC
100
AcDbEntity
  8
Sketch2
100
AcDbLine
 10
-119.8832607269287
 20
518.71337890625
 30
0.5000000000000001
 11
-119.997490584587
 21
518.633404654595
 31
0.5
  0
LINE
  5
379
330
CC
100
AcDbEntity
  8
Sketch2
100
AcDbLine
 10
-120.6228586055973
 20
517.7402892570261
 30
0.5
 11
-120.658950805664
 21
517.6055908203125
 31
0.5000000000000001
  0
LINE
  5
37A
330
CC
100
AcDbEntity
  8
Sketch2
100
AcDbLine
 10
-120.5278355381647
 20
516.6541304134418
 30
0.5
 11
-120.4689025878906
 21
516.5277481079101
 31
0.5000000000000001
  0
LINE
  5
37B
330
CC
100
AcDbEntity
  8
Sketch2
100
AcDbLine
 10
-117.6976203918457
 20
518.1277465820312
 30
0.5000000000000001
 11
-117.7776041801392
 21
518.2419764396895
 31
0.5
  0
LINE
  5
37C
330
CC
100
AcDbEntity
  8
Sketch2
100
AcDbLine
 10
-120.4689025878906
 20
518.1277465820312
 30
0.5000000000000001
 11
-120.5278342463811
 21
518.0013670467426
 31
0.5
  0
LINE
  5
37D
330
CC
100
AcDbEntity
  8
Sketch2
100
AcDbLine
 10
-120.2103291828138
 20
516.2006770451098
 30
0.5
 11
-120.111722946167
 21
516.102066040039
 31
0.5000000000000001
  0
LINE
  5
37E
330
CC
100
AcDbEntity
  8
Sketch2
100
AcDbLine
 10
-130.9068202972412
 20
764.865493774414
 30
0.5
 11
-130.6894612332109
 21
764.8502729655075
 31
0.5
  0
LINE
  5
37F
330
CC
100
AcDbEntity
  8
Sketch2
100
AcDbLine
 10
-132.1507835388183
 20
764.5087432861328
 30
0.5
 11
-131.954944371591
 21
764.6042643525536
 31
0.5
  0
LINE
  5
380
330
CC
100
AcDbEntity
  8
Sketch2
100
AcDbLine
 10
-117.5075626373291
 20
517.6055908203125
 30
0.5000000000000001
 11
-117.5436588145904
 21
517.7402863044973
 31
0.5
  0
LINE
  5
381
330
CC
100
AcDbEntity
  8
Sketch2
100
AcDbLine
 10
-120.5867671966553
 20
517.8749847412109
 30
0.5000000000000001
 11
-120.6228586055973
 21
517.7402892570261
 31
0.5
  0
LINE
  5
382
330
CC
100
AcDbEntity
  8
Sketch2
100
AcDbLine
 10
-119.7568736529732
 20
518.772316624948
 30
0.5
 11
-119.8832607269287
 21
518.71337890625
 31
0.5000000000000001
  0
LINE
  5
383
330
CC
100
AcDbEntity
  8
Sketch2
100
AcDbLine
 10
-117.5075626373291
 20
517.0499038696289
 30
0.5000000000000001
 11
-117.4954129596987
 21
517.1888336213709
 31
0.5
  0
LINE
  5
384
330
CC
100
AcDbEntity
  8
Sketch2
100
AcDbLine
 10
-131.954944371591
 20
764.6042643525536
 30
0.5
 11
-131.7591094970703
 21
764.6997833251953
 31
0.5
  0
LINE
  5
385
330
CC
100
AcDbEntity
  8
Sketch2
100
AcDbLine
 10
-117.4954126933774
 20
517.4666770969217
 30
0.5
 11
-117.5075626373291
 21
517.6055908203125
 31
0.5000000000000001
  0
LINE
  5
386
330
CC
100
AcDbEntity
  8
Sketch2
100
AcDbLine
 10
-119.3610954284668
 20
518.9034271240234
 30
0.5000000000000001
 11
-119.4957909126516
 21
518.8673404834007
 31
0.5
  0
LINE
  5
387
330
CC
100
AcDbEntity
  8
Sketch2
100
AcDbLine
 10
-117.6386874415715
 20
518.0013642764995
 30
0.5
 11
-117.6976203918457
 21
518.1277465820312
 31
0.5000000000000001
  0
LINE
  5
388
330
CC
100
AcDbEntity
  8
Sketch2
100
AcDbLine
 10
-119.4957909126516
 20
518.8673404834007
 30
0.5
 11
-119.6304893493652
 21
518.8312530517578
 31
0.5000000000000001
  0
LINE
  5
389
330
CC
100
AcDbEntity
  8
Sketch2
100
AcDbLine
 10
-120.5278342463811
 20
518.0013670467426
 30
0.5
 11
-120.5867671966553
 21
517.8749847412109
 31
0.5000000000000001
  0
LINE
  5
38A
330
CC
100
AcDbEntity
  8
Sketch2
100
AcDbLine
 10
-120.658950805664
 20
517.6055908203125
 30
0.5000000000000001
 11
-120.6711052516137
 21
517.4666801418477
 31
0.5
  0
LINE
  5
38B
330
CC
100
AcDbEntity
  8
Sketch2
100
AcDbLine
 10
-120.6832599639892
 20
517.327766418457
 30
0.5000000000000001
 11
-120.6711055180395
 21
517.188836666715
 31
0.5
  0
LINE
  5
38C
330
CC
100
AcDbEntity
  8
Sketch2
100
AcDbLine
 10
-120.2103270214097
 20
518.4548198063403
 30
0.5
 11
-120.3089332580566
 21
518.3562088012695
 31
0.5000000000000001
  0
LINE
  5
38D
330
CC
100
AcDbEntity
  8
Sketch2
100
AcDbLine
 10
-120.622859396722
 20
516.9152083854441
 30
0.5
 11
-120.5867671966553
 21
516.7805099487305
 31
0.5000000000000001
  0
LINE
  5
38E
330
CC
100
AcDbEntity
  8
Sketch2
100
AcDbLine
 10
-131.123516568792
 20
764.8427202813361
 30
0.5
 11
-130.9068202972412
 21
764.865493774414
 31
0.5
  0
LINE
  5
38F
330
CC
100
AcDbEntity
  8
Sketch2
100
AcDbLine
 10
-118.0548000335693
 20
518.5534286499023
 30
0.5000000000000001
 11
-118.1690298912276
 21
518.6334029015572
 31
0.5
  0
LINE
  5
390
330
CC
100
AcDbEntity
  8
Sketch2
100
AcDbLine
 10
-117.5436588145904
 20
517.7402863044973
 30
0.5
 11
-117.579755783081
 21
517.8749847412109
 31
0.5000000000000001
  0
LINE
  5
391
330
CC
100
AcDbEntity
  8
Sketch2
100
AcDbLine
 10
-117.7776041801392
 20
518.2419764396895
 30
0.5
 11
-117.8575897216797
 21
518.3562088012695
 31
0.5000000000000001
  0
LINE
  5
392
330
CC
100
AcDbEntity
  8
Sketch2
100
AcDbLine
 10
-118.8054180145263
 20
518.9034271240234
 30
0.5000000000000001
 11
-118.9443382296297
 21
518.9155958749311
 31
0.5
  0
LINE
  5
393
330
CC
100
AcDbEntity
  8
Sketch2
100
AcDbLine
 10
-120.658950805664
 20
517.0499038696289
 30
0.5000000000000001
 11
-120.622859396722
 21
516.9152083854441
 31
0.5
  0
LINE
  5
394
330
CC
100
AcDbEntity
  8
Sketch2
100
AcDbLine
 10
-120.3889170463502
 20
518.2419789436112
 30
0.5
 11
-120.4689025878906
 21
518.1277465820312
 31
0.5000000000000001
  0
LINE
  5
395
330
CC
100
AcDbEntity
  8
Sketch2
100
AcDbLine
 10
-132.3270587674836
 20
764.3806853024433
 30
0.5
 11
-132.1507835388183
 21
764.5087432861328
 31
0.5
  0
LINE
  5
396
330
CC
100
AcDbEntity
  8
Sketch2
100
AcDbLine
 10
-131.5496612481954
 20
764.7598654656157
 30
0.5
 11
-131.340217590332
 21
764.8199462890625
 31
0.5
  0
LINE
  5
397
330
CC
100
AcDbEntity
  8
Sketch2
100
AcDbLine
 10
-117.579755783081
 20
517.8749847412109
 30
0.5000000000000001
 11
-117.6386874415715
 21
518.0013642764995
 31
0.5
  0
LINE
  5
398
330
CC
100
AcDbEntity
  8
Sketch2
100
AcDbLine
 10
-132.5033378601074
 20
764.2526245117188
 30
0.5
 11
-132.3270587674836
 21
764.3806853024433
 31
0.5
  0
LINE
  5
399
330
CC
100
AcDbEntity
  8
Sketch2
100
AcDbLine
 10
-117.579755783081
 20
516.7805099487305
 30
0.5000000000000001
 11
-117.5436596058197
 21
516.9152054329153
 31
0.5
  0
LINE
  5
39A
330
CC
100
AcDbEntity
  8
Sketch2
100
AcDbLine
 10
-131.7591094970703
 20
764.6997833251953
 30
0.5
 11
-131.5496612481954
 21
764.7598654656157
 31
0.5
  0
LINE
  5
39B
330
CC
100
AcDbEntity
  8
Sketch2
100
AcDbLine
 10
-119.2221769366522
 20
518.9155961416704
 30
0.5
 11
-119.3610954284668
 21
518.9034271240234
 31
0.5000000000000001
  0
LINE
  5
39C
330
CC
100
AcDbEntity
  8
Sketch2
100
AcDbLine
 10
-119.997490584587
 20
518.633404654595
 30
0.5
 11
-120.111722946167
 21
518.5534286499023
 31
0.5000000000000001
  0
LINE
  5
39D
330
CC
100
AcDbEntity
  8
Sketch2
100
AcDbLine
 10
-119.0832614898681
 20
518.9277648925781
 30
0.5000000000000001
 11
-119.2221769366522
 21
518.9155961416704
 31
0.5
  0
LINE
  5
39E
330
CC
100
AcDbEntity
  8
Sketch2
100
AcDbLine
 10
-120.5867671966553
 20
516.7805099487305
 30
0.5000000000000001
 11
-120.5278355381647
 21
516.6541304134418
 31
0.5
  0
LINE
  5
39F
330
CC
100
AcDbEntity
  8
Sketch2
100
AcDbLine
 10
-117.8575897216797
 20
518.3562088012695
 30
0.5000000000000001
 11
-117.9561937969224
 21
518.4548176448315
 31
0.5
  0
LINE
  5
3A0
330
CC
100
AcDbEntity
  8
Sketch2
100
AcDbLine
 10
-120.4689025878906
 20
516.5277481079101
 30
0.5000000000000001
 11
-120.388918799597
 21
516.4135182502518
 31
0.5
  0
LINE
  5
3A1
330
CC
100
AcDbEntity
  8
Sketch2
100
AcDbLine
 10
-120.111722946167
 20
518.5534286499023
 30
0.5000000000000001
 11
-120.2103270214097
 21
518.4548198063403
 31
0.5
  0
LINE
  5
3A2
330
CC
100
AcDbEntity
  8
Sketch2
100
AcDbLine
 10
-118.1690298912276
 20
518.6334029015572
 30
0.5
 11
-118.2832622528076
 21
518.71337890625
 31
0.5000000000000001
  0
LINE
  5
3A3
330
CC
100
AcDbEntity
  8
Sketch2
100
AcDbLine
 10
-117.9561937969224
 20
518.4548176448315
 30
0.5
 11
-118.0548000335693
 21
518.5534286499023
 31
0.5000000000000001
  0
LINE
  5
3A4
330
CC
100
AcDbEntity
  8
Sketch2
100
AcDbLine
 10
-131.340217590332
 20
764.8199462890625
 30
0.5
 11
-131.123516568792
 21
764.8427202813361
 31
0.5
  0
LINE
  5
3A5
330
CC
100
AcDbEntity
  8
Sketch2
100
AcDbLine
 10
-117.4954129596987
 20
517.1888336213709
 30
0.5
 11
-117.483263015747
 21
517.327766418457
 31
0.5000000000000001
  0
LINE
  5
3A6
330
CC
100
AcDbEntity
  8
Sketch2
100
AcDbLine
 10
-120.3089332580566
 20
516.2992858886719
 30
0.5000000000000001
 11
-120.2103291828138
 21
516.2006770451098
 31
0.5
  0
LINE
  5
3A7
330
CC
100
AcDbEntity
  8
Sketch2
100
AcDbLine
 10
-120.111722946167
 20
516.102066040039
 30
0.5000000000000001
 11
-119.9974930885087
 21
516.0220917883841
 31
0.5
  0
LINE
  5
3A8
330
CC
100
AcDbEntity
  8
Sketch2
100
AcDbLine
 10
-119.9974930885087
 20
516.0220917883841
 30
0.5
 11
-119.8832607269287
 21
515.9421157836914
 31
0.5000000000000001
  0
LINE
  5
3A9
330
CC
100
AcDbEntity
  8
Sketch2
100
AcDbLine
 10
-117.5436596058197
 20
516.9152054329153
 30
0.5
 11
-117.5075626373291
 21
517.0499038696289
 31
0.5000000000000001
  0
LINE
  5
3AA
330
CC
100
AcDbEntity
  8
Sketch2
100
AcDbLine
 10
-117.483263015747
 20
517.327766418457
 30
0.5000000000000001
 11
-117.4954126933774
 21
517.4666770969217
 31
0.5
  0
LINE
  5
3AB
330
CC
100
AcDbEntity
  8
Sketch2
100
AcDbLine
 10
-118.5360240936279
 20
518.8312530517578
 30
0.5000000000000001
 11
-118.6707195778127
 21
518.8673396923804
 31
0.5
  0
LINE
  5
3AC
330
CC
100
AcDbEntity
  8
Sketch2
100
AcDbLine
 10
-118.9443382296297
 20
518.9155958749311
 30
0.5
 11
-119.0832614898681
 21
518.9277648925781
 31
0.5000000000000001
  0
LINE
  5
3AD
330
CC
100
AcDbEntity
  8
Sketch2
100
AcDbLine
 10
-120.3089332580566
 20
518.3562088012695
 30
0.5000000000000001
 11
-120.3889170463502
 21
518.2419789436112
 31
0.5
  0
LINE
  5
3AE
330
CC
100
AcDbEntity
  8
Sketch2
100
AcDbLine
 10
-120.6711052516137
 20
517.4666801418477
 30
0.5
 11
-120.6832599639892
 21
517.327766418457
 31
0.5000000000000001
  0
LINE
  5
3AF
330
CC
100
AcDbEntity
  8
Sketch2
100
AcDbLine
 10
-117.6386887333552
 20
516.6541276431988
 30
0.5000000000000001
 11
-117.579755783081
 21
516.7805099487305
 31
0.5000000000000001
  0
LINE
  5
3B0
330
CC
100
AcDbEntity
  8
Sketch2
100
AcDbLine
 10
-120.6711055180395
 20
517.188836666715
 30
0.5
 11
-120.658950805664
 21
517.0499038696289
 31
0.5000000000000001
  0
LINE
  5
3B1
330
CC
100
AcDbEntity
  8
Sketch2
100
AcDbLine
 10
-118.6707195778127
 20
518.8673396923804
 30
0.5
 11
-118.8054180145263
 21
518.9034271240234
 31
0.5000000000000001
  0
LINE
  5
3B2
330
CC
100
AcDbEntity
  8
Sketch2
100
AcDbLine
 10
-120.388918799597
 20
516.4135182502518
 30
0.5
 11
-120.3089332580566
 21
516.2992858886719
 31
0.5000000000000001
  0
LINE
  5
3B3
330
CC
100
AcDbEntity
  8
Sketch2
100
AcDbLine
 10
-119.6304893493652
 20
518.8312530517578
 30
0.5000000000000001
 11
-119.7568736529732
 21
518.772316624948
 31
0.5
  0
LINE
  5
3B4
330
CC
100
AcDbEntity
  8
Sketch2
100
AcDbLine
 10
-119.6304893493652
 20
515.8242416381836
 30
0.5000000000000001
 11
-119.4957938651804
 21
515.7881549975609
 31
0.5
  0
LINE
  5
3B5
330
CC
100
AcDbEntity
  8
Sketch2
100
AcDbLine
 10
-117.8575897216797
 20
516.2992858886719
 30
0.5000000000000001
 11
-117.7776059333861
 21
516.4135157463301
 31
0.5
  0
LINE
  5
3B6
330
CC
100
AcDbEntity
  8
Sketch2
100
AcDbLine
 10
-117.7776059333861
 20
516.4135157463301
 30
0.5
 11
-117.6976203918457
 21
516.5277481079101
 31
0.5
  0
LINE
  5
3B7
330
CC
100
AcDbEntity
  8
Sketch2
100
AcDbLine
 10
-118.8054180145263
 20
515.752067565918
 30
0.5000000000000001
 11
-118.6707225303415
 21
515.7881542065406
 31
0.5
  0
LINE
  5
3B8
330
CC
100
AcDbEntity
  8
Sketch2
100
AcDbLine
 10
-84.72301483154296
 20
688.2882690429688
 30
0.5000000000000001
 11
-84.74962205335517
 21
688.4251770273185
 31
0.5
  0
LINE
  5
3B9
330
CC
100
AcDbEntity
  8
Sketch2
100
AcDbLine
 10
-84.74962205335517
 20
688.4251770273185
 30
0.5
 11
-84.77622985839843
 21
688.5620880126952
 31
0.5000000000000001
  0
LINE
  5
3BA
330
CC
100
AcDbEntity
  8
Sketch2
100
AcDbLine
 10
-85.26854630425825
 20
686.9181050765294
 30
0.5000000000000001
 11
-85.16329765319824
 21
687.0095825195313
 31
0.5
  0
LINE
  5
3BB
330
CC
100
AcDbEntity
  8
Sketch2
100
AcDbLine
 10
-85.16329765319824
 20
687.0095825195313
 30
0.5
 11
-85.07554150441116
 21
687.117956881063
 31
0.5
  0
LINE
  5
3BC
330
CC
100
AcDbEntity
  8
Sketch2
100
AcDbLine
 10
-85.79532001947383
 20
689.6281428130236
 30
0.5
 11
-85.92717170715332
 21
689.6735382080078
 31
0.5
  0
LINE
  5
3BD
330
CC
100
AcDbEntity
  8
Sketch2
100
AcDbLine
 10
-86.61837904631761
 20
689.685669237137
 30
0.5
 11
-86.75526618957519
 21
689.6590423583984
 31
0.5
  0
LINE
  5
3BE
330
CC
100
AcDbEntity
  8
Sketch2
100
AcDbLine
 10
-119.4957938651804
 20
515.7881549975609
 30
0.5
 11
-119.3610954284668
 21
515.752067565918
 31
0.5000000000000001
  0
LINE
  5
3BF
330
CC
100
AcDbEntity
  8
Sketch2
100
AcDbLine
 10
-119.7568764233207
 20
515.8831793568815
 30
0.5
 11
-119.6304893493652
 21
515.8242416381836
 31
0.5000000000000001
  0
LINE
  5
3C0
330
CC
100
AcDbEntity
  8
Sketch2
100
AcDbLine
 10
-84.92017820067108
 20
687.3482881531226
 30
0.5
 11
-84.85257148742675
 21
687.4702453613281
 31
0.5000000000000001
  0
LINE
  5
3C1
330
CC
100
AcDbEntity
  8
Sketch2
100
AcDbLine
 10
-84.72057816695926
 20
688.148840329803
 30
0.5
 11
-84.72301483154296
 21
688.2882690429688
 31
0.5000000000000001
  0
LINE
  5
3C2
330
CC
100
AcDbEntity
  8
Sketch2
100
AcDbLine
 10
-85.31116366817251
 20
689.3597783958924
 30
0.5
 11
-85.41954040527343
 21
689.4475555419922
 31
0.5000000000000001
  0
LINE
  5
3C3
330
CC
100
AcDbEntity
  8
Sketch2
100
AcDbLine
 10
-84.94799535237349
 20
688.941992403513
 30
0.5
 11
-85.01981735229492
 21
689.0615081787109
 31
0.5000000000000001
  0
LINE
  5
3C4
330
CC
100
AcDbEntity
  8
Sketch2
100
AcDbLine
 10
-84.85257148742675
 20
687.4702453613281
 30
0.5000000000000001
 11
-84.80717231916976
 21
687.6021180004748
 31
0.5
  0
LINE
  5
3C5
330
CC
100
AcDbEntity
  8
Sketch2
100
AcDbLine
 10
-85.20278930664062
 20
689.2720031738281
 30
0.5000000000000001
 11
-85.31116366817251
 21
689.3597783958924
 31
0.5
  0
LINE
  5
3C6
330
CC
100
AcDbEntity
  8
Sketch2
100
AcDbLine
 10
-86.75526618957519
 20
689.6590423583984
 30
0.5
 11
-86.88545084368209
 21
689.6090703719124
 31
0.5
  0
LINE
  5
3C7
330
CC
100
AcDbEntity
  8
Sketch2
100
AcDbLine
 10
-85.66347122192382
 20
689.5827484130859
 30
0.5
 11
-85.79532001947383
 21
689.6281428130236
 31
0.5
  0
LINE
  5
3C8
330
CC
100
AcDbEntity
  8
Sketch2
100
AcDbLine
 10
-87.55294703623819
 20
689.1241085486244
 30
0.5
 11
-87.64070510864257
 21
689.0157318115234
 31
0.5
  0
LINE
  5
3C9
330
CC
100
AcDbEntity
  8
Sketch2
100
AcDbLine
 10
-119.3610954284668
 20
515.752067565918
 30
0.5000000000000001
 11
-119.2221799816827
 21
515.7398988150102
 31
0.5
  0
LINE
  5
3CA
330
CC
100
AcDbEntity
  8
Sketch2
100
AcDbLine
 10
-87.64070510864257
 20
689.0157318115234
 30
0.5
 11
-87.70831033997829
 21
688.893777276565
 31
0.5
  0
LINE
  5
3CB
330
CC
100
AcDbEntity
  8
Sketch2
100
AcDbLine
 10
-87.77591705322265
 20
688.7718200683593
 30
0.5
 11
-87.82131622147963
 21
688.6399855757673
 31
0.5
  0
LINE
  5
3CC
330
CC
100
AcDbEntity
  8
Sketch2
100
AcDbLine
 10
-87.82131622147963
 20
688.6399855757673
 30
0.5
 11
-87.86671638488769
 21
688.5081481933593
 31
0.5
  0
LINE
  5
3CD
330
CC
100
AcDbEntity
  8
Sketch2
100
AcDbLine
 10
-118.2832622528076
 20
515.9421157836914
 30
0.5000000000000001
 11
-118.1690323951493
 21
516.0220900353463
 31
0.5
  0
LINE
  5
3CE
330
CC
100
AcDbEntity
  8
Sketch2
100
AcDbLine
 10
-84.71814155578613
 20
688.0094146728516
 30
0.5000000000000001
 11
-84.72057816695926
 21
688.148840329803
 31
0.5
  0
LINE
  5
3CF
330
CC
100
AcDbEntity
  8
Sketch2
100
AcDbLine
 10
-118.5360240936279
 20
515.8242416381836
 30
0.5000000000000001
 11
-118.4096445583392
 21
515.8831780649934
 31
0.5
  0
LINE
  5
3D0
330
CC
100
AcDbEntity
  8
Sketch2
100
AcDbLine
 10
-118.9443412747648
 20
515.7398985482709
 30
0.5
 11
-118.8054180145263
 21
515.752067565918
 31
0.5000000000000001
  0
LINE
  5
3D1
330
CC
100
AcDbEntity
  8
Sketch2
100
AcDbLine
 10
-85.41954040527343
 20
689.4475555419922
 30
0.5000000000000001
 11
-85.54150447687062
 21
689.5151512366892
 31
0.5
  0
LINE
  5
3D2
330
CC
100
AcDbEntity
  8
Sketch2
100
AcDbLine
 10
-117.9561959583265
 20
516.200674883601
 30
0.5
 11
-117.8575897216797
 21
516.2992858886719
 31
0.5000000000000001
  0
LINE
  5
3D3
330
CC
100
AcDbEntity
  8
Sketch2
100
AcDbLine
 10
-119.8832607269287
 20
515.9421157836914
 30
0.5000000000000001
 11
-119.7568764233207
 21
515.8831793568815
 31
0.5
  0
LINE
  5
3D4
330
CC
100
AcDbEntity
  8
Sketch2
100
AcDbLine
 10
-119.2221799816827
 20
515.7398988150102
 30
0.5
 11
-119.0832614898681
 21
515.7277297973632
 31
0.5000000000000001
  0
LINE
  5
3D5
330
CC
100
AcDbEntity
  8
Sketch2
100
AcDbLine
 10
-118.6707225303415
 20
515.7881542065406
 30
0.5
 11
-118.5360240936279
 21
515.8242416381836
 31
0.5000000000000001
  0
LINE
  5
3D6
330
CC
100
AcDbEntity
  8
Sketch2
100
AcDbLine
 10
-118.1690323951493
 20
516.0220900353463
 30
0.5
 11
-118.0548000335693
 21
516.102066040039
 31
0.5000000000000001
  0
LINE
  5
3D7
330
CC
100
AcDbEntity
  8
Sketch2
100
AcDbLine
 10
-84.98778343200683
 20
687.226333618164
 30
0.5000000000000001
 11
-84.92017820067108
 21
687.3482881531226
 31
0.5
  0
LINE
  5
3D8
330
CC
100
AcDbEntity
  8
Sketch2
100
AcDbLine
 10
-118.4096445583392
 20
515.8831780649934
 30
0.5
 11
-118.2832622528076
 21
515.9421157836914
 31
0.5000000000000001
  0
LINE
  5
3D9
330
CC
100
AcDbEntity
  8
Sketch2
100
AcDbLine
 10
-85.07554150441116
 20
687.117956881063
 30
0.5
 11
-84.98778343200683
 21
687.226333618164
 31
0.5000000000000001
  0
LINE
  5
3DA
330
CC
100
AcDbEntity
  8
Sketch2
100
AcDbLine
 10
-84.80717231916976
 20
687.6021180004748
 30
0.5
 11
-84.76177215576171
 21
687.7339935302734
 31
0.5000000000000001
  0
LINE
  5
3DB
330
CC
100
AcDbEntity
  8
Sketch2
100
AcDbLine
 10
-84.76177215576171
 20
687.7339935302734
 30
0.5000000000000001
 11
-84.73995709486729
 21
687.8717025922692
 31
0.5
  0
LINE
  5
3DC
330
CC
100
AcDbEntity
  8
Sketch2
100
AcDbLine
 10
-84.82620184488444
 20
688.6922822034409
 30
0.5
 11
-84.87617492675781
 21
688.8224792480468
 31
0.5000000000000001
  0
LINE
  5
3DD
330
CC
100
AcDbEntity
  8
Sketch2
100
AcDbLine
 10
-85.54150447687062
 20
689.5151512366892
 30
0.5
 11
-85.66347122192382
 21
689.5827484130859
 31
0.5
  0
LINE
  5
3DE
330
CC
100
AcDbEntity
  8
Sketch2
100
AcDbLine
 10
-85.92717170715332
 20
689.6735382080078
 30
0.5
 11
-86.06489984242633
 21
689.6953580372215
 31
0.5
  0
LINE
  5
3DF
330
CC
100
AcDbEntity
  8
Sketch2
100
AcDbLine
 10
-86.06489984242633
 20
689.6953580372215
 30
0.5
 11
-86.2026309967041
 21
689.7171783447265
 31
0.5
  0
LINE
  5
3E0
330
CC
100
AcDbEntity
  8
Sketch2
100
AcDbLine
 10
-86.34206142197477
 20
689.7147369652341
 30
0.5
 11
-86.48149490356445
 21
689.7122955322266
 31
0.5
  0
LINE
  5
3E1
330
CC
100
AcDbEntity
  8
Sketch2
100
AcDbLine
 10
-87.1351705801838
 20
689.4873054743393
 30
0.5
 11
-87.25470542907714
 21
689.4155120849609
 31
0.5
  0
LINE
  5
3E2
330
CC
100
AcDbEntity
  8
Sketch2
100
AcDbLine
 10
-86.48149490356445
 20
689.7122955322266
 30
0.5
 11
-86.61837904631761
 21
689.685669237137
 31
0.5
  0
LINE
  5
3E3
330
CC
100
AcDbEntity
  8
Sketch2
100
AcDbLine
 10
-119.0832614898681
 20
515.7277297973632
 30
0.5000000000000001
 11
-118.9443412747648
 21
515.7398985482709
 31
0.5
  0
LINE
  5
3E4
330
CC
100
AcDbEntity
  8
Sketch2
100
AcDbLine
 10
-84.73995709486729
 20
687.8717025922692
 30
0.5
 11
-84.71814155578613
 21
688.0094146728516
 31
0.5000000000000001
  0
LINE
  5
3E5
330
CC
100
AcDbEntity
  8
Sketch2
100
AcDbLine
 10
-85.01981735229492
 20
689.0615081787109
 30
0.5000000000000001
 11
-85.11130232679116
 21
689.166754522768
 31
0.5
  0
LINE
  5
3E6
330
CC
100
AcDbEntity
  8
Sketch2
100
AcDbLine
 10
-86.2026309967041
 20
689.7171783447265
 30
0.5
 11
-86.34206142197477
 21
689.7147369652341
 31
0.5
  0
LINE
  5
3E7
330
CC
100
AcDbEntity
  8
Sketch2
100
AcDbLine
 10
-87.35994700481496
 20
689.3239985005488
 30
0.5
 11
-87.46519088745117
 21
689.2324829101562
 31
0.5
  0
LINE
  5
3E8
330
CC
100
AcDbEntity
  8
Sketch2
100
AcDbLine
 10
-87.46519088745117
 20
689.2324829101562
 30
0.5
 11
-87.55294703623819
 21
689.1241085486244
 31
0.5
  0
LINE
  5
3E9
330
CC
100
AcDbEntity
  8
Sketch2
100
AcDbLine
 10
-84.87617492675781
 20
688.8224792480468
 30
0.5000000000000001
 11
-84.94799535237349
 21
688.941992403513
 31
0.5
  0
LINE
  5
3EA
330
CC
100
AcDbEntity
  8
Sketch2
100
AcDbLine
 10
-85.11130232679116
 20
689.166754522768
 30
0.5
 11
-85.20278930664062
 21
689.2720031738281
 31
0.5000000000000001
  0
LINE
  5
3EB
330
CC
100
AcDbEntity
  8
Sketch2
100
AcDbLine
 10
-86.88545084368209
 20
689.6090703719124
 30
0.5
 11
-87.01563835144042
 21
689.559097290039
 31
0.5
  0
LINE
  5
3EC
330
CC
100
AcDbEntity
  8
Sketch2
100
AcDbLine
 10
-87.25470542907714
 20
689.4155120849609
 30
0.5
 11
-87.35994700481496
 21
689.3239985005488
 31
0.5
  0
LINE
  5
3ED
330
CC
100
AcDbEntity
  8
Sketch2
100
AcDbLine
 10
-87.86671638488769
 20
688.5081481933593
 30
0.5
 11
-87.8885314457821
 21
688.3704009848091
 31
0.5
  0
LINE
  5
3EE
330
CC
100
AcDbEntity
  8
Sketch2
100
AcDbLine
 10
-87.8885314457821
 20
688.3704009848091
 30
0.5
 11
-87.91034698486328
 21
688.2326507568359
 31
0.5
  0
LINE
  5
3EF
330
CC
100
AcDbEntity
  8
Sketch2
100
AcDbLine
 10
-84.77622985839843
 20
688.5620880126952
 30
0.5000000000000001
 11
-84.82620184488444
 21
688.6922822034409
 31
0.5
  0
LINE
  5
3F0
330
CC
100
AcDbEntity
  8
Sketch2
100
AcDbLine
 10
-87.91034698486328
 20
688.2326507568359
 30
0.5
 11
-87.90791514200947
 21
688.0932250998846
 31
0.5
  0
LINE
  5
3F1
330
CC
100
AcDbEntity
  8
Sketch2
100
AcDbLine
 10
-87.01563835144042
 20
689.559097290039
 30
0.5
 11
-87.1351705801838
 21
689.4873054743393
 31
0.5
  0
LINE
  5
3F2
330
CC
100
AcDbEntity
  8
Sketch2
100
AcDbLine
 10
-118.0548000335693
 20
516.102066040039
 30
0.5000000000000001
 11
-117.9561959583265
 21
516.200674883601
 31
0.5
  0
LINE
  5
3F3
330
CC
100
AcDbEntity
  8
Sketch2
100
AcDbLine
 10
-87.70831033997829
 20
688.893777276565
 30
0.5
 11
-87.77591705322265
 21
688.7718200683593
 31
0.5
  0
LINE
  5
3F4
330
CC
100
AcDbEntity
  8
Sketch2
100
AcDbLine
 10
-86.96502685546875
 20
686.6593933105469
 30
0.5000000000000001
 11
-86.83317328959935
 21
686.6139989106092
 31
0.5
  0
LINE
  5
3F5
330
CC
100
AcDbEntity
  8
Sketch2
100
AcDbLine
 10
-85.74303769696724
 20
686.632995057775
 30
0.5
 11
-85.61285018920898
 21
686.6829681396484
 31
0.5000000000000001
  0
LINE
  5
3F6
330
CC
100
AcDbEntity
  8
Sketch2
100
AcDbLine
 10
-92.54542286174626
 20
634.2184815860697
 30
0.5
 11
-92.48648643493652
 21
634.0921020507813
 31
0.5
  0
LINE
  5
3F7
330
CC
100
AcDbEntity
  8
Sketch2
100
AcDbLine
 10
-92.40214811355221
 20
633.6837753327964
 30
0.5
 11
-92.38999366760253
 21
633.5448455810547
 31
0.5
  0
LINE
  5
3F8
330
CC
100
AcDbEntity
  8
Sketch2
100
AcDbLine
 10
-92.45039502599453
 20
633.1323227424853
 30
0.5
 11
-92.48648643493652
 21
632.9976272583007
 31
0.5
  0
LINE
  5
3F9
330
CC
100
AcDbEntity
  8
Sketch2
100
AcDbLine
 10
-92.54542415363459
 20
632.871244952769
 30
0.5
 11
-92.60436058044433
 21
632.7448654174804
 31
0.5
  0
LINE
  5
3FA
330
CC
100
AcDbEntity
  8
Sketch2
100
AcDbLine
 10
-92.6843461219849
 20
632.6306330559003
 30
0.5
 11
-92.76432991027832
 21
632.5164031982422
 31
0.5
  0
LINE
  5
3FB
330
CC
100
AcDbEntity
  8
Sketch2
100
AcDbLine
 10
-93.18999290466308
 20
632.1592330932617
 30
0.5
 11
-93.31637997861879
 21
632.1002953745636
 31
0.5
  0
LINE
  5
3FC
330
CC
100
AcDbEntity
  8
Sketch2
100
AcDbLine
 10
-87.8788760240374
 20
687.8169265489235
 30
0.5
 11
-87.85226821899414
 21
687.6800537109375
 31
0.5
  0
LINE
  5
3FD
330
CC
100
AcDbEntity
  8
Sketch2
100
AcDbLine
 10
-92.76432991027832
 20
634.5733261108398
 30
0.5
 11
-92.68434436873775
 21
634.4590937492596
 31
0.5
  0
LINE
  5
3FE
330
CC
100
AcDbEntity
  8
Sketch2
100
AcDbLine
 10
-87.68049318827596
 20
687.3001493201197
 30
0.5
 11
-87.60867118835449
 21
687.1806335449218
 31
0.5
  0
LINE
  5
3FF
330
CC
100
AcDbEntity
  8
Sketch2
100
AcDbLine
 10
-87.80229146418882
 20
687.5498595201919
 30
0.5
 11
-87.7523136138916
 21
687.4196624755859
 31
0.5
  0
LINE
  5
400
330
CC
100
AcDbEntity
  8
Sketch2
100
AcDbLine
 10
-87.51718621385832
 20
687.0753872008647
 30
0.5
 11
-87.42569923400878
 21
686.9701385498046
 31
0.5
  0
LINE
  5
401
330
CC
100
AcDbEntity
  8
Sketch2
100
AcDbLine
 10
-85.87322235107421
 20
686.583023071289
 30
0.5000000000000001
 11
-85.74303769696724
 21
686.632995057775
 31
0.5
  0
LINE
  5
402
330
CC
100
AcDbEntity
  8
Sketch2
100
AcDbLine
 10
-85.61285018920898
 20
686.6829681396484
 30
0.5000000000000001
 11
-85.49332272878485
 21
686.7547981019027
 31
0.5
  0
LINE
  5
403
330
CC
100
AcDbEntity
  8
Sketch2
100
AcDbLine
 10
-92.60436058044433
 20
634.3448638916015
 30
0.5
 11
-92.54542286174626
 21
634.2184815860697
 31
0.5
  0
LINE
  5
404
330
CC
100
AcDbEntity
  8
Sketch2
100
AcDbLine
 10
-92.48648643493652
 20
634.0921020507813
 30
0.5
 11
-92.45039423486971
 21
633.9574036140674
 31
0.5
  0
LINE
  5
405
330
CC
100
AcDbEntity
  8
Sketch2
100
AcDbLine
 10
-92.41430282592773
 20
633.8227081298827
 30
0.5
 11
-92.40214811355221
 21
633.6837753327964
 31
0.5
  0
LINE
  5
406
330
CC
100
AcDbEntity
  8
Sketch2
100
AcDbLine
 10
-93.0757678153243
 20
632.2392073449165
 30
0.5
 11
-93.18999290466308
 21
632.1592330932617
 31
0.5
  0
LINE
  5
407
330
CC
100
AcDbEntity
  8
Sketch2
100
AcDbLine
 10
-93.31637997861879
 20
632.1002953745636
 30
0.5
 11
-93.44276428222656
 21
632.0413589477539
 31
0.5
  0
LINE
  5
408
330
CC
100
AcDbEntity
  8
Sketch2
100
AcDbLine
 10
-87.85226821899414
 20
687.6800537109375
 30
0.5
 11
-87.80229146418882
 21
687.5498595201919
 31
0.5
  0
LINE
  5
409
330
CC
100
AcDbEntity
  8
Sketch2
100
AcDbLine
 10
-86.563588698223
 20
686.5467836864113
 30
0.5
 11
-86.42585754394531
 21
686.5249633789062
 31
0.5000000000000001
  0
LINE
  5
40A
330
CC
100
AcDbEntity
  8
Sketch2
100
AcDbLine
 10
-86.14700317382812
 20
686.5298461914062
 30
0.5000000000000001
 11
-86.01011426275556
 21
686.5564343399411
 31
0.5
  0
LINE
  5
40B
330
CC
100
AcDbEntity
  8
Sketch2
100
AcDbLine
 10
-87.20895767211914
 20
686.7945861816406
 30
0.5000000000000001
 11
-87.08699360052188
 21
686.7269904869435
 31
0.5
  0
LINE
  5
40C
330
CC
100
AcDbEntity
  8
Sketch2
100
AcDbLine
 10
-85.49332272878485
 20
686.7547981019027
 30
0.5
 11
-85.37379264831542
 21
686.8266296386718
 31
0.5000000000000001
  0
LINE
  5
40D
330
CC
100
AcDbEntity
  8
Sketch2
100
AcDbLine
 10
-93.07576531150674
 20
634.850501137432
 30
0.5
 11
-92.96154022216796
 21
634.7705078125
 31
0.5
  0
LINE
  5
40E
330
CC
100
AcDbEntity
  8
Sketch2
100
AcDbLine
 10
-92.68434436873775
 20
634.4590937492596
 30
0.5
 11
-92.60436058044433
 21
634.3448638916015
 31
0.5
  0
LINE
  5
40F
330
CC
100
AcDbEntity
  8
Sketch2
100
AcDbLine
 10
-92.40214837997806
 20
633.4059318576637
 30
0.5
 11
-92.41430282592773
 21
633.2670211791992
 31
0.5
  0
LINE
  5
410
330
CC
100
AcDbEntity
  8
Sketch2
100
AcDbLine
 10
-93.57745976641115
 20
635.0844570019508
 30
0.5
 11
-93.44276428222656
 21
635.0483703613281
 31
0.5
  0
LINE
  5
411
330
CC
100
AcDbEntity
  8
Sketch2
100
AcDbLine
 10
-92.60436058044433
 20
632.7448654174804
 30
0.5
 11
-92.6843461219849
 21
632.6306330559003
 31
0.5
  0
LINE
  5
412
330
CC
100
AcDbEntity
  8
Sketch2
100
AcDbLine
 10
-92.86293614692537
 20
632.4177921931712
 30
0.5
 11
-92.96154022216796
 21
632.3191833496093
 31
0.5
  0
LINE
  5
413
330
CC
100
AcDbEntity
  8
Sketch2
100
AcDbLine
 10
-87.31732964079624
 20
686.8823633277404
 30
0.5
 11
-87.20895767211914
 21
686.7945861816406
 31
0.5000000000000001
  0
LINE
  5
414
330
CC
100
AcDbEntity
  8
Sketch2
100
AcDbLine
 10
-87.9054832458496
 20
687.9537963867187
 30
0.5
 11
-87.8788760240374
 21
687.8169265489235
 31
0.5
  0
LINE
  5
415
330
CC
100
AcDbEntity
  8
Sketch2
100
AcDbLine
 10
-86.28643188699387
 20
686.5274047583986
 30
0.5
 11
-86.14700317382812
 21
686.5298461914062
 31
0.5000000000000001
  0
LINE
  5
416
330
CC
100
AcDbEntity
  8
Sketch2
100
AcDbLine
 10
-86.01011426275556
 20
686.5564343399411
 30
0.5
 11
-85.87322235107421
 21
686.583023071289
 31
0.5000000000000001
  0
LINE
  5
417
330
CC
100
AcDbEntity
  8
Sketch2
100
AcDbLine
 10
-85.37379264831542
 20
686.8266296386718
 30
0.5000000000000001
 11
-85.26854630425825
 21
686.9181050765294
 31
0.5000000000000001
  0
LINE
  5
418
330
CC
100
AcDbEntity
  8
Sketch2
100
AcDbLine
 10
-92.86293398552093
 20
634.6719158811245
 30
0.5
 11
-92.76432991027832
 21
634.5733261108398
 31
0.5
  0
LINE
  5
419
330
CC
100
AcDbEntity
  8
Sketch2
100
AcDbLine
 10
-92.38999366760253
 20
633.5448455810547
 30
0.5
 11
-92.40214837997806
 21
633.4059318576637
 31
0.5
  0
LINE
  5
41A
330
CC
100
AcDbEntity
  8
Sketch2
100
AcDbLine
 10
-92.76432991027832
 20
632.5164031982422
 30
0.5
 11
-92.86293614692537
 21
632.4177921931712
 31
0.5
  0
LINE
  5
41B
330
CC
100
AcDbEntity
  8
Sketch2
100
AcDbLine
 10
-93.31637720827087
 20
634.9894326426301
 30
0.5
 11
-93.18999290466308
 21
634.9304962158202
 31
0.5
  0
LINE
  5
41C
330
CC
100
AcDbEntity
  8
Sketch2
100
AcDbLine
 10
-92.96154022216796
 20
632.3191833496093
 30
0.5
 11
-93.0757678153243
 21
632.2392073449165
 31
0.5
  0
LINE
  5
41D
330
CC
100
AcDbEntity
  8
Sketch2
100
AcDbLine
 10
-87.08699360052188
 20
686.7269904869435
 30
0.5
 11
-86.96502685546875
 21
686.6593933105469
 31
0.5000000000000001
  0
LINE
  5
41E
330
CC
100
AcDbEntity
  8
Sketch2
100
AcDbLine
 10
-92.41430282592773
 20
633.2670211791992
 30
0.5
 11
-92.45039502599453
 21
633.1323227424853
 31
0.5
  0
LINE
  5
41F
330
CC
100
AcDbEntity
  8
Sketch2
100
AcDbLine
 10
-86.83317328959935
 20
686.6139989106092
 30
0.5
 11
-86.70131683349609
 21
686.568603515625
 31
0.5000000000000001
  0
LINE
  5
420
330
CC
100
AcDbEntity
  8
Sketch2
100
AcDbLine
 10
-92.48648643493652
 20
632.9976272583007
 30
0.5
 11
-92.54542415363459
 21
632.871244952769
 31
0.5
  0
LINE
  5
421
330
CC
100
AcDbEntity
  8
Sketch2
100
AcDbLine
 10
-93.18999290466308
 20
634.9304962158202
 30
0.5
 11
-93.07576531150674
 21
634.850501137432
 31
0.5
  0
LINE
  5
422
330
CC
100
AcDbEntity
  8
Sketch2
100
AcDbLine
 10
-93.44276428222656
 20
632.0413589477539
 30
0.5
 11
-93.57746271894042
 21
632.0052524424156
 31
0.5
  0
LINE
  5
423
330
CC
100
AcDbEntity
  8
Sketch2
100
AcDbLine
 10
-93.712158203125
 20
635.1205444335938
 30
0.5
 11
-93.57745976641115
 21
635.0844570019508
 31
0.5
  0
LINE
  5
424
330
CC
100
AcDbEntity
  8
Sketch2
100
AcDbLine
 10
-93.57746271894042
 20
632.0052524424156
 30
0.5
 11
-93.712158203125
 21
631.9691467285156
 31
0.5
  0
LINE
  5
425
330
CC
100
AcDbEntity
  8
Sketch2
100
AcDbLine
 10
-93.712158203125
 20
631.9691467285156
 30
0.5
 11
-93.85108146336364
 21
631.9569967845638
 31
0.5
  0
LINE
  5
426
330
CC
100
AcDbEntity
  8
Sketch2
100
AcDbLine
 10
-93.85108146336364
 20
631.9569967845638
 30
0.5
 11
-93.99000167846679
 21
631.9448471069335
 31
0.5
  0
LINE
  5
427
330
CC
100
AcDbEntity
  8
Sketch2
100
AcDbLine
 10
-93.99000167846679
 20
631.9448471069335
 30
0.5
 11
-94.12892017028159
 21
631.9569970508853
 31
0.5
  0
LINE
  5
428
330
CC
100
AcDbEntity
  8
Sketch2
100
AcDbLine
 10
-94.12892017028159
 20
631.9569970508853
 30
0.5
 11
-94.26783561706542
 21
631.9691467285156
 31
0.5
  0
LINE
  5
429
330
CC
100
AcDbEntity
  8
Sketch2
100
AcDbLine
 10
-94.26783561706542
 20
631.9691467285156
 30
0.5
 11
-94.40253405377928
 21
632.0052532338539
 31
0.5
  0
LINE
  5
42A
330
CC
100
AcDbEntity
  8
Sketch2
100
AcDbLine
 10
-94.40253405377928
 20
632.0052532338539
 30
0.5
 11
-94.53722953796386
 21
632.0413589477539
 31
0.5
  0
LINE
  5
42B
330
CC
100
AcDbEntity
  8
Sketch2
100
AcDbLine
 10
-87.42569923400878
 20
686.9701385498046
 30
0.5
 11
-87.31732964079624
 21
686.8823633277404
 31
0.5
  0
LINE
  5
42C
330
CC
100
AcDbEntity
  8
Sketch2
100
AcDbLine
 10
-87.90791514200947
 20
688.0932250998846
 30
0.5
 11
-87.9054832458496
 21
687.9537963867187
 31
0.5
  0
LINE
  5
42D
330
CC
100
AcDbEntity
  8
Sketch2
100
AcDbLine
 10
-86.70131683349609
 20
686.568603515625
 30
0.5000000000000001
 11
-86.563588698223
 21
686.5467836864113
 31
0.5
  0
LINE
  5
42E
330
CC
100
AcDbEntity
  8
Sketch2
100
AcDbLine
 10
-87.60867118835449
 20
687.1806335449218
 30
0.5
 11
-87.51718621385832
 21
687.0753872008647
 31
0.5
  0
LINE
  5
42F
330
CC
100
AcDbEntity
  8
Sketch2
100
AcDbLine
 10
-86.42585754394531
 20
686.5249633789062
 30
0.5000000000000001
 11
-86.28643188699387
 21
686.5274047583986
 31
0.5
  0
LINE
  5
430
330
CC
100
AcDbEntity
  8
Sketch2
100
AcDbLine
 10
-93.44276428222656
 20
635.0483703613281
 30
0.5
 11
-93.31637720827087
 21
634.9894326426301
 31
0.5
  0
LINE
  5
431
330
CC
100
AcDbEntity
  8
Sketch2
100
AcDbLine
 10
-92.96154022216796
 20
634.7705078125
 30
0.5
 11
-92.86293398552093
 21
634.6719158811245
 31
0.5
  0
LINE
  5
432
330
CC
100
AcDbEntity
  8
Sketch2
100
AcDbLine
 10
-92.45039423486971
 20
633.9574036140674
 30
0.5
 11
-92.41430282592773
 21
633.8227081298827
 31
0.5
  0
LINE
  5
433
330
CC
100
AcDbEntity
  8
Sketch2
100
AcDbLine
 10
-87.7523136138916
 20
687.4196624755859
 30
0.5
 11
-87.68049318827596
 21
687.3001493201197
 31
0.5
  0
LINE
  5
434
330
CC
100
AcDbEntity
  8
Sketch2
100
AcDbLine
 10
-94.12891235682678
 20
635.1326943775454
 30
0.5
 11
-93.98999214172363
 21
635.1448440551758
 31
0.5
  0
LINE
  5
435
330
CC
100
AcDbEntity
  8
Sketch2
100
AcDbLine
 10
-123.7713419925475
 20
599.4252964514207
 30
0.5
 11
-123.6366462707519
 21
599.3891906738281
 31
0.5
  0
LINE
  5
436
330
CC
100
AcDbEntity
  8
Sketch2
100
AcDbLine
 10
-122.8782264983594
 20
598.7999142632681
 30
0.5
 11
-122.7982425689697
 21
598.6856842041015
 31
0.5
  0
LINE
  5
437
330
CC
100
AcDbEntity
  8
Sketch2
100
AcDbLine
 10
-95.56569099426269
 20
633.8227081298827
 30
0.5
 11
-95.52959879419589
 21
633.9574065665966
 31
0.5
  0
LINE
  5
438
330
CC
100
AcDbEntity
  8
Sketch2
100
AcDbLine
 10
-95.4935073852539
 20
632.9976272583007
 30
0.5
 11
-95.52959958532071
 21
633.1323256950146
 31
0.5
  0
LINE
  5
439
330
CC
100
AcDbEntity
  8
Sketch2
100
AcDbLine
 10
-93.98999214172363
 20
635.1448440551758
 30
0.5
 11
-93.85107364990885
 21
635.132694111224
 31
0.5
  0
LINE
  5
43A
330
CC
100
AcDbEntity
  8
Sketch2
100
AcDbLine
 10
-95.2156639099121
 20
632.5164031982422
 30
0.5
 11
-95.29564945145267
 21
632.6306355598224
 31
0.5
  0
LINE
  5
43B
330
CC
100
AcDbEntity
  8
Sketch2
100
AcDbLine
 10
-95.57784570663821
 20
633.4059349025901
 30
0.5
 11
-95.59000015258789
 21
633.5448455810547
 31
0.5
  0
LINE
  5
43C
330
CC
100
AcDbEntity
  8
Sketch2
100
AcDbLine
 10
-94.79000091552734
 20
634.9304962158202
 30
0.5
 11
-94.66361384157165
 21
634.9894339345183
 31
0.5
  0
LINE
  5
43D
330
CC
100
AcDbEntity
  8
Sketch2
100
AcDbLine
 10
-123.5102641881612
 20
599.3302530590974
 30
0.5
 11
-123.3838844299316
 21
599.2713165283203
 31
0.5
  0
LINE
  5
43E
330
CC
100
AcDbEntity
  8
Sketch2
100
AcDbLine
 10
-95.37563323974609
 20
632.7448654174804
 30
0.5
 11
-95.43457095844416
 21
632.8712477230123
 31
0.5
  0
LINE
  5
43F
330
CC
100
AcDbEntity
  8
Sketch2
100
AcDbLine
 10
-95.56569099426269
 20
633.2670211791992
 30
0.5
 11
-95.57784570663821
 21
633.4059349025901
 31
0.5
  0
LINE
  5
440
330
CC
100
AcDbEntity
  8
Sketch2
100
AcDbLine
 10
-122.5838851928711
 20
597.8857040405273
 30
0.5
 11
-122.59603511539
 21
597.7467714885214
 31
0.5
  0
LINE
  5
441
330
CC
100
AcDbEntity
  8
Sketch2
100
AcDbLine
 10
-122.6081848144531
 20
597.6078414916992
 30
0.5
 11
-122.6442769508525
 21
597.4731432925964
 31
0.5
  0
LINE
  5
442
330
CC
100
AcDbEntity
  8
Sketch2
100
AcDbLine
 10
-122.6803684234619
 20
597.3384475708008
 30
0.5
 11
-122.7393060381925
 21
597.21206548821
 31
0.5
  0
LINE
  5
443
330
CC
100
AcDbEntity
  8
Sketch2
100
AcDbLine
 10
-95.29564945145267
 20
632.6306355598224
 30
0.5
 11
-95.37563323974609
 21
632.7448654174804
 31
0.5
  0
LINE
  5
444
330
CC
100
AcDbEntity
  8
Sketch2
100
AcDbLine
 10
-122.59603511539
 20
597.7467714885214
 30
0.5
 11
-122.6081848144531
 21
597.6078414916992
 31
0.5
  0
LINE
  5
445
330
CC
100
AcDbEntity
  8
Sketch2
100
AcDbLine
 10
-95.52959958532071
 20
633.1323256950146
 30
0.5
 11
-95.56569099426269
 21
633.2670211791992
 31
0.5
  0
LINE
  5
446
330
CC
100
AcDbEntity
  8
Sketch2
100
AcDbLine
 10
-122.7393060381925
 20
597.21206548821
 30
0.5
 11
-122.7982425689697
 21
597.0856857299804
 31
0.5
  0
LINE
  5
447
330
CC
100
AcDbEntity
  8
Sketch2
100
AcDbLine
 10
-95.01845359802246
 20
632.3191833496093
 30
0.5
 11
-95.11705983466951
 21
632.4177943546803
 31
0.5
  0
LINE
  5
448
330
CC
100
AcDbEntity
  8
Sketch2
100
AcDbLine
 10
-94.79000091552734
 20
632.1592330932617
 30
0.5
 11
-94.90422850868368
 21
632.2392090979546
 31
0.5
  0
LINE
  5
449
330
CC
100
AcDbEntity
  8
Sketch2
100
AcDbLine
 10
-95.11705983466951
 20
632.4177943546803
 30
0.5
 11
-95.2156639099121
 21
632.5164031982422
 31
0.5
  0
LINE
  5
44A
330
CC
100
AcDbEntity
  8
Sketch2
100
AcDbLine
 10
-95.01845359802246
 20
634.7705078125
 30
0.5
 11
-94.90422600486612
 21
634.8505028908882
 31
0.5
  0
LINE
  5
44B
330
CC
100
AcDbEntity
  8
Sketch2
100
AcDbLine
 10
-94.53722953796386
 20
635.0483703613281
 30
0.5
 11
-94.40253110125002
 21
635.084457792971
 31
0.5
  0
LINE
  5
44C
330
CC
100
AcDbEntity
  8
Sketch2
100
AcDbLine
 10
-94.40253110125002
 20
635.084457792971
 30
0.5
 11
-94.26783561706542
 21
635.1205444335938
 31
0.5
  0
LINE
  5
44D
330
CC
100
AcDbEntity
  8
Sketch2
100
AcDbLine
 10
-122.6081848144531
 20
598.1635284423828
 30
0.5
 11
-122.5960348919342
 21
598.0246149640387
 31
0.5
  0
LINE
  5
44E
330
CC
100
AcDbEntity
  8
Sketch2
100
AcDbLine
 10
-122.7982425689697
 20
597.0856857299804
 30
0.5
 11
-122.878227969414
 21
596.9714535699087
 31
0.5
  0
LINE
  5
44F
330
CC
100
AcDbEntity
  8
Sketch2
100
AcDbLine
 10
-122.878227969414
 20
596.9714535699087
 30
0.5
 11
-122.9582118988037
 21
596.8572235107422
 31
0.5
  0
LINE
  5
450
330
CC
100
AcDbEntity
  8
Sketch2
100
AcDbLine
 10
-123.6366462707519
 20
599.3891906738281
 30
0.5
 11
-123.5102641881612
 21
599.3302530590974
 31
0.5
  0
LINE
  5
451
330
CC
100
AcDbEntity
  8
Sketch2
100
AcDbLine
 10
-95.43457095844416
 20
632.8712477230123
 30
0.5
 11
-95.4935073852539
 21
632.9976272583007
 31
0.5
  0
LINE
  5
452
330
CC
100
AcDbEntity
  8
Sketch2
100
AcDbLine
 10
-94.53722953796386
 20
632.0413589477539
 30
0.5
 11
-94.66361661191957
 21
632.1002966664519
 31
0.5
  0
LINE
  5
453
330
CC
100
AcDbEntity
  8
Sketch2
100
AcDbLine
 10
-94.66361384157165
 20
634.9894339345183
 30
0.5
 11
-94.53722953796386
 21
635.0483703613281
 31
0.5
  0
LINE
  5
454
330
CC
100
AcDbEntity
  8
Sketch2
100
AcDbLine
 10
-122.6442769508525
 20
597.4731432925964
 30
0.5
 11
-122.6803684234619
 21
597.3384475708008
 31
0.5
  0
LINE
  5
455
330
CC
100
AcDbEntity
  8
Sketch2
100
AcDbLine
 10
-95.52959879419589
 20
633.9574065665966
 30
0.5
 11
-95.4935073852539
 21
634.0921020507813
 31
0.5
  0
LINE
  5
456
330
CC
100
AcDbEntity
  8
Sketch2
100
AcDbLine
 10
-123.1554222106933
 20
596.6600036621094
 30
0.5
 11
-123.2696543707651
 21
596.580027798496
 31
0.5
  0
LINE
  5
457
330
CC
100
AcDbEntity
  8
Sketch2
100
AcDbLine
 10
-123.2696543707651
 20
596.580027798496
 30
0.5
 11
-123.3838844299316
 21
596.5000534057617
 31
0.5
  0
LINE
  5
458
330
CC
100
AcDbEntity
  8
Sketch2
100
AcDbLine
 10
-95.57784544021236
 20
633.683778378141
 30
0.5
 11
-95.56569099426269
 21
633.8227081298827
 31
0.5
  0
LINE
  5
459
330
CC
100
AcDbEntity
  8
Sketch2
100
AcDbLine
 10
-123.0568179615071
 20
596.7586126796232
 30
0.5
 11
-123.1554222106933
 21
596.6600036621094
 31
0.5
  0
LINE
  5
45A
330
CC
100
AcDbEntity
  8
Sketch2
100
AcDbLine
 10
-122.9582118988037
 20
598.9141464233398
 30
0.5
 11
-122.8782264983594
 21
598.7999142632681
 31
0.5
  0
LINE
  5
45B
330
CC
100
AcDbEntity
  8
Sketch2
100
AcDbLine
 10
-123.1554222106933
 20
599.1113662719726
 30
0.5
 11
-123.0568161479899
 21
599.0127554408537
 31
0.5
  0
LINE
  5
45C
330
CC
100
AcDbEntity
  8
Sketch2
100
AcDbLine
 10
-122.6442762870625
 20
598.2982241641784
 30
0.5
 11
-122.6081848144531
 21
598.1635284423828
 31
0.5
  0
LINE
  5
45D
330
CC
100
AcDbEntity
  8
Sketch2
100
AcDbLine
 10
-122.7982425689697
 20
598.6856842041015
 30
0.5
 11
-122.7393049542391
 21
598.5593021215109
 31
0.5
  0
LINE
  5
45E
330
CC
100
AcDbEntity
  8
Sketch2
100
AcDbLine
 10
-122.7393049542391
 20
598.5593021215109
 30
0.5
 11
-122.6803684234619
 21
598.4329223632812
 31
0.5
  0
LINE
  5
45F
330
CC
100
AcDbEntity
  8
Sketch2
100
AcDbLine
 10
-94.90422600486612
 20
634.8505028908882
 30
0.5
 11
-94.79000091552734
 21
634.9304962158202
 31
0.5
  0
LINE
  5
460
330
CC
100
AcDbEntity
  8
Sketch2
100
AcDbLine
 10
-123.9060401916504
 20
599.4614028930664
 30
0.5
 11
-123.7713419925475
 21
599.4252964514207
 31
0.5
  0
LINE
  5
461
330
CC
100
AcDbEntity
  8
Sketch2
100
AcDbLine
 10
-95.59000015258789
 20
633.5448455810547
 30
0.5
 11
-95.57784544021236
 21
633.683778378141
 31
0.5
  0
LINE
  5
462
330
CC
100
AcDbEntity
  8
Sketch2
100
AcDbLine
 10
-93.85107364990885
 20
635.132694111224
 30
0.5
 11
-93.712158203125
 21
635.1205444335938
 31
0.5
  0
LINE
  5
463
330
CC
100
AcDbEntity
  8
Sketch2
100
AcDbLine
 10
-95.37563323974609
 20
634.3448638916015
 30
0.5
 11
-95.29564769820552
 21
634.4590962531817
 31
0.5
  0
LINE
  5
464
330
CC
100
AcDbEntity
  8
Sketch2
100
AcDbLine
 10
-95.29564769820552
 20
634.4590962531817
 30
0.5
 11
-95.2156639099121
 21
634.5733261108398
 31
0.5
  0
LINE
  5
465
330
CC
100
AcDbEntity
  8
Sketch2
100
AcDbLine
 10
-94.66361661191957
 20
632.1002966664519
 30
0.5
 11
-94.79000091552734
 21
632.1592330932617
 31
0.5
  0
LINE
  5
466
330
CC
100
AcDbEntity
  8
Sketch2
100
AcDbLine
 10
-123.3838844299316
 20
599.2713165283203
 30
0.5
 11
-123.2696522698599
 21
599.1913406647069
 31
0.5
  0
LINE
  5
467
330
CC
100
AcDbEntity
  8
Sketch2
100
AcDbLine
 10
-95.2156639099121
 20
634.5733261108398
 30
0.5
 11
-95.11705767326507
 21
634.6719180422153
 31
0.5
  0
LINE
  5
468
330
CC
100
AcDbEntity
  8
Sketch2
100
AcDbLine
 10
-94.26783561706542
 20
635.1205444335938
 30
0.5
 11
-94.12891235682678
 21
635.1326943775454
 31
0.5
  0
LINE
  5
469
330
CC
100
AcDbEntity
  8
Sketch2
100
AcDbLine
 10
-123.0568161479899
 20
599.0127554408537
 30
0.5
 11
-122.9582118988037
 21
598.9141464233398
 31
0.5
  0
LINE
  5
46A
330
CC
100
AcDbEntity
  8
Sketch2
100
AcDbLine
 10
-122.6803684234619
 20
598.4329223632812
 30
0.5
 11
-122.6442762870625
 21
598.2982241641784
 31
0.5
  0
LINE
  5
46B
330
CC
100
AcDbEntity
  8
Sketch2
100
AcDbLine
 10
-123.2696522698599
 20
599.1913406647069
 30
0.5
 11
-123.1554222106933
 21
599.1113662719726
 31
0.5
  0
LINE
  5
46C
330
CC
100
AcDbEntity
  8
Sketch2
100
AcDbLine
 10
-95.43456966655583
 20
634.218484356313
 30
0.5
 11
-95.37563323974609
 21
634.3448638916015
 31
0.5
  0
LINE
  5
46D
330
CC
100
AcDbEntity
  8
Sketch2
100
AcDbLine
 10
-122.5960348919342
 20
598.0246149640387
 30
0.5
 11
-122.5838851928711
 21
597.8857040405273
 31
0.5
  0
LINE
  5
46E
330
CC
100
AcDbEntity
  8
Sketch2
100
AcDbLine
 10
-122.9582118988037
 20
596.8572235107422
 30
0.5
 11
-123.0568179615071
 21
596.7586126796232
 31
0.5
  0
LINE
  5
46F
330
CC
100
AcDbEntity
  8
Sketch2
100
AcDbLine
 10
-123.5102665125223
 20
596.441115791031
 30
0.5
 11
-123.6366462707519
 21
596.3821792602539
 31
0.5
  0
LINE
  5
470
330
CC
100
AcDbEntity
  8
Sketch2
100
AcDbLine
 10
-95.4935073852539
 20
634.0921020507813
 30
0.5
 11
-95.43456966655583
 21
634.218484356313
 31
0.5
  0
LINE
  5
471
330
CC
100
AcDbEntity
  8
Sketch2
100
AcDbLine
 10
-95.11705767326507
 20
634.6719180422153
 30
0.5
 11
-95.01845359802246
 21
634.7705078125
 31
0.5
  0
LINE
  5
472
330
CC
100
AcDbEntity
  8
Sketch2
100
AcDbLine
 10
-123.3838844299316
 20
596.5000534057617
 30
0.5
 11
-123.5102665125223
 21
596.441115791031
 31
0.5
  0
LINE
  5
473
330
CC
100
AcDbEntity
  8
Sketch2
100
AcDbLine
 10
-94.90422850868368
 20
632.2392090979546
 30
0.5
 11
-95.01845359802246
 21
632.3191833496093
 31
0.5
  0
LINE
  5
474
330
CC
100
AcDbEntity
  8
Sketch2
100
AcDbLine
 10
-125.489540835625
 20
596.9714556708139
 30
0.5
 11
-125.5695247650146
 21
597.0856857299804
 31
0.5
  0
LINE
  5
475
330
CC
100
AcDbEntity
  8
Sketch2
100
AcDbLine
 10
-125.7717274501789
 20
598.0246175188714
 30
0.5
 11
-125.7595729827881
 21
598.1635284423828
 31
0.5
  0
LINE
  5
476
330
CC
100
AcDbEntity
  8
Sketch2
100
AcDbLine
 10
-108.3644033879906
 20
469.08601679191
 30
0.5
 11
-108.1596565246582
 21
469.0114974975585
 31
0.5
  0
LINE
  5
477
330
CC
100
AcDbEntity
  8
Sketch2
100
AcDbLine
 10
-125.212345123291
 20
596.660041809082
 30
0.5
 11
-125.3109511859944
 21
596.7586335665392
 31
0.5
  0
LINE
  5
478
330
CC
100
AcDbEntity
  8
Sketch2
100
AcDbLine
 10
-125.6284576113298
 20
597.2120678125711
 30
0.5
 11
-125.6873893737793
 21
597.3384475708008
 31
0.5
  0
LINE
  5
479
330
CC
100
AcDbEntity
  8
Sketch2
100
AcDbLine
 10
-125.3109493724772
 20
599.0127572544587
 30
0.5
 11
-125.212345123291
 21
599.1113662719726
 31
0.5
  0
LINE
  5
47A
330
CC
100
AcDbEntity
  8
Sketch2
100
AcDbLine
 10
-107.059372661535
 20
467.9909685435061
 30
0.5
 11
-106.9504261016845
 21
467.8022766113281
 31
0.5
  0
LINE
  5
47B
330
CC
100
AcDbEntity
  8
Sketch2
100
AcDbLine
 10
-124.4617176055908
 20
596.3100051879883
 30
0.5
 11
-124.5964158046936
 21
596.3460925559721
 31
0.5
  0
LINE
  5
47C
330
CC
100
AcDbEntity
  8
Sketch2
100
AcDbLine
 10
-125.212345123291
 20
599.1113662719726
 30
0.5
 11
-125.0981129632192
 21
599.191342135586
 31
0.5
  0
LINE
  5
47D
330
CC
100
AcDbEntity
  8
Sketch2
100
AcDbLine
 10
-124.9838829040527
 20
599.2713165283203
 30
0.5
 11
-124.8574960530466
 21
599.330254143051
 31
0.5
  0
LINE
  5
47E
330
CC
100
AcDbEntity
  8
Sketch2
100
AcDbLine
 10
-124.3227993588313
 20
599.4735528155853
 30
0.5
 11
-124.1838836669922
 21
599.4857025146484
 31
0.5
  0
LINE
  5
47F
330
CC
100
AcDbEntity
  8
Sketch2
100
AcDbLine
 10
-106.7257118225097
 20
466.9636154174805
 30
0.5
 11
-106.7257118225097
 21
466.7457175215564
 31
0.5
  0
LINE
  5
480
330
CC
100
AcDbEntity
  8
Sketch2
100
AcDbLine
 10
-124.5964133273864
 20
599.4252971154737
 30
0.5
 11
-124.4617176055908
 21
599.4614028930664
 31
0.5
  0
LINE
  5
481
330
CC
100
AcDbEntity
  8
Sketch2
100
AcDbLine
 10
-124.8574960530466
 20
599.330254143051
 30
0.5
 11
-124.7311115264892
 21
599.3891906738281
 31
0.5
  0
LINE
  5
482
330
CC
100
AcDbEntity
  8
Sketch2
100
AcDbLine
 10
-124.1838836669922
 20
599.4857025146484
 30
0.5
 11
-124.0449606518172
 21
599.4735525921295
 31
0.5
  0
LINE
  5
483
330
CC
100
AcDbEntity
  8
Sketch2
100
AcDbLine
 10
-108.1596565246582
 20
469.0114974975585
 30
0.5
 11
-107.9709556879241
 21
468.9025485495966
 31
0.5
  0
LINE
  5
484
330
CC
100
AcDbEntity
  8
Sketch2
100
AcDbLine
 10
-124.0449606518172
 20
599.4735525921295
 30
0.5
 11
-123.9060401916504
 21
599.4614028930664
 31
0.5
  0
LINE
  5
485
330
CC
100
AcDbEntity
  8
Sketch2
100
AcDbLine
 10
-124.4617176055908
 20
599.4614028930664
 30
0.5
 11
-124.3227993588313
 21
599.4735528155853
 31
0.5
  0
LINE
  5
486
330
CC
100
AcDbEntity
  8
Sketch2
100
AcDbLine
 10
-106.9504356384277
 20
465.6891632080077
 30
0.5
 11
-107.0593798179659
 21
465.5004671396975
 31
0.5
  0
LINE
  5
487
330
CC
100
AcDbEntity
  8
Sketch2
100
AcDbLine
 10
-107.0593798179659
 20
465.5004671396975
 30
0.5
 11
-107.168321609497
 21
465.3117752075195
 31
0.5
  0
LINE
  5
488
330
CC
100
AcDbEntity
  8
Sketch2
100
AcDbLine
 10
-107.308376684599
 20
468.3465748613352
 30
0.5
 11
-107.168321609497
 21
468.1796646118164
 31
0.5
  0
LINE
  5
489
330
CC
100
AcDbEntity
  8
Sketch2
100
AcDbLine
 10
-124.1838836669922
 20
596.2857055664062
 30
0.5
 11
-124.3228019137517
 21
596.2978554889251
 31
0.5
  0
LINE
  5
48A
330
CC
100
AcDbEntity
  8
Sketch2
100
AcDbLine
 10
-106.7257118225097
 20
466.7457175215564
 30
0.5
 11
-106.7257118225097
 21
466.5278244018554
 31
0.5
  0
LINE
  5
48B
330
CC
100
AcDbEntity
  8
Sketch2
100
AcDbLine
 10
-124.7311115264892
 20
596.3821792602539
 30
0.5
 11
-124.8574983774953
 21
596.4411168749846
 31
0.5
  0
LINE
  5
48C
330
CC
100
AcDbEntity
  8
Sketch2
100
AcDbLine
 10
-124.8574983774953
 20
596.4411168749846
 30
0.5
 11
-124.9838829040527
 21
596.5000534057617
 31
0.5
  0
LINE
  5
48D
330
CC
100
AcDbEntity
  8
Sketch2
100
AcDbLine
 10
-125.5695247650146
 20
598.6856842041015
 30
0.5
 11
-125.4895393645703
 21
598.7999163641733
 31
0.5
  0
LINE
  5
48E
330
CC
100
AcDbEntity
  8
Sketch2
100
AcDbLine
 10
-125.4095554351806
 20
598.9141464233398
 30
0.5
 11
-125.3109493724772
 21
599.0127572544587
 31
0.5
  0
LINE
  5
48F
330
CC
100
AcDbEntity
  8
Sketch2
100
AcDbLine
 10
-124.7311115264892
 20
599.3891906738281
 30
0.5
 11
-124.5964133273864
 21
599.4252971154737
 31
0.5
  0
LINE
  5
490
330
CC
100
AcDbEntity
  8
Sketch2
100
AcDbLine
 10
-125.5695247650146
 20
597.0856857299804
 30
0.5
 11
-125.6284576113298
 21
597.2120678125711
 31
0.5
  0
LINE
  5
491
330
CC
100
AcDbEntity
  8
Sketch2
100
AcDbLine
 10
-108.5691547393799
 20
469.1605377197265
 30
0.5
 11
-108.3644033879906
 21
469.08601679191
 31
0.5
  0
LINE
  5
492
330
CC
100
AcDbEntity
  8
Sketch2
100
AcDbLine
 10
-106.9504261016845
 20
467.8022766113281
 30
0.5
 11
-106.8759051738681
 21
467.597520491515
 31
0.5
  0
LINE
  5
493
330
CC
100
AcDbEntity
  8
Sketch2
100
AcDbLine
 10
-124.5964158046936
 20
596.3460925559721
 30
0.5
 11
-124.7311115264892
 21
596.3821792602539
 31
0.5
  0
LINE
  5
494
330
CC
100
AcDbEntity
  8
Sketch2
100
AcDbLine
 10
-106.8013858795166
 20
467.3927688598633
 30
0.5
 11
-106.7635484363234
 21
467.1781897869339
 31
0.5
  0
LINE
  5
495
330
CC
100
AcDbEntity
  8
Sketch2
100
AcDbLine
 10
-107.9709556879241
 20
468.9025485495966
 30
0.5
 11
-107.7822589874267
 21
468.7936019897461
 31
0.5
  0
LINE
  5
496
330
CC
100
AcDbEntity
  8
Sketch2
100
AcDbLine
 10
-106.7257118225097
 20
466.5278244018554
 30
0.5
 11
-106.7635492657029
 21
466.3132453289261
 31
0.5
  0
LINE
  5
497
330
CC
100
AcDbEntity
  8
Sketch2
100
AcDbLine
 10
-106.8013858795166
 20
466.0986709594726
 30
0.5
 11
-106.8759115757569
 21
465.8939148396596
 31
0.5
  0
LINE
  5
498
330
CC
100
AcDbEntity
  8
Sketch2
100
AcDbLine
 10
-106.7635492657029
 20
466.3132453289261
 30
0.5
 11
-106.8013858795166
 21
466.0986709594726
 31
0.5
  0
LINE
  5
499
330
CC
100
AcDbEntity
  8
Sketch2
100
AcDbLine
 10
-107.168321609497
 20
468.1796646118164
 30
0.5
 11
-107.059372661535
 21
467.9909685435061
 31
0.5
  0
LINE
  5
49A
330
CC
100
AcDbEntity
  8
Sketch2
100
AcDbLine
 10
-125.7838821411133
 20
597.8857040405273
 30
0.5
 11
-125.7717274501789
 21
598.0246175188714
 31
0.5
  0
LINE
  5
49B
330
CC
100
AcDbEntity
  8
Sketch2
100
AcDbLine
 10
-125.7595729827881
 20
597.6078414916992
 30
0.5
 11
-125.7717276737224
 21
597.746774043705
 31
0.5
  0
LINE
  5
49C
330
CC
100
AcDbEntity
  8
Sketch2
100
AcDbLine
 10
-125.6284565274641
 20
598.5593044458719
 30
0.5
 11
-125.5695247650146
 21
598.6856842041015
 31
0.5
  0
LINE
  5
49D
330
CC
100
AcDbEntity
  8
Sketch2
100
AcDbLine
 10
-125.7595729827881
 20
598.1635284423828
 30
0.5
 11
-125.7234808463887
 21
598.2982266414856
 31
0.5
  0
LINE
  5
49E
330
CC
100
AcDbEntity
  8
Sketch2
100
AcDbLine
 10
-125.7234808463887
 20
598.2982266414856
 30
0.5
 11
-125.6873893737793
 21
598.4329223632812
 31
0.5
  0
LINE
  5
49F
330
CC
100
AcDbEntity
  8
Sketch2
100
AcDbLine
 10
-124.3228019137517
 20
596.2978554889251
 30
0.5
 11
-124.4617176055908
 21
596.3100051879883
 31
0.5
  0
LINE
  5
4A0
330
CC
100
AcDbEntity
  8
Sketch2
100
AcDbLine
 10
-125.4095554351806
 20
596.8572235107422
 30
0.5
 11
-125.489540835625
 21
596.9714556708139
 31
0.5
  0
LINE
  5
4A1
330
CC
100
AcDbEntity
  8
Sketch2
100
AcDbLine
 10
-125.3109511859944
 20
596.7586335665392
 30
0.5
 11
-125.4095554351806
 21
596.8572235107422
 31
0.5
  0
LINE
  5
4A2
330
CC
100
AcDbEntity
  8
Sketch2
100
AcDbLine
 10
-125.6873893737793
 20
597.3384475708008
 30
0.5
 11
-125.7234815101786
 21
597.4731457699036
 31
0.5
  0
LINE
  5
4A3
330
CC
100
AcDbEntity
  8
Sketch2
100
AcDbLine
 10
-123.6366462707519
 20
596.3821792602539
 30
0.5
 11
-123.7713444698548
 21
596.34609189227
 31
0.5
  0
LINE
  5
4A4
330
CC
100
AcDbEntity
  8
Sketch2
100
AcDbLine
 10
-123.7713444698548
 20
596.34609189227
 30
0.5
 11
-123.9060401916504
 21
596.3100051879883
 31
0.5
  0
LINE
  5
4A5
330
CC
100
AcDbEntity
  8
Sketch2
100
AcDbLine
 10
-125.4895393645703
 20
598.7999163641733
 30
0.5
 11
-125.4095554351806
 21
598.9141464233398
 31
0.5
  0
LINE
  5
4A6
330
CC
100
AcDbEntity
  8
Sketch2
100
AcDbLine
 10
-107.7822589874267
 20
468.7936019897461
 30
0.5
 11
-107.6153450792307
 21
468.6535438446331
 31
0.5
  0
LINE
  5
4A7
330
CC
100
AcDbEntity
  8
Sketch2
100
AcDbLine
 10
-123.9060401916504
 20
596.3100051879883
 30
0.5
 11
-124.0449632068253
 21
596.2978552654694
 31
0.5
  0
LINE
  5
4A8
330
CC
100
AcDbEntity
  8
Sketch2
100
AcDbLine
 10
-124.9838829040527
 20
596.5000534057617
 30
0.5
 11
-125.0981150641245
 21
596.5800483430369
 31
0.5
  0
LINE
  5
4A9
330
CC
100
AcDbEntity
  8
Sketch2
100
AcDbLine
 10
-125.7717276737224
 20
597.746774043705
 30
0.5
 11
-125.7838821411133
 21
597.8857040405273
 31
0.5
  0
LINE
  5
4AA
330
CC
100
AcDbEntity
  8
Sketch2
100
AcDbLine
 10
-125.6873893737793
 20
598.4329223632812
 30
0.5
 11
-125.6284565274641
 21
598.5593044458719
 31
0.5
  0
LINE
  5
4AB
330
CC
100
AcDbEntity
  8
Sketch2
100
AcDbLine
 10
-125.7234815101786
 20
597.4731457699036
 30
0.5
 11
-125.7595729827881
 21
597.6078414916992
 31
0.5
  0
LINE
  5
4AC
330
CC
100
AcDbEntity
  8
Sketch2
100
AcDbLine
 10
-125.0981129632192
 20
599.191342135586
 30
0.5
 11
-124.9838829040527
 21
599.2713165283203
 31
0.5
  0
LINE
  5
4AD
330
CC
100
AcDbEntity
  8
Sketch2
100
AcDbLine
 10
-107.6153450792307
 20
468.6535438446331
 30
0.5
 11
-107.4484348297119
 21
468.5134887695312
 31
0.5
  0
LINE
  5
4AE
330
CC
100
AcDbEntity
  8
Sketch2
100
AcDbLine
 10
-107.4484348297119
 20
468.5134887695312
 30
0.5
 11
-107.308376684599
 21
468.3465748613352
 31
0.5
  0
LINE
  5
4AF
330
CC
100
AcDbEntity
  8
Sketch2
100
AcDbLine
 10
-106.8759051738681
 20
467.597520491515
 30
0.5
 11
-106.8013858795166
 21
467.3927688598633
 31
0.5
  0
LINE
  5
4B0
330
CC
100
AcDbEntity
  8
Sketch2
100
AcDbLine
 10
-106.7635484363234
 20
467.1781897869339
 30
0.5
 11
-106.7257118225097
 21
466.9636154174805
 31
0.5
  0
LINE
  5
4B1
330
CC
100
AcDbEntity
  8
Sketch2
100
AcDbLine
 10
-124.0449632068253
 20
596.2978552654694
 30
0.5
 11
-124.1838836669922
 21
596.2857055664062
 31
0.5
  0
LINE
  5
4B2
330
CC
100
AcDbEntity
  8
Sketch2
100
AcDbLine
 10
-106.8759115757569
 20
465.8939148396596
 30
0.5
 11
-106.9504356384277
 21
465.6891632080077
 31
0.5
  0
LINE
  5
4B3
330
CC
100
AcDbEntity
  8
Sketch2
100
AcDbLine
 10
-125.0981150641245
 20
596.5800483430369
 30
0.5
 11
-125.212345123291
 21
596.660041809082
 31
0.5
  0
LINE
  5
4B4
330
CC
100
AcDbEntity
  8
Sketch2
100
AcDbLine
 10
-109.8632431030273
 20
469.1605377197265
 30
0.5
 11
-109.6486640300979
 21
469.1983799313436
 31
0.5
  0
LINE
  5
4B5
330
CC
100
AcDbEntity
  8
Sketch2
100
AcDbLine
 10
-80.67978858947753
 20
785.4875183105469
 30
0.5
 11
-80.54509015276384
 21
785.4513927315132
 31
0.5
  0
LINE
  5
4B6
330
CC
100
AcDbEntity
  8
Sketch2
100
AcDbLine
 10
-110.4614469228024
 20
464.5888912697393
 30
0.5
 11
-110.6501388549804
 21
464.6978378295898
 31
0.5
  0
LINE
  5
4B7
330
CC
100
AcDbEntity
  8
Sketch2
100
AcDbLine
 10
-80.54509015276384
 20
785.4513927315132
 30
0.5
 11
-80.4103946685791
 21
785.4152679443359
 31
0.5
  0
LINE
  5
4B8
330
CC
100
AcDbEntity
  8
Sketch2
100
AcDbLine
 10
-80.4103946685791
 20
785.4152679443359
 30
0.5
 11
-80.28400759462355
 21
785.3563683730287
 31
0.5
  0
LINE
  5
4B9
330
CC
100
AcDbEntity
  8
Sketch2
100
AcDbLine
 10
-80.28400759462355
 20
785.3563683730287
 30
0.5
 11
-80.15762329101562
 21
785.2974700927734
 31
0.5
  0
LINE
  5
4BA
330
CC
100
AcDbEntity
  8
Sketch2
100
AcDbLine
 10
-80.04339331364748
 20
785.2174750143853
 30
0.5
 11
-79.92916584014892
 21
785.1374816894531
 31
0.5
  0
LINE
  5
4BB
330
CC
100
AcDbEntity
  8
Sketch2
100
AcDbLine
 10
-109.4340896606445
 20
469.2362213134765
 30
0.5
 11
-109.2161965331443
 21
469.2362213134765
 31
0.5
  0
LINE
  5
4BC
330
CC
100
AcDbEntity
  8
Sketch2
100
AcDbLine
 10
-79.92916584014892
 20
785.1374816894531
 30
0.5
 11
-79.83055960350199
 21
785.0388706843824
 31
0.5
  0
LINE
  5
4BD
330
CC
100
AcDbEntity
  8
Sketch2
100
AcDbLine
 10
-111.2640762329101
 20
465.3117752075195
 30
0.5
 11
-111.3730251808721
 21
465.5004712758297
 31
0.5
  0
LINE
  5
4BE
330
CC
100
AcDbEntity
  8
Sketch2
100
AcDbLine
 10
-79.83055960350199
 20
785.0388706843824
 30
0.5
 11
-79.73195552825927
 21
784.9402618408203
 31
0.5
  0
LINE
  5
4BF
330
CC
100
AcDbEntity
  8
Sketch2
100
AcDbLine
 10
-108.1596565246582
 20
464.4799423217773
 30
0.5
 11
-108.3644078760474
 21
464.4054213939608
 31
0.5
  0
LINE
  5
4C0
330
CC
100
AcDbEntity
  8
Sketch2
100
AcDbLine
 10
-108.9983081817627
 20
464.2552185058593
 30
0.5
 11
-109.2162013092629
 21
464.2552185058593
 31
0.5
  0
LINE
  5
4C1
330
CC
100
AcDbEntity
  8
Sketch2
100
AcDbLine
 10
-111.7066860198974
 20
466.5278244018554
 30
0.5
 11
-111.7066860198974
 21
466.7457222977795
 31
0.5
  0
LINE
  5
4C2
330
CC
100
AcDbEntity
  8
Sketch2
100
AcDbLine
 10
-111.2640762329101
 20
468.1796646118164
 30
0.5
 11
-111.1240180877972
 21
468.3465785200124
 31
0.5
  0
LINE
  5
4C3
330
CC
100
AcDbEntity
  8
Sketch2
100
AcDbLine
 10
-110.272741317749
 20
469.0114974975585
 30
0.5
 11
-110.0679899663598
 21
469.086018425375
 31
0.5
  0
LINE
  5
4C4
330
CC
100
AcDbEntity
  8
Sketch2
100
AcDbLine
 10
-79.73195552825927
 20
784.9402618408203
 30
0.5
 11
-79.6519699867188
 21
784.8260104055448
 31
0.5
  0
LINE
  5
4C5
330
CC
100
AcDbEntity
  8
Sketch2
100
AcDbLine
 10
-79.6519699867188
 20
784.8260104055448
 30
0.5
 11
-79.57198619842529
 21
784.7117614746093
 31
0.5
  0
LINE
  5
4C6
330
CC
100
AcDbEntity
  8
Sketch2
100
AcDbLine
 10
-79.57198619842529
 20
784.7117614746093
 30
0.5
 11
-79.51305086393921
 21
784.5853791690776
 31
0.5
  0
LINE
  5
4C7
330
CC
100
AcDbEntity
  8
Sketch2
100
AcDbLine
 10
-79.51305086393921
 20
784.5853791690776
 30
0.5
 11
-79.45411682128906
 21
784.458999633789
 31
0.5
  0
LINE
  5
4C8
330
CC
100
AcDbEntity
  8
Sketch2
100
AcDbLine
 10
-110.0680039911597
 20
464.4054230274258
 30
0.5
 11
-110.2727508544922
 21
464.4799423217773
 31
0.5
  0
LINE
  5
4C9
330
CC
100
AcDbEntity
  8
Sketch2
100
AcDbLine
 10
-79.45411682128906
 20
784.458999633789
 30
0.5
 11
-79.41802462122229
 21
784.3243011970753
 31
0.5
  0
LINE
  5
4CA
330
CC
100
AcDbEntity
  8
Sketch2
100
AcDbLine
 10
-111.3730251808721
 20
465.5004712758297
 30
0.5
 11
-111.4819717407226
 21
465.6891632080077
 31
0.5
  0
LINE
  5
4CB
330
CC
100
AcDbEntity
  8
Sketch2
100
AcDbLine
 10
-110.9839630126953
 20
468.5134887695312
 30
0.5
 11
-110.8170491044993
 21
468.6535469146441
 31
0.5
  0
LINE
  5
4CC
330
CC
100
AcDbEntity
  8
Sketch2
100
AcDbLine
 10
-110.6501388549804
 20
468.7936019897461
 30
0.5
 11
-110.4614380182463
 21
468.902550937708
 31
0.5
  0
LINE
  5
4CD
330
CC
100
AcDbEntity
  8
Sketch2
100
AcDbLine
 10
-80.15762329101562
 20
785.2974700927734
 30
0.5
 11
-80.04339331364748
 21
785.2174750143853
 31
0.5
  0
LINE
  5
4CE
330
CC
100
AcDbEntity
  8
Sketch2
100
AcDbLine
 10
-108.5691547393799
 20
464.3309020996094
 30
0.5
 11
-108.7837338123093
 21
464.2930598879923
 31
0.5
  0
LINE
  5
4CF
330
CC
100
AcDbEntity
  8
Sketch2
100
AcDbLine
 10
-110.9839630126953
 20
464.9779510498047
 30
0.5
 11
-111.1240211578082
 21
465.1448649580006
 31
0.5
  0
LINE
  5
4D0
330
CC
100
AcDbEntity
  8
Sketch2
100
AcDbLine
 10
-79.41802462122229
 20
784.3243011970753
 30
0.5
 11
-79.38193321228027
 21
784.1896057128906
 31
0.5
  0
LINE
  5
4D1
330
CC
100
AcDbEntity
  8
Sketch2
100
AcDbLine
 10
-107.30837975461
 20
465.1448612993235
 30
0.5
 11
-107.4484348297119
 21
464.9779510498047
 31
0.5
  0
LINE
  5
4D2
330
CC
100
AcDbEntity
  8
Sketch2
100
AcDbLine
 10
-107.4484348297119
 20
464.9779510498047
 30
0.5
 11
-107.6153487379079
 21
464.8378929046917
 31
0.5
  0
LINE
  5
4D3
330
CC
100
AcDbEntity
  8
Sketch2
100
AcDbLine
 10
-107.6153487379079
 20
464.8378929046917
 30
0.5
 11
-107.7822589874267
 21
464.6978378295898
 31
0.5
  0
LINE
  5
4D4
330
CC
100
AcDbEntity
  8
Sketch2
100
AcDbLine
 10
-110.6501388549804
 20
464.6978378295898
 30
0.5
 11
-110.8170527631765
 21
464.8378959747027
 31
0.5
  0
LINE
  5
4D5
330
CC
100
AcDbEntity
  8
Sketch2
100
AcDbLine
 10
-109.2162013092629
 20
464.2552185058593
 30
0.5
 11
-109.4340896606445
 21
464.2552185058593
 31
0.5
  0
LINE
  5
4D6
330
CC
100
AcDbEntity
  8
Sketch2
100
AcDbLine
 10
-111.4819717407226
 20
465.6891632080077
 30
0.5
 11
-111.5564926685391
 21
465.8939193278208
 31
0.5
  0
LINE
  5
4D7
330
CC
100
AcDbEntity
  8
Sketch2
100
AcDbLine
 10
-111.6310119628906
 20
466.0986709594726
 30
0.5
 11
-111.6688494060838
 21
466.313250032402
 31
0.5
  0
LINE
  5
4D8
330
CC
100
AcDbEntity
  8
Sketch2
100
AcDbLine
 10
-111.5564926685391
 20
465.8939193278208
 30
0.5
 11
-111.6310119628906
 21
466.0986709594726
 31
0.5
  0
LINE
  5
4D9
330
CC
100
AcDbEntity
  8
Sketch2
100
AcDbLine
 10
-110.2727508544922
 20
464.4799423217773
 30
0.5
 11
-110.4614469228024
 21
464.5888912697393
 31
0.5
  0
LINE
  5
4DA
330
CC
100
AcDbEntity
  8
Sketch2
100
AcDbLine
 10
-111.6688494060838
 20
466.313250032402
 30
0.5
 11
-111.7066860198974
 21
466.5278244018554
 31
0.5
  0
LINE
  5
4DB
330
CC
100
AcDbEntity
  8
Sketch2
100
AcDbLine
 10
-111.7066860198974
 20
466.7457222977795
 30
0.5
 11
-111.7066860198974
 21
466.9636154174805
 31
0.5
  0
LINE
  5
4DC
330
CC
100
AcDbEntity
  8
Sketch2
100
AcDbLine
 10
-111.6688485767042
 20
467.1781944904098
 30
0.5
 11
-111.6310119628906
 21
467.3927688598633
 31
0.5
  0
LINE
  5
4DD
330
CC
100
AcDbEntity
  8
Sketch2
100
AcDbLine
 10
-110.8170527631765
 20
464.8378959747027
 30
0.5
 11
-110.9839630126953
 21
464.9779510498047
 31
0.5
  0
LINE
  5
4DE
330
CC
100
AcDbEntity
  8
Sketch2
100
AcDbLine
 10
-107.168321609497
 20
465.3117752075195
 30
0.5
 11
-107.30837975461
 21
465.1448612993235
 31
0.5
  0
LINE
  5
4DF
330
CC
100
AcDbEntity
  8
Sketch2
100
AcDbLine
 10
-109.4340896606445
 20
464.2552185058593
 30
0.5
 11
-109.6486735019977
 21
464.2930607174764
 31
0.5
  0
LINE
  5
4E0
330
CC
100
AcDbEntity
  8
Sketch2
100
AcDbLine
 10
-108.3644078760474
 20
464.4054213939608
 30
0.5
 11
-108.5691547393799
 21
464.3309020996094
 31
0.5
  0
LINE
  5
4E1
330
CC
100
AcDbEntity
  8
Sketch2
100
AcDbLine
 10
-109.6486735019977
 20
464.2930607174764
 30
0.5
 11
-109.8632526397705
 21
464.3309020996094
 31
0.5
  0
LINE
  5
4E2
330
CC
100
AcDbEntity
  8
Sketch2
100
AcDbLine
 10
-111.7066860198974
 20
466.9636154174805
 30
0.5
 11
-111.6688485767042
 21
467.1781944904098
 31
0.5
  0
LINE
  5
4E3
330
CC
100
AcDbEntity
  8
Sketch2
100
AcDbLine
 10
-111.6310119628906
 20
467.3927688598633
 30
0.5
 11
-111.5564910350741
 21
467.5975249796763
 31
0.5
  0
LINE
  5
4E4
330
CC
100
AcDbEntity
  8
Sketch2
100
AcDbLine
 10
-111.1240211578082
 20
465.1448649580006
 30
0.5
 11
-111.2640762329101
 21
465.3117752075195
 31
0.5
  0
LINE
  5
4E5
330
CC
100
AcDbEntity
  8
Sketch2
100
AcDbLine
 10
-111.5564910350741
 20
467.5975249796763
 30
0.5
 11
-111.4819717407226
 21
467.8022766113281
 31
0.5
  0
LINE
  5
4E6
330
CC
100
AcDbEntity
  8
Sketch2
100
AcDbLine
 10
-111.1240180877972
 20
468.3465785200124
 30
0.5
 11
-110.9839630126953
 21
468.5134887695312
 31
0.5
  0
LINE
  5
4E7
330
CC
100
AcDbEntity
  8
Sketch2
100
AcDbLine
 10
-110.8170491044993
 20
468.6535469146441
 30
0.5
 11
-110.6501388549804
 21
468.7936019897461
 31
0.5
  0
LINE
  5
4E8
330
CC
100
AcDbEntity
  8
Sketch2
100
AcDbLine
 10
-110.4614380182463
 20
468.902550937708
 30
0.5
 11
-110.272741317749
 21
469.0114974975585
 31
0.5
  0
LINE
  5
4E9
330
CC
100
AcDbEntity
  8
Sketch2
100
AcDbLine
 10
-110.0679899663598
 20
469.086018425375
 30
0.5
 11
-109.8632431030273
 21
469.1605377197265
 31
0.5
  0
LINE
  5
4EA
330
CC
100
AcDbEntity
  8
Sketch2
100
AcDbLine
 10
-109.6486640300979
 20
469.1983799313436
 30
0.5
 11
-109.4340896606445
 21
469.2362213134765
 31
0.5
  0
LINE
  5
4EB
330
CC
100
AcDbEntity
  8
Sketch2
100
AcDbLine
 10
-109.2161965331443
 20
469.2362213134765
 30
0.5
 11
-108.9983081817627
 21
469.2362213134765
 31
0.5
  0
LINE
  5
4EC
330
CC
100
AcDbEntity
  8
Sketch2
100
AcDbLine
 10
-109.8632526397705
 20
464.3309020996094
 30
0.5
 11
-110.0680039911597
 21
464.4054230274258
 31
0.5
  0
LINE
  5
4ED
330
CC
100
AcDbEntity
  8
Sketch2
100
AcDbLine
 10
-107.7822589874267
 20
464.6978378295898
 30
0.5
 11
-107.9709598241608
 21
464.5888888816278
 31
0.5
  0
LINE
  5
4EE
330
CC
100
AcDbEntity
  8
Sketch2
100
AcDbLine
 10
-111.4819717407226
 20
467.8022766113281
 30
0.5
 11
-111.3730227927606
 21
467.9909726796384
 31
0.5
  0
LINE
  5
4EF
330
CC
100
AcDbEntity
  8
Sketch2
100
AcDbLine
 10
-108.9983081817627
 20
469.2362213134765
 30
0.5
 11
-108.7837291088333
 21
469.1983791018595
 31
0.5
  0
LINE
  5
4F0
330
CC
100
AcDbEntity
  8
Sketch2
100
AcDbLine
 10
-108.7837291088333
 20
469.1983791018595
 30
0.5
 11
-108.5691547393799
 21
469.1605377197265
 31
0.5
  0
LINE
  5
4F1
330
CC
100
AcDbEntity
  8
Sketch2
100
AcDbLine
 10
-107.9709598241608
 20
464.5888888816278
 30
0.5
 11
-108.1596565246582
 21
464.4799423217773
 31
0.5
  0
LINE
  5
4F2
330
CC
100
AcDbEntity
  8
Sketch2
100
AcDbLine
 10
-111.3730227927606
 20
467.9909726796384
 30
0.5
 11
-111.2640762329101
 21
468.1796646118164
 31
0.5
  0
LINE
  5
4F3
330
CC
100
AcDbEntity
  8
Sketch2
100
AcDbLine
 10
-108.7837338123093
 20
464.2930598879923
 30
0.5
 11
-108.9983081817627
 21
464.2552185058593
 31
0.5
  0
LINE
  5
4F4
330
CC
100
AcDbEntity
  8
Sketch2
100
AcDbLine
 10
-79.38193321228027
 20
784.1896057128906
 30
0.5
 11
-79.36977849990476
 21
784.0507110631952
 31
0.5
  0
LINE
  5
4F5
330
CC
100
AcDbEntity
  8
Sketch2
100
AcDbLine
 10
-80.04339581751706
 20
782.6061621481743
 30
0.5
 11
-80.15762329101562
 21
782.5261688232422
 31
0.5
  0
LINE
  5
4F6
330
CC
100
AcDbEntity
  8
Sketch2
100
AcDbLine
 10
-79.38193321228027
 20
783.6339569091797
 30
0.5
 11
-79.41802541234705
 21
783.4992584724659
 31
0.5
  0
LINE
  5
4F7
330
CC
100
AcDbEntity
  8
Sketch2
100
AcDbLine
 10
-81.23546600341796
 20
782.3361206054687
 30
0.5
 11
-81.37016444013168
 21
782.3722080371116
 31
0.5
  0
LINE
  5
4F8
330
CC
100
AcDbEntity
  8
Sketch2
100
AcDbLine
 10
-81.37016444013168
 20
782.3722080371116
 30
0.5
 11
-81.5048599243164
 21
782.4082946777344
 31
0.5
  0
LINE
  5
4F9
330
CC
100
AcDbEntity
  8
Sketch2
100
AcDbLine
 10
-79.73195552825927
 20
782.88330078125
 30
0.5
 11
-79.8305617649062
 21
782.7847279235698
 31
0.5
  0
LINE
  5
4FA
330
CC
100
AcDbEntity
  8
Sketch2
100
AcDbLine
 10
-79.36977849990476
 20
784.0507110631952
 30
0.5
 11
-79.35762405395507
 21
783.9118194580078
 31
0.5
  0
LINE
  5
4FB
330
CC
100
AcDbEntity
  8
Sketch2
100
AcDbLine
 10
-82.55762100219726
 20
783.9118194580078
 30
0.5
 11
-82.5454710582456
 21
784.0507141077032
 31
0.5
  0
LINE
  5
4FC
330
CC
100
AcDbEntity
  8
Sketch2
100
AcDbLine
 10
-82.34326362609863
 20
784.7117614746093
 30
0.5
 11
-82.26327808455815
 21
784.8260129098848
 31
0.5
  0
LINE
  5
4FD
330
CC
100
AcDbEntity
  8
Sketch2
100
AcDbLine
 10
-80.15762329101562
 20
782.5261688232422
 30
0.5
 11
-80.28401036497118
 21
782.4672311045441
 31
0.5
  0
LINE
  5
4FE
330
CC
100
AcDbEntity
  8
Sketch2
100
AcDbLine
 10
-80.81870708129217
 20
782.3239515878217
 30
0.5
 11
-80.95762252807617
 21
782.3117828369141
 31
0.5
  0
LINE
  5
4FF
330
CC
100
AcDbEntity
  8
Sketch2
100
AcDbLine
 10
-82.26327808455815
 20
784.8260129098848
 30
0.5
 11
-82.18329429626464
 21
784.9402618408203
 31
0.5
  0
LINE
  5
500
330
CC
100
AcDbEntity
  8
Sketch2
100
AcDbLine
 10
-82.46113777160644
 20
783.3645629882812
 30
0.5
 11
-82.49722997167323
 21
783.499261424995
 31
0.5
  0
LINE
  5
501
330
CC
100
AcDbEntity
  8
Sketch2
100
AcDbLine
 10
-81.23546600341796
 20
785.4875183105469
 30
0.5
 11
-81.09654274317948
 21
785.4996491808032
 31
0.5
  0
LINE
  5
502
330
CC
100
AcDbEntity
  8
Sketch2
100
AcDbLine
 10
-81.09654274317948
 20
785.4996491808032
 30
0.5
 11
-80.95762252807617
 21
785.5117797851562
 31
0.5
  0
LINE
  5
503
330
CC
100
AcDbEntity
  8
Sketch2
100
AcDbLine
 10
-82.18329429626464
 20
782.88330078125
 30
0.5
 11
-82.26327983780512
 21
782.9975522165255
 31
0.5
  0
LINE
  5
504
330
CC
100
AcDbEntity
  8
Sketch2
100
AcDbLine
 10
-82.40220134479663
 20
783.2381834529926
 30
0.5
 11
-82.46113777160644
 21
783.3645629882812
 31
0.5
  0
LINE
  5
505
330
CC
100
AcDbEntity
  8
Sketch2
100
AcDbLine
 10
-81.5048599243164
 20
785.4152679443359
 30
0.5
 11
-81.3701614876027
 21
785.4513935233695
 31
0.5
  0
LINE
  5
506
330
CC
100
AcDbEntity
  8
Sketch2
100
AcDbLine
 10
-81.3701614876027
 20
785.4513935233695
 30
0.5
 11
-81.23546600341796
 21
785.4875183105469
 31
0.5
  0
LINE
  5
507
330
CC
100
AcDbEntity
  8
Sketch2
100
AcDbLine
 10
-82.54547132456691
 20
783.7728897062658
 30
0.5
 11
-82.55762100219726
 21
783.9118194580078
 31
0.5
  0
LINE
  5
508
330
CC
100
AcDbEntity
  8
Sketch2
100
AcDbLine
 10
-80.54509310529281
 20
782.3722072460914
 30
0.5
 11
-80.67978858947753
 21
782.3361206054687
 31
0.5
  0
LINE
  5
509
330
CC
100
AcDbEntity
  8
Sketch2
100
AcDbLine
 10
-79.8305617649062
 20
782.7847279235698
 30
0.5
 11
-79.92916584014892
 21
782.6861572265625
 31
0.5
  0
LINE
  5
50A
330
CC
100
AcDbEntity
  8
Sketch2
100
AcDbLine
 10
-81.87185412671679
 20
782.6061639016303
 30
0.5
 11
-81.986083984375
 21
782.6861572265625
 31
0.5
  0
LINE
  5
50B
330
CC
100
AcDbEntity
  8
Sketch2
100
AcDbLine
 10
-81.75762176513671
 20
782.5261688232422
 30
0.5
 11
-81.87185412671679
 21
782.6061639016303
 31
0.5
  0
LINE
  5
50C
330
CC
100
AcDbEntity
  8
Sketch2
100
AcDbLine
 10
-79.41802541234705
 20
783.4992584724659
 30
0.5
 11
-79.45411682128906
 21
783.3645629882812
 31
0.5
  0
LINE
  5
50D
330
CC
100
AcDbEntity
  8
Sketch2
100
AcDbLine
 10
-80.95762252807617
 20
785.5117797851562
 30
0.5
 11
-80.81870403626153
 21
785.4996489148999
 31
0.5
  0
LINE
  5
50E
330
CC
100
AcDbEntity
  8
Sketch2
100
AcDbLine
 10
-79.35762405395507
 20
783.9118194580078
 30
0.5
 11
-79.36977876633058
 21
783.7728866609217
 31
0.5
  0
LINE
  5
50F
330
CC
100
AcDbEntity
  8
Sketch2
100
AcDbLine
 10
-82.46112823486328
 20
784.458999633789
 30
0.5
 11
-82.40219528458911
 21
784.5853819393207
 31
0.5
  0
LINE
  5
510
330
CC
100
AcDbEntity
  8
Sketch2
100
AcDbLine
 10
-79.57198619842529
 20
783.1118011474609
 30
0.5
 11
-79.65197173996577
 21
782.9975497121854
 31
0.5
  0
LINE
  5
511
330
CC
100
AcDbEntity
  8
Sketch2
100
AcDbLine
 10
-82.49722997167323
 20
783.499261424995
 30
0.5
 11
-82.53332138061523
 21
783.6339569091797
 31
0.5
  0
LINE
  5
512
330
CC
100
AcDbEntity
  8
Sketch2
100
AcDbLine
 10
-82.5454710582456
 20
784.0507141077032
 30
0.5
 11
-82.53332138061523
 21
784.1896057128906
 31
0.5
  0
LINE
  5
513
330
CC
100
AcDbEntity
  8
Sketch2
100
AcDbLine
 10
-81.986083984375
 20
785.1374816894531
 30
0.5
 11
-81.87185162279494
 21
785.2174767678413
 31
0.5
  0
LINE
  5
514
330
CC
100
AcDbEntity
  8
Sketch2
100
AcDbLine
 10
-81.6312422298481
 20
782.4672323964324
 30
0.5
 11
-81.75762176513671
 21
782.5261688232422
 31
0.5
  0
LINE
  5
515
330
CC
100
AcDbEntity
  8
Sketch2
100
AcDbLine
 10
-82.53332138061523
 20
783.6339569091797
 30
0.5
 11
-82.54547132456691
 21
783.7728897062658
 31
0.5
  0
LINE
  5
516
330
CC
100
AcDbEntity
  8
Sketch2
100
AcDbLine
 10
-80.95762252807617
 20
782.3117828369141
 30
0.5
 11
-81.09654578831465
 21
782.323951854561
 31
0.5
  0
LINE
  5
517
330
CC
100
AcDbEntity
  8
Sketch2
100
AcDbLine
 10
-81.63123945960501
 20
785.3563696640805
 30
0.5
 11
-81.5048599243164
 21
785.4152679443359
 31
0.5
  0
LINE
  5
518
330
CC
100
AcDbEntity
  8
Sketch2
100
AcDbLine
 10
-80.81870403626153
 20
785.4996489148999
 30
0.5
 11
-80.67978858947753
 21
785.4875183105469
 31
0.5
  0
LINE
  5
519
330
CC
100
AcDbEntity
  8
Sketch2
100
AcDbLine
 10
-80.4103946685791
 20
782.4082946777344
 30
0.5
 11
-80.54509310529281
 21
782.3722072460914
 31
0.5
  0
LINE
  5
51A
330
CC
100
AcDbEntity
  8
Sketch2
100
AcDbLine
 10
-79.36977876633058
 20
783.7728866609217
 30
0.5
 11
-79.38193321228027
 21
783.6339569091797
 31
0.5
  0
LINE
  5
51B
330
CC
100
AcDbEntity
  8
Sketch2
100
AcDbLine
 10
-79.65197173996577
 20
782.9975497121854
 30
0.5
 11
-79.73195552825927
 21
782.88330078125
 31
0.5
  0
LINE
  5
51C
330
CC
100
AcDbEntity
  8
Sketch2
100
AcDbLine
 10
-80.28401036497118
 20
782.4672311045441
 30
0.5
 11
-80.4103946685791
 21
782.4082946777344
 31
0.5
  0
LINE
  5
51D
330
CC
100
AcDbEntity
  8
Sketch2
100
AcDbLine
 10
-80.67978858947753
 20
782.3361206054687
 30
0.5
 11
-80.81870708129217
 21
782.3239515878217
 31
0.5
  0
LINE
  5
51E
330
CC
100
AcDbEntity
  8
Sketch2
100
AcDbLine
 10
-81.09654578831465
 20
782.323951854561
 30
0.5
 11
-81.23546600341796
 21
782.3361206054687
 31
0.5
  0
LINE
  5
51F
330
CC
100
AcDbEntity
  8
Sketch2
100
AcDbLine
 10
-82.53332138061523
 20
784.1896057128906
 30
0.5
 11
-82.49722441212462
 21
784.3243041496044
 31
0.5
  0
LINE
  5
520
330
CC
100
AcDbEntity
  8
Sketch2
100
AcDbLine
 10
-82.49722441212462
 20
784.3243041496044
 30
0.5
 11
-82.46112823486328
 21
784.458999633789
 31
0.5
  0
LINE
  5
521
330
CC
100
AcDbEntity
  8
Sketch2
100
AcDbLine
 10
-82.40219528458911
 20
784.5853819393207
 30
0.5
 11
-82.34326362609863
 21
784.7117614746093
 31
0.5
  0
LINE
  5
522
330
CC
100
AcDbEntity
  8
Sketch2
100
AcDbLine
 10
-82.26327983780512
 20
782.9975522165255
 30
0.5
 11
-82.34326362609863
 21
783.1118011474609
 31
0.5
  0
LINE
  5
523
330
CC
100
AcDbEntity
  8
Sketch2
100
AcDbLine
 10
-81.75762176513671
 20
785.2974700927734
 30
0.5
 11
-81.63123945960501
 21
785.3563696640805
 31
0.5
  0
LINE
  5
524
330
CC
100
AcDbEntity
  8
Sketch2
100
AcDbLine
 10
-79.92916584014892
 20
782.6861572265625
 30
0.5
 11
-80.04339581751706
 21
782.6061621481743
 31
0.5
  0
LINE
  5
525
330
CC
100
AcDbEntity
  8
Sketch2
100
AcDbLine
 10
-82.08469022102192
 20
782.7847300842425
 30
0.5
 11
-82.18329429626464
 21
782.88330078125
 31
0.5
  0
LINE
  5
526
330
CC
100
AcDbEntity
  8
Sketch2
100
AcDbLine
 10
-82.34326362609863
 20
783.1118011474609
 30
0.5
 11
-82.40220134479663
 21
783.2381834529926
 31
0.5
  0
LINE
  5
527
330
CC
100
AcDbEntity
  8
Sketch2
100
AcDbLine
 10
-82.18329429626464
 20
784.9402618408203
 30
0.5
 11
-82.08468805961771
 21
785.038872845891
 31
0.5
  0
LINE
  5
528
330
CC
100
AcDbEntity
  8
Sketch2
100
AcDbLine
 10
-81.87185162279494
 20
785.2174767678413
 30
0.5
 11
-81.75762176513671
 21
785.2974700927734
 31
0.5
  0
LINE
  5
529
330
CC
100
AcDbEntity
  8
Sketch2
100
AcDbLine
 10
-79.51305215577514
 20
783.2381806827495
 30
0.5
 11
-79.57198619842529
 21
783.1118011474609
 31
0.5
  0
LINE
  5
52A
330
CC
100
AcDbEntity
  8
Sketch2
100
AcDbLine
 10
-81.5048599243164
 20
782.4082946777344
 30
0.5
 11
-81.6312422298481
 21
782.4672323964324
 31
0.5
  0
LINE
  5
52B
330
CC
100
AcDbEntity
  8
Sketch2
100
AcDbLine
 10
-82.08468805961771
 20
785.038872845891
 30
0.5
 11
-81.986083984375
 21
785.1374816894531
 31
0.5
  0
LINE
  5
52C
330
CC
100
AcDbEntity
  8
Sketch2
100
AcDbLine
 10
-79.45411682128906
 20
783.3645629882812
 30
0.5
 11
-79.51305215577514
 21
783.2381806827495
 31
0.5
  0
LINE
  5
52D
330
CC
100
AcDbEntity
  8
Sketch2
100
AcDbLine
 10
-81.986083984375
 20
782.6861572265625
 30
0.5
 11
-82.08469022102192
 21
782.7847300842425
 31
0.5
  0
LINE
  5
52E
330
CC
100
AcDbEntity
  8
Sketch2
100
AcDbLine
 10
-124.5273685455322
 20
618.1728363037109
 30
0.5
 11
-124.6612086659543
 21
618.2119946003086
 31
0.5
  0
ENDSEC
  0
SECTION
  2
OBJECTS
  0
DICTIONARY
  5
C
330
0
100
AcDbDictionary
281
     1
  3
ACAD_BACKGROUND
350
5B
  3
ACAD_COLOR
350
BE
  3
ACAD_DETAILVIEWSTYLE
350
C6
  3
ACAD_GROUP
350
D
  3
ACAD_LAYOUT
350
BD
  3
ACAD_MATERIAL
350
10
  3
ACAD_MLEADERSTYLE
350
C1
  3
ACAD_MLINESTYLE
350
BA
  3
ACAD_PLOTSETTINGS
350
BC
  3
ACAD_PLOTSTYLENAME
350
E
  3
ACAD_SCALELIST
350
9D
  3
ACAD_SCENESTYLE
350
52
  3
ACAD_SECTIONVIEWSTYLE
350
C3
  3
ACAD_TABLESTYLE
350
BF
  3
ACAD_VISUALSTYLE
350
29
  3
ACDB_RECOMPOSE_DATA
350
539
  3
AcDbVariableDictionary
350
52F
  0
DICTIONARY
  5
535
330
B2
100
AcDbDictionary
280
     1
281
     1
  3
ACAD_XREC_ROUNDTRIP
360
536
  0
DICTIONARY
  5
5B
102
{ACAD_REACTORS
330
C
102
}
330
C
100
AcDbDictionary
281
     1
  3
5C
350
5C
  3
64
350
64
  3
69
350
69
  3
71
350
71
  3
76
350
76
  3
7B
350
7B
  3
80
350
80
  3
85
350
85
  3
8A
350
8A
  3
8F
350
8F
  3
94
350
94
  3
99
350
99
  0
DICTIONARY
  5
BE
102
{ACAD_REACTORS
330
C
102
}
330
C
100
AcDbDictionary
281
     1
  0
DICTIONARY
  5
C6
102
{ACAD_REACTORS
330
C
102
}
330
C
100
AcDbDictionary
281
     1
  3
Imperial24
350
C7
  0
DICTIONARY
  5
D
102
{ACAD_REACTORS
330
C
102
}
330
C
100
AcDbDictionary
281
     1
  0
DICTIONARY
  5
BD
102
{ACAD_REACTORS
330
C
102
}
330
C
100
AcDbDictionary
281
     1
  3
Layout1
350
CB
  3
Layout2
350
D3
  3
Model
350
CF
  0
DICTIONARY
  5
10
102
{ACAD_REACTORS
330
C
102
}
330
C
100
AcDbDictionary
281
     1
  3
ByBlock
350
19
  3
ByLayer
350
11
  3
Global
350
21
  0
DICTIONARY
  5
C1
102
{ACAD_REACTORS
330
C
102
}
330
C
100
AcDbDictionary
281
     1
  3
Standard
350
C2
  0
DICTIONARY
  5
BA
102
{ACAD_REACTORS
330
C
102
}
330
C
100
AcDbDictionary
281
     1
  3
Standard
350
BB
  0
DICTIONARY
  5
BC
102
{ACAD_REACTORS
330
C
102
}
330
C
100
AcDbDictionary
281
     1
  0
ACDBDICTIONARYWDFLT
  5
E
102
{ACAD_REACTORS
330
C
102
}
330
C
100
AcDbDictionary
281
     1
  3
Normal
350
F
100
AcDbDictionaryWithDefault
340
F
  0
DICTIONARY
  5
9D
102
{ACAD_REACTORS
330
C
102
}
330
C
100
AcDbDictionary
281
     1
  3
A0
350
9E
  3
A1
350
9F
  3
A2
350
A0
  3
A3
350
A1
  3
A4
350
A2
  3
A5
350
A3
  3
A6
350
A4
  3
A7
350
A5
  3
A8
350
A6
  3
A9
350
A7
  3
B0
350
A8
  3
B1
350
A9
  3
B2
350
AA
  3
B3
350
AB
  3
B4
350
AC
  3
B5
350
AD
  3
B6
350
AE
  0
DICTIONARY
  5
52
102
{ACAD_REACTORS
330
C
102
}
330
C
100
AcDbDictionary
281
     1
  3
Architectural Design
350
6D
  3
Blueprint
350
7A
  3
Comic Book
350
93
  3
Crayon
350
8E
  3
Drafting
350
53
  3
Evening
350
60
  3
Graphic Novel
350
89
  3
Grayscale
350
75
  3
IBL
350
68
  3
Mechanical Design
350
7F
  3
Mechanical Presentation
350
84
  3
Modeling
350
55
  3
Pop Art
350
98
  3
Sunny Day
350
57
  0
DICTIONARY
  5
C3
102
{ACAD_REACTORS
330
C
102
}
330
C
100
AcDbDictionary
281
     1
  3
Imperial24
350
C5
  0
DICTIONARY
  5
BF
102
{ACAD_REACTORS
330
C
102
}
330
C
100
AcDbDictionary
281
     1
  3
Standard
350
C0
  0
DICTIONARY
  5
29
102
{ACAD_REACTORS
330
C
102
}
330
C
100
AcDbDictionary
281
     1
  3
2dWireframe
350
32
  3
Basic
350
31
  3
Black and White
350
50
  3
Bloom
350
46
  3
Blue Tint
350
48
  3
Blurred
350
45
  3
Brighten
350
38
  3
ByBlock
350
2C
  3
ByLayer
350
2B
  3
ByViewport
350
2A
  3
ColorChange
350
3C
  3
Conceptual
350
35
  3
Crayon Edges
350
4F
  3
Cross Hatch
350
4A
  3
Desaturate
350
51
  3
Dim
350
37
  3
EdgeColorOff
350
44
  3
Facepattern
350
3B
  3
Flat
350
2D
  3
FlatWithEdges
350
2E
  3
Gouraud
350
2F
  3
GouraudWithEdges
350
30
  3
Half Tone
350
4B
  3
Hidden
350
34
  3
High Contrast
350
47
  3
JitterOff
350
42
  3
Linepattern
350
3A
  3
Marker Edges
350
4E
  3
OverhangOff
350
43
  3
Pastel
350
49
  3
Pencil Edges
350
4D
  3
Posterize
350
4C
  3
Realistic
350
36
  3
Shaded
350
41
  3
Shaded with edges
350
40
  3
Shades of Gray
350
3D
  3
Sketchy
350
3E
  3
Thicken
350
39
  3
Wireframe
350
33
  3
X-Ray
350
3F
  0
XRECORD
  5
539
102
{ACAD_REACTORS
330
C
102
}
330
C
100
AcDbXrecord
280
     1
 90
        1
330
29
330
B2
330
C0
  0
DICTIONARY
  5
52F
102
{ACAD_REACTORS
330
C
102
}
330
C
100
AcDbDictionary
281
     1
  3
CANNOSCALE
350
534
  3
CMLEADERSTYLE
350
531
  3
CTABLESTYLE
350
530
  3
CVIEWDETAILSTYLE
350
532
  3
CVIEWSECTIONSTYLE
350
533
  0
XRECORD
  5
536
102
{ACAD_REACTORS
330
535
102
}
330
535
100
AcDbXrecord
280
     1
102
SCENESTYLE
340
53
  0
SKYLIGHT_BACKGROUND
  5
5C
102
{ACAD_REACTORS
330
5B
102
}
330
5B
100
AcDbSkyBackground
340
58
  0
SKYLIGHT_BACKGROUND
  5
64
102
{ACAD_REACTORS
330
5B
102
}
330
5B
100
AcDbSkyBackground
340
61
  0
IBL_BACKGROUND
  5
69
102
{ACAD_REACTORS
330
5B
102
}
330
5B
100
AcDbImageBasedLightingBackground
300
Country Road
170
   100
171
     0
290
     1
  0
SKYLIGHT_BACKGROUND
  5
71
102
{ACAD_REACTORS
330
5B
102
}
330
5B
100
AcDbSkyBackground
340
6E
  0
SOLID_BACKGROUND
  5
76
102
{ACAD_REACTORS
330
5B
102
}
330
5B
100
AcDbSolidBackground
 90
-1023410177
  0
SOLID_BACKGROUND
  5
7B
102
{ACAD_REACTORS
330
5B
102
}
330
5B
100
AcDbSolidBackground
 90
-1040180888
  0
GRADIENT_BACKGROUND
  5
80
102
{ACAD_REACTORS
330
5B
102
}
330
5B
100
AcDbGradientBackground
 90
-1026765620
 91
-1031765888
 92
-1036831949
140
0.5
141
33.33
142
0.0
  0
GRADIENT_BACKGROUND
  5
85
102
{ACAD_REACTORS
330
5B
102
}
330
5B
100
AcDbGradientBackground
 90
-1026765620
 91
-1031765888
 92
-1036831949
140
0.5
141
33.33
142
0.0
  0
SOLID_BACKGROUND
  5
8A
102
{ACAD_REACTORS
330
5B
102
}
330
5B
100
AcDbSolidBackground
 90
-1023410177
  0
SOLID_BACKGROUND
  5
8F
102
{ACAD_REACTORS
330
5B
102
}
330
5B
100
AcDbSolidBackground
 90
-1023410177
  0
SOLID_BACKGROUND
  5
94
102
{ACAD_REACTORS
330
5B
102
}
330
5B
100
AcDbSolidBackground
 90
-1024397072
  0
SOLID_BACKGROUND
  5
99
102
{ACAD_REACTORS
330
5B
102
}
330
5B
100
AcDbSolidBackground
 90
-1024397072
  0
ACDBDETAILVIEWSTYLE
  5
C7
102
{ACAD_REACTORS
330
C6
102
}
330
C6
100
AcDbModelDocViewStyle
 70
     0
  3
Imperial24
290
     1
100
AcDbDetailViewStyle
 70
     0
 71
     0
 90
        3
 71
     1
340
B0
 62
   256
 40
0.24
340
0
 62
   256
 40
0.24
300

 40
0.36
280
     3
 71
     2
340
B8
 90
       25
 62
   256
 71
     3
340
B0
 62
   256
 40
0.24
 90
        1
 40
0.75
 90
        1
300
%<\AcVar ViewType \f "%tc1">% %<\AcVar ViewDetailId>%\PSCALE %<\AcVar ViewScale \f "%sn">%
 71
     4
340
B8
 90
       25
 62
   256
340
B8
 90
       25
 62
   256
280
     0
  0
LAYOUT
  5
CB
102
{ACAD_REACTORS
330
BD
102
}
330
BD
100
AcDbPlotSettings
  1

  2

  4

  6

 40
0.0
 41
0.0
 42
0.0
 43
0.0
 44
0.0
 45
0.0
 46
0.0
 47
0.0
 48
0.0
 49
0.0
140
0.0
141
0.0
142
1.0
143
1.0
 70
   688
 72
     0
 73
     0
 74
     5
  7

 75
    16
147
1.0
 76
     0
 77
     2
 78
   300
148
0.0
149
0.0
100
AcDbLayout
  1
Layout1
 70
     1
 71
     1
 10
0.0
 20
0.0
 11
12.0
 21
9.0
 12
0.0
 22
0.0
 32
0.0
 14
0.0
 24
0.0
 34
0.0
 15
0.0
 25
0.0
 35
0.0
146
0.0
 13
0.0
 23
0.0
 33
0.0
 16
1.0
 26
0.0
 36
0.0
 17
0.0
 27
1.0
 37
0.0
 76
     0
330
C8
  0
LAYOUT
  5
D3
102
{ACAD_REACTORS
330
BD
102
}
330
BD
100
AcDbPlotSettings
  1

  2

  4

  6

 40
0.0
 41
0.0
 42
0.0
 43
0.0
 44
0.0
 45
0.0
 46
0.0
 47
0.0
 48
0.0
 49
0.0
140
0.0
141
0.0
142
1.0
143
1.0
 70
   688
 72
     0
 73
     0
 74
     5
  7

 75
    16
147
1.0
 76
     0
 77
     2
 78
   300
148
0.0
149
0.0
100
AcDbLayout
  1
Layout2
 70
     1
 71
     2
 10
0.0
 20
0.0
 11
12.0
 21
9.0
 12
0.0
 22
0.0
 32
0.0
 14
0.0
 24
0.0
 34
0.0
 15
0.0
 25
0.0
 35
0.0
146
0.0
 13
0.0
 23
0.0
 33
0.0
 16
1.0
 26
0.0
 36
0.0
 17
0.0
 27
1.0
 37
0.0
 76
     0
330
D0
  0
LAYOUT
  5
CF
102
{ACAD_REACTORS
330
BD
102
}
330
BD
100
AcDbPlotSettings
  1

  2

  4

  6

 40
0.0
 41
0.0
 42
0.0
 43
0.0
 44
0.0
 45
0.0
 46
0.0
 47
0.0
 48
0.0
 49
0.0
140
0.0
141
0.0
142
1.0
143
1.0
 70
  1712
 72
     0
 73
     0
 74
     0
  7

 75
     0
147
1.0
 76
     0
 77
     2
 78
   300
148
0.0
149
0.0
100
AcDbLayout
  1
Model
 70
     1
 71
     0
 10
0.0
 20
0.0
 11
12.0
 21
9.0
 12
0.0
 22
0.0
 32
0.0
 14
0.0
 24
0.0
 34
0.0
 15
0.0
 25
0.0
 35
0.0
146
0.0
 13
0.0
 23
0.0
 33
0.0
 16
1.0
 26
0.0
 36
0.0
 17
0.0
 27
1.0
 37
0.0
 76
     0
330
CC
  0
MATERIAL
  5
19
102
{ACAD_XDICTIONARY
360
1A
102
}
102
{ACAD_REACTORS
330
10
102
}
330
10
100
AcDbMaterial
  1
ByBlock
 72
     0
 43
0.0208333333333333
 43
0.0
 43
0.0
 43
0.0
 43
0.0
 43
0.0208333333333333
 43
0.0
 43
0.0
 43
0.0
 43
0.0
 43
1.0
 43
0.0
 43
0.0
 43
0.0
 43
0.0
 43
1.0
 77
     0
 47
0.0208333333333333
 47
0.0
 47
0.0
 47
0.0
 47
0.0
 47
0.0208333333333333
 47
0.0
 47
0.0
 47
0.0
 47
0.0
 47
1.0
 47
0.0
 47
0.0
 47
0.0
 47
0.0
 47
1.0
171
     0
 49
0.0208333333333333
 49
0.0
 49
0.0
 49
0.0
 49
0.0
 49
0.0208333333333333
 49
0.0
 49
0.0
 49
0.0
 49
0.0
 49
1.0
 49
0.0
 49
0.0
 49
0.0
 49
0.0
 49
1.0
175
     0
142
0.0208333333333333
142
0.0
142
0.0
142
0.0
142
0.0
142
0.0208333333333333
142
0.0
142
0.0
142
0.0
142
0.0
142
1.0
142
0.0
142
0.0
142
0.0
142
0.0
142
1.0
179
     0
144
0.0208333333333333
144
0.0
144
0.0
144
0.0
144
0.0
144
0.0208333333333333
144
0.0
144
0.0
144
0.0
144
0.0
144
1.0
144
0.0
144
0.0
144
0.0
144
0.0
144
1.0
147
0.0208333333333333
147
0.0
147
0.0
147
0.0
147
0.0
147
0.0208333333333333
147
0.0
147
0.0
147
0.0
147
0.0
147
1.0
147
0.0
147
0.0
147
0.0
147
0.0
147
1.0
  0
MATERIAL
  5
11
102
{ACAD_XDICTIONARY
360
12
102
}
102
{ACAD_REACTORS
330
10
102
}
330
10
100
AcDbMaterial
  1
ByLayer
 72
     0
 43
0.0208333333333333
 43
0.0
 43
0.0
 43
0.0
 43
0.0
 43
0.0208333333333333
 43
0.0
 43
0.0
 43
0.0
 43
0.0
 43
1.0
 43
0.0
 43
0.0
 43
0.0
 43
0.0
 43
1.0
 77
     0
 47
0.0208333333333333
 47
0.0
 47
0.0
 47
0.0
 47
0.0
 47
0.0208333333333333
 47
0.0
 47
0.0
 47
0.0
 47
0.0
 47
1.0
 47
0.0
 47
0.0
 47
0.0
 47
0.0
 47
1.0
171
     0
 49
0.0208333333333333
 49
0.0
 49
0.0
 49
0.0
 49
0.0
 49
0.0208333333333333
 49
0.0
 49
0.0
 49
0.0
 49
0.0
 49
1.0
 49
0.0
 49
0.0
 49
0.0
 49
0.0
 49
1.0
175
     0
142
0.0208333333333333
142
0.0
142
0.0
142
0.0
142
0.0
142
0.0208333333333333
142
0.0
142
0.0
142
0.0
142
0.0
142
1.0
142
0.0
142
0.0
142
0.0
142
0.0
142
1.0
179
     0
144
0.0208333333333333
144
0.0
144
0.0
144
0.0
144
0.0
144
0.0208333333333333
144
0.0
144
0.0
144
0.0
144
0.0
144
1.0
144
0.0
144
0.0
144
0.0
144
0.0
144
1.0
147
0.0208333333333333
147
0.0
147
0.0
147
0.0
147
0.0
147
0.0208333333333333
147
0.0
147
0.0
147
0.0
147
0.0
147
1.0
147
0.0
147
0.0
147
0.0
147
0.0
147
1.0
  0
MATERIAL
  5
21
102
{ACAD_XDICTIONARY
360
22
102
}
102
{ACAD_REACTORS
330
10
102
}
330
10
100
AcDbMaterial
  1
Global
 72
     0
 43
0.0208333333333333
 43
0.0
 43
0.0
 43
0.0
 43
0.0
 43
0.0208333333333333
 43
0.0
 43
0.0
 43
0.0
 43
0.0
 43
1.0
 43
0.0
 43
0.0
 43
0.0
 43
0.0
 43
1.0
 77
     0
 47
0.0208333333333333
 47
0.0
 47
0.0
 47
0.0
 47
0.0
 47
0.0208333333333333
 47
0.0
 47
0.0
 47
0.0
 47
0.0
 47
1.0
 47
0.0
 47
0.0
 47
0.0
 47
0.0
 47
1.0
171
     0
 49
0.0208333333333333
 49
0.0
 49
0.0
 49
0.0
 49
0.0
 49
0.0208333333333333
 49
0.0
 49
0.0
 49
0.0
 49
0.0
 49
1.0
 49
0.0
 49
0.0
 49
0.0
 49
0.0
 49
1.0
175
     0
142
0.0208333333333333
142
0.0
142
0.0
142
0.0
142
0.0
142
0.0208333333333333
142
0.0
142
0.0
142
0.0
142
0.0
142
1.0
142
0.0
142
0.0
142
0.0
142
0.0
142
1.0
179
     0
144
0.0208333333333333
144
0.0
144
0.0
144
0.0
144
0.0
144
0.0208333333333333
144
0.0
144
0.0
144
0.0
144
0.0
144
1.0
144
0.0
144
0.0
144
0.0
144
0.0
144
1.0
147
0.0208333333333333
147
0.0
147
0.0
147
0.0
147
0.0
147
0.0208333333333333
147
0.0
147
0.0
147
0.0
147
0.0
147
1.0
147
0.0
147
0.0
147
0.0
147
0.0
147
1.0
  0
MLEADERSTYLE
  5
C2
102
{ACAD_REACTORS
330
C1
102
}
330
C1
100
AcDbMLeaderStyle
179
     2
170
     2
171
     1
172
     0
 90
        2
 40
0.0
 41
0.0
173
     1
 91
-1056964608
340
B6
 92
       -2
290
     1
 42
0.09
291
     1
 43
0.36
  3
Standard
 44
0.18
300

342
B0
174
     1
178
     6
175
     1
176
     0
 93
-1056964608
 45
0.18
292
     0
297
     0
 46
0.18
 94
-1056964608
 47
1.0
 49
1.0
140
1.0
293
     1
141
0.0
294
     1
177
     0
142
1.0
295
     1
296
     0
143
0.125
271
     0
272
     9
273
     9
298
     1
  0
MLINESTYLE
  5
BB
102
{ACAD_REACTORS
330
BA
102
}
330
BA
100
AcDbMlineStyle
  2
STANDARD
 70
     0
  3

 62
   256
 51
90.0
 52
90.0
 71
     2
 49
0.5
 62
   256
  6
BYLAYER
 49
-0.5
 62
   256
  6
BYLAYER
  0
ACDBPLACEHOLDER
  5
F
102
{ACAD_REACTORS
330
E
102
}
330
E
  0
SCALE
  5
9E
102
{ACAD_REACTORS
330
9D
102
}
330
9D
100
AcDbScale
 70
     0
300
1:1
140
1.0
141
1.0
290
     1
  0
SCALE
  5
9F
102
{ACAD_REACTORS
330
9D
102
}
330
9D
100
AcDbScale
 70
     0
300
1/128" = 1'-0"
140
0.0078125
141
12.0
290
     0
  0
SCALE
  5
A0
102
{ACAD_REACTORS
330
9D
102
}
330
9D
100
AcDbScale
 70
     0
300
1/64" = 1'-0"
140
0.015625
141
12.0
290
     0
  0
SCALE
  5
A1
102
{ACAD_REACTORS
330
9D
102
}
330
9D
100
AcDbScale
 70
     0
300
1/32" = 1'-0"
140
0.03125
141
12.0
290
     0
  0
SCALE
  5
A2
102
{ACAD_REACTORS
330
9D
102
}
330
9D
100
AcDbScale
 70
     0
300
1/16" = 1'-0"
140
0.0625
141
12.0
290
     0
  0
SCALE
  5
A3
102
{ACAD_REACTORS
330
9D
102
}
330
9D
100
AcDbScale
 70
     0
300
3/32" = 1'-0"
140
0.09375
141
12.0
290
     0
  0
SCALE
  5
A4
102
{ACAD_REACTORS
330
9D
102
}
330
9D
100
AcDbScale
 70
     0
300
1/8" = 1'-0"
140
0.125
141
12.0
290
     0
  0
SCALE
  5
A5
102
{ACAD_REACTORS
330
9D
102
}
330
9D
100
AcDbScale
 70
     0
300
3/16" = 1'-0"
140
0.1875
141
12.0
290
     0
  0
SCALE
  5
A6
102
{ACAD_REACTORS
330
9D
102
}
330
9D
100
AcDbScale
 70
     0
300
1/4" = 1'-0"
140
0.25
141
12.0
290
     0
  0
SCALE
  5
A7
102
{ACAD_REACTORS
330
9D
102
}
330
9D
100
AcDbScale
 70
     0
300
3/8" = 1'-0"
140
0.375
141
12.0
290
     0
  0
SCALE
  5
A8
102
{ACAD_REACTORS
330
9D
102
}
330
9D
100
AcDbScale
 70
     0
300
1/2" = 1'-0"
140
0.5
141
12.0
290
     0
  0
SCALE
  5
A9
102
{ACAD_REACTORS
330
9D
102
}
330
9D
100
AcDbScale
 70
     0
300
3/4" = 1'-0"
140
0.75
141
12.0
290
     0
  0
SCALE
  5
AA
102
{ACAD_REACTORS
330
9D
102
}
330
9D
100
AcDbScale
 70
     0
300
1" = 1'-0"
140
1.0
141
12.0
290
     0
  0
SCALE
  5
AB
102
{ACAD_REACTORS
330
9D
102
}
330
9D
100
AcDbScale
 70
     0
300
1-1/2" = 1'-0"
140
1.5
141
12.0
290
     0
  0
SCALE
  5
AC
102
{ACAD_REACTORS
330
9D
102
}
330
9D
100
AcDbScale
 70
     0
300
3" = 1'-0"
140
3.0
141
12.0
290
     0
  0
SCALE
  5
AD
102
{ACAD_REACTORS
330
9D
102
}
330
9D
100
AcDbScale
 70
     0
300
6" = 1'-0"
140
6.0
141
12.0
290
     0
  0
SCALE
  5
AE
102
{ACAD_REACTORS
330
9D
102
}
330
9D
100
AcDbScale
 70
     0
300
1'-0" = 1'-0"
140
12.0
141
12.0
290
     0
  0
SCENESTYLE
  5
6D
102
{ACAD_XDICTIONARY
360
72
102
}
102
{ACAD_REACTORS
330
52
102
}
330
52
100
AcDbSceneStyle
280
     0
  3
Architectural Design
 70
    11
340
71
 71
     0
290
     0
360
6E
361
74
343
3E
 72
     2
291
     0
 73
     2
292
     1
 40
9.0
 41
0.05
 42
0.8
 43
0.2
 44
7000.0
 45
1.0
170
     0
 62
   256
 62
   256
 62
   256
293
     1
 90
 33554521
 91
 33554521
 92
 33554636
  0
SCENESTYLE
  5
7A
102
{ACAD_XDICTIONARY
360
7C
102
}
102
{ACAD_REACTORS
330
52
102
}
330
52
100
AcDbSceneStyle
280
     0
  3
Blueprint
 70
     5
340
7B
 71
     0
290
     0
360
0
361
7E
343
48
 72
     0
291
     0
 73
     0
292
     1
 40
4.0
 41
0.25
 42
1.0
 43
0.2
 44
6500.0
 45
1.0
170
     0
 62
   256
 62
   256
 62
   256
293
     1
 90
 33554521
 91
 33554521
 92
 33554636
  0
SCENESTYLE
  5
93
102
{ACAD_XDICTIONARY
360
95
102
}
102
{ACAD_REACTORS
330
52
102
}
330
52
100
AcDbSceneStyle
280
     0
  3
Comic Book
 70
     5
340
94
 71
     0
290
     0
360
0
361
97
343
4C
 72
     0
291
     0
 73
     2
292
     1
 40
4.0
 41
0.25
 42
1.0
 43
0.2
 44
6500.0
 45
1.0
170
     0
 62
   256
 62
   256
 62
   256
293
     1
 90
 33554521
 91
 33554521
 92
 33554636
  0
SCENESTYLE
  5
8E
102
{ACAD_XDICTIONARY
360
90
102
}
102
{ACAD_REACTORS
330
52
102
}
330
52
100
AcDbSceneStyle
280
     0
  3
Crayon
 70
     5
340
8F
 71
     0
290
     0
360
0
361
92
343
4F
 72
     0
291
     0
 73
     2
292
     1
 40
4.0
 41
0.25
 42
1.0
 43
0.2
 44
6500.0
 45
1.0
170
     0
 62
   256
 62
   256
 62
   256
293
     1
 90
 33554521
 91
 33554521
 92
 33554636
  0
SCENESTYLE
  5
53
102
{ACAD_REACTORS
330
52
102
}
330
52
100
AcDbSceneStyle
280
     0
  3
Drafting
 70
     0
340
0
 71
     0
290
     0
360
0
361
54
343
32
 72
     0
291
     0
 73
     2
292
     1
 40
4.0
 41
0.25
 42
1.0
 43
0.2
 44
6500.0
 45
1.0
170
     0
 62
   256
 62
   256
 62
   256
293
     1
 90
 33554521
 91
 33554521
 92
 33554636
  0
SCENESTYLE
  5
60
102
{ACAD_XDICTIONARY
360
65
102
}
102
{ACAD_REACTORS
330
52
102
}
330
52
100
AcDbSceneStyle
280
     0
  3
Evening
 70
    11
340
64
 71
     0
290
     0
360
61
361
67
343
36
 72
     2
291
     1
 73
     4
292
     1
 40
9.0
 41
0.05
 42
0.8
 43
0.2
 44
7000.0
 45
1.0
170
     0
 62
   256
 62
   256
 62
   256
293
     1
 90
 33554521
 91
 33554521
 92
 33554636
  0
SCENESTYLE
  5
89
102
{ACAD_XDICTIONARY
360
8B
102
}
102
{ACAD_REACTORS
330
52
102
}
330
52
100
AcDbSceneStyle
280
     0
  3
Graphic Novel
 70
     5
340
8A
 71
     0
290
     0
360
0
361
8D
343
50
 72
     0
291
     0
 73
     2
292
     1
 40
4.0
 41
0.25
 42
1.0
 43
0.2
 44
6500.0
 45
1.0
170
     0
 62
   256
 62
   256
 62
   256
293
     1
 90
 33554521
 91
 33554521
 92
 33554636
  0
SCENESTYLE
  5
75
102
{ACAD_XDICTIONARY
360
77
102
}
102
{ACAD_REACTORS
330
52
102
}
330
52
100
AcDbSceneStyle
280
     0
  3
Grayscale
 70
     5
340
76
 71
     0
290
     0
360
0
361
79
343
3D
 72
     0
291
     0
 73
     0
292
     1
 40
4.0
 41
0.25
 42
1.0
 43
0.2
 44
6500.0
 45
1.0
170
     0
 62
   256
 62
   256
 62
   256
293
     1
 90
 33554521
 91
 33554521
 92
 33554636
  0
SCENESTYLE
  5
68
102
{ACAD_XDICTIONARY
360
6A
102
}
102
{ACAD_REACTORS
330
52
102
}
330
52
100
AcDbSceneStyle
280
     0
  3
IBL
 70
    12
340
69
 71
     0
290
     0
360
0
361
6C
343
36
 72
     2
291
     1
 73
     2
292
     1
 40
4.0
 41
0.25
 42
1.0
 43
0.2
 44
6500.0
 45
1.0
170
     0
 62
   256
 62
   256
 62
   256
293
     1
 90
 33554521
 91
 33554521
 92
 33554636
  0
SCENESTYLE
  5
7F
102
{ACAD_XDICTIONARY
360
81
102
}
102
{ACAD_REACTORS
330
52
102
}
330
52
100
AcDbSceneStyle
280
     0
  3
Mechanical Design
 70
     6
340
80
 71
     0
290
     0
360
0
361
83
343
40
 72
     1
291
     1
 73
     2
292
     1
 40
4.0
 41
0.25
 42
1.0
 43
0.2
 44
6500.0
 45
1.0
170
     0
 62
   256
 62
   256
 62
   256
293
     1
 90
 33554521
 91
 33554521
 92
 33554636
  0
SCENESTYLE
  5
84
102
{ACAD_XDICTIONARY
360
86
102
}
102
{ACAD_REACTORS
330
52
102
}
330
52
100
AcDbSceneStyle
280
     0
  3
Mechanical Presentation
 70
     6
340
85
 71
     0
290
     0
360
0
361
88
343
36
 72
     0
291
     1
 73
     2
292
     1
 40
4.0
 41
0.25
 42
1.0
 43
0.2
 44
6500.0
 45
1.0
170
     0
 62
   256
 62
   256
 62
   256
293
     1
 90
 33554521
 91
 33554521
 92
 33554636
  0
SCENESTYLE
  5
55
102
{ACAD_REACTORS
330
52
102
}
330
52
100
AcDbSceneStyle
280
     0
  3
Modeling
 70
     0
340
0
 71
     0
290
     0
360
0
361
56
343
36
 72
     0
291
     0
 73
     2
292
     1
 40
4.0
 41
0.25
 42
1.0
 43
0.2
 44
6500.0
 45
1.0
170
     0
 62
   256
 62
   256
 62
   256
293
     1
 90
 33554521
 91
 33554521
 92
 33554636
  0
SCENESTYLE
  5
98
102
{ACAD_XDICTIONARY
360
9A
102
}
102
{ACAD_REACTORS
330
52
102
}
330
52
100
AcDbSceneStyle
280
     0
  3
Pop Art
 70
     5
340
99
 71
     0
290
     0
360
0
361
9C
343
4B
 72
     0
291
     0
 73
     2
292
     1
 40
4.0
 41
0.25
 42
1.0
 43
0.2
 44
6500.0
 45
1.0
170
     0
 62
   256
 62
   256
 62
   256
293
     1
 90
 33554521
 91
 33554521
 92
 33554636
  0
SCENESTYLE
  5
57
102
{ACAD_XDICTIONARY
360
5D
102
}
102
{ACAD_REACTORS
330
52
102
}
330
52
100
AcDbSceneStyle
280
     0
  3
Sunny Day
 70
    11
340
5C
 71
     0
290
     0
360
58
361
5F
343
36
 72
     2
291
     1
 73
     2
292
     1
 40
9.0
 41
0.05
 42
0.8
 43
0.2
 44
7000.0
 45
1.0
170
     0
 62
   256
 62
   256
 62
   256
293
     1
 90
 33554521
 91
 33554521
 92
 33554636
  0
ACDBSECTIONVIEWSTYLE
  5
C5
102
{ACAD_REACTORS
330
C3
102
}
330
C3
100
AcDbModelDocViewStyle
 70
     0
  3
Imperial24
290
     1
100
AcDbSectionViewStyle
 70
     0
 71
     0
 90
       78
 71
     1
340
B0
 62
   256
 40
0.24
340
0
340
0
 62
   256
 40
0.24
300
I, O, Q, S, X, Z
 40
0.48
 90
        3
 40
0.18
 90
        1
 71
     2
340
C4
 90
       25
 62
   256
340
B8
 90
       50
 62
   256
 40
0.24
 40
0.0
 40
0.24
 71
     3
340
B0
 62
   256
 40
0.24
 90
        1
 40
0.75
 90
        1
300
%<\AcVar ViewType \f "%tc1">% %<\AcVar ViewSectionStartId>%-%<\AcVar ViewSectionEndId>%\PSCALE %<\AcVar ViewScale \f "%sn">%
 71
     4
 62
   256
 62
   257
300
ANSI31
 40
1.0
 90
        0
290
     0
290
     0
 90
        6
 40
0.0
 40
1.570796326794896
 40
0.2617993877991494
 40
1.308996938995747
 40
-0.2617993877991494
 40
1.832595714594046
  0
TABLESTYLE
  5
C0
102
{ACAD_XDICTIONARY
360
537
102
}
102
{ACAD_REACTORS
330
BF
102
}
330
BF
100
AcDbTableStyle
280
     0
  3
Standard
 70
     0
 71
     0
 40
0.06
 41
0.06
280
     0
281
     0
  7
Standard
140
0.18
170
     2
 62
     0
 63
     7
283
     0
 90
      512
 91
        0
  1

274
    -2
284
     1
 64
     0
275
    -2
285
     1
 65
     0
276
    -2
286
     1
 66
     0
277
    -2
287
     1
 67
     0
278
    -2
288
     1
 68
     0
279
    -2
289
     1
 69
     0
  7
Standard
140
0.25
170
     5
 62
     0
 63
     7
283
     0
 90
      512
 91
        0
  1

274
    -2
284
     1
 64
     0
275
    -2
285
     1
 65
     0
276
    -2
286
     1
 66
     0
277
    -2
287
     1
 67
     0
278
    -2
288
     1
 68
     0
279
    -2
289
     1
 69
     0
  7
Standard
140
0.18
170
     5
 62
     0
 63
     7
283
     0
 90
      512
 91
        0
  1

274
    -2
284
     1
 64
     0
275
    -2
285
     1
 65
     0
276
    -2
286
     1
 66
     0
277
    -2
287
     1
 67
     0
278
    -2
288
     1
 68
     0
279
    -2
289
     1
 69
     0
  0
VISUALSTYLE
  5
32
102
{ACAD_REACTORS
330
29
102
}
330
29
100
AcDbVisualStyle
  2
2dWireframe
 70
     4
177
     3
291
     0
 70
    58
 90
        0
176
     1
 90
        3
176
     1
 90
        0
176
     1
 90
        2
176
     1
 40
0.6
176
     1
 40
30.0
176
     1
 62
     7
420
 16777215
176
     1
 90
        2
176
     1
 90
        4
176
     1
 62
     7
176
     1
 62
   257
176
     1
 90
        1
176
     1
 90
        1
176
     1
 40
1.0
176
     1
 90
        0
176
     1
 62
   257
176
     1
 40
0.3
176
     1
 90
        1
176
     1
 90
        6
176
     1
 90
        2
176
     1
 62
     7
176
     1
 90
        2
176
     1
 90
        0
176
     1
 90
        0
176
     1
290
     0
176
     1
 90
        1
176
     1
 40
0.0
176
     1
 90
        0
176
     1
290
     1
176
     1
290
     1
176
     1
290
     0
176
     1
290
     0
176
     1
290
     0
176
     1
290
     0
176
     1
290
     0
176
     1
290
     0
176
     1
290
     0
176
     1
 90
       50
176
     1
 40
0.0
176
     1
 40
1.0
176
     1
 90
        0
176
     1
 62
    18
420
        0
176
     1
 90
       50
176
     1
 90
        3
176
     1
 62
     5
420
      255
176
     1
290
     0
176
     1
 90
       50
176
     1
 90
       50
176
     1
 90
       50
176
     1
290
     0
176
     1
 90
       50
176
     1
 62
   256
176
     0
 40
1.0
176
     0
 90
        2
176
     1
  1
pencil.tif
176
     1
290
     0
176
     1
 40
1.0
176
     1
 40
1.0
176
     1
  0
VISUALSTYLE
  5
31
102
{ACAD_REACTORS
330
29
102
}
330
29
100
AcDbVisualStyle
  2
Basic
 70
     7
177
     3
291
     1
 70
    58
 90
        1
176
     1
 90
        0
176
     1
 90
        1
176
     1
 90
        0
176
     1
 40
0.6
176
     1
 40
30.0
176
     1
 62
     7
420
 16777215
176
     1
 90
        0
176
     1
 90
        4
176
     1
 62
     7
176
     1
 62
   257
176
     1
 90
        1
176
     1
 90
        1
176
     1
 40
1.0
176
     1
 90
        8
176
     1
 62
   257
176
     1
 40
0.3
176
     1
 90
        1
176
     1
 90
        6
176
     1
 90
        2
176
     1
 62
     7
176
     1
 90
        5
176
     1
 90
        0
176
     1
 90
        0
176
     1
290
     0
176
     1
 90
        1
176
     1
 40
0.0
176
     1
 90
        0
176
     1
290
     0
176
     1
290
     1
176
     1
290
     1
176
     1
290
     0
176
     1
290
     0
176
     1
290
     0
176
     1
290
     0
176
     1
290
     0
176
     1
290
     0
176
     1
 90
       50
176
     1
 40
0.0
176
     1
 40
1.0
176
     1
 90
        0
176
     1
 62
    18
420
        0
176
     1
 90
       50
176
     1
 90
        3
176
     1
 62
     5
420
      255
176
     1
290
     0
176
     1
 90
       50
176
     1
 90
       50
176
     1
 90
       50
176
     1
290
     0
176
     1
 90
       50
176
     1
 62
   256
176
     0
 40
1.0
176
     0
 90
        2
176
     1
  1
pencil.tif
176
     1
290
     0
176
     1
 40
1.0
176
     1
 40
1.0
176
     1
  0
VISUALSTYLE
  5
50
102
{ACAD_REACTORS
330
29
102
}
330
29
100
AcDbVisualStyle
  2
Black and White
 70
    43
177
     3
291
     0
 70
    58
 90
        2
176
     1
 90
        3
176
     1
 90
        3
176
     1
 90
        2
176
     1
 40
0.6
176
     1
 40
30.0
176
     1
 62
     7
420
 16777215
176
     1
 90
        2
176
     1
 90
        2
176
     1
 62
     7
176
     1
 62
     7
176
     1
 90
        1
176
     1
 90
        1
176
     1
 40
40.0
176
     1
 90
        8
176
     1
 62
    18
420
        0
176
     1
 40
0.3
176
     1
 90
        1
176
     1
 90
        6
176
     1
 90
        2
176
     1
 62
     7
176
     1
 90
        2
176
     1
 90
        0
176
     1
 90
        0
176
     1
290
     0
176
     1
 90
        1
176
     1
 40
0.0
176
     1
 90
        0
176
     1
290
     0
176
     1
290
     1
176
     1
290
     1
176
     1
290
     1
176
     1
290
     1
176
     1
290
     0
176
     1
290
     0
176
     1
290
     0
176
     1
290
     0
176
     1
 90
       50
176
     1
 40
0.0
176
     1
 40
1.0
176
     1
 90
        0
176
     1
 62
    18
420
        0
176
     1
 90
       50
176
     1
 90
        3
176
     1
 62
     5
420
      255
176
     1
290
     1
176
     1
 90
       97
176
     1
 90
       50
176
     1
 90
       10
176
     1
290
     0
176
     1
 90
       50
176
     1
 62
   256
176
     0
 40
1.0
176
     0
 90
        2
176
     1
  1
pencil.tif
176
     1
290
     0
176
     1
 40
1.0
176
     1
 40
1.0
176
     1
  0
VISUALSTYLE
  5
46
102
{ACAD_REACTORS
330
29
102
}
330
29
100
AcDbVisualStyle
  2
Bloom
 70
    34
177
     3
291
     0
 70
    58
 90
        2
176
     1
 90
        3
176
     1
 90
        0
176
     1
 90
        2
176
     1
 40
0.6
176
     1
 40
30.0
176
     1
 62
     7
420
 16777215
176
     1
 90
        2
176
     1
 90
        2
176
     1
 62
     7
176
     1
 62
   257
176
     1
 90
        1
176
     1
 90
        1
176
     1
 40
40.0
176
     1
 90
      136
176
     1
 62
   257
176
     1
 40
0.3
176
     1
 90
        1
176
     1
 90
        6
176
     1
 90
        2
176
     1
 62
     7
176
     1
 90
        2
176
     1
 90
        0
176
     1
 90
        0
176
     1
290
     0
176
     1
 90
       13
176
     1
 40
0.0
176
     1
 90
        0
176
     1
290
     0
176
     1
290
     1
176
     1
290
     1
176
     1
290
     0
176
     1
290
     0
176
     1
290
     0
176
     1
290
     0
176
     1
290
     1
176
     1
290
     0
176
     1
 90
       50
176
     1
 40
0.0
176
     1
 40
1.0
176
     1
 90
        0
176
     1
 62
    18
420
        0
176
     1
 90
       50
176
     1
 90
        3
176
     1
 62
     5
420
      255
176
     1
290
     0
176
     1
 90
       50
176
     1
 90
       50
176
     1
 90
       50
176
     1
290
     0
176
     1
 90
       50
176
     1
 62
   256
176
     0
 40
1.0
176
     0
 90
        2
176
     1
  1
pencil.tif
176
     1
290
     0
176
     1
 40
1.0
176
     1
 40
1.0
176
     1
  0
VISUALSTYLE
  5
48
102
{ACAD_REACTORS
330
29
102
}
330
29
100
AcDbVisualStyle
  2
Blue Tint
 70
    35
177
     3
291
     0
 70
    58
 90
        1
176
     1
 90
        3
176
     1
 90
        2
176
     1
 90
        0
176
     1
 40
0.6
176
     1
 40
30.0
176
     1
 62
     7
420
 16777215
176
     1
 90
        2
176
     1
 90
        2
176
     1
 62
     7
176
     1
 62
     7
176
     1
 90
        1
176
     1
 90
        1
176
     1
 40
40.0
176
     1
 90
        9
176
     1
 62
     7
176
     1
 40
0.3
176
     1
 90
        1
176
     1
 90
        2
176
     1
 90
        2
176
     1
 62
     7
176
     1
 90
        3
176
     1
 90
        0
176
     1
 90
        0
176
     1
290
     0
176
     1
 90
        1
176
     1
 40
0.0
176
     1
 90
        0
176
     1
290
     0
176
     1
290
     1
176
     1
290
     1
176
     1
290
     0
176
     1
290
     0
176
     1
290
     0
176
     1
290
     1
176
     1
290
     0
176
     1
290
     0
176
     1
 90
       50
176
     1
 40
0.0
176
     1
 40
1.0
176
     1
 90
        0
176
     1
 62
     7
420
 15132415
176
     1
 90
       50
176
     1
 90
        3
176
     1
 62
     7
420
 15132415
176
     1
290
     0
176
     1
 90
       50
176
     1
 90
       50
176
     1
 90
       50
176
     1
290
     1
176
     1
 90
       50
176
     1
 62
   256
176
     0
 40
1.0
176
     0
 90
        2
176
     1
  1
pencil.tif
176
     1
290
     0
176
     1
 40
1.0
176
     1
 40
1.0
176
     1
  0
VISUALSTYLE
  5
45
102
{ACAD_REACTORS
330
29
102
}
330
29
100
AcDbVisualStyle
  2
Blurred
 70
    32
177
     3
291
     0
 70
    58
 90
        2
176
     1
 90
        3
176
     1
 90
        0
176
     1
 90
        2
176
     1
 40
0.6
176
     1
 40
30.0
176
     1
 62
     7
420
 16777215
176
     1
 90
        2
176
     1
 90
        2
176
     1
 62
     7
176
     1
 62
   257
176
     1
 90
        1
176
     1
 90
        1
176
     1
 40
40.0
176
     1
 90
        8
176
     1
 62
   257
176
     1
 40
0.3
176
     1
 90
        1
176
     1
 90
        6
176
     1
 90
        2
176
     1
 62
     7
176
     1
 90
        2
176
     1
 90
        0
176
     1
 90
        0
176
     1
290
     0
176
     1
 90
       13
176
     1
 40
0.0
176
     1
 90
        0
176
     1
290
     0
176
     1
290
     1
176
     1
290
     1
176
     1
290
     0
176
     1
290
     0
176
     1
290
     1
176
     1
290
     0
176
     1
290
     0
176
     1
290
     0
176
     1
 90
       50
176
     1
 40
0.0
176
     1
 40
1.0
176
     1
 90
        0
176
     1
 62
    18
420
        0
176
     1
 90
       50
176
     1
 90
        3
176
     1
 62
     5
420
      255
176
     1
290
     0
176
     1
 90
       50
176
     1
 90
       50
176
     1
 90
       50
176
     1
290
     0
176
     1
 90
       50
176
     1
 62
   256
176
     0
 40
1.0
176
     0
 90
        2
176
     1
  1
pencil.tif
176
     1
290
     0
176
     1
 40
1.0
176
     1
 40
1.0
176
     1
  0
VISUALSTYLE
  5
38
102
{ACAD_REACTORS
330
29
102
}
330
29
100
AcDbVisualStyle
  2
Brighten
 70
    12
177
     3
291
     1
 70
    58
 90
        2
176
     1
 90
        3
176
     1
 90
        0
176
     1
 90
        0
176
     1
 40
0.6
176
     1
 40
30.0
176
     1
 62
     7
420
 16777215
176
     1
 90
        0
176
     1
 90
        4
176
     1
 62
     7
176
     1
 62
   257
176
     1
 90
        1
176
     1
 90
        1
176
     1
 40
1.0
176
     1
 90
        8
176
     1
 62
   257
176
     1
 40
0.3
176
     1
 90
        1
176
     1
 90
        6
176
     1
 90
        2
176
     1
 62
     7
176
     1
 90
        5
176
     1
 90
        0
176
     1
 90
        0
176
     1
290
     0
176
     1
 90
        1
176
     1
 40
50.0
176
     1
 90
        0
176
     1
290
     0
176
     1
290
     1
176
     1
290
     1
176
     1
290
     0
176
     1
290
     0
176
     1
290
     0
176
     1
290
     0
176
     1
290
     0
176
     1
290
     0
176
     1
 90
       50
176
     1
 40
0.0
176
     1
 40
1.0
176
     1
 90
        0
176
     1
 62
    18
420
        0
176
     1
 90
       50
176
     1
 90
        3
176
     1
 62
     5
420
      255
176
     1
290
     0
176
     1
 90
       50
176
     1
 90
       50
176
     1
 90
       50
176
     1
290
     0
176
     1
 90
       50
176
     1
 62
   256
176
     0
 40
1.0
176
     0
 90
        2
176
     1
  1
pencil.tif
176
     1
290
     0
176
     1
 40
1.0
176
     1
 40
1.0
176
     1
  0
VISUALSTYLE
  5
2C
102
{ACAD_REACTORS
330
29
102
}
330
29
100
AcDbVisualStyle
  2
ByBlock
 70
    30
177
     3
291
     0
 70
    58
 90
        2
176
     1
 90
        3
176
     1
 90
        0
176
     1
 90
        2
176
     1
 40
0.6
176
     1
 40
30.0
176
     1
 62
     7
420
 16777215
176
     1
 90
        0
176
     1
 90
        0
176
     1
 62
     7
176
     1
 62
   257
176
     1
 90
        1
176
     1
 90
        1
176
     1
 40
40.0
176
     1
 90
        8
176
     1
 62
   257
176
     1
 40
0.3
176
     1
 90
        1
176
     1
 90
        6
176
     1
 90
        2
176
     1
 62
     7
176
     1
 90
        2
176
     1
 90
        0
176
     1
 90
        0
176
     1
290
     0
176
     1
 90
       13
176
     1
 40
0.0
176
     1
 90
        0
176
     1
290
     0
176
     1
290
     1
176
     1
290
     1
176
     1
290
     0
176
     1
290
     0
176
     1
290
     0
176
     1
290
     0
176
     1
290
     0
176
     1
290
     0
176
     1
 90
       50
176
     1
 40
0.0
176
     1
 40
1.0
176
     1
 90
        0
176
     1
 62
    18
420
        0
176
     1
 90
       50
176
     1
 90
        3
176
     1
 62
     5
420
      255
176
     1
290
     0
176
     1
 90
       50
176
     1
 90
       50
176
     1
 90
       50
176
     1
290
     0
176
     1
 90
       50
176
     1
 62
   256
176
     0
 40
1.0
176
     0
 90
        2
176
     1
  1
pencil.tif
176
     1
290
     0
176
     1
 40
1.0
176
     1
 40
1.0
176
     1
  0
VISUALSTYLE
  5
2B
102
{ACAD_REACTORS
330
29
102
}
330
29
100
AcDbVisualStyle
  2
ByLayer
 70
    29
177
     3
291
     0
 70
    58
 90
        2
176
     1
 90
        3
176
     1
 90
        0
176
     1
 90
        2
176
     1
 40
0.6
176
     1
 40
30.0
176
     1
 62
     7
420
 16777215
176
     1
 90
        0
176
     1
 90
        0
176
     1
 62
     7
176
     1
 62
   257
176
     1
 90
        1
176
     1
 90
        1
176
     1
 40
40.0
176
     1
 90
        8
176
     1
 62
   257
176
     1
 40
0.3
176
     1
 90
        1
176
     1
 90
        6
176
     1
 90
        2
176
     1
 62
     7
176
     1
 90
        2
176
     1
 90
        0
176
     1
 90
        0
176
     1
290
     0
176
     1
 90
       13
176
     1
 40
0.0
176
     1
 90
        0
176
     1
290
     0
176
     1
290
     1
176
     1
290
     1
176
     1
290
     0
176
     1
290
     0
176
     1
290
     0
176
     1
290
     0
176
     1
290
     0
176
     1
290
     0
176
     1
 90
       50
176
     1
 40
0.0
176
     1
 40
1.0
176
     1
 90
        0
176
     1
 62
    18
420
        0
176
     1
 90
       50
176
     1
 90
        3
176
     1
 62
     5
420
      255
176
     1
290
     0
176
     1
 90
       50
176
     1
 90
       50
176
     1
 90
       50
176
     1
290
     0
176
     1
 90
       50
176
     1
 62
   256
176
     0
 40
1.0
176
     0
 90
        2
176
     1
  1
pencil.tif
176
     1
290
     0
176
     1
 40
1.0
176
     1
 40
1.0
176
     1
  0
VISUALSTYLE
  5
2A
102
{ACAD_REACTORS
330
29
102
}
330
29
100
AcDbVisualStyle
  2
ByViewport
 70
    28
177
     3
291
     0
 70
    58
 90
        2
176
     1
 90
        3
176
     1
 90
        0
176
     1
 90
        2
176
     1
 40
0.6
176
     1
 40
30.0
176
     1
 62
     7
420
 16777215
176
     1
 90
        0
176
     1
 90
        0
176
     1
 62
     7
176
     1
 62
   257
176
     1
 90
        1
176
     1
 90
        1
176
     1
 40
40.0
176
     1
 90
        8
176
     1
 62
   257
176
     1
 40
0.3
176
     1
 90
        1
176
     1
 90
        6
176
     1
 90
        2
176
     1
 62
     7
176
     1
 90
        2
176
     1
 90
        0
176
     1
 90
        0
176
     1
290
     0
176
     1
 90
       13
176
     1
 40
0.0
176
     1
 90
        0
176
     1
290
     0
176
     1
290
     1
176
     1
290
     1
176
     1
290
     0
176
     1
290
     0
176
     1
290
     0
176
     1
290
     0
176
     1
290
     0
176
     1
290
     0
176
     1
 90
       50
176
     1
 40
0.0
176
     1
 40
1.0
176
     1
 90
        0
176
     1
 62
    18
420
        0
176
     1
 90
       50
176
     1
 90
        3
176
     1
 62
     5
420
      255
176
     1
290
     0
176
     1
 90
       50
176
     1
 90
       50
176
     1
 90
       50
176
     1
290
     0
176
     1
 90
       50
176
     1
 62
   256
176
     0
 40
1.0
176
     0
 90
        2
176
     1
  1
pencil.tif
176
     1
290
     0
176
     1
 40
1.0
176
     1
 40
1.0
176
     1
  0
VISUALSTYLE
  5
3C
102
{ACAD_REACTORS
330
29
102
}
330
29
100
AcDbVisualStyle
  2
ColorChange
 70
    16
177
     3
291
     1
 70
    58
 90
        2
176
     1
 90
        3
176
     1
 90
        3
176
     1
 90
        0
176
     1
 40
0.6
176
     1
 40
30.0
176
     1
 62
     8
420
  8421504
176
     1
 90
        0
176
     1
 90
        4
176
     1
 62
     7
176
     1
 62
   257
176
     1
 90
        1
176
     1
 90
        1
176
     1
 40
1.0
176
     1
 90
        8
176
     1
 62
     8
420
  8421504
176
     1
 40
0.3
176
     1
 90
        1
176
     1
 90
        6
176
     1
 90
        2
176
     1
 62
     7
176
     1
 90
        5
176
     1
 90
        0
176
     1
 90
        0
176
     1
290
     0
176
     1
 90
        1
176
     1
 40
0.0
176
     1
 90
        0
176
     1
290
     0
176
     1
290
     1
176
     1
290
     1
176
     1
290
     0
176
     1
290
     0
176
     1
290
     0
176
     1
290
     0
176
     1
290
     0
176
     1
290
     0
176
     1
 90
       50
176
     1
 40
0.0
176
     1
 40
1.0
176
     1
 90
        0
176
     1
 62
    18
420
        0
176
     1
 90
       50
176
     1
 90
        3
176
     1
 62
     5
420
      255
176
     1
290
     0
176
     1
 90
       50
176
     1
 90
       50
176
     1
 90
       50
176
     1
290
     0
176
     1
 90
       50
176
     1
 62
   256
176
     0
 40
1.0
176
     0
 90
        2
176
     1
  1
pencil.tif
176
     1
290
     0
176
     1
 40
1.0
176
     1
 40
1.0
176
     1
  0
VISUALSTYLE
  5
35
102
{ACAD_REACTORS
330
29
102
}
330
29
100
AcDbVisualStyle
  2
Conceptual
 70
     9
177
     3
291
     0
 70
    58
 90
        3
176
     1
 90
        3
176
     1
 90
        0
176
     1
 90
        0
176
     1
 40
0.6
176
     1
 40
30.0
176
     1
 62
     7
420
 16777215
176
     1
 90
        2
176
     1
 90
        2
176
     1
 62
     7
176
     1
 62
   257
176
     1
 90
        1
176
     1
 90
        1
176
     1
 40
40.0
176
     1
 90
        8
176
     1
 62
    18
420
        0
176
     1
 40
0.3
176
     1
 90
        1
176
     1
 90
        6
176
     1
 90
        2
176
     1
 62
     7
176
     1
 90
        2
176
     1
 90
        0
176
     1
 90
        0
176
     1
290
     0
176
     1
 90
        1
176
     1
 40
0.0
176
     1
 90
        0
176
     1
290
     0
176
     1
290
     1
176
     1
290
     1
176
     1
290
     0
176
     1
290
     0
176
     1
290
     0
176
     1
290
     0
176
     1
290
     0
176
     1
290
     0
176
     1
 90
       50
176
     1
 40
0.0
176
     1
 40
1.0
176
     1
 90
        0
176
     1
 62
    18
420
        0
176
     1
 90
       50
176
     1
 90
        3
176
     1
 62
     5
420
      255
176
     1
290
     0
176
     1
 90
       50
176
     1
 90
       50
176
     1
 90
       50
176
     1
290
     0
176
     1
 90
       50
176
     1
 62
   256
176
     0
 40
1.0
176
     0
 90
        2
176
     1
  1
pencil.tif
176
     1
290
     0
176
     1
 40
1.0
176
     1
 40
1.0
176
     1
  0
VISUALSTYLE
  5
4F
102
{ACAD_REACTORS
330
29
102
}
330
29
100
AcDbVisualStyle
  2
Crayon Edges
 70
    42
177
     3
291
     0
 70
    58
 90
        1
176
     1
 90
        3
176
     1
 90
        2
176
     1
 90
        0
176
     1
 40
0.6
176
     1
 40
30.0
176
     1
 62
     7
420
 16777215
176
     1
 90
        2
176
     1
 90
        2
176
     1
 62
     7
176
     1
 62
   257
176
     1
 90
        1
176
     1
 90
        1
176
     1
 40
40.0
176
     1
 90
      520
176
     1
 62
    18
420
        0
176
     1
 40
0.3
176
     1
 90
        1
176
     1
 90
        6
176
     1
 90
        2
176
     1
 62
     7
176
     1
 90
        2
176
     1
 90
        0
176
     1
 90
        0
176
     1
290
     0
176
     1
 90
        1
176
     1
 40
0.0
176
     1
 90
        0
176
     1
290
     0
176
     1
290
     1
176
     1
290
     1
176
     1
290
     0
176
     1
290
     0
176
     1
290
     0
176
     1
290
     0
176
     1
290
     0
176
     1
290
     1
176
     1
 90
       50
176
     1
 40
0.0
176
     1
 40
1.0
176
     1
 90
        0
176
     1
 62
    18
420
        0
176
     1
 90
       50
176
     1
 90
        3
176
     1
 62
     5
420
      255
176
     1
290
     0
176
     1
 90
       50
176
     1
 90
       50
176
     1
 90
       50
176
     1
290
     0
176
     1
 90
       50
176
     1
 62
   256
176
     0
 40
1.0
176
     0
 90
        2
176
     1
  1
crayon.tif
176
     1
290
     0
176
     1
 40
1.0
176
     1
 40
1.0
176
     1
  0
VISUALSTYLE
  5
4A
102
{ACAD_REACTORS
330
29
102
}
330
29
100
AcDbVisualStyle
  2
Cross Hatch
 70
    37
177
     3
291
     0
 70
    58
 90
        2
176
     1
 90
        3
176
     1
 90
        1
176
     1
 90
        2
176
     1
 40
0.6
176
     1
 40
30.0
176
     1
 62
     7
420
 16777215
176
     1
 90
        2
176
     1
 90
        2
176
     1
 62
     7
176
     1
 62
   257
176
     1
 90
        1
176
     1
 90
        1
176
     1
 40
40.0
176
     1
 90
        8
176
     1
 62
   257
176
     1
 40
0.3
176
     1
 90
        1
176
     1
 90
        6
176
     1
 90
        2
176
     1
 62
     8
420
  7895160
176
     1
 90
        2
176
     1
 90
        0
176
     1
 90
        0
176
     1
290
     0
176
     1
 90
        5
176
     1
 40
0.0
176
     1
 90
        0
176
     1
290
     0
176
     1
290
     1
176
     1
290
     1
176
     1
290
     0
176
     1
290
     0
176
     1
290
     0
176
     1
290
     1
176
     1
290
     0
176
     1
290
     0
176
     1
 90
       50
176
     1
 40
0.0
176
     1
 40
1.0
176
     1
 90
        1
176
     1
 62
    18
420
        0
176
     1
 90
       50
176
     1
 90
        3
176
     1
 62
     5
420
      255
176
     1
290
     0
176
     1
 90
       50
176
     1
 90
       50
176
     1
 90
       50
176
     1
290
     0
176
     1
 90
       50
176
     1
 62
   256
176
     0
 40
1.0
176
     0
 90
        2
176
     1
  1
pencil.tif
176
     1
290
     0
176
     1
 40
1.0
176
     1
 40
1.0
176
     1
  0
VISUALSTYLE
  5
51
102
{ACAD_REACTORS
330
29
102
}
330
29
100
AcDbVisualStyle
  2
Desaturate
 70
    44
177
     3
291
     0
 70
    58
 90
        2
176
     1
 90
        3
176
     1
 90
        5
176
     1
 90
        2
176
     1
 40
0.6
176
     1
 40
30.0
176
     1
 62
     7
420
 16777215
176
     1
 90
        0
176
     1
 90
        0
176
     1
 62
     7
176
     1
 62
   257
176
     1
 90
        1
176
     1
 90
        1
176
     1
 40
40.0
176
     1
 90
        8
176
     1
 62
   257
176
     1
 40
0.3
176
     1
 90
        1
176
     1
 90
        6
176
     1
 90
        2
176
     1
 62
     7
176
     1
 90
        5
176
     1
 90
        0
176
     1
 90
        0
176
     1
290
     0
176
     1
 90
       13
176
     1
 40
0.0
176
     1
 90
        0
176
     1
290
     0
176
     1
290
     1
176
     1
290
     1
176
     1
290
     0
176
     1
290
     0
176
     1
290
     0
176
     1
290
     0
176
     1
290
     0
176
     1
290
     0
176
     1
 90
       50
176
     1
 40
0.0
176
     1
 40
1.0
176
     1
 90
        0
176
     1
 62
    18
420
        0
176
     1
 90
       50
176
     1
 90
        3
176
     1
 62
     5
420
      255
176
     1
290
     0
176
     1
 90
       50
176
     1
 90
       50
176
     1
 90
       50
176
     1
290
     0
176
     1
 90
       50
176
     1
 62
   256
176
     0
 40
1.0
176
     0
 90
        2
176
     1
  1
pencil.tif
176
     1
290
     0
176
     1
 40
1.0
176
     1
 40
1.0
176
     1
  0
VISUALSTYLE
  5
37
102
{ACAD_REACTORS
330
29
102
}
330
29
100
AcDbVisualStyle
  2
Dim
 70
    11
177
     3
291
     1
 70
    58
 90
        2
176
     1
 90
        3
176
     1
 90
        0
176
     1
 90
        0
176
     1
 40
0.6
176
     1
 40
30.0
176
     1
 62
     7
420
 16777215
176
     1
 90
        0
176
     1
 90
        4
176
     1
 62
     7
176
     1
 62
   257
176
     1
 90
        1
176
     1
 90
        1
176
     1
 40
1.0
176
     1
 90
        8
176
     1
 62
   257
176
     1
 40
0.3
176
     1
 90
        1
176
     1
 90
        6
176
     1
 90
        2
176
     1
 62
     7
176
     1
 90
        5
176
     1
 90
        0
176
     1
 90
        0
176
     1
290
     0
176
     1
 90
        1
176
     1
 40
-50.0
176
     1
 90
        0
176
     1
290
     0
176
     1
290
     1
176
     1
290
     1
176
     1
290
     0
176
     1
290
     0
176
     1
290
     0
176
     1
290
     0
176
     1
290
     0
176
     1
290
     0
176
     1
 90
       50
176
     1
 40
0.0
176
     1
 40
1.0
176
     1
 90
        0
176
     1
 62
    18
420
        0
176
     1
 90
       50
176
     1
 90
        3
176
     1
 62
     5
420
      255
176
     1
290
     0
176
     1
 90
       50
176
     1
 90
       50
176
     1
 90
       50
176
     1
290
     0
176
     1
 90
       50
176
     1
 62
   256
176
     0
 40
1.0
176
     0
 90
        2
176
     1
  1
pencil.tif
176
     1
290
     0
176
     1
 40
1.0
176
     1
 40
1.0
176
     1
  0
VISUALSTYLE
  5
44
102
{ACAD_REACTORS
330
29
102
}
330
29
100
AcDbVisualStyle
  2
EdgeColorOff
 70
    22
177
     3
291
     1
 70
    58
 90
        2
176
     0
 90
        3
176
     0
 90
        0
176
     0
 90
        0
176
     0
 40
0.6
176
     0
 40
30.0
176
     0
 62
     7
420
 16777215
176
     0
 90
        0
176
     0
 90
        4
176
     0
 62
     7
176
     0
 62
   257
176
     0
 90
        1
176
     0
 90
        1
176
     0
 40
1.0
176
     0
 90
        8
176
     2
 62
   257
176
     0
 40
0.3
176
     0
 90
        1
176
     0
 90
        6
176
     0
 90
        2
176
     0
 62
     7
176
     0
 90
        5
176
     0
 90
        0
176
     0
 90
        0
176
     0
290
     0
176
     0
 90
        1
176
     0
 40
0.0
176
     0
 90
        0
176
     0
290
     0
176
     0
290
     1
176
     0
290
     1
176
     0
290
     0
176
     0
290
     0
176
     0
290
     0
176
     0
290
     0
176
     0
290
     0
176
     0
290
     0
176
     0
 90
       50
176
     0
 40
0.0
176
     0
 40
1.0
176
     0
 90
        0
176
     0
 62
    18
420
        0
176
     0
 90
       50
176
     0
 90
        3
176
     0
 62
     5
420
      255
176
     0
290
     0
176
     0
 90
       50
176
     0
 90
       50
176
     0
 90
       50
176
     0
290
     0
176
     0
 90
       50
176
     0
 62
   256
176
     0
 40
1.0
176
     0
 90
        2
176
     0
  1
pencil.tif
176
     0
290
     0
176
     0
 40
1.0
176
     0
 40
1.0
176
     0
  0
VISUALSTYLE
  5
3B
102
{ACAD_REACTORS
330
29
102
}
330
29
100
AcDbVisualStyle
  2
Facepattern
 70
    15
177
     3
291
     1
 70
    58
 90
        2
176
     1
 90
        3
176
     1
 90
        0
176
     1
 90
        0
176
     1
 40
0.6
176
     1
 40
30.0
176
     1
 62
     7
420
 16777215
176
     1
 90
        0
176
     1
 90
        4
176
     1
 62
     7
176
     1
 62
   257
176
     1
 90
        1
176
     1
 90
        1
176
     1
 40
1.0
176
     1
 90
        8
176
     1
 62
   257
176
     1
 40
0.3
176
     1
 90
        1
176
     1
 90
        6
176
     1
 90
        2
176
     1
 62
     7
176
     1
 90
        5
176
     1
 90
        0
176
     1
 90
        0
176
     1
290
     0
176
     1
 90
        1
176
     1
 40
0.0
176
     1
 90
        0
176
     1
290
     0
176
     1
290
     1
176
     1
290
     1
176
     1
290
     0
176
     1
290
     0
176
     1
290
     0
176
     1
290
     0
176
     1
290
     0
176
     1
290
     0
176
     1
 90
       50
176
     1
 40
0.0
176
     1
 40
1.0
176
     1
 90
        0
176
     1
 62
    18
420
        0
176
     1
 90
       50
176
     1
 90
        3
176
     1
 62
     5
420
      255
176
     1
290
     0
176
     1
 90
       50
176
     1
 90
       50
176
     1
 90
       50
176
     1
290
     0
176
     1
 90
       50
176
     1
 62
   256
176
     0
 40
1.0
176
     0
 90
        2
176
     1
  1
pencil.tif
176
     1
290
     0
176
     1
 40
1.0
176
     1
 40
1.0
176
     1
  0
VISUALSTYLE
  5
2D
102
{ACAD_REACTORS
330
29
102
}
330
29
100
AcDbVisualStyle
  2
Flat
 70
     0
177
     3
291
     1
 70
    58
 90
        2
176
     1
 90
        1
176
     1
 90
        1
176
     1
 90
        2
176
     1
 40
0.6
176
     1
 40
30.0
176
     1
 62
     7
420
 16777215
176
     1
 90
        0
176
     1
 90
        0
176
     1
 62
     7
176
     1
 62
   257
176
     1
 90
        1
176
     1
 90
        1
176
     1
 40
1.0
176
     1
 90
        8
176
     1
 62
   257
176
     1
 40
0.3
176
     1
 90
        1
176
     1
 90
        6
176
     1
 90
        2
176
     1
 62
     7
176
     1
 90
        5
176
     1
 90
        0
176
     1
 90
        0
176
     1
290
     0
176
     1
 90
       13
176
     1
 40
0.0
176
     1
 90
        0
176
     1
290
     0
176
     1
290
     1
176
     1
290
     1
176
     1
290
     0
176
     1
290
     0
176
     1
290
     0
176
     1
290
     0
176
     1
290
     0
176
     1
290
     0
176
     1
 90
       50
176
     1
 40
0.0
176
     1
 40
1.0
176
     1
 90
        0
176
     1
 62
    18
420
        0
176
     1
 90
       50
176
     1
 90
        3
176
     1
 62
     5
420
      255
176
     1
290
     0
176
     1
 90
       50
176
     1
 90
       50
176
     1
 90
       50
176
     1
290
     0
176
     1
 90
       50
176
     1
 62
   256
176
     0
 40
1.0
176
     0
 90
        2
176
     1
  1
pencil.tif
176
     1
290
     0
176
     1
 40
1.0
176
     1
 40
1.0
176
     1
  0
VISUALSTYLE
  5
2E
102
{ACAD_REACTORS
330
29
102
}
330
29
100
AcDbVisualStyle
  2
FlatWithEdges
 70
     1
177
     3
291
     1
 70
    58
 90
        2
176
     1
 90
        1
176
     1
 90
        1
176
     1
 90
        2
176
     1
 40
0.6
176
     1
 40
30.0
176
     1
 62
     7
420
 16777215
176
     1
 90
        1
176
     1
 90
        0
176
     1
 62
     7
176
     1
 62
   257
176
     1
 90
        1
176
     1
 90
        1
176
     1
 40
1.0
176
     1
 90
        0
176
     1
 62
   257
176
     1
 40
0.3
176
     1
 90
        1
176
     1
 90
        6
176
     1
 90
        2
176
     1
 62
     7
176
     1
 90
        5
176
     1
 90
        0
176
     1
 90
        0
176
     1
290
     0
176
     1
 90
       13
176
     1
 40
0.0
176
     1
 90
        0
176
     1
290
     0
176
     1
290
     1
176
     1
290
     1
176
     1
290
     0
176
     1
290
     0
176
     1
290
     0
176
     1
290
     0
176
     1
290
     0
176
     1
290
     0
176
     1
 90
       50
176
     1
 40
0.0
176
     1
 40
1.0
176
     1
 90
        0
176
     1
 62
    18
420
        0
176
     1
 90
       50
176
     1
 90
        3
176
     1
 62
     5
420
      255
176
     1
290
     0
176
     1
 90
       50
176
     1
 90
       50
176
     1
 90
       50
176
     1
290
     0
176
     1
 90
       50
176
     1
 62
   256
176
     0
 40
1.0
176
     0
 90
        2
176
     1
  1
pencil.tif
176
     1
290
     0
176
     1
 40
1.0
176
     1
 40
1.0
176
     1
  0
VISUALSTYLE
  5
2F
102
{ACAD_REACTORS
330
29
102
}
330
29
100
AcDbVisualStyle
  2
Gouraud
 70
     2
177
     3
291
     1
 70
    58
 90
        2
176
     1
 90
        2
176
     1
 90
        1
176
     1
 90
        2
176
     1
 40
0.6
176
     1
 40
30.0
176
     1
 62
     7
420
 16777215
176
     1
 90
        0
176
     1
 90
        0
176
     1
 62
     7
176
     1
 62
   257
176
     1
 90
        1
176
     1
 90
        1
176
     1
 40
1.0
176
     1
 90
        0
176
     1
 62
   257
176
     1
 40
0.3
176
     1
 90
        1
176
     1
 90
        6
176
     1
 90
        2
176
     1
 62
     7
176
     1
 90
        5
176
     1
 90
        0
176
     1
 90
        0
176
     1
290
     0
176
     1
 90
       13
176
     1
 40
0.0
176
     1
 90
        0
176
     1
290
     0
176
     1
290
     1
176
     1
290
     1
176
     1
290
     0
176
     1
290
     0
176
     1
290
     0
176
     1
290
     0
176
     1
290
     0
176
     1
290
     0
176
     1
 90
       50
176
     1
 40
0.0
176
     1
 40
1.0
176
     1
 90
        0
176
     1
 62
    18
420
        0
176
     1
 90
       50
176
     1
 90
        3
176
     1
 62
     5
420
      255
176
     1
290
     0
176
     1
 90
       50
176
     1
 90
       50
176
     1
 90
       50
176
     1
290
     0
176
     1
 90
       50
176
     1
 62
   256
176
     0
 40
1.0
176
     0
 90
        2
176
     1
  1
pencil.tif
176
     1
290
     0
176
     1
 40
1.0
176
     1
 40
1.0
176
     1
  0
VISUALSTYLE
  5
30
102
{ACAD_REACTORS
330
29
102
}
330
29
100
AcDbVisualStyle
  2
GouraudWithEdges
 70
     3
177
     3
291
     1
 70
    58
 90
        2
176
     1
 90
        2
176
     1
 90
        1
176
     1
 90
        2
176
     1
 40
0.6
176
     1
 40
30.0
176
     1
 62
     7
420
 16777215
176
     1
 90
        1
176
     1
 90
        0
176
     1
 62
     7
176
     1
 62
   257
176
     1
 90
        1
176
     1
 90
        1
176
     1
 40
1.0
176
     1
 90
        0
176
     1
 62
   257
176
     1
 40
0.3
176
     1
 90
        1
176
     1
 90
        6
176
     1
 90
        2
176
     1
 62
     7
176
     1
 90
        5
176
     1
 90
        0
176
     1
 90
        0
176
     1
290
     0
176
     1
 90
       13
176
     1
 40
0.0
176
     1
 90
        0
176
     1
290
     0
176
     1
290
     1
176
     1
290
     1
176
     1
290
     0
176
     1
290
     0
176
     1
290
     0
176
     1
290
     0
176
     1
290
     0
176
     1
290
     0
176
     1
 90
       50
176
     1
 40
0.0
176
     1
 40
1.0
176
     1
 90
        0
176
     1
 62
    18
420
        0
176
     1
 90
       50
176
     1
 90
        3
176
     1
 62
     5
420
      255
176
     1
290
     0
176
     1
 90
       50
176
     1
 90
       50
176
     1
 90
       50
176
     1
290
     0
176
     1
 90
       50
176
     1
 62
   256
176
     0
 40
1.0
176
     0
 90
        2
176
     1
  1
pencil.tif
176
     1
290
     0
176
     1
 40
1.0
176
     1
 40
1.0
176
     1
  0
VISUALSTYLE
  5
4B
102
{ACAD_REACTORS
330
29
102
}
330
29
100
AcDbVisualStyle
  2
Half Tone
 70
    38
177
     3
291
     0
 70
    58
 90
        2
176
     1
 90
        3
176
     1
 90
        1
176
     1
 90
        0
176
     1
 40
0.6
176
     1
 40
30.0
176
     1
 62
     7
420
 16777215
176
     1
 90
        2
176
     1
 90
        2
176
     1
 62
     7
176
     1
 62
   257
176
     1
 90
        1
176
     1
 90
        1
176
     1
 40
40.0
176
     1
 90
        8
176
     1
 62
    18
420
        0
176
     1
 40
0.3
176
     1
 90
        1
176
     1
 90
        6
176
     1
 90
        2
176
     1
 62
     8
420
  7895160
176
     1
 90
        2
176
     1
 90
        0
176
     1
 90
        0
176
     1
290
     0
176
     1
 90
        5
176
     1
 40
0.0
176
     1
 90
        0
176
     1
290
     0
176
     1
290
     1
176
     1
290
     1
176
     1
290
     0
176
     1
290
     0
176
     1
290
     0
176
     1
290
     1
176
     1
290
     0
176
     1
290
     0
176
     1
 90
       50
176
     1
 40
0.0
176
     1
 40
1.0
176
     1
 90
        2
176
     1
 62
    18
420
        0
176
     1
 90
       50
176
     1
 90
        3
176
     1
 62
     5
420
      255
176
     1
290
     0
176
     1
 90
       50
176
     1
 90
       50
176
     1
 90
       50
176
     1
290
     0
176
     1
 90
       50
176
     1
 62
   256
176
     0
 40
1.0
176
     0
 90
        2
176
     1
  1
pencil.tif
176
     1
290
     0
176
     1
 40
1.0
176
     1
 40
1.0
176
     1
  0
VISUALSTYLE
  5
34
102
{ACAD_REACTORS
330
29
102
}
330
29
100
AcDbVisualStyle
  2
Hidden
 70
     6
177
     3
291
     0
 70
    58
 90
        1
176
     1
 90
        3
176
     1
 90
        2
176
     1
 90
        0
176
     1
 40
0.6
176
     1
 40
30.0
176
     1
 62
     7
420
 16777215
176
     1
 90
        2
176
     1
 90
        2
176
     1
 62
     7
176
     1
 62
   257
176
     1
 90
        2
176
     1
 90
        1
176
     1
 40
40.0
176
     1
 90
        0
176
     1
 62
   257
176
     1
 40
0.3
176
     1
 90
        1
176
     1
 90
        6
176
     1
 90
        2
176
     1
 62
     7
176
     1
 90
        2
176
     1
 90
        0
176
     1
 90
        0
176
     1
290
     0
176
     1
 90
        1
176
     1
 40
0.0
176
     1
 90
        0
176
     1
290
     0
176
     1
290
     1
176
     1
290
     1
176
     1
290
     0
176
     1
290
     0
176
     1
290
     0
176
     1
290
     0
176
     1
290
     0
176
     1
290
     0
176
     1
 90
       50
176
     1
 40
0.0
176
     1
 40
1.0
176
     1
 90
        0
176
     1
 62
    18
420
        0
176
     1
 90
       50
176
     1
 90
        3
176
     1
 62
     5
420
      255
176
     1
290
     0
176
     1
 90
       50
176
     1
 90
       50
176
     1
 90
       50
176
     1
290
     0
176
     1
 90
       50
176
     1
 62
   256
176
     0
 40
1.0
176
     0
 90
        2
176
     1
  1
pencil.tif
176
     1
290
     0
176
     1
 40
1.0
176
     1
 40
1.0
176
     1
  0
VISUALSTYLE
  5
47
102
{ACAD_REACTORS
330
29
102
}
330
29
100
AcDbVisualStyle
  2
High Contrast
 70
    33
177
     3
291
     0
 70
    58
 90
        2
176
     1
 90
        3
176
     1
 90
        0
176
     1
 90
        2
176
     1
 40
0.6
176
     1
 40
30.0
176
     1
 62
     7
420
 16777215
176
     1
 90
        2
176
     1
 90
        2
176
     1
 62
     7
176
     1
 62
   257
176
     1
 90
        1
176
     1
 90
        1
176
     1
 40
40.0
176
     1
 90
        8
176
     1
 62
   257
176
     1
 40
0.3
176
     1
 90
        1
176
     1
 90
        6
176
     1
 90
        2
176
     1
 62
     7
176
     1
 90
        2
176
     1
 90
        0
176
     1
 90
        0
176
     1
290
     0
176
     1
 90
       13
176
     1
 40
0.0
176
     1
 90
        0
176
     1
290
     0
176
     1
290
     1
176
     1
290
     1
176
     1
290
     0
176
     1
290
     0
176
     1
290
     0
176
     1
290
     0
176
     1
290
     0
176
     1
290
     0
176
     1
 90
       50
176
     1
 40
0.0
176
     1
 40
1.0
176
     1
 90
        0
176
     1
 62
    18
420
        0
176
     1
 90
       50
176
     1
 90
        3
176
     1
 62
     5
420
      255
176
     1
290
     1
176
     1
 90
       50
176
     1
 90
       50
176
     1
 90
       50
176
     1
290
     0
176
     1
 90
       50
176
     1
 62
   256
176
     0
 40
1.0
176
     0
 90
        2
176
     1
  1
pencil.tif
176
     1
290
     0
176
     1
 40
1.0
176
     1
 40
1.0
176
     1
  0
VISUALSTYLE
  5
42
102
{ACAD_REACTORS
330
29
102
}
330
29
100
AcDbVisualStyle
  2
JitterOff
 70
    20
177
     3
291
     1
 70
    58
 90
        2
176
     0
 90
        3
176
     0
 90
        0
176
     0
 90
        0
176
     0
 40
0.6
176
     0
 40
30.0
176
     0
 62
     7
420
 16777215
176
     0
 90
        0
176
     0
 90
        4
176
     0
 62
     7
176
     0
 62
   257
176
     0
 90
        1
176
     0
 90
        1
176
     0
 40
1.0
176
     0
 90
       10
176
     2
 62
   257
176
     0
 40
0.3
176
     0
 90
        1
176
     0
 90
        6
176
     0
 90
        2
176
     0
 62
     7
176
     0
 90
        5
176
     0
 90
        0
176
     0
 90
        0
176
     0
290
     0
176
     0
 90
        1
176
     0
 40
0.0
176
     0
 90
        0
176
     0
290
     0
176
     0
290
     1
176
     0
290
     1
176
     0
290
     0
176
     0
290
     0
176
     0
290
     0
176
     0
290
     0
176
     0
290
     0
176
     0
290
     0
176
     0
 90
       50
176
     0
 40
0.0
176
     0
 40
1.0
176
     0
 90
        0
176
     0
 62
    18
420
        0
176
     0
 90
       50
176
     0
 90
        3
176
     0
 62
     5
420
      255
176
     0
290
     0
176
     0
 90
       50
176
     0
 90
       50
176
     0
 90
       50
176
     0
290
     0
176
     0
 90
       50
176
     0
 62
   256
176
     0
 40
1.0
176
     0
 90
        2
176
     0
  1
pencil.tif
176
     0
290
     0
176
     0
 40
1.0
176
     0
 40
1.0
176
     0
  0
VISUALSTYLE
  5
3A
102
{ACAD_REACTORS
330
29
102
}
330
29
100
AcDbVisualStyle
  2
Linepattern
 70
    14
177
     3
291
     1
 70
    58
 90
        2
176
     1
 90
        3
176
     1
 90
        0
176
     1
 90
        0
176
     1
 40
0.6
176
     1
 40
30.0
176
     1
 62
     7
420
 16777215
176
     1
 90
        0
176
     1
 90
        4
176
     1
 62
     7
176
     1
 62
   257
176
     1
 90
        7
176
     1
 90
        7
176
     1
 40
1.0
176
     1
 90
        8
176
     1
 62
   257
176
     1
 40
0.3
176
     1
 90
        1
176
     1
 90
        6
176
     1
 90
        2
176
     1
 62
     7
176
     1
 90
        5
176
     1
 90
        0
176
     1
 90
        0
176
     1
290
     0
176
     1
 90
        1
176
     1
 40
0.0
176
     1
 90
        0
176
     1
290
     0
176
     1
290
     1
176
     1
290
     1
176
     1
290
     0
176
     1
290
     0
176
     1
290
     0
176
     1
290
     0
176
     1
290
     0
176
     1
290
     0
176
     1
 90
       50
176
     1
 40
0.0
176
     1
 40
1.0
176
     1
 90
        0
176
     1
 62
    18
420
        0
176
     1
 90
       50
176
     1
 90
        3
176
     1
 62
     5
420
      255
176
     1
290
     0
176
     1
 90
       50
176
     1
 90
       50
176
     1
 90
       50
176
     1
290
     0
176
     1
 90
       50
176
     1
 62
   256
176
     0
 40
1.0
176
     0
 90
        2
176
     1
  1
pencil.tif
176
     1
290
     0
176
     1
 40
1.0
176
     1
 40
1.0
176
     1
  0
VISUALSTYLE
  5
4E
102
{ACAD_REACTORS
330
29
102
}
330
29
100
AcDbVisualStyle
  2
Marker Edges
 70
    41
177
     3
291
     0
 70
    58
 90
        1
176
     1
 90
        3
176
     1
 90
        2
176
     1
 90
        0
176
     1
 40
0.6
176
     1
 40
30.0
176
     1
 62
     7
420
 16777215
176
     1
 90
        2
176
     1
 90
        2
176
     1
 62
     7
176
     1
 62
   257
176
     1
 90
        1
176
     1
 90
        1
176
     1
 40
40.0
176
     1
 90
      520
176
     1
 62
    18
420
        0
176
     1
 40
0.3
176
     1
 90
        1
176
     1
 90
        6
176
     1
 90
        2
176
     1
 62
     7
176
     1
 90
        2
176
     1
 90
        0
176
     1
 90
        0
176
     1
290
     0
176
     1
 90
        1
176
     1
 40
0.0
176
     1
 90
        0
176
     1
290
     0
176
     1
290
     1
176
     1
290
     1
176
     1
290
     0
176
     1
290
     0
176
     1
290
     0
176
     1
290
     0
176
     1
290
     0
176
     1
290
     0
176
     1
 90
       50
176
     1
 40
0.0
176
     1
 40
1.0
176
     1
 90
        0
176
     1
 62
    18
420
        0
176
     1
 90
       50
176
     1
 90
        3
176
     1
 62
     5
420
      255
176
     1
290
     0
176
     1
 90
       50
176
     1
 90
       50
176
     1
 90
       50
176
     1
290
     0
176
     1
 90
       50
176
     1
 62
   256
176
     0
 40
1.0
176
     0
 90
        2
176
     1
  1
marker.tif
176
     1
290
     0
176
     1
 40
1.0
176
     1
 40
1.0
176
     1
  0
VISUALSTYLE
  5
43
102
{ACAD_REACTORS
330
29
102
}
330
29
100
AcDbVisualStyle
  2
OverhangOff
 70
    21
177
     3
291
     1
 70
    58
 90
        2
176
     0
 90
        3
176
     0
 90
        0
176
     0
 90
        0
176
     0
 40
0.6
176
     0
 40
30.0
176
     0
 62
     7
420
 16777215
176
     0
 90
        0
176
     0
 90
        4
176
     0
 62
     7
176
     0
 62
   257
176
     0
 90
        1
176
     0
 90
        1
176
     0
 40
1.0
176
     0
 90
        9
176
     2
 62
   257
176
     0
 40
0.3
176
     0
 90
        1
176
     0
 90
        6
176
     0
 90
        2
176
     0
 62
     7
176
     0
 90
        5
176
     0
 90
        0
176
     0
 90
        0
176
     0
290
     0
176
     0
 90
        1
176
     0
 40
0.0
176
     0
 90
        0
176
     0
290
     0
176
     0
290
     1
176
     0
290
     1
176
     0
290
     0
176
     0
290
     0
176
     0
290
     0
176
     0
290
     0
176
     0
290
     0
176
     0
290
     0
176
     0
 90
       50
176
     0
 40
0.0
176
     0
 40
1.0
176
     0
 90
        0
176
     0
 62
    18
420
        0
176
     0
 90
       50
176
     0
 90
        3
176
     0
 62
     5
420
      255
176
     0
290
     0
176
     0
 90
       50
176
     0
 90
       50
176
     0
 90
       50
176
     0
290
     0
176
     0
 90
       50
176
     0
 62
   256
176
     0
 40
1.0
176
     0
 90
        2
176
     0
  1
pencil.tif
176
     0
290
     0
176
     0
 40
1.0
176
     0
 40
1.0
176
     0
  0
VISUALSTYLE
  5
49
102
{ACAD_REACTORS
330
29
102
}
330
29
100
AcDbVisualStyle
  2
Pastel
 70
    36
177
     3
291
     0
 70
    58
 90
        2
176
     1
 90
        3
176
     1
 90
        1
176
     1
 90
        0
176
     1
 40
0.6
176
     1
 40
30.0
176
     1
 62
     7
420
 16777215
176
     1
 90
        2
176
     1
 90
        2
176
     1
 62
     7
176
     1
 62
   257
176
     1
 90
        1
176
     1
 90
        1
176
     1
 40
40.0
176
     1
 90
        8
176
     1
 62
    18
420
        0
176
     1
 40
0.3
176
     1
 90
        1
176
     1
 90
        6
176
     1
 90
        2
176
     1
 62
     8
420
  7895160
176
     1
 90
        2
176
     1
 90
        0
176
     1
 90
        0
176
     1
290
     0
176
     1
 90
        5
176
     1
 40
0.0
176
     1
 90
        0
176
     1
290
     0
176
     1
290
     1
176
     1
290
     1
176
     1
290
     0
176
     1
290
     0
176
     1
290
     0
176
     1
290
     0
176
     1
290
     0
176
     1
290
     1
176
     1
 90
       50
176
     1
 40
0.0
176
     1
 40
1.0
176
     1
 90
        0
176
     1
 62
    18
420
        0
176
     1
 90
       50
176
     1
 90
        3
176
     1
 62
     5
420
      255
176
     1
290
     0
176
     1
 90
       50
176
     1
 90
       50
176
     1
 90
       50
176
     1
290
     0
176
     1
 90
       50
176
     1
 62
   256
176
     0
 40
1.0
176
     0
 90
        2
176
     1
  1
pencil.tif
176
     1
290
     0
176
     1
 40
1.0
176
     1
 40
1.0
176
     1
  0
VISUALSTYLE
  5
4D
102
{ACAD_REACTORS
330
29
102
}
330
29
100
AcDbVisualStyle
  2
Pencil Edges
 70
    40
177
     3
291
     0
 70
    58
 90
        1
176
     1
 90
        3
176
     1
 90
        2
176
     1
 90
        0
176
     1
 40
0.6
176
     1
 40
30.0
176
     1
 62
     7
420
 16777215
176
     1
 90
        2
176
     1
 90
        2
176
     1
 62
     7
176
     1
 62
   257
176
     1
 90
        1
176
     1
 90
        1
176
     1
 40
40.0
176
     1
 90
      520
176
     1
 62
    18
420
        0
176
     1
 40
0.3
176
     1
 90
        1
176
     1
 90
        6
176
     1
 90
        2
176
     1
 62
     7
176
     1
 90
        2
176
     1
 90
        0
176
     1
 90
        0
176
     1
290
     0
176
     1
 90
        1
176
     1
 40
0.0
176
     1
 90
        0
176
     1
290
     0
176
     1
290
     1
176
     1
290
     1
176
     1
290
     0
176
     1
290
     0
176
     1
290
     0
176
     1
290
     0
176
     1
290
     0
176
     1
290
     0
176
     1
 90
       50
176
     1
 40
0.0
176
     1
 40
1.0
176
     1
 90
        0
176
     1
 62
    18
420
        0
176
     1
 90
       50
176
     1
 90
        3
176
     1
 62
     5
420
      255
176
     1
290
     0
176
     1
 90
       50
176
     1
 90
       50
176
     1
 90
       50
176
     1
290
     0
176
     1
 90
       50
176
     1
 62
   256
176
     0
 40
1.0
176
     0
 90
        2
176
     1
  1
pencil.tif
176
     1
290
     0
176
     1
 40
1.0
176
     1
 40
1.0
176
     1
  0
VISUALSTYLE
  5
4C
102
{ACAD_REACTORS
330
29
102
}
330
29
100
AcDbVisualStyle
  2
Posterize
 70
    39
177
     3
291
     0
 70
    58
 90
        2
176
     1
 90
        3
176
     1
 90
        0
176
     1
 90
        2
176
     1
 40
0.6
176
     1
 40
30.0
176
     1
 62
     7
420
 16777215
176
     1
 90
        2
176
     1
 90
        2
176
     1
 62
     7
176
     1
 62
   257
176
     1
 90
        1
176
     1
 90
        1
176
     1
 40
40.0
176
     1
 90
        8
176
     1
 62
    18
420
        0
176
     1
 40
0.3
176
     1
 90
        1
176
     1
 90
        6
176
     1
 90
        2
176
     1
 62
     7
176
     1
 90
        6
176
     1
 90
        0
176
     1
 90
        0
176
     1
290
     0
176
     1
 90
        1
176
     1
 40
0.0
176
     1
 90
        0
176
     1
290
     0
176
     1
290
     1
176
     1
290
     1
176
     1
290
     1
176
     1
290
     0
176
     1
290
     0
176
     1
290
     0
176
     1
290
     0
176
     1
290
     0
176
     1
 90
       50
176
     1
 40
0.0
176
     1
 40
1.0
176
     1
 90
        0
176
     1
 62
    18
420
        0
176
     1
 90
       50
176
     1
 90
        3
176
     1
 62
     5
420
      255
176
     1
290
     0
176
     1
 90
       50
176
     1
 90
       50
176
     1
 90
       50
176
     1
290
     0
176
     1
 90
       50
176
     1
 62
   256
176
     0
 40
1.0
176
     0
 90
        2
176
     1
  1
pencil.tif
176
     1
290
     0
176
     1
 40
1.0
176
     1
 40
1.0
176
     1
  0
VISUALSTYLE
  5
36
102
{ACAD_REACTORS
330
29
102
}
330
29
100
AcDbVisualStyle
  2
Realistic
 70
     8
177
     3
291
     0
 70
    58
 90
        2
176
     1
 90
        3
176
     1
 90
        0
176
     1
 90
        2
176
     1
 40
0.6
176
     1
 40
30.0
176
     1
 62
     7
420
 16777215
176
     1
 90
        0
176
     1
 90
        0
176
     1
 62
     7
176
     1
 62
   257
176
     1
 90
        1
176
     1
 90
        1
176
     1
 40
40.0
176
     1
 90
        8
176
     1
 62
   257
176
     1
 40
0.3
176
     1
 90
        1
176
     1
 90
        6
176
     1
 90
        2
176
     1
 62
     7
176
     1
 90
        2
176
     1
 90
        0
176
     1
 90
        0
176
     1
290
     0
176
     1
 90
       13
176
     1
 40
0.0
176
     1
 90
        0
176
     1
290
     0
176
     1
290
     1
176
     1
290
     1
176
     1
290
     0
176
     1
290
     0
176
     1
290
     0
176
     1
290
     0
176
     1
290
     0
176
     1
290
     0
176
     1
 90
       50
176
     1
 40
0.0
176
     1
 40
1.0
176
     1
 90
        0
176
     1
 62
    18
420
        0
176
     1
 90
       50
176
     1
 90
        3
176
     1
 62
     5
420
      255
176
     1
290
     0
176
     1
 90
       50
176
     1
 90
       50
176
     1
 90
       50
176
     1
290
     0
176
     1
 90
       50
176
     1
 62
   256
176
     0
 40
1.0
176
     0
 90
        2
176
     1
  1
pencil.tif
176
     1
290
     0
176
     1
 40
1.0
176
     1
 40
1.0
176
     1
  0
VISUALSTYLE
  5
41
102
{ACAD_REACTORS
330
29
102
}
330
29
100
AcDbVisualStyle
  2
Shaded
 70
    27
177
     3
291
     0
 70
    58
 90
        2
176
     1
 90
        3
176
     1
 90
        1
176
     1
 90
        2
176
     1
 40
0.6
176
     1
 40
30.0
176
     1
 62
     7
420
 16777215
176
     1
 90
        0
176
     1
 90
        0
176
     1
 62
     7
176
     1
 62
   257
176
     1
 90
        1
176
     1
 90
        1
176
     1
 40
40.0
176
     1
 90
        8
176
     1
 62
   257
176
     1
 40
0.3
176
     1
 90
        1
176
     1
 90
        6
176
     1
 90
        2
176
     1
 62
     8
420
  7895160
176
     1
 90
        2
176
     1
 90
        0
176
     1
 90
        0
176
     1
290
     0
176
     1
 90
        5
176
     1
 40
0.0
176
     1
 90
        0
176
     1
290
     0
176
     1
290
     1
176
     1
290
     1
176
     1
290
     0
176
     1
290
     0
176
     1
290
     0
176
     1
290
     0
176
     1
290
     0
176
     1
290
     0
176
     1
 90
       50
176
     1
 40
0.0
176
     1
 40
1.0
176
     1
 90
        0
176
     1
 62
    18
420
        0
176
     1
 90
       50
176
     1
 90
        3
176
     1
 62
     5
420
      255
176
     1
290
     0
176
     1
 90
       50
176
     1
 90
       50
176
     1
 90
       50
176
     1
290
     0
176
     1
 90
       50
176
     1
 62
   256
176
     0
 40
1.0
176
     0
 90
        2
176
     1
  1
pencil.tif
176
     1
290
     0
176
     1
 40
1.0
176
     1
 40
1.0
176
     1
  0
VISUALSTYLE
  5
40
102
{ACAD_REACTORS
330
29
102
}
330
29
100
AcDbVisualStyle
  2
Shaded with edges
 70
    26
177
     3
291
     0
 70
    58
 90
        2
176
     1
 90
        3
176
     1
 90
        1
176
     1
 90
        2
176
     1
 40
0.6
176
     1
 40
30.0
176
     1
 62
     7
420
 16777215
176
     1
 90
        2
176
     1
 90
        2
176
     1
 62
     7
176
     1
 62
   257
176
     1
 90
        2
176
     1
 90
        1
176
     1
 40
40.0
176
     1
 90
        8
176
     1
 62
   257
176
     1
 40
0.3
176
     1
 90
        1
176
     1
 90
        6
176
     1
 90
        2
176
     1
 62
     7
176
     1
 90
        2
176
     1
 90
        0
176
     1
 90
        0
176
     1
290
     0
176
     1
 90
        5
176
     1
 40
0.0
176
     1
 90
        0
176
     1
290
     0
176
     1
290
     1
176
     1
290
     1
176
     1
290
     0
176
     1
290
     0
176
     1
290
     0
176
     1
290
     0
176
     1
290
     0
176
     1
290
     0
176
     1
 90
       50
176
     1
 40
0.0
176
     1
 40
1.0
176
     1
 90
        0
176
     1
 62
    18
420
        0
176
     1
 90
       50
176
     1
 90
        3
176
     1
 62
     5
420
      255
176
     1
290
     0
176
     1
 90
       50
176
     1
 90
       50
176
     1
 90
       50
176
     1
290
     0
176
     1
 90
       50
176
     1
 62
   256
176
     0
 40
1.0
176
     0
 90
        2
176
     1
  1
pencil.tif
176
     1
290
     0
176
     1
 40
1.0
176
     1
 40
1.0
176
     1
  0
VISUALSTYLE
  5
3D
102
{ACAD_REACTORS
330
29
102
}
330
29
100
AcDbVisualStyle
  2
Shades of Gray
 70
    23
177
     3
291
     0
 70
    58
 90
        2
176
     1
 90
        3
176
     1
 90
        3
176
     1
 90
        0
176
     1
 40
0.6
176
     1
 40
30.0
176
     1
 62
     7
420
 16777215
176
     1
 90
        2
176
     1
 90
        2
176
     1
 62
     7
176
     1
 62
     7
176
     1
 90
        1
176
     1
 90
        1
176
     1
 40
40.0
176
     1
 90
        8
176
     1
 62
    18
420
        0
176
     1
 40
0.3
176
     1
 90
        1
176
     1
 90
        6
176
     1
 90
        2
176
     1
 62
     7
176
     1
 90
        2
176
     1
 90
        0
176
     1
 90
        0
176
     1
290
     0
176
     1
 90
        1
176
     1
 40
0.0
176
     1
 90
        0
176
     1
290
     0
176
     1
290
     1
176
     1
290
     1
176
     1
290
     0
176
     1
290
     1
176
     1
290
     0
176
     1
290
     0
176
     1
290
     0
176
     1
290
     0
176
     1
 90
       50
176
     1
 40
0.0
176
     1
 40
1.0
176
     1
 90
        0
176
     1
 62
    18
420
        0
176
     1
 90
       50
176
     1
 90
        3
176
     1
 62
     5
420
      255
176
     1
290
     0
176
     1
 90
       50
176
     1
 90
       50
176
     1
 90
       50
176
     1
290
     0
176
     1
 90
       50
176
     1
 62
   256
176
     0
 40
1.0
176
     0
 90
        2
176
     1
  1
pencil.tif
176
     1
290
     0
176
     1
 40
1.0
176
     1
 40
1.0
176
     1
  0
VISUALSTYLE
  5
3E
102
{ACAD_REACTORS
330
29
102
}
330
29
100
AcDbVisualStyle
  2
Sketchy
 70
    24
177
     3
291
     0
 70
    58
 90
        1
176
     1
 90
        3
176
     1
 90
        2
176
     1
 90
        0
176
     1
 40
0.6
176
     1
 40
30.0
176
     1
 62
     7
420
 16777215
176
     1
 90
        2
176
     1
 90
        2
176
     1
 62
     7
176
     1
 62
     7
176
     1
 90
        1
176
     1
 90
        1
176
     1
 40
40.0
176
     1
 90
      267
176
     1
 62
    18
420
        0
176
     1
 40
0.3
176
     1
 90
        1
176
     1
 90
        6
176
     1
 90
        2
176
     1
 62
     7
176
     1
 90
        6
176
     1
 90
        0
176
     1
 90
        0
176
     1
290
     0
176
     1
 90
        1
176
     1
 40
0.0
176
     1
 90
        0
176
     1
290
     0
176
     1
290
     1
176
     1
290
     1
176
     1
290
     0
176
     1
290
     0
176
     1
290
     0
176
     1
290
     0
176
     1
290
     0
176
     1
290
     0
176
     1
 90
       50
176
     1
 40
0.0
176
     1
 40
1.0
176
     1
 90
        0
176
     1
 62
    18
420
        0
176
     1
 90
       50
176
     1
 90
        3
176
     1
 62
     5
420
      255
176
     1
290
     0
176
     1
 90
       50
176
     1
 90
       50
176
     1
 90
       50
176
     1
290
     0
176
     1
 90
       50
176
     1
 62
   256
176
     0
 40
1.0
176
     0
 90
        2
176
     1
  1
pencil.tif
176
     1
290
     0
176
     1
 40
1.0
176
     1
 40
1.0
176
     1
  0
VISUALSTYLE
  5
39
102
{ACAD_REACTORS
330
29
102
}
330
29
100
AcDbVisualStyle
  2
Thicken
 70
    13
177
     3
291
     1
 70
    58
 90
        2
176
     1
 90
        3
176
     1
 90
        0
176
     1
 90
        0
176
     1
 40
0.6
176
     1
 40
30.0
176
     1
 62
     7
420
 16777215
176
     1
 90
        0
176
     1
 90
        4
176
     1
 62
     7
176
     1
 62
   257
176
     1
 90
        1
176
     1
 90
        1
176
     1
 40
1.0
176
     1
 90
       12
176
     1
 62
   257
176
     1
 40
0.3
176
     1
 90
        1
176
     1
 90
        6
176
     1
 90
        2
176
     1
 62
     7
176
     1
 90
        5
176
     1
 90
        0
176
     1
 90
        0
176
     1
290
     0
176
     1
 90
        1
176
     1
 40
0.0
176
     1
 90
        0
176
     1
290
     0
176
     1
290
     1
176
     1
290
     1
176
     1
290
     0
176
     1
290
     0
176
     1
290
     0
176
     1
290
     0
176
     1
290
     0
176
     1
290
     0
176
     1
 90
       50
176
     1
 40
0.0
176
     1
 40
1.0
176
     1
 90
        0
176
     1
 62
    18
420
        0
176
     1
 90
       50
176
     1
 90
        3
176
     1
 62
     5
420
      255
176
     1
290
     0
176
     1
 90
       50
176
     1
 90
       50
176
     1
 90
       50
176
     1
290
     0
176
     1
 90
       50
176
     1
 62
   256
176
     0
 40
1.0
176
     0
 90
        2
176
     1
  1
pencil.tif
176
     1
290
     0
176
     1
 40
1.0
176
     1
 40
1.0
176
     1
  0
VISUALSTYLE
  5
33
102
{ACAD_REACTORS
330
29
102
}
330
29
100
AcDbVisualStyle
  2
Wireframe
 70
     5
177
     3
291
     0
 70
    58
 90
        0
176
     1
 90
        3
176
     1
 90
        0
176
     1
 90
        2
176
     1
 40
0.6
176
     1
 40
0.0
176
     1
 62
     7
420
 16777215
176
     1
 90
        2
176
     1
 90
        6
176
     1
 62
     7
176
     1
 62
   257
176
     1
 90
        1
176
     1
 90
        1
176
     1
 40
40.0
176
     1
 90
        0
176
     1
 62
   257
176
     1
 40
0.3
176
     1
 90
        1
176
     1
 90
        6
176
     1
 90
        2
176
     1
 62
     7
176
     1
 90
        2
176
     1
 90
        0
176
     1
 90
        0
176
     1
290
     0
176
     1
 90
        1
176
     1
 40
0.0
176
     1
 90
        0
176
     1
290
     0
176
     1
290
     1
176
     1
290
     1
176
     1
290
     0
176
     1
290
     0
176
     1
290
     0
176
     1
290
     0
176
     1
290
     0
176
     1
290
     0
176
     1
 90
       50
176
     1
 40
0.0
176
     1
 40
1.0
176
     1
 90
        0
176
     1
 62
    18
420
        0
176
     1
 90
       50
176
     1
 90
        3
176
     1
 62
     5
420
      255
176
     1
290
     0
176
     1
 90
       50
176
     1
 90
       50
176
     1
 90
       50
176
     1
290
     0
176
     1
 90
       50
176
     1
 62
   256
176
     0
 40
1.0
176
     0
 90
        2
176
     1
  1
pencil.tif
176
     1
290
     0
176
     1
 40
1.0
176
     1
 40
1.0
176
     1
  0
VISUALSTYLE
  5
3F
102
{ACAD_REACTORS
330
29
102
}
330
29
100
AcDbVisualStyle
  2
X-Ray
 70
    25
177
     3
291
     0
 70
    58
 90
        2
176
     1
 90
        3
176
     1
 90
        1
176
     1
 90
        1
176
     1
 40
0.5
176
     1
 40
30.0
176
     1
 62
     7
420
 16777215
176
     1
 90
        2
176
     1
 90
        0
176
     1
 62
     7
176
     1
 62
   257
176
     1
 90
        1
176
     1
 90
        1
176
     1
 40
40.0
176
     1
 90
      136
176
     1
 62
    18
420
        0
176
     1
 40
0.3
176
     1
 90
        1
176
     1
 90
        6
176
     1
 90
        2
176
     1
 62
     7
176
     1
 90
        2
176
     1
 90
        0
176
     1
 90
        0
176
     1
290
     0
176
     1
 90
       13
176
     1
 40
0.0
176
     1
 90
        0
176
     1
290
     0
176
     1
290
     1
176
     1
290
     1
176
     1
290
     0
176
     1
290
     0
176
     1
290
     0
176
     1
290
     0
176
     1
290
     0
176
     1
290
     0
176
     1
 90
       50
176
     1
 40
0.0
176
     1
 40
1.0
176
     1
 90
        0
176
     1
 62
    18
420
        0
176
     1
 90
       50
176
     1
 90
        3
176
     1
 62
     5
420
      255
176
     1
290
     0
176
     1
 90
       50
176
     1
 90
       50
176
     1
 90
       50
176
     1
290
     0
176
     1
 90
       50
176
     1
 62
   256
176
     0
 40
1.0
176
     0
 90
        2
176
     1
  1
pencil.tif
176
     1
290
     0
176
     1
 40
1.0
176
     1
 40
1.0
176
     1
  0
DICTIONARYVAR
  5
534
102
{ACAD_REACTORS
330
52F
102
}
330
52F
100
DictionaryVariables
280
     0
  1
1:1
  0
DICTIONARYVAR
  5
531
102
{ACAD_REACTORS
330
52F
102
}
330
52F
100
DictionaryVariables
280
     0
  1
STANDARD
  0
DICTIONARYVAR
  5
530
102
{ACAD_REACTORS
330
52F
102
}
330
52F
100
DictionaryVariables
280
     0
  1
STANDARD
  0
DICTIONARYVAR
  5
532
102
{ACAD_REACTORS
330
52F
102
}
330
52F
100
DictionaryVariables
280
     0
  1
Imperial24
  0
DICTIONARYVAR
  5
533
102
{ACAD_REACTORS
330
52F
102
}
330
52F
100
DictionaryVariables
280
     0
  1
Imperial24
  0
DICTIONARY
  5
1A
330
19
100
AcDbDictionary
280
     1
281
     1
  3
BUMPTILE
360
1C
  3
DIFFUSETILE
360
1B
  3
OPACITYTILE
360
1F
  3
REFLECTIONTILE
360
1E
  3
REFRACTIONTILE
360
20
  3
SPECULARTILE
360
1D
  0
DICTIONARY
  5
12
330
11
100
AcDbDictionary
280
     1
281
     1
  3
BUMPTILE
360
14
  3
DIFFUSETILE
360
13
  3
OPACITYTILE
360
17
  3
REFLECTIONTILE
360
16
  3
REFRACTIONTILE
360
18
  3
SPECULARTILE
360
15
  0
DICTIONARY
  5
22
330
21
100
AcDbDictionary
280
     1
281
     1
  3
BUMPTILE
360
24
  3
DIFFUSETILE
360
23
  3
OPACITYTILE
360
27
  3
REFLECTIONTILE
360
26
  3
REFRACTIONTILE
360
28
  3
SPECULARTILE
360
25
  0
DICTIONARY
  5
72
330
6D
100
AcDbDictionary
280
     1
281
     1
  3
ADSK_XREC_BACKGROUND_INFO
360
73
  0
SUN
  5
6E
102
{ACAD_XDICTIONARY
360
6F
102
}
330
6D
100
AcDbSun
 90
        1
290
     1
 63
    43
421
 11905157
 40
1.0
291
     1
 91
  2460209
 92
 54000000
292
     0
 70
     0
 71
   256
280
     1
  0
GROUNDPLANE
  5
74
330
6D
100
AcDbGroundPlane
290
     0
 70
    50
 71
    40
 72
    15
 62
     7
420
 16777215
 40
0.0
  0
DICTIONARY
  5
7C
330
7A
100
AcDbDictionary
280
     1
281
     1
  3
ADSK_XREC_BACKGROUND_INFO
360
7D
  0
GROUNDPLANE
  5
7E
330
7A
100
AcDbGroundPlane
290
     0
 70
    50
 71
    40
 72
    15
 62
     7
420
 16777215
 40
0.0
  0
DICTIONARY
  5
95
330
93
100
AcDbDictionary
280
     1
281
     1
  3
ADSK_XREC_BACKGROUND_INFO
360
96
  0
GROUNDPLANE
  5
97
330
93
100
AcDbGroundPlane
290
     0
 70
    50
 71
    40
 72
    15
 62
     7
420
 16777215
 40
0.0
  0
DICTIONARY
  5
90
330
8E
100
AcDbDictionary
280
     1
281
     1
  3
ADSK_XREC_BACKGROUND_INFO
360
91
  0
GROUNDPLANE
  5
92
330
8E
100
AcDbGroundPlane
290
     0
 70
    50
 71
    40
 72
    15
 62
     7
420
 16777215
 40
0.0
  0
GROUNDPLANE
  5
54
330
53
100
AcDbGroundPlane
290
     0
 70
    80
 71
    20
 72
    50
 62
     7
420
 16777215
 40
0.0
  0
DICTIONARY
  5
65
330
60
100
AcDbDictionary
280
     1
281
     1
  3
ADSK_XREC_BACKGROUND_INFO
360
66
  0
SUN
  5
61
102
{ACAD_XDICTIONARY
360
62
102
}
330
60
100
AcDbSun
 90
        1
290
     1
 63
    43
421
 11905157
 40
1.0
291
     1
 91
  2460209
 92
 61200000
292
     0
 70
     0
 71
   256
280
     1
  0
GROUNDPLANE
  5
67
330
60
100
AcDbGroundPlane
290
     0
 70
    50
 71
    40
 72
    15
 62
     7
420
 16777215
 40
0.0
  0
DICTIONARY
  5
8B
330
89
100
AcDbDictionary
280
     1
281
     1
  3
ADSK_XREC_BACKGROUND_INFO
360
8C
  0
GROUNDPLANE
  5
8D
330
89
100
AcDbGroundPlane
290
     0
 70
    50
 71
    40
 72
    15
 62
     7
420
 16777215
 40
0.0
  0
DICTIONARY
  5
77
330
75
100
AcDbDictionary
280
     1
281
     1
  3
ADSK_XREC_BACKGROUND_INFO
360
78
  0
GROUNDPLANE
  5
79
330
75
100
AcDbGroundPlane
290
     0
 70
    50
 71
    40
 72
    15
 62
     7
420
 16777215
 40
0.0
  0
DICTIONARY
  5
6A
330
68
100
AcDbDictionary
280
     1
281
     1
  3
ADSK_XREC_BACKGROUND_INFO
360
6B
  0
GROUNDPLANE
  5
6C
330
68
100
AcDbGroundPlane
290
     0
 70
    50
 71
    40
 72
    15
 62
     7
420
 16777215
 40
0.0
  0
DICTIONARY
  5
81
330
7F
100
AcDbDictionary
280
     1
281
     1
  3
ADSK_XREC_BACKGROUND_INFO
360
82
  0
GROUNDPLANE
  5
83
330
7F
100
AcDbGroundPlane
290
     0
 70
    50
 71
    40
 72
    15
 62
     7
420
 16777215
 40
0.0
  0
DICTIONARY
  5
86
330
84
100
AcDbDictionary
280
     1
281
     1
  3
ADSK_XREC_BACKGROUND_INFO
360
87
  0
GROUNDPLANE
  5
88
330
84
100
AcDbGroundPlane
290
     1
 70
    50
 71
    40
 72
    15
 62
     7
420
 16777215
 40
0.0
  0
GROUNDPLANE
  5
56
330
55
100
AcDbGroundPlane
290
     0
 70
    80
 71
    20
 72
    50
 62
     7
420
 16777215
 40
0.0
  0
DICTIONARY
  5
9A
330
98
100
AcDbDictionary
280
     1
281
     1
  3
ADSK_XREC_BACKGROUND_INFO
360
9B
  0
GROUNDPLANE
  5
9C
330
98
100
AcDbGroundPlane
290
     0
 70
    50
 71
    40
 72
    15
 62
     7
420
 16777215
 40
0.0
  0
DICTIONARY
  5
5D
330
57
100
AcDbDictionary
280
     1
281
     1
  3
ADSK_XREC_BACKGROUND_INFO
360
5E
  0
SUN
  5
58
102
{ACAD_XDICTIONARY
360
59
102
}
330
57
100
AcDbSun
 90
        1
290
     1
 63
    43
421
 11905157
 40
1.0
291
     1
 91
  2456094
 92
 50400000
292
     0
 70
     0
 71
   256
280
     1
  0
GROUNDPLANE
  5
5F
330
57
100
AcDbGroundPlane
290
     0
 70
    80
 71
    20
 72
    50
 62
     7
420
 16777215
 40
0.0
  0
DICTIONARY
  5
537
330
C0
100
AcDbDictionary
280
     1
281
     1
  3
ACAD_ROUNDTRIP_2008_TABLESTYLE_CELLSTYLEMAP
360
538
  0
XRECORD
  5
1C
102
{ACAD_REACTORS
330
1A
102
}
330
1A
100
AcDbXrecord
280
     1
270
     1
271
     1
  0
XRECORD
  5
1B
102
{ACAD_REACTORS
330
1A
102
}
330
1A
100
AcDbXrecord
280
     1
270
     1
271
     1
  0
XRECORD
  5
1F
102
{ACAD_REACTORS
330
1A
102
}
330
1A
100
AcDbXrecord
280
     1
270
     1
271
     1
  0
XRECORD
  5
1E
102
{ACAD_REACTORS
330
1A
102
}
330
1A
100
AcDbXrecord
280
     1
270
     1
271
     1
  0
XRECORD
  5
20
102
{ACAD_REACTORS
330
1A
102
}
330
1A
100
AcDbXrecord
280
     1
270
     1
271
     1
  0
XRECORD
  5
1D
102
{ACAD_REACTORS
330
1A
102
}
330
1A
100
AcDbXrecord
280
     1
270
     1
271
     1
  0
XRECORD
  5
14
102
{ACAD_REACTORS
330
12
102
}
330
12
100
AcDbXrecord
280
     1
270
     1
271
     1
  0
XRECORD
  5
13
102
{ACAD_REACTORS
330
12
102
}
330
12
100
AcDbXrecord
280
     1
270
     1
271
     1
  0
XRECORD
  5
17
102
{ACAD_REACTORS
330
12
102
}
330
12
100
AcDbXrecord
280
     1
270
     1
271
     1
  0
XRECORD
  5
16
102
{ACAD_REACTORS
330
12
102
}
330
12
100
AcDbXrecord
280
     1
270
     1
271
     1
  0
XRECORD
  5
18
102
{ACAD_REACTORS
330
12
102
}
330
12
100
AcDbXrecord
280
     1
270
     1
271
     1
  0
XRECORD
  5
15
102
{ACAD_REACTORS
330
12
102
}
330
12
100
AcDbXrecord
280
     1
270
     1
271
     1
  0
XRECORD
  5
24
102
{ACAD_REACTORS
330
22
102
}
330
22
100
AcDbXrecord
280
     1
270
     1
271
     1
  0
XRECORD
  5
23
102
{ACAD_REACTORS
330
22
102
}
330
22
100
AcDbXrecord
280
     1
270
     1
271
     1
  0
XRECORD
  5
27
102
{ACAD_REACTORS
330
22
102
}
330
22
100
AcDbXrecord
280
     1
270
     1
271
     1
  0
XRECORD
  5
26
102
{ACAD_REACTORS
330
22
102
}
330
22
100
AcDbXrecord
280
     1
270
     1
271
     1
  0
XRECORD
  5
28
102
{ACAD_REACTORS
330
22
102
}
330
22
100
AcDbXrecord
280
     1
270
     1
271
     1
  0
XRECORD
  5
25
102
{ACAD_REACTORS
330
22
102
}
330
22
100
AcDbXrecord
280
     1
270
     1
271
     1
  0
XRECORD
  5
73
102
{ACAD_REACTORS
330
72
102
}
330
72
100
AcDbXrecord
280
     1
290
     0
291
     0
292
     0
293
     0
294
     0
 70
     0
 71
     0
  0
DICTIONARY
  5
6F
330
6E
100
AcDbDictionary
280
     1
281
     1
  3
ADSK_XREC_SKYINFO
360
70
  0
XRECORD
  5
7D
102
{ACAD_REACTORS
330
7C
102
}
330
7C
100
AcDbXrecord
280
     1
290
     0
291
     0
292
     0
293
     0
294
     0
 70
     0
 71
     0
  0
XRECORD
  5
96
102
{ACAD_REACTORS
330
95
102
}
330
95
100
AcDbXrecord
280
     1
290
     0
291
     0
292
     0
293
     0
294
     0
 70
     0
 71
     0
  0
XRECORD
  5
91
102
{ACAD_REACTORS
330
90
102
}
330
90
100
AcDbXrecord
280
     1
290
     0
291
     0
292
     0
293
     0
294
     0
 70
     0
 71
     0
  0
XRECORD
  5
66
102
{ACAD_REACTORS
330
65
102
}
330
65
100
AcDbXrecord
280
     1
290
     0
291
     0
292
     0
293
     0
294
     0
 70
     0
 71
     0
  0
DICTIONARY
  5
62
330
61
100
AcDbDictionary
280
     1
281
     1
  3
ADSK_XREC_SKYINFO
360
63
  0
XRECORD
  5
8C
102
{ACAD_REACTORS
330
8B
102
}
330
8B
100
AcDbXrecord
280
     1
290
     0
291
     0
292
     0
293
     0
294
     0
 70
     0
 71
     0
  0
XRECORD
  5
78
102
{ACAD_REACTORS
330
77
102
}
330
77
100
AcDbXrecord
280
     1
290
     0
291
     0
292
     0
293
     0
294
     0
 70
     0
 71
     0
  0
XRECORD
  5
6B
102
{ACAD_REACTORS
330
6A
102
}
330
6A
100
AcDbXrecord
280
     1
290
     0
291
     0
292
     0
293
     0
294
     0
 70
     0
 71
     0
  0
XRECORD
  5
82
102
{ACAD_REACTORS
330
81
102
}
330
81
100
AcDbXrecord
280
     1
290
     0
291
     0
292
     0
293
     0
294
     0
 70
     0
 71
     0
  0
XRECORD
  5
87
102
{ACAD_REACTORS
330
86
102
}
330
86
100
AcDbXrecord
280
     1
290
     0
291
     0
292
     0
293
     0
294
     0
 70
     0
 71
     0
  0
XRECORD
  5
9B
102
{ACAD_REACTORS
330
9A
102
}
330
9A
100
AcDbXrecord
280
     1
290
     0
291
     0
292
     0
293
     0
294
     0
 70
     0
 71
     0
  0
XRECORD
  5
5E
102
{ACAD_REACTORS
330
5D
102
}
330
5D
100
AcDbXrecord
280
     1
290
     0
291
     0
292
     0
293
     0
294
     0
 70
     0
 71
     0
  0
DICTIONARY
  5
59
330
58
100
AcDbDictionary
280
     1
281
     1
  3
ADSK_XREC_SKYINFO
360
5A
  0
CELLSTYLEMAP
  5
538
102
{ACAD_REACTORS
330
537
102
}
330
537
100
AcDbCellStyleMap
 90
        3
300
CELLSTYLE
  1
TABLEFORMAT_BEGIN
 90
        5
170
     1
 91
        0
 92
    32768
 62
   257
 93
        1
300
CONTENTFORMAT
  1
CONTENTFORMAT_BEGIN
 90
        0
 91
        0
 92
      512
 93
        0
300

 40
0.0
140
1.0
 94
        5
 62
     0
340
B0
144
0.25
309
CONTENTFORMAT_END
171
     0
 94
        0
309
TABLEFORMAT_END
  1
CELLSTYLE_BEGIN
 90
        1
 91
        1
300
_TITLE
309
CELLSTYLE_END
300
CELLSTYLE
  1
TABLEFORMAT_BEGIN
 90
        5
170
     1
 91
        0
 92
        0
 62
   257
 93
        1
300
CONTENTFORMAT
  1
CONTENTFORMAT_BEGIN
 90
        0
 91
        0
 92
      512
 93
        0
300

 40
0.0
140
1.0
 94
        5
 62
     0
340
B0
144
0.18
309
CONTENTFORMAT_END
171
     0
 94
        0
309
TABLEFORMAT_END
  1
CELLSTYLE_BEGIN
 90
        2
 91
        1
300
_HEADER
309
CELLSTYLE_END
300
CELLSTYLE
  1
TABLEFORMAT_BEGIN
 90
        5
170
     1
 91
        0
 92
        0
 62
   257
 93
        1
300
CONTENTFORMAT
  1
CONTENTFORMAT_BEGIN
 90
        0
 91
        0
 92
      512
 93
        0
300

 40
0.0
140
1.0
 94
        2
 62
     0
340
B0
144
0.18
309
CONTENTFORMAT_END
171
     0
 94
        0
309
TABLEFORMAT_END
  1
CELLSTYLE_BEGIN
 90
        3
 91
        2
300
_DATA
309
CELLSTYLE_END
  0
XRECORD
  5
70
102
{ACAD_REACTORS
330
6F
102
}
330
6F
100
AcDbXrecord
280
     1
 70
     1
 40
1.0
 41
0.0
 42
0.0
 43
0.0
 62
    82
420
  3655735
291
     0
 63
   178
421
    66053
293
     0
 71
     0
 44
10000.0
 45
4.0
 46
1.0
 47
1.0
 72
     8
  0
XRECORD
  5
63
102
{ACAD_REACTORS
330
62
102
}
330
62
100
AcDbXrecord
280
     1
 70
     1
 40
1.0
 41
0.0
 42
0.0
 43
0.1
 62
     8
420
  8421504
291
     0
 63
   178
421
    66053
293
     0
 71
     0
 44
10000.0
 45
4.0
 46
1.0
 47
1.0
 72
     8
  0
XRECORD
  5
5A
102
{ACAD_REACTORS
330
59
102
}
330
59
100
AcDbXrecord
280
     1
 70
     1
 40
1.0
 41
0.0
 42
0.0
 43
0.1
 62
     8
420
  8421504
291
     0
 63
   178
421
    66053
293
     0
 71
     0
 44
10000.0
 45
4.0
 46
1.0
 47
1.0
 72
     8
  0
ENDSEC
  0
EOF
