  0
SECTION
  2
HEADER
  9
$ACADVER
  1
AC1009
  9
$INSBASE
 10
0.0
 20
0.0
 30
0.0
  9
$EXTMIN
 10
0.0000036386073816
 20
-0.0000083208554358
 30
0.0
  9
$EXTMAX
 10
800.00000363860943
 20
1199.999991679146
 30
0.0
  9
$LIMMIN
 10
0.0
 20
0.0
  9
$LIMMAX
 10
841.0
 20
594.0
  9
$ORTHOMODE
 70
     0
  9
$REGENMODE
 70
     1
  9
$FILLMODE
 70
     1
  9
$QTEXTMODE
 70
     0
  9
$MIRRTEXT
 70
     0
  9
$DRAGMODE
 70
     2
  9
$LTSCALE
 40
1.0
  9
$OSMODE
 70
  3071
  9
$ATTMODE
 70
     1
  9
$TEXTSIZE
 40
2.5
  9
$TRACEWID
 40
1.0
  9
$TEXTSTYLE
  7
STANDARD
  9
$CLAYER
  8
0
  9
$CELTYPE
  6
BYLAYER
  9
$CECOLOR
 62
   256
  9
$DIMSCALE
 40
1.0
  9
$DIMASZ
 40
3.5
  9
$DIMEXO
 40
1.0
  9
$DIMDLI
 40
10.0
  9
$DIMRND
 40
0.0
  9
$DIMDLE
 40
0.0
  9
$DIMEXE
 40
1.0
  9
$DIMTP
 40
0.1
  9
$DIMTM
 40
0.1
  9
$DIMTXT
 40
3.5
  9
$DIMCEN
 40
0.0
  9
$DIMTSZ
 40
0.0
  9
$DIMTOL
 70
     0
  9
$DIMLIM
 70
     0
  9
$DIMTIH
 70
     0
  9
$DIMTOH
 70
     0
  9
$DIMSE1
 70
     0
  9
$DIMSE2
 70
     0
  9
$DIMTAD
 70
     1
  9
$DIMZIN
 70
     8
  9
$DIMBLK
  1

  9
$DIMASO
 70
     1
  9
$DIMSHO
 70
     1
  9
$DIMPOST
  1

  9
$DIMAPOST
  1
"
  9
$DIMALT
 70
     0
  9
$DIMALTD
 70
     2
  9
$DIMALTF
 40
0.0393701
  9
$DIMLFAC
 40
1.0
  9
$DIMTOFL
 70
     1
  9
$DIMTVP
 40
0.0
  9
$DIMTIX
 70
     0
  9
$DIMSOXD
 70
     0
  9
$DIMSAH
 70
     0
  9
$DIMBLK1
  1

  9
$DIMBLK2
  1

  9
$DIMSTYLE
  2
AM_DIN
  9
$DIMCLRD
 70
     1
  9
$DIMCLRE
 70
     1
  9
$DIMCLRT
 70
     3
  9
$DIMTFAC
 40
0.71
  9
$DIMGAP
 40
1.5
  9
$LUNITS
 70
     2
  9
$LUPREC
 70
     2
  9
$SKETCHINC
 40
1.0
  9
$FILLETRAD
 40
0.0
  9
$AUNITS
 70
     0
  9
$AUPREC
 70
     1
  9
$MENU
  1
.
  9
$ELEVATION
 40
0.0
  9
$PELEVATION
 40
0.0
  9
$THICKNESS
 40
0.0
  9
$LIMCHECK
 70
     0
  9
$BLIPMODE
 70
     0
  9
$CHAMFERA
 40
2.5
  9
$CHAMFERB
 40
2.5
  9
$SKPOLY
 70
     0
  9
$TDCREATE
 40
2456126.3460205682
  9
$TDUPDATE
 40
2456126.3480814011
  9
$TDINDWG
 40
0.0007329977
  9
$TDUSRTIMER
 40
0.0007329051
  9
$USRTIMER
 70
     1
  9
$ANGBASE
 50
0.0
  9
$ANGDIR
 70
     0
  9
$PDMODE
 70
     0
  9
$PDSIZE
 40
0.0
  9
$PLINEWID
 40
0.0
  9
$COORDS
 70
     1
  9
$SPLFRAME
 70
     0
  9
$SPLINETYPE
 70
     6
  9
$SPLINESEGS
 70
     8
  9
$ATTDIA
 70
     1
  9
$ATTREQ
 70
     0
  9
$HANDLING
 70
     1
  9
$HANDSEED
  5
1736D
  9
$SURFTAB1
 70
     6
  9
$SURFTAB2
 70
     6
  9
$SURFTYPE
 70
     6
  9
$SURFU
 70
     6
  9
$SURFV
 70
     6
  9
$UCSNAME
  2

  9
$UCSORG
 10
0.0
 20
0.0
 30
0.0
  9
$UCSXDIR
 10
1.0
 20
0.0
 30
0.0
  9
$UCSYDIR
 10
0.0
 20
1.0
 30
0.0
  9
$PUCSNAME
  2

  9
$PUCSORG
 10
0.0
 20
0.0
 30
0.0
  9
$PUCSXDIR
 10
1.0
 20
0.0
 30
0.0
  9
$PUCSYDIR
 10
0.0
 20
1.0
 30
0.0
  9
$USERI1
 70
     0
  9
$USERI2
 70
     0
  9
$USERI3
 70
     0
  9
$USERI4
 70
     0
  9
$USERI5
 70
     0
  9
$USERR1
 40
0.0
  9
$USERR2
 40
0.0
  9
$USERR3
 40
0.0
  9
$USERR4
 40
0.0
  9
$USERR5
 40
0.0
  9
$WORLDVIEW
 70
     1
  9
$SHADEDGE
 70
     3
  9
$SHADEDIF
 70
    70
  9
$TILEMODE
 70
     1
  9
$MAXACTVP
 70
    64
  9
$PLIMCHECK
 70
     0
  9
$PEXTMIN
 10
1.0000000000000000E+020
 20
1.0000000000000000E+020
 30
1.0000000000000000E+020
  9
$PEXTMAX
 10
-1.0000000000000000E+020
 20
-1.0000000000000000E+020
 30
-1.0000000000000000E+020
  9
$PLIMMIN
 10
-20.0
 20
-7.5
  9
$PLIMMAX
 10
277.0
 20
202.5
  9
$UNITMODE
 70
     0
  9
$VISRETAIN
 70
     1
  9
$PLINEGEN
 70
     0
  9
$PSLTSCALE
 70
     0
  0
ENDSEC
  0
SECTION
  2
TABLES
  0
TABLE
  2
VPORT
 70
     1
  0
VPORT
  2
*ACTIVE
 70
     0
 10
0.0
 20
0.0
 11
1.0
 21
1.0
 12
420.13004816544759
 22
599.99999167914541
 13
0.0
 23
0.0
 14
2.5
 24
2.5
 15
10.0
 25
10.0
 16
0.0
 26
0.0
 36
1.0
 17
0.0
 27
0.0
 37
0.0
 40
1040.2691236894459
 41
2.1089238845144349
 42
50.0
 43
0.0
 44
0.0
 50
0.0
 51
0.0
 71
     0
 72
  2000
 73
     1
 74
     0
 75
     0
 76
     0
 77
     0
 78
     0
  0
ENDTAB
  0
TABLE
  2
LTYPE
 70
    21
  0
LTYPE
  2
CONTINUOUS
 70
     0
  3
Solid line
 72
    65
 73
     0
 40
0.0
  0
LTYPE
  2
AMCONSTR
 70
     0
  3
_______________________
 72
    65
 73
     2
 40
9999.0
 49
9999.0
 49
0.0
  0
LTYPE
  2
AMZIGZAG
 70
     0
  3
/\/-/\/-/\/-/\/-/\/-/\/
 72
    65
 73
     2
 40
11.0001
 49
0.0001
 49
-11.0
  0
LTYPE
  2
AM_DIN_F_W050
 70
     0
  3
__ __ __ __ __ __ __ __ __ __ __ __ __ __ __
 72
    65
 73
     2
 40
6.25
 49
4.75
 49
-1.5
  0
LTYPE
  2
AM_DIN_G_W050
 70
     0
  3
____ . ____ . ____ . ____ . ____ . ____ . ____
 72
    65
 73
     4
 40
13.75
 49
9.75
 49
-1.5
 49
1.0
 49
-1.5
  0
LTYPE
  2
AM_DIN_K_W050
 70
     0
  3
_____ . . _____ . . _____ . . ____ .. ____
 72
    65
 73
     6
 40
16.25
 49
9.75
 49
-1.5
 49
1.0
 49
-1.5
 49
1.0
 49
-1.5
  0
LTYPE
  2
AM_DIN_G_W050X2
 70
     0
  3
__ . __ . __ . __ . __ . __
 72
    65
 73
     4
 40
6.875
 49
4.75
 49
-0.875
 49
0.375
 49
-0.875
  0
LTYPE
  2
AM_DIN_F_W050X2
 70
     0
  3
 _ _ _ _ _ _ _ _ _ _ _ _
 72
    65
 73
     2
 40
3.125
 49
2.25
 49
-0.875
  0
LTYPE
  2
ACDINWELD
 70
     0
  3
_ _ _ _ _
 72
    65
 73
     2
 40
2.0
 49
2.0
 49
-1.0
  0
LTYPE
  2
ACDINTGB
 70
     0
  3
__ . . __ . .
 72
    65
 73
     6
 40
9.0
 49
4.0
 49
-1.0
 49
1.0
 49
-1.0
 49
1.0
 49
-1.0
  0
LTYPE
  2
ACDINTGL
 70
     0
  3
_ _ _ _ _
 72
    65
 73
     2
 40
3.0
 49
2.0
 49
-1.0
  0
LTYPE
  2
PHANTOM2
 70
     0
  3
Phantom (.5x) ___ _ _ ___ _ _ ___ _ _ ___ _ _
 72
    65
 73
     6
 40
1.25
 49
0.625
 49
-0.125
 49
0.125
 49
-0.125
 49
0.125
 49
-0.125
  0
LTYPE
  2
ACANSTGB
 70
     0
  3
__ . . __ . .
 72
    65
 73
     6
 40
0.35433070866
 49
0.15748031496
 49
-0.03937007874
 49
0.03937007874
 49
-0.03937007874
 49
0.03937007874
 49
-0.03937007874
  0
LTYPE
  2
ACANSTGL
 70
     0
  3
_ _ _ _ _
 72
    65
 73
     2
 40
0.11811023622
 49
0.07874015748
 49
-0.03937007874
  0
LTYPE
  2
HIDDEN
 70
     0
  3
Verdeckt
 72
    65
 73
     2
 40
9.5250000000000004
 49
6.3499999999999988
 49
-3.1749999999999989
  0
LTYPE
  2
CENTER
 70
     0
  3
Mitte ____ _ ____ _ ____ _ ____ _ ____ _ ____
 72
    65
 73
     4
 40
50.799999999999997
 49
31.75
 49
-6.3499999999999988
 49
6.3499999999999988
 49
-6.3499999999999988
  0
LTYPE
  2
AM_ISO02W050
 70
     0
  3
__ __ __ __ __ __ __ __ __ __ __ __ __ __ __
 72
    65
 73
     2
 40
7.5
 49
6.0
 49
-1.5
  0
LTYPE
  2
AM_ISO08W050
 70
     0
  3
____ . ____ . ____ . ____ . ____ . ____ . ____
 72
    65
 73
     4
 40
18.0
 49
12.0
 49
-1.5
 49
3.0
 49
-1.5
  0
LTYPE
  2
AM_ISO09W050
 70
     0
  3
_____ . . _____ . . _____ . . ____ .. ____
 72
    65
 73
     6
 40
22.5
 49
12.0
 49
-1.5
 49
3.0
 49
-1.5
 49
3.0
 49
-1.5
  0
LTYPE
  2
AM_ISO08W050X2
 70
     0
  3
__ . __ . __ . __ . __ . __
 72
    65
 73
     4
 40
9.0
 49
6.0
 49
-0.75
 49
1.5
 49
-0.75
  0
LTYPE
  2
AM_ISO02W050X2
 70
     0
  3
 _ _ _ _ _ _ _ _ _ _ _ _
 72
    65
 73
     2
 40
3.75
 49
3.0
 49
-0.75
  0
ENDTAB
  0
TABLE
  2
LAYER
 70
    14
  0
LAYER
  2
0
 70
     0
 62
     7
  6
CONTINUOUS
  0
LAYER
  2
TB-BORDER
 70
     0
 62
     7
  6
CONTINUOUS
  0
LAYER
  2
TB-ATT
 70
     0
 62
     7
  6
CONTINUOUS
  0
LAYER
  2
TB-TEXT_GERMAN
 70
     0
 62
     7
  6
CONTINUOUS
  0
LAYER
  2
TB-TEXT_SPANISH
 70
     0
 62
    -7
  6
CONTINUOUS
  0
LAYER
  2
TB-TEXT_ENGLISH
 70
     0
 62
    -7
  6
CONTINUOUS
  0
LAYER
  2
TB-LOGO
 70
     0
 62
    10
  6
CONTINUOUS
  0
LAYER
  2
TB-TEXT_FRENCH
 70
     0
 62
    -7
  6
CONTINUOUS
  0
LAYER
  2
AM_0
 70
     0
 62
     7
  6
CONTINUOUS
  0
LAYER
  2
ZIEMANN-BMS_KOPF
 70
     0
 62
    18
  6
CONTINUOUS
  0
LAYER
  2
GEL04-AM_5
 70
     0
 62
     3
  6
CONTINUOUS
  0
LAYER
  2
GEL04-AM_12
 70
     0
 62
     7
  6
CONTINUOUS
  0
LAYER
  2
AM_PAREF
 70
     0
 62
     4
  6
CONTINUOUS
  0
LAYER
  2
AM_BOR
 70
     0
 62
     7
  6
CONTINUOUS
  0
ENDTAB
  0
TABLE
  2
STYLE
 70
    15
  0
STYLE
  2
STANDARD
 70
     0
 40
0.0
 41
1.0
 50
0.0
 71
     0
 42
2.5
  3
ISOCP.SHX
  4

  0
STYLE
  2

 70
     1
 40
0.0
 41
1.0
 50
0.0
 71
     0
 42
2.5
  3
ltypeshp.shx
  4

  0
STYLE
  2
ACDINTS
 70
     0
 40
1.0
 41
1.0
 50
0.0
 71
     0
 42
2.5
  3
isocp.shx
  4

  0
STYLE
  2
ACDINGDT
 70
     0
 40
0.0
 41
1.0
 50
0.0
 71
     0
 42
2.5
  3
amgdt.shx
  4

  0
STYLE
  2
ACANSTS
 70
     0
 40
1.0
 41
1.0
 50
0.0
 71
     0
 42
0.2
  3
romans.shx
  4

  0
STYLE
  2
ACANSGDT
 70
     0
 40
0.0
 41
1.0
 50
0.0
 71
     0
 42
0.2
  3
amgdtans.shx
  4

  0
STYLE
  2
TITLEBLOCK
 70
     0
 40
0.0
 41
1.3
 50
0.0
 71
     0
 42
1.5
  3
txt
  4

  0
STYLE
  2
TAHOMA
 70
     0
 40
0.0
 41
1.0
 50
0.0
 71
     0
 42
0.2
  3
txt
  4

  0
STYLE
  2

 70
     1
 40
0.0
 41
1.0
 50
0.0
 71
     0
 42
1.5
  3
genltshp.shx
  4

  0
STYLE
  2
ACBSITS
 70
     0
 40
0.0
 41
1.0
 50
0.0
 71
     0
 42
2.5
  3
ISOCP.SHX
  4

  0
STYLE
  2
ACISOTS
 70
     0
 40
0.0
 41
1.0
 50
0.0
 71
     0
 42
2.5
  3
ISOCP.SHX
  4

  0
STYLE
  2
ISO8
 70
     0
 40
0.0
 41
1.0
 50
0.0
 71
     0
 42
2.5
  3
isocp.shx
  4

  0
STYLE
  2
USER1
 70
     0
 40
0.0
 41
1.0
 50
0.0
 71
     0
 42
2.5
  3
TXT.SHX
  4

  0
STYLE
  2
USER2
 70
     0
 40
0.0
 41
1.0
 50
0.0
 71
     0
 42
2.5
  3
SIMPLEX.SHX
  4

  0
STYLE
  2
USER3
 70
     0
 40
0.0
 41
1.0
 50
0.0
 71
     0
 42
2.5
  3
ITALIC.SHX
  4

  0
ENDTAB
  0
TABLE
  2
VIEW
 70
     6
  0
VIEW
  2
AM_VIEW1
 70
     0
 40
297.0
 10
300.66933139534888
 20
445.5
 41
601.33866279069775
 11
0.0
 21
0.0
 31
1.0
 12
0.0
 22
0.0
 32
0.0
 42
50.0
 43
0.0
 44
0.0
 50
0.0
 71
     0
  0
VIEW
  2
AM_VIEW2
 70
     0
 40
297.0
 10
540.33066860465112
 20
445.5
 41
601.33866279069775
 11
0.0
 21
0.0
 31
1.0
 12
0.0
 22
0.0
 32
0.0
 42
50.0
 43
0.0
 44
0.0
 50
0.0
 71
     0
  0
VIEW
  2
AM_VIEW3
 70
     0
 40
297.0
 10
300.66933139534888
 20
148.5
 41
601.33866279069775
 11
0.0
 21
0.0
 31
1.0
 12
0.0
 22
0.0
 32
0.0
 42
50.0
 43
0.0
 44
0.0
 50
0.0
 71
     0
  0
VIEW
  2
AM_VIEW4
 70
     0
 40
297.0
 10
540.33066860465112
 20
148.5
 41
601.33866279069775
 11
0.0
 21
0.0
 31
1.0
 12
0.0
 22
0.0
 32
0.0
 42
50.0
 43
0.0
 44
0.0
 50
0.0
 71
     0
  0
VIEW
  2
AM_VIEW5
 70
     0
 40
297.0
 10
420.5
 20
297.0
 41
601.33866279069775
 11
0.0
 21
0.0
 31
1.0
 12
0.0
 22
0.0
 32
0.0
 42
50.0
 43
0.0
 44
0.0
 50
0.0
 71
     0
  0
VIEW
  2
AM_VIEW6
 70
     0
 40
593.99405999999988
 10
420.5
 20
297.0
 41
1202.6652988081401
 11
0.0
 21
0.0
 31
1.0
 12
0.0
 22
0.0
 32
0.0
 42
50.0
 43
0.0
 44
0.0
 50
0.0
 71
     0
  0
ENDTAB
  0
TABLE
  2
UCS
 70
     0
  0
ENDTAB
  0
TABLE
  2
APPID
 70
   263
  0
APPID
  2
ACAD
 70
     0
  0
APPID
  2
MCAD_NO_VIS
 70
     0
  0
APPID
  2
ACAD_TEMP_GRAPHIC
 70
     0
  0
APPID
  2
ACATTRIBSERVICES
 70
     0
  0
APPID
  2
MEDUSAPARAMETER
 70
     0
  0
APPID
  2
GENIUS_GENBLLY_14
 70
     0
  0
APPID
  2
GENIUS_GENTRA_14
 70
     0
  0
APPID
  2
GENIUS_GENOLIS_13
 70
     0
  0
APPID
  2
GENIUS_GENOENT_13
 70
     0
  0
APPID
  2
GENIUS_GENOBJ-N-TIT_13
 70
     0
  0
APPID
  2
GENIUS_GENODEF_13
 70
     0
  0
APPID
  2
GENIUS_GENTITLE_13
 70
     0
  0
APPID
  2
GENIUS_GENOREF_13
 70
     0
  0
APPID
  2
GENIUS_GENSCREG_15
 70
     0
  0
APPID
  2
GENIUS_GENOBJ-N-SDF_13
 70
     0
  0
APPID
  2
GENIUS_GENDTOL_13
 70
     0
  0
APPID
  2
GEVID1002019000
 70
     0
  0
APPID
  2
GEVDC
 70
     0
  0
APPID
  2
GENIUS_GENBH_13
 70
     0
  0
APPID
  2
GENIUS_GENOBJ-NBEHI-BHF_13
 70
     0
  0
APPID
  2
GENIUS_GENOBJ-NBEHI-BHB_13
 70
     0
  0
APPID
  2
GEVID1002019001
 70
     0
  0
APPID
  2
GENIUS_GENREC_14
 70
     0
  0
APPID
  2
GENIUS_GENOBJ-N-REC_13
 70
     0
  0
APPID
  2
GEVID1002019003
 70
     0
  0
APPID
  2
GEVCON
 70
     0
  0
APPID
  2
GEVRADREF
 70
     0
  0
APPID
  2
GENIUS_GENOBJ-F-SCPASSM_13
 70
     0
  0
APPID
  2
GEVID1002019004
 70
     0
  0
APPID
  2
GEVID1002019005
 70
     0
  0
APPID
  2
GEVID1002019007
 70
     0
  0
APPID
  2
GEVID1002019008
 70
     0
  0
APPID
  2
GEVID1002019009
 70
     0
  0
APPID
  2
GEVMK
 70
     0
  0
APPID
  2
GEVID1002019010
 70
     0
  0
APPID
  2
GEVID1002019011
 70
     0
  0
APPID
  2
GEVID1002029329
 70
     0
  0
APPID
  2
GENIUS_GENOBJ-F-SHCL_13
 70
     0
  0
APPID
  2
GENIUS_GEFMSH_13
 70
     0
  0
APPID
  2
GENIUS_GEFSH_13
 70
     0
  0
APPID
  2
GENIUS_GEFSHP_13
 70
     0
  0
APPID
  2
GENIUS_GEFSHP0_13
 70
     0
  0
APPID
  2
GENIUS_GEFSH0_13
 70
     0
  0
APPID
  2
GEVID1002029330
 70
     0
  0
APPID
  2
GEVID1002029331
 70
     0
  0
APPID
  2
GEVID1002029332
 70
     0
  0
APPID
  2
GEVID1002029333
 70
     0
  0
APPID
  2
GEVID1002029334
 70
     0
  0
APPID
  2
GENIUS_GENOBJ-F-SHS_13
 70
     0
  0
APPID
  2
GENIUS_GENBH_14
 70
     0
  0
APPID
  2
GEVID1002029335
 70
     0
  0
APPID
  2
GENIUS_GENOBJ-F-SHSS_13
 70
     0
  0
APPID
  2
GENIUS_GENOBJ-N-HTC_13
 70
     0
  0
APPID
  2
GENIUS_GENHATCH_13
 70
     0
  0
APPID
  2
GEVID1002029336
 70
     0
  0
APPID
  2
GENIUS_GENBHRL_14
 70
     0
  0
APPID
  2
GEVID1002029337
 70
     0
  0
APPID
  2
GENIUS_GENOBJ-F-SHSV_13
 70
     0
  0
APPID
  2
GEVID1002029338
 70
     0
  0
APPID
  2
GEVID1002029339
 70
     0
  0
APPID
  2
GEVID1002029340
 70
     0
  0
APPID
  2
GENIUS_AMGTXT_16
 70
     0
  0
APPID
  2
GEVID1002029341
 70
     0
  0
APPID
  2
GENIUS_GENOBJ-N-CRS_13
 70
     0
  0
APPID
  2
GEVID1002029342
 70
     0
  0
APPID
  2
GEVID1002029343
 70
     0
  0
APPID
  2
GEVID1002029344
 70
     0
  0
APPID
  2
GEVID1002029345
 70
     0
  0
APPID
  2
GEVID1002029346
 70
     0
  0
APPID
  2
GEVID1002029348
 70
     0
  0
APPID
  2
GEVID1002184342
 70
     0
  0
APPID
  2
GEVID1002184343
 70
     0
  0
APPID
  2
GEVID1002187540
 70
     0
  0
APPID
  2
GEVID1002187541
 70
     0
  0
APPID
  2
GEVID1002187542
 70
     0
  0
APPID
  2
GEVID1002187543
 70
     0
  0
APPID
  2
GEVID1002187544
 70
     0
  0
APPID
  2
GEVID1002187545
 70
     0
  0
APPID
  2
GEVID1002187546
 70
     0
  0
APPID
  2
GEVID1002187547
 70
     0
  0
APPID
  2
GEVID1002187548
 70
     0
  0
APPID
  2
GEVID1002187549
 70
     0
  0
APPID
  2
GEVID1002187550
 70
     0
  0
APPID
  2
GEVID1002187551
 70
     0
  0
APPID
  2
GEVID1002187552
 70
     0
  0
APPID
  2
GEVID1002187553
 70
     0
  0
APPID
  2
GEVID1002187554
 70
     0
  0
APPID
  2
GEVID1002187555
 70
     0
  0
APPID
  2
GEVID1002187556
 70
     0
  0
APPID
  2
GEVID1002187558
 70
     0
  0
APPID
  2
GEVID1002187559
 70
     0
  0
APPID
  2
GEVID1002187560
 70
     0
  0
APPID
  2
GEVID1002187561
 70
     0
  0
APPID
  2
GEVID1002187562
 70
     0
  0
APPID
  2
GEVID1002187563
 70
     0
  0
APPID
  2
GEVID1002187564
 70
     0
  0
APPID
  2
GENIUS_GENOBJ-N-FIL_13
 70
     0
  0
APPID
  2
GEVID1002187565
 70
     0
  0
APPID
  2
GEVID1002187566
 70
     0
  0
APPID
  2
GEVID1002187567
 70
     0
  0
APPID
  2
GEVID1002187568
 70
     0
  0
APPID
  2
GENIUS_GENDIMSH_14
 70
     0
  0
APPID
  2
GEVID1002187569
 70
     0
  0
APPID
  2
GEVID1002187570
 70
     0
  0
APPID
  2
GEVID1002187571
 70
     0
  0
APPID
  2
GENIUS_GEFSHP1_13
 70
     0
  0
APPID
  2
GENIUS_GEFSH1_13
 70
     0
  0
APPID
  2
GEVID1002187572
 70
     0
  0
APPID
  2
GEVID1002187576
 70
     0
  0
APPID
  2
GEVID1002187577
 70
     0
  0
APPID
  2
GEVID1002187578
 70
     0
  0
APPID
  2
GEVID1002187579
 70
     0
  0
APPID
  2
ACAD_DIMASSOC_CALC_DIMLFAC
 70
     0
  0
APPID
  2
ACAD_DIMASSOC_DIMLFAC
 70
     0
  0
APPID
  2
ACAD_DIMASSOC_OVERRIDDEN_D
 70
     0
  0
APPID
  2
GEVID1002187580
 70
     0
  0
APPID
  2
GEVID1002187581
 70
     0
  0
APPID
  2
GEVID1002187582
 70
     0
  0
APPID
  2
GEVID1002187584
 70
     0
  0
APPID
  2
GEVID1002187585
 70
     0
  0
APPID
  2
GEVID1002187586
 70
     0
  0
APPID
  2
GEVID1002187587
 70
     0
  0
APPID
  2
GEVID1002270261
 70
     0
  0
APPID
  2
GEVID1002273258
 70
     0
  0
APPID
  2
GEVID1002273259
 70
     0
  0
APPID
  2
GEVID1002273260
 70
     0
  0
APPID
  2
GEVID1002273261
 70
     0
  0
APPID
  2
GEVID1002273263
 70
     0
  0
APPID
  2
GEVID1002273265
 70
     0
  0
APPID
  2
GEVID1002273266
 70
     0
  0
APPID
  2
GEVID1002273267
 70
     0
  0
APPID
  2
GEVID1002273268
 70
     0
  0
APPID
  2
GEVID1002273269
 70
     0
  0
APPID
  2
GEVID1002280444
 70
     0
  0
APPID
  2
GEVID1002280445
 70
     0
  0
APPID
  2
GEVID1002280446
 70
     0
  0
APPID
  2
GEVID1002280447
 70
     0
  0
APPID
  2
GEVID1002280448
 70
     0
  0
APPID
  2
GENIUS_GENOBJ-F-PFASSM_13
 70
     0
  0
APPID
  2
GEVID1002280449
 70
     0
  0
APPID
  2
GEVID1002280450
 70
     0
  0
APPID
  2
GENIUS_GENOBJ-F-SHCV_13
 70
     0
  0
APPID
  2
GENIUS_GENOBJ-F-SHT_13
 70
     0
  0
APPID
  2
GEVID1002280451
 70
     0
  0
APPID
  2
GENIUS_13_GENBH
 70
     0
  0
APPID
  2
GEVID1002280452
 70
     0
  0
APPID
  2
GEVID1002280453
 70
     0
  0
APPID
  2
GEVID1002280454
 70
     0
  0
APPID
  2
GEVID1002280455
 70
     0
  0
APPID
  2
GEVID1002280458
 70
     0
  0
APPID
  2
GEVID1002280459
 70
     0
  0
APPID
  2
GEVID1002280460
 70
     0
  0
APPID
  2
GEVID1002280461
 70
     0
  0
APPID
  2
GEVID1002280462
 70
     0
  0
APPID
  2
GEVID1002280463
 70
     0
  0
APPID
  2
GEVID1002280464
 70
     0
  0
APPID
  2
GEVID1002531918
 70
     0
  0
APPID
  2
GEVID1002531919
 70
     0
  0
APPID
  2
GEVID1002531920
 70
     0
  0
APPID
  2
GEVID1002531921
 70
     0
  0
APPID
  2
GEVID1002531922
 70
     0
  0
APPID
  2
GEVID1002531924
 70
     0
  0
APPID
  2
DCO15
 70
     0
  0
APPID
  2
GEVID1002531925
 70
     0
  0
APPID
  2
GEVID1002531926
 70
     0
  0
APPID
  2
GEVID1002531927
 70
     0
  0
APPID
  2
GEVID1002531928
 70
     0
  0
APPID
  2
GEVID1002531929
 70
     0
  0
APPID
  2
GEVID1002531930
 70
     0
  0
APPID
  2
GEVID1002531931
 70
     0
  0
APPID
  2
GEVID1002531932
 70
     0
  0
APPID
  2
GEVID1002531933
 70
     0
  0
APPID
  2
GEVID1002531934
 70
     0
  0
APPID
  2
GEVID1002531935
 70
     0
  0
APPID
  2
GEVID1002531936
 70
     0
  0
APPID
  2
GEVID1002531937
 70
     0
  0
APPID
  2
GEVID1002531938
 70
     0
  0
APPID
  2
GEVID1002531939
 70
     0
  0
APPID
  2
GEVID1002531940
 70
     0
  0
APPID
  2
GEVID1002531941
 70
     0
  0
APPID
  2
GEVID1002531942
 70
     0
  0
APPID
  2
GEVID1002531943
 70
     0
  0
APPID
  2
GEVID1002531945
 70
     0
  0
APPID
  2
GEVID1002626753
 70
     0
  0
APPID
  2
GEVID1002638804
 70
     0
  0
APPID
  2
GEVID1002638805
 70
     0
  0
APPID
  2
GEVID1002638806
 70
     0
  0
APPID
  2
GEVID1002638807
 70
     0
  0
APPID
  2
GEVID1002638808
 70
     0
  0
APPID
  2
GEVID1002642368
 70
     0
  0
APPID
  2
GEVID1002642369
 70
     0
  0
APPID
  2
GEVID1002642370
 70
     0
  0
APPID
  2
GEVID1002642371
 70
     0
  0
APPID
  2
GEVID1002642372
 70
     0
  0
APPID
  2
GEVID1002642373
 70
     0
  0
APPID
  2
GEVID1002642374
 70
     0
  0
APPID
  2
GEVID1002642375
 70
     0
  0
APPID
  2
GEVID1002642376
 70
     0
  0
APPID
  2
GEVID1002642377
 70
     0
  0
APPID
  2
GEVID1002642378
 70
     0
  0
APPID
  2
GEVID1002642379
 70
     0
  0
APPID
  2
GEVID1002642380
 70
     0
  0
APPID
  2
GEVID1002642381
 70
     0
  0
APPID
  2
GENIUS_GENOBJ-N-REV_13
 70
     0
  0
APPID
  2
GENIUS_GENOBJ-N-RSSYM_13
 70
     0
  0
APPID
  2
GENIUS_GENSYMENT_13
 70
     0
  0
APPID
  2
GENIUS_GENSCSYM_13
 70
     0
  0
APPID
  2
GEVID1002699703
 70
     0
  0
APPID
  2
GEVID1002699704
 70
     0
  0
APPID
  2
GENIUS_GENOBJ-N-DIM_13
 70
     0
  0
APPID
  2
GENIUS_GENDIM_13
 70
     0
  0
APPID
  2
GEVID1002699705
 70
     0
  0
APPID
  2
GEVID1002699706
 70
     0
  0
APPID
  2
GENIUS_GENOBJ-N-ZOO_13
 70
     0
  0
APPID
  2
GENIUS_GENZOO_16
 70
     0
  0
APPID
  2
GEVID1002699707
 70
     0
  0
APPID
  2
GEVID1002699708
 70
     0
  0
APPID
  2
GEVID1002699709
 70
     0
  0
APPID
  2
GEVID1002699710
 70
     0
  0
APPID
  2
GEVID1002699711
 70
     0
  0
APPID
  2
GEVID1002699712
 70
     0
  0
APPID
  2
GEVID1002699713
 70
     0
  0
APPID
  2
GEVID1002699714
 70
     0
  0
APPID
  2
GENIUS_GENOBJ-N-DIMLI_13
 70
     0
  0
APPID
  2
GENIUS_GENSTDREF_13
 70
     0
  0
APPID
  2
GEVID1002699717
 70
     0
  0
APPID
  2
GEVID1002699718
 70
     0
  0
APPID
  2
GEVID1002699719
 70
     0
  0
APPID
  2
GENIUS_GENOBJ-N-FITL_13
 70
     0
  0
APPID
  2
GENIUS_GENFITL_13
 70
     0
  0
APPID
  2
GEVID1002791386
 70
     0
  0
APPID
  2
GEVID1002791387
 70
     0
  0
APPID
  2
GEVID1002791388
 70
     0
  0
APPID
  2
GEVID1002791389
 70
     0
  0
APPID
  2
GEVID1002791390
 70
     0
  0
APPID
  2
GENIUS_GENOBJ-N-CEN_13
 70
     0
  0
APPID
  2
GEVID1002791391
 70
     0
  0
APPID
  2
GENIUS_GENCFG_13
 70
     0
  0
APPID
  2
GENIUS_GENCFG0_13
 70
     0
  0
APPID
  2
GENIUS_GENCFG1_13
 70
     0
  0
APPID
  2
GENIUS_GENCFG2_13
 70
     0
  0
APPID
  2
GENIUS_GENCFG3_13
 70
     0
  0
APPID
  2
GENIUS_GENCFG4_13
 70
     0
  0
APPID
  2
GENIUS_GEVCFG0_13
 70
     0
  0
APPID
  2
GENIUS_GENCFG5_13
 70
     0
  0
APPID
  2
GENIUS_VERSION2
 70
     0
  0
APPID
  2
AD_DRAW
 70
     0
  0
APPID
  2
DESIGNERASSEMBLIES
 70
     0
  0
APPID
  2
ACADM_DIM_EDIT
 70
     0
  0
APPID
  2
AMDT_DM_ADJ
 70
     0
  0
APPID
  2
ACAECLAYERSTANDARD
 70
     0
  0
APPID
  2
ACAD_PSEXT
 70
     0
  0
APPID
  2
ACAD_EXEMPT_FROM_CAD_STANDARDS
 70
     0
  0
APPID
  2
ACADANNOPO
 70
     0
  0
APPID
  2
ACAD_DSTYLE_DIMJAG
 70
     0
  0
APPID
  2
ACAD_DSTYLE_DIMBREAK
 70
     0
  0
APPID
  2
ACAUTHENVIRON
 70
     0
  0
APPID
  2
ACDBDYNAMICBLOCKTRUENAME
 70
     0
  0
APPID
  2
ACDBDYNAMICBLOCKGUID
 70
     0
  0
APPID
  2
ACDBBLOCKREPETAG
 70
     0
  0
APPID
  2
ACDBBLOCKREPBTAG
 70
     0
  0
APPID
  2
ACAD_MLEADERVER
 70
     0
  0
APPID
  2
CONTENTBLOCKICON
 70
     0
  0
ENDTAB
  0
TABLE
  2
DIMSTYLE
 70
    16
  0
DIMSTYLE
  2
AM_DIN
 70
     0
  3

  4
"
  5

  6

  7

 40
1.0
 41
3.5
 42
1.0
 43
10.0
 44
1.0
 45
0.0
 46
0.0
 47
0.1
 48
0.1
140
3.5
141
0.0
142
0.0
143
0.0393701
144
1.0
145
0.0
146
0.71
147
1.5
 71
     0
 72
     0
 73
     0
 74
     0
 75
     0
 76
     0
 77
     1
 78
     8
170
     0
171
     2
172
     1
173
     0
174
     0
175
     0
176
     1
177
     1
178
     3
  0
DIMSTYLE
  2
AM_DIN$3
 70
     0
  3

  4
"
  5

  6

  7

 40
1.0
 41
3.5
 42
1.0
 43
10.0
 44
1.0
 45
0.0
 46
0.0
 47
0.1
 48
0.1
140
3.5
141
0.0
142
0.0
143
0.0393701
144
1.0
145
0.0
146
0.71
147
1.5
 71
     0
 72
     0
 73
     0
 74
     1
 75
     0
 76
     0
 77
     1
 78
     8
170
     0
171
     2
172
     0
173
     0
174
     0
175
     0
176
     1
177
     1
178
     3
  0
DIMSTYLE
  2
AM_DIN$4
 70
     0
  3

  4
"
  5

  6

  7

 40
1.0
 41
3.5
 42
1.0
 43
10.0
 44
1.0
 45
0.0
 46
0.0
 47
0.1
 48
0.1
140
3.5
141
0.0
142
0.0
143
0.0393701
144
1.0
145
0.0
146
0.71
147
1.5
 71
     0
 72
     0
 73
     0
 74
     1
 75
     0
 76
     0
 77
     1
 78
     8
170
     0
171
     2
172
     0
173
     0
174
     0
175
     0
176
     1
177
     1
178
     3
  0
DIMSTYLE
  2
AM_DIN$6
 70
     0
  3

  4
"
  5

  6

  7

 40
1.0
 41
3.5
 42
1.0
 43
10.0
 44
1.0
 45
0.0
 46
0.0
 47
0.1
 48
0.1
140
3.5
141
0.0
142
0.0
143
0.0393701
144
1.0
145
0.0
146
0.71
147
1.5
 71
     0
 72
     0
 73
     0
 74
     0
 75
     0
 76
     0
 77
     0
 78
     8
170
     0
171
     2
172
     1
173
     0
174
     0
175
     0
176
     1
177
     1
178
     3
  0
DIMSTYLE
  2
AM_DIN$7
 70
     0
  3

  4
"
  5

  6

  7

 40
1.0
 41
3.5
 42
1.0
 43
10.0
 44
1.0
 45
0.0
 46
0.0
 47
0.1
 48
0.1
140
5.0
141
0.0
142
0.0
143
0.0393701
144
1.0
145
0.0
146
0.71
147
1.5
 71
     0
 72
     0
 73
     0
 74
     0
 75
     0
 76
     0
 77
     1
 78
     8
170
     0
171
     2
172
     1
173
     0
174
     0
175
     0
176
     1
177
     1
178
     3
  0
DIMSTYLE
  2
AM_DIN$SF
 70
     0
  3

  4
"
  5

  6

  7

 40
1.0
 41
2.5
 42
1.0
 43
10.0
 44
1.0
 45
0.0
 46
0.0
 47
0.1
 48
0.1
140
3.5
141
0.0
142
0.0
143
0.0393701
144
1.0
145
0.0
146
0.71
147
1.5
 71
     0
 72
     0
 73
     0
 74
     0
 75
     1
 76
     1
 77
     1
 78
     8
170
     0
171
     2
172
     1
173
     0
174
     0
175
     0
176
     1
177
   256
178
     3
  0
DIMSTYLE
  2
AM_DIN$SH
 70
     0
  3

  4
"
  5

  6
GENAXEH
  7

 40
1.0
 41
2.5
 42
1.0
 43
10.0
 44
1.0
 45
0.0
 46
0.0
 47
0.1
 48
0.1
140
3.5
141
0.0
142
0.0
143
0.0393701
144
2.0
145
0.0
146
0.71
147
1.5
 71
     0
 72
     0
 73
     0
 74
     0
 75
     1
 76
     1
 77
     1
 78
     8
170
     0
171
     2
172
     1
173
     1
174
     0
175
     0
176
     1
177
   256
178
     3
  0
DIMSTYLE
  2
AM_ANSI
 70
     0
  3

  4
mm
  5

  6

  7

 40
1.0
 41
0.1
 42
0.05
 43
0.5
 44
0.1
 45
0.0
 46
0.0
 47
0.1
 48
0.1
140
0.12
141
0.0
142
0.0
143
25.399999999999999
144
1.0
145
0.0
146
0.71
147
0.06
 71
     0
 72
     0
 73
     1
 74
     1
 75
     0
 76
     0
 77
     0
 78
     7
170
     0
171
     2
172
     0
173
     0
174
     0
175
     0
176
   256
177
   256
178
     2
  0
DIMSTYLE
  2
AM_ANSI$3
 70
     0
  3

  4
mm
  5

  6

  7

 40
1.0
 41
0.1
 42
0.05
 43
0.5
 44
0.1
 45
0.0
 46
0.0
 47
0.1
 48
0.1
140
0.12
141
0.0
142
0.0
143
25.399999999999999
144
1.0
145
0.0
146
0.71
147
0.06
 71
     0
 72
     0
 73
     1
 74
     1
 75
     0
 76
     0
 77
     0
 78
     7
170
     0
171
     2
172
     0
173
     0
174
     0
175
     0
176
   256
177
   256
178
     2
  0
DIMSTYLE
  2
AM_ANSI$4
 70
     0
  3

  4
mm
  5

  6

  7

 40
1.0
 41
0.1
 42
0.05
 43
0.5
 44
0.1
 45
0.0
 46
0.0
 47
0.1
 48
0.1
140
0.12
141
0.0
142
0.0
143
25.399999999999999
144
1.0
145
0.0
146
0.71
147
0.06
 71
     0
 72
     0
 73
     1
 74
     1
 75
     0
 76
     0
 77
     0
 78
     7
170
     0
171
     2
172
     0
173
     0
174
     0
175
     0
176
   256
177
   256
178
     2
  0
DIMSTYLE
  2
AM_ANSI$7
 70
     0
  3

  4
mm
  5

  6

  7

 40
1.0
 41
0.1
 42
0.05
 43
0.5
 44
0.1
 45
0.0
 46
0.0
 47
0.1
 48
0.1
140
0.24
141
0.0
142
0.0
143
25.399999999999999
144
1.0
145
0.0
146
0.71
147
0.06
 71
     0
 72
     0
 73
     1
 74
     1
 75
     0
 76
     0
 77
     0
 78
     7
170
     0
171
     2
172
     0
173
     0
174
     0
175
     0
176
   256
177
   256
178
     2
  0
DIMSTYLE
  2
AM_ANSI$SF
 70
     0
  3

  4
mm
  5

  6

  7

 40
1.0
 41
0.1
 42
0.05
 43
0.5
 44
0.1
 45
0.0
 46
0.0
 47
0.1
 48
0.1
140
0.12
141
0.0
142
0.0
143
25.399999999999999
144
1.0
145
0.0
146
0.71
147
0.06
 71
     0
 72
     0
 73
     1
 74
     1
 75
     1
 76
     1
 77
     0
 78
     7
170
     0
171
     2
172
     0
173
     0
174
     0
175
     0
176
   256
177
   256
178
     2
  0
DIMSTYLE
  2
AM_ANSI$SH
 70
     0
  3

  4
mm
  5

  6
GENAXEH
  7

 40
1.0
 41
0.1
 42
0.05
 43
0.5
 44
0.1
 45
0.0
 46
0.0
 47
0.1
 48
0.1
140
0.12
141
0.0
142
0.0
143
25.399999999999999
144
1.0
145
0.0
146
0.71
147
0.06
 71
     0
 72
     0
 73
     1
 74
     1
 75
     1
 76
     1
 77
     0
 78
     7
170
     0
171
     2
172
     0
173
     1
174
     0
175
     0
176
   256
177
   256
178
     2
  0
DIMSTYLE
  2
AM_DIN$0
 70
     0
  3

  4
"
  5

  6

  7

 40
1.0
 41
3.5
 42
1.0
 43
10.0
 44
1.0
 45
0.0
 46
0.0
 47
0.1
 48
0.1
140
3.5
141
0.0
142
0.0
143
0.0393701
144
1.0
145
0.0
146
0.71
147
1.5
 71
     0
 72
     0
 73
     0
 74
     0
 75
     0
 76
     0
 77
     1
 78
     8
170
     0
171
     2
172
     1
173
     0
174
     0
175
     0
176
     1
177
     1
178
     3
  0
DIMSTYLE
  2
STANDARD
 70
     0
  3

  4

  5

  6

  7

 40
1.0
 41
0.18
 42
0.0625
 43
0.38
 44
0.18
 45
0.0
 46
0.0
 47
0.0
 48
0.0
140
0.18
141
0.09
142
0.0
143
25.399999999999999
144
1.0
145
0.0
146
1.0
147
0.09
 71
     0
 72
     0
 73
     1
 74
     1
 75
     0
 76
     0
 77
     0
 78
     0
170
     0
171
     2
172
     0
173
     0
174
     0
175
     0
176
     0
177
     0
178
     0
  0
DIMSTYLE
  2
ISO-25
 70
     0
  3

  4

  5

  6

  7

 40
1.0
 41
2.5
 42
0.625
 43
3.75
 44
1.25
 45
0.0
 46
0.0
 47
0.0
 48
0.0
140
2.5
141
2.5
142
0.0
143
0.03937007874016
144
1.0
145
0.0
146
1.0
147
0.625
 71
     0
 72
     0
 73
     0
 74
     0
 75
     0
 76
     0
 77
     1
 78
     8
170
     0
171
     3
172
     1
173
     0
174
     0
175
     0
176
     0
177
     0
178
     0
  0
ENDTAB
  0
ENDSEC
  0
SECTION
  2
BLOCKS
  0
BLOCK
  8
0
  2
$MODEL_SPACE
 70
     0
 10
0.0
 20
0.0
 30
0.0
  3
$MODEL_SPACE
  1

  0
ENDBLK
  5
21
  8
0
  0
BLOCK
 67
     1
  8
0
  2
$PAPER_SPACE
 70
     0
 10
0.0
 20
0.0
 30
0.0
  3
$PAPER_SPACE
  1

  0
ENDBLK
  5
16500
 67
     1
  8
0
  0
BLOCK
  8
0
  2
GENAXEH
 70
     0
 10
0.0
 20
0.0
 30
0.0
  3
GENAXEH
  1

  0
LINE
  5
1685B
  8
0
 10
-1.0
 20
0.0
 30
0.0
 11
1.0
 21
0.0
 31
0.0
  0
ENDBLK
  5
1685C
  8
0
  0
BLOCK
  8
0
  2
*U1
 70
     1
 10
0.0
 20
0.0
 30
0.0
  3
*U1
  1

  0
LINE
  5
16F93
  8
0
 10
1200.0026200000029
 20
300.00000000000023
 30
0.0
 11
0.0026200000029348
 21
300.00000000000023
 31
0.0
1001
ACDBBLOCKREPETAG
1070
     1
1071
        0
1005
16F93
  0
LINE
  5
16F94
  8
0
 10
0.0026200000029348
 20
0.0000000000002274
 30
0.0
 11
1200.0026200000029
 21
0.0000000000002274
 31
0.0
1001
ACDBBLOCKREPETAG
1070
     1
1071
        1
1005
16F94
  0
LINE
  5
16F95
  8
0
 10
1000.002620000003
 20
300.00000000000023
 30
0.0
 11
1000.002620000003
 21
0.0000499999998738
 31
0.0
1001
ACDBBLOCKREPETAG
1070
     1
1071
        2
1005
16F95
  0
LINE
  5
16F96
  8
0
 10
800.00262000000293
 20
300.00000000000023
 30
0.0
 11
800.00262000000293
 21
0.0000499999998738
 31
0.0
1001
ACDBBLOCKREPETAG
1070
     1
1071
        3
1005
16F96
  0
LINE
  5
16F97
  8
0
 10
400.00262000000288
 20
300.00000000000023
 30
0.0
 11
400.00262000000288
 21
0.0000499999998738
 31
0.0
1001
ACDBBLOCKREPETAG
1070
     1
1071
        4
1005
16F97
  0
LINE
  5
16F98
  8
0
 10
200.00262000000291
 20
300.00000000000023
 30
0.0
 11
200.00262000000291
 21
0.0000499999998738
 31
0.0
1001
ACDBBLOCKREPETAG
1070
     1
1071
        5
1005
16F98
  0
LINE
  5
16F99
  8
0
 10
0.0026200000029348
 20
300.00000000000023
 30
0.0
 11
200.00262000000291
 21
0.0000000000002274
 31
0.0
1001
ACDBBLOCKREPETAG
1070
     1
1071
        6
1005
16F99
  0
LINE
  5
16F9A
  8
0
 10
600.00262000000293
 20
0.0000000000002274
 30
0.0
 11
800.00262000000293
 21
300.00000000000023
 31
0.0
1001
ACDBBLOCKREPETAG
1070
     1
1071
        7
1005
16F9A
  0
LINE
  5
16F9B
  8
0
 10
800.00262000000293
 20
300.00000000000023
 30
0.0
 11
1000.002620000003
 21
0.0000000000002274
 31
0.0
1001
ACDBBLOCKREPETAG
1070
     1
1071
        8
1005
16F9B
  0
LINE
  5
16F9C
  8
0
 10
1000.002620000003
 20
0.0000000000002274
 30
0.0
 11
1200.0026200000029
 21
300.00000000000023
 31
0.0
1001
ACDBBLOCKREPETAG
1070
     1
1071
        9
1005
16F9C
  0
LINE
  5
16F9D
  8
0
 10
1200.0026200000029
 20
0.0000000000002274
 30
0.0
 11
1000.002620000003
 21
300.00000000000023
 31
0.0
1001
ACDBBLOCKREPETAG
1070
     1
1071
       10
1005
16F9D
  0
LINE
  5
16F9E
  8
0
 10
1000.002620000003
 20
300.00000000000023
 30
0.0
 11
800.00262000000293
 21
0.0000000000002274
 31
0.0
1001
ACDBBLOCKREPETAG
1070
     1
1071
       11
1005
16F9E
  0
LINE
  5
16F9F
  8
0
 10
800.00262000000293
 20
0.0000000000002274
 30
0.0
 11
600.00262000000293
 21
300.00000000000023
 31
0.0
1001
ACDBBLOCKREPETAG
1070
     1
1071
       12
1005
16F9F
  0
LINE
  5
16FA0
  8
0
 10
600.00262000000293
 20
300.00000000000023
 30
0.0
 11
400.00262000000288
 21
0.0000000000002274
 31
0.0
1001
ACDBBLOCKREPETAG
1070
     1
1071
       13
1005
16FA0
  0
LINE
  5
16FA1
  8
0
 10
600.00262000000293
 20
0.0000000000002274
 30
0.0
 11
400.00262000000288
 21
300.00000000000023
 31
0.0
1001
ACDBBLOCKREPETAG
1070
     1
1071
       14
1005
16FA1
  0
LINE
  5
16FA2
  8
0
 10
400.00262000000288
 20
300.00000000000023
 30
0.0
 11
200.00262000000291
 21
0.0000000000002274
 31
0.0
1001
ACDBBLOCKREPETAG
1070
     1
1071
       15
1005
16FA2
  0
LINE
  5
16FA3
  8
0
 10
400.00262000000288
 20
0.0000000000002274
 30
0.0
 11
200.00262000000291
 21
300.00000000000023
 31
0.0
1001
ACDBBLOCKREPETAG
1070
     1
1071
       16
1005
16FA3
  0
LINE
  5
16FA4
  8
0
 10
200.00262000000291
 20
300.00000000000023
 30
0.0
 11
0.0026200000029348
 21
0.0000000000002274
 31
0.0
1001
ACDBBLOCKREPETAG
1070
     1
1071
       17
1005
16FA4
  0
LINE
  5
16FA5
  8
0
 10
0.0026200000029348
 20
500.00000000000023
 30
0.0
 11
1200.0026200000029
 21
500.00000000000023
 31
0.0
1001
ACDBBLOCKREPETAG
1070
     1
1071
       18
1005
16FA5
  0
LINE
  5
16FA6
  8
0
 10
0.0026200000029348
 20
800.0
 30
0.0
 11
1200.0026200000029
 21
800.0
 31
0.0
1001
ACDBBLOCKREPETAG
1070
     1
1071
       19
1005
16FA6
  0
LINE
  5
16FA7
  8
0
 10
1000.002620000003
 20
800.0
 30
0.0
 11
1000.002620000003
 21
500.00000000000023
 31
0.0
1001
ACDBBLOCKREPETAG
1070
     1
1071
       20
1005
16FA7
  0
LINE
  5
16FA8
  8
0
 10
800.00262000000293
 20
800.0
 30
0.0
 11
800.00262000000293
 21
500.00000000000023
 31
0.0
1001
ACDBBLOCKREPETAG
1070
     1
1071
       21
1005
16FA8
  0
LINE
  5
16FA9
  8
0
 10
400.00262000000288
 20
800.0
 30
0.0
 11
400.00262000000288
 21
500.00000000000023
 31
0.0
1001
ACDBBLOCKREPETAG
1070
     1
1071
       22
1005
16FA9
  0
LINE
  5
16FAA
  8
0
 10
200.00262000000291
 20
800.0
 30
0.0
 11
200.00262000000291
 21
500.00000000000023
 31
0.0
1001
ACDBBLOCKREPETAG
1070
     1
1071
       23
1005
16FAA
  0
LINE
  5
16FAB
  8
0
 10
0.0026200000029348
 20
800.0
 30
0.0
 11
0.0026200000029348
 21
0.0000499999998738
 31
0.0
1001
ACDBBLOCKREPETAG
1070
     1
1071
       24
1005
16FAB
  0
LINE
  5
16FAC
  8
0
 10
1200.0026200000029
 20
0.0000499999998738
 30
0.0
 11
1200.0026200000029
 21
800.0
 31
0.0
1001
ACDBBLOCKREPETAG
1070
     1
1071
       25
1005
16FAC
  0
LINE
  5
16FAD
  8
0
 10
900.00262000000293
 20
500.00000000000023
 30
0.0
 11
900.00262000000293
 21
300.00000000000023
 31
0.0
1001
ACDBBLOCKREPETAG
1070
     1
1071
       26
1005
16FAD
  0
LINE
  5
16FAE
  8
0
 10
600.00262000000293
 20
800.0
 30
0.0
 11
600.00262000000293
 21
0.0000499999998738
 31
0.0
1001
ACDBBLOCKREPETAG
1070
     1
1071
       27
1005
16FAE
  0
LINE
  5
16FAF
  8
0
 10
300.00262000000288
 20
500.00000000000023
 30
0.0
 11
300.00262000000288
 21
300.00000000000023
 31
0.0
1001
ACDBBLOCKREPETAG
1070
     1
1071
       28
1005
16FAF
  0
LINE
  5
16FB0
  8
0
 10
200.00262000000291
 20
800.0
 30
0.0
 11
400.00262000000288
 21
500.00000000000023
 31
0.0
1001
ACDBBLOCKREPETAG
1070
     1
1071
       29
1005
16FB0
  0
LINE
  5
16FB1
  8
0
 10
400.00262000000288
 20
500.00000000000023
 30
0.0
 11
600.00262000000293
 21
800.0
 31
0.0
1001
ACDBBLOCKREPETAG
1070
     1
1071
       30
1005
16FB1
  0
LINE
  5
16FB2
  8
0
 10
1200.0026200000029
 20
500.00000000000023
 30
0.0
 11
1000.002620000003
 21
800.0
 31
0.0
1001
ACDBBLOCKREPETAG
1070
     1
1071
       31
1005
16FB2
  0
LINE
  5
16FB3
  8
0
 10
1000.002620000003
 20
800.0
 30
0.0
 11
800.00262000000293
 21
500.00000000000023
 31
0.0
1001
ACDBBLOCKREPETAG
1070
     1
1071
       32
1005
16FB3
  0
LINE
  5
16FB4
  8
0
 10
800.00262000000293
 20
500.00000000000023
 30
0.0
 11
600.00262000000293
 21
800.0
 31
0.0
1001
ACDBBLOCKREPETAG
1070
     1
1071
       33
1005
16FB4
  0
LINE
  5
16FB5
  8
0
 10
600.00262000000293
 20
500.00000000000023
 30
0.0
 11
400.00262000000288
 21
800.0
 31
0.0
1001
ACDBBLOCKREPETAG
1070
     1
1071
       34
1005
16FB5
  0
LINE
  5
16FB6
  8
0
 10
400.00262000000288
 20
800.0
 30
0.0
 11
200.00262000000291
 21
500.00000000000023
 31
0.0
1001
ACDBBLOCKREPETAG
1070
     1
1071
       35
1005
16FB6
  0
LINE
  5
16FB7
  8
0
 10
200.00262000000291
 20
500.00000000000023
 30
0.0
 11
0.0026200000029348
 21
800.0
 31
0.0
1001
ACDBBLOCKREPETAG
1070
     1
1071
       36
1005
16FB7
  0
LINE
  5
16FB8
  8
0
 10
0.0026200000029348
 20
500.00000000000023
 30
0.0
 11
200.00262000000291
 21
800.0
 31
0.0
1001
ACDBBLOCKREPETAG
1070
     1
1071
       37
1005
16FB8
  0
LINE
  5
16FB9
  8
0
 10
600.00262000000293
 20
500.00000000000023
 30
0.0
 11
800.00262000000293
 21
800.0
 31
0.0
1001
ACDBBLOCKREPETAG
1070
     1
1071
       38
1005
16FB9
  0
LINE
  5
16FBA
  8
0
 10
800.00262000000293
 20
800.0
 30
0.0
 11
1000.002620000003
 21
500.00000000000023
 31
0.0
1001
ACDBBLOCKREPETAG
1070
     1
1071
       39
1005
16FBA
  0
LINE
  5
16FBB
  8
0
 10
1000.002620000003
 20
500.00000000000023
 30
0.0
 11
1200.0026200000029
 21
800.0
 31
0.0
1001
ACDBBLOCKREPETAG
1070
     1
1071
       40
1005
16FBB
  0
LINE
  5
16FBC
  8
0
 10
0.0026200000029348
 20
300.00000000000023
 30
0.0
 11
300.00262000000288
 21
500.00000000000023
 31
0.0
1001
ACDBBLOCKREPETAG
1070
     1
1071
       41
1005
16FBC
  0
LINE
  5
16FBD
  8
0
 10
300.00262000000288
 20
300.00000000000023
 30
0.0
 11
600.00262000000293
 21
500.00000000000023
 31
0.0
1001
ACDBBLOCKREPETAG
1070
     1
1071
       42
1005
16FBD
  0
LINE
  5
16FBE
  8
0
 10
600.00262000000293
 20
300.00000000000023
 30
0.0
 11
900.00262000000293
 21
500.00000000000023
 31
0.0
1001
ACDBBLOCKREPETAG
1070
     1
1071
       43
1005
16FBE
  0
LINE
  5
16FBF
  8
0
 10
900.00262000000293
 20
300.00000000000023
 30
0.0
 11
1200.0026200000029
 21
500.00000000000023
 31
0.0
1001
ACDBBLOCKREPETAG
1070
     1
1071
       44
1005
16FBF
  0
LINE
  5
16FC0
  8
0
 10
1200.0026200000029
 20
300.00000000000023
 30
0.0
 11
900.00262000000293
 21
500.00000000000023
 31
0.0
1001
ACDBBLOCKREPETAG
1070
     1
1071
       45
1005
16FC0
  0
LINE
  5
16FC1
  8
0
 10
900.00262000000293
 20
300.00000000000023
 30
0.0
 11
600.00262000000293
 21
500.00000000000023
 31
0.0
1001
ACDBBLOCKREPETAG
1070
     1
1071
       46
1005
16FC1
  0
LINE
  5
16FC2
  8
0
 10
600.00262000000293
 20
300.00000000000023
 30
0.0
 11
300.00262000000288
 21
500.00000000000023
 31
0.0
1001
ACDBBLOCKREPETAG
1070
     1
1071
       47
1005
16FC2
  0
LINE
  5
16FC3
  8
0
 10
300.00262000000288
 20
300.00000000000023
 30
0.0
 11
0.0026200000029348
 21
500.00000000000023
 31
0.0
1001
ACDBBLOCKREPETAG
1070
     1
1071
       48
1005
16FC3
  0
LINE
  5
16FC4
  8
0
  6
CONTINUOUS
 10
575.00262000000293
 20
400.00000000000023
 30
0.0
 11
625.00262000000293
 21
400.00000000000023
 31
0.0
1001
ACDBBLOCKREPETAG
1070
     1
1071
       49
1005
16FC4
  0
LINE
  5
16FC5
  8
0
 10
50.001290000044719
 20
934.00001333333353
 30
0.0
 11
50.001290000044719
 21
-133.9999866666665
 31
0.0
1001
ACDBBLOCKREPETAG
1070
     1
1071
       50
1005
16FC5
  0
LINE
  5
16FC6
  8
0
 10
50.001290000044719
 20
-133.9999866666665
 30
0.0
 11
1150.001290000044
 21
-133.9999866666665
 31
0.0
1001
ACDBBLOCKREPETAG
1070
     1
1071
       51
1005
16FC6
  0
LINE
  5
16FC7
  8
0
 10
1150.001290000044
 20
-133.9999866666665
 30
0.0
 11
1150.001290000044
 21
934.00001333333353
 31
0.0
1001
ACDBBLOCKREPETAG
1070
     1
1071
       52
1005
16FC7
  0
LINE
  5
16FC8
  8
0
 10
1150.001290000044
 20
934.00001333333353
 30
0.0
 11
50.001290000044719
 21
934.00001333333353
 31
0.0
1001
ACDBBLOCKREPETAG
1070
     1
1071
       53
1005
16FC8
  0
LINE
  5
16FC9
  8
0
 10
1150.001290000044
 20
578.00001333333353
 30
0.0
 11
50.001290000044719
 21
578.00001333333353
 31
0.0
1001
ACDBBLOCKREPETAG
1070
     1
1071
       54
1005
16FC9
  0
LINE
  5
16FCA
  8
0
 10
50.001290000044719
 20
222.0000133333335
 30
0.0
 11
1150.001290000044
 21
222.0000133333335
 31
0.0
1001
ACDBBLOCKREPETAG
1070
     1
1071
       55
1005
16FCA
  0
LINE
  5
16FCB
  8
0
 10
875.00129000004472
 20
-133.9999866666665
 30
0.0
 11
875.00129000004472
 21
934.00001333333353
 31
0.0
1001
ACDBBLOCKREPETAG
1070
     1
1071
       56
1005
16FCB
  0
LINE
  5
16FCC
  8
0
 10
600.00129000004472
 20
934.00001333333353
 30
0.0
 11
600.00129000004472
 21
-133.9999866666665
 31
0.0
1001
ACDBBLOCKREPETAG
1070
     1
1071
       57
1005
16FCC
  0
LINE
  5
16FCD
  8
0
 10
325.00129000004472
 20
-133.99998666666551
 30
0.0
 11
325.00129000004472
 21
934.00001333333353
 31
0.0
1001
ACDBBLOCKREPETAG
1070
     1
1071
       58
1005
16FCD
  0
LINE
  5
16FCE
  8
0
 10
1150.001290000044
 20
934.00001333333353
 30
0.0
 11
875.00129000004472
 21
578.00001333333353
 31
0.0
1001
ACDBBLOCKREPETAG
1070
     1
1071
       59
1005
16FCE
  0
LINE
  5
16FCF
  8
0
 10
875.00129000004472
 20
578.00001333333353
 30
0.0
 11
1150.001290000044
 21
222.0000133333335
 31
0.0
1001
ACDBBLOCKREPETAG
1070
     1
1071
       60
1005
16FCF
  0
LINE
  5
16FD0
  8
0
 10
1150.001290000044
 20
222.0000133333335
 30
0.0
 11
875.00129000004472
 21
-133.9999866666665
 31
0.0
1001
ACDBBLOCKREPETAG
1070
     1
1071
       61
1005
16FD0
  0
LINE
  5
16FD1
  8
0
 10
875.00129000004472
 20
-133.9999866666665
 30
0.0
 11
600.00129000004472
 21
222.0000133333335
 31
0.0
1001
ACDBBLOCKREPETAG
1070
     1
1071
       62
1005
16FD1
  0
LINE
  5
16FD2
  8
0
 10
600.00129000004472
 20
222.0000133333335
 30
0.0
 11
875.00129000004472
 21
578.00001333333353
 31
0.0
1001
ACDBBLOCKREPETAG
1070
     1
1071
       63
1005
16FD2
  0
LINE
  5
16FD3
  8
0
 10
875.00129000004472
 20
578.00001333333353
 30
0.0
 11
600.00129000004472
 21
934.00001333333353
 31
0.0
1001
ACDBBLOCKREPETAG
1070
     1
1071
       64
1005
16FD3
  0
LINE
  5
16FD4
  8
0
 10
600.00129000004472
 20
934.00001333333353
 30
0.0
 11
325.00129000004472
 21
578.00001333333353
 31
0.0
1001
ACDBBLOCKREPETAG
1070
     1
1071
       65
1005
16FD4
  0
LINE
  5
16FD5
  8
0
 10
325.00129000004472
 20
578.00001333333353
 30
0.0
 11
600.00129000004472
 21
222.0000133333335
 31
0.0
1001
ACDBBLOCKREPETAG
1070
     1
1071
       66
1005
16FD5
  0
LINE
  5
16FD6
  8
0
 10
600.00129000004472
 20
222.0000133333335
 30
0.0
 11
325.00129000004472
 21
-133.9999866666665
 31
0.0
1001
ACDBBLOCKREPETAG
1070
     1
1071
       67
1005
16FD6
  0
LINE
  5
16FD7
  8
0
 10
325.00129000004472
 20
-133.9999866666665
 30
0.0
 11
50.001290000044719
 21
222.0000133333335
 31
0.0
1001
ACDBBLOCKREPETAG
1070
     1
1071
       68
1005
16FD7
  0
LINE
  5
16FD8
  8
0
 10
50.001290000044719
 20
222.0000133333335
 30
0.0
 11
325.00129000004472
 21
578.00001333333353
 31
0.0
1001
ACDBBLOCKREPETAG
1070
     1
1071
       69
1005
16FD8
  0
LINE
  5
16FD9
  8
0
 10
325.00129000004472
 20
578.00001333333353
 30
0.0
 11
50.001290000044719
 21
934.00001333333353
 31
0.0
1001
ACDBBLOCKREPETAG
1070
     1
1071
       70
1005
16FD9
  0
LINE
  5
16FDA
  8
0
 10
50.001290000044719
 20
-133.9999866666665
 30
0.0
 11
325.00129000004472
 21
222.0000133333335
 31
0.0
1001
ACDBBLOCKREPETAG
1070
     1
1071
       71
1005
16FDA
  0
LINE
  5
16FDB
  8
0
 10
325.00129000004472
 20
222.0000133333335
 30
0.0
 11
50.001290000044719
 21
578.00001333333353
 31
0.0
1001
ACDBBLOCKREPETAG
1070
     1
1071
       72
1005
16FDB
  0
LINE
  5
16FDC
  8
0
 10
50.001290000044719
 20
578.00001333333353
 30
0.0
 11
325.00129000004472
 21
934.00001333333353
 31
0.0
1001
ACDBBLOCKREPETAG
1070
     1
1071
       73
1005
16FDC
  0
LINE
  5
16FDD
  8
0
 10
325.00129000004472
 20
934.00001333333353
 30
0.0
 11
600.00129000004472
 21
578.00001333333353
 31
0.0
1001
ACDBBLOCKREPETAG
1070
     1
1071
       74
1005
16FDD
  0
LINE
  5
16FDE
  8
0
 10
600.00129000004472
 20
578.00001333333353
 30
0.0
 11
325.00129000004472
 21
222.0000133333335
 31
0.0
1001
ACDBBLOCKREPETAG
1070
     1
1071
       75
1005
16FDE
  0
LINE
  5
16FDF
  8
0
 10
325.00129000004472
 20
222.0000133333335
 30
0.0
 11
600.00129000004472
 21
-133.9999866666665
 31
0.0
1001
ACDBBLOCKREPETAG
1070
     1
1071
       76
1005
16FDF
  0
LINE
  5
16FE0
  8
0
 10
600.00129000004472
 20
-133.9999866666665
 30
0.0
 11
875.00129000004472
 21
222.0000133333335
 31
0.0
1001
ACDBBLOCKREPETAG
1070
     1
1071
       77
1005
16FE0
  0
LINE
  5
16FE1
  8
0
 10
875.00129000004472
 20
222.0000133333335
 30
0.0
 11
600.00129000004472
 21
578.00001333333353
 31
0.0
1001
ACDBBLOCKREPETAG
1070
     1
1071
       78
1005
16FE1
  0
LINE
  5
16FE2
  8
0
 10
600.00129000004472
 20
578.00001333333353
 30
0.0
 11
875.00129000004472
 21
934.00001333333353
 31
0.0
1001
ACDBBLOCKREPETAG
1070
     1
1071
       79
1005
16FE2
  0
LINE
  5
16FE3
  8
0
 10
875.00129000004472
 20
934.00001333333353
 30
0.0
 11
1150.001290000044
 21
578.00001333333353
 31
0.0
1001
ACDBBLOCKREPETAG
1070
     1
1071
       80
1005
16FE3
  0
LINE
  5
16FE4
  8
0
 10
1150.001290000044
 20
578.00001333333353
 30
0.0
 11
875.00129000004472
 21
222.0000133333335
 31
0.0
1001
ACDBBLOCKREPETAG
1070
     1
1071
       81
1005
16FE4
  0
LINE
  5
16FE5
  8
0
 10
875.00129000004472
 20
222.0000133333335
 30
0.0
 11
1150.001290000044
 21
-133.9999866666665
 31
0.0
1001
ACDBBLOCKREPETAG
1070
     1
1071
       82
1005
16FE5
  0
LINE
  5
16FE6
  8
0
 10
1200.003872612335
 20
-0.001708412066364
 30
0.0
 11
1200.0038726123339
 21
799.99829158793273
 31
0.0
1001
ACDBBLOCKREPETAG
1070
     1
1071
       83
1005
16FE6
  0
LINE
  5
16FE7
  8
0
 10
1200.0038726123339
 20
799.99829158793273
 30
0.0
 11
0.0038726123334527
 21
799.99829158793273
 31
0.0
1001
ACDBBLOCKREPETAG
1070
     1
1071
       84
1005
16FE7
  0
LINE
  5
16FE8
  8
0
 10
0.0038726123334527
 20
799.99829158793273
 30
0.0
 11
0.0038726123343622
 21
-0.0017084120672735
 31
0.0
1001
ACDBBLOCKREPETAG
1070
     1
1071
       85
1005
16FE8
  0
LINE
  5
16FE9
  8
0
 10
0.0038726123343622
 20
-0.0017084120672735
 30
0.0
 11
1200.003872612335
 21
-0.001708412066364
 31
0.0
1001
ACDBBLOCKREPETAG
1070
     1
1071
       86
1005
16FE9
  0
LINE
  5
16FEA
  8
0
 10
0.003872612334817
 20
399.99829158793273
 30
0.0
 11
1200.0038726123339
 21
399.99829158793358
 31
0.0
1001
ACDBBLOCKREPETAG
1070
     1
1071
       87
1005
16FEA
  0
LINE
  5
16FEB
  8
0
 10
900.00387261233527
 20
-0.0017084120672735
 30
0.0
 11
900.00387261233436
 21
799.99829158793273
 31
0.0
1001
ACDBBLOCKREPETAG
1070
     1
1071
       88
1005
16FEB
  0
LINE
  5
16FEC
  8
0
 10
600.00387261233425
 20
799.99829158793273
 30
0.0
 11
600.00387261233516
 21
-0.0017084120672735
 31
0.0
1001
ACDBBLOCKREPETAG
1070
     1
1071
       89
1005
16FEC
  0
LINE
  5
16FED
  8
0
 10
300.00387261233527
 20
-0.0017084120672735
 30
0.0
 11
300.00387261233442
 21
799.99829158793455
 31
0.0
1001
ACDBBLOCKREPETAG
1070
     1
1071
       90
1005
16FED
  0
LINE
  5
16FEE
  8
0
 10
0.0038726123343622
 20
-0.0017084120672735
 30
0.0
 11
300.00387261233442
 21
399.99829158793273
 31
0.0
1001
ACDBBLOCKREPETAG
1070
     1
1071
       91
1005
16FEE
  0
LINE
  5
16FEF
  8
0
 10
300.00387261233442
 20
399.99829158793273
 30
0.0
 11
600.00387261233516
 21
-0.0017084120672735
 31
0.0
1001
ACDBBLOCKREPETAG
1070
     1
1071
       92
1005
16FEF
  0
LINE
  5
16FF0
  8
0
 10
600.00387261233516
 20
-0.0017084120672735
 30
0.0
 11
900.00387261233436
 21
399.99829158793273
 31
0.0
1001
ACDBBLOCKREPETAG
1070
     1
1071
       93
1005
16FF0
  0
LINE
  5
16FF1
  8
0
 10
900.00387261233436
 20
399.99829158793273
 30
0.0
 11
600.00387261233425
 21
799.99829158793273
 31
0.0
1001
ACDBBLOCKREPETAG
1070
     1
1071
       94
1005
16FF1
  0
LINE
  5
16FF2
  8
0
 10
600.00387261233425
 20
799.99829158793273
 30
0.0
 11
300.00387261233442
 21
399.99829158793273
 31
0.0
1001
ACDBBLOCKREPETAG
1070
     1
1071
       95
1005
16FF2
  0
LINE
  5
16FF3
  8
0
 10
300.00387261233442
 20
399.99829158793273
 30
0.0
 11
0.0038726123334527
 21
799.99829158793273
 31
0.0
1001
ACDBBLOCKREPETAG
1070
     1
1071
       96
1005
16FF3
  0
LINE
  5
16FF4
  8
0
 10
300.00387261233442
 20
799.99829158793455
 30
0.0
 11
0.003872612334817
 21
399.99829158793273
 31
0.0
1001
ACDBBLOCKREPETAG
1070
     1
1071
       97
1005
16FF4
  0
LINE
  5
16FF5
  8
0
 10
0.003872612334817
 20
399.99829158793273
 30
0.0
 11
300.00387261233527
 21
-0.0017084120672735
 31
0.0
1001
ACDBBLOCKREPETAG
1070
     1
1071
       98
1005
16FF5
  0
LINE
  5
16FF6
  8
0
 10
300.00387261233527
 20
-0.0017084120672735
 30
0.0
 11
600.00387261233425
 21
399.99829158793273
 31
0.0
1001
ACDBBLOCKREPETAG
1070
     1
1071
       99
1005
16FF6
  0
LINE
  5
16FF7
  8
0
 10
600.00387261233425
 20
399.99829158793273
 30
0.0
 11
900.00387261233527
 21
-0.0017084120672735
 31
0.0
1001
ACDBBLOCKREPETAG
1070
     1
1071
      100
1005
16FF7
  0
LINE
  5
16FF8
  8
0
 10
900.00387261233527
 20
-0.0017084120672735
 30
0.0
 11
1200.0038726123339
 21
399.99829158793358
 31
0.0
1001
ACDBBLOCKREPETAG
1070
     1
1071
      101
1005
16FF8
  0
LINE
  5
16FF9
  8
0
 10
1200.0038726123339
 20
399.99829158793358
 30
0.0
 11
900.00387261233436
 21
799.99829158793273
 31
0.0
1001
ACDBBLOCKREPETAG
1070
     1
1071
      102
1005
16FF9
  0
LINE
  5
16FFA
  8
0
 10
900.00387261233436
 20
799.99829158793273
 30
0.0
 11
600.00387261233425
 21
399.99829158793273
 31
0.0
1001
ACDBBLOCKREPETAG
1070
     1
1071
      103
1005
16FFA
  0
LINE
  5
16FFB
  8
0
 10
600.00387261233425
 20
399.99829158793273
 30
0.0
 11
300.00387261233442
 21
799.99829158793455
 31
0.0
1001
ACDBBLOCKREPETAG
1070
     1
1071
      104
1005
16FFB
  0
LINE
  5
16FFC
  8
0
 10
1200.003872612335
 20
-0.001708412066364
 30
0.0
 11
900.00387261233436
 21
399.99829158793273
 31
0.0
1001
ACDBBLOCKREPETAG
1070
     1
1071
      105
1005
16FFC
  0
LINE
  5
16FFD
  8
0
 10
900.00387261233436
 20
399.99829158793273
 30
0.0
 11
1200.0038726123339
 21
799.99829158793273
 31
0.0
1001
ACDBBLOCKREPETAG
1070
     1
1071
      106
1005
16FFD
  0
LINE
  5
16FFE
  8
0
 10
900.00262000000293
 20
600.0
 30
0.0
 11
600.00262000000293
 21
800.0
 31
0.0
1001
ACDBBLOCKREPETAG
1070
     1
1071
      107
1005
16FFE
  0
LINE
  5
16FFF
  8
0
 10
600.00262000000293
 20
600.0
 30
0.0
 11
900.00262000000293
 21
800.0
 31
0.0
1001
ACDBBLOCKREPETAG
1070
     1
1071
      108
1005
16FFF
  0
LINE
  5
17000
  8
0
 10
800.00262000000293
 20
600.0
 30
0.0
 11
600.00262000000293
 21
300.0
 31
0.0
1001
ACDBBLOCKREPETAG
1070
     1
1071
      109
1005
17000
  0
LINE
  5
17001
  8
0
 10
0.0026200000029917
 20
600.0
 30
0.0
 11
1200.0026200000029
 21
600.0
 31
0.0
1001
ACDBBLOCKREPETAG
1070
     1
1071
      110
1005
17001
  0
LINE
  5
17002
  8
0
 10
800.00262000000293
 20
300.0
 30
0.0
 11
600.00262000000293
 21
600.0
 31
0.0
1001
ACDBBLOCKREPETAG
1070
     1
1071
      111
1005
17002
  0
LINE
  5
17003
  8
0
 10
600.00262000000293
 20
0.0
 30
0.0
 11
800.00262000000293
 21
300.0
 31
0.0
1001
ACDBBLOCKREPETAG
1070
     1
1071
      112
1005
17003
  0
LINE
  5
17004
  8
0
 10
1200.0026200000029
 20
300.0
 30
0.0
 11
0.0026200000029917
 21
300.0
 31
0.0
1001
ACDBBLOCKREPETAG
1070
     1
1071
      113
1005
17004
  0
LINE
  5
17005
  8
0
 10
600.00262000000293
 20
300.0
 30
0.0
 11
800.00262000000293
 21
0.0
 31
0.0
1001
ACDBBLOCKREPETAG
1070
     1
1071
      114
1005
17005
  0
LINE
  5
17006
  8
0
 10
1200.0026200000029
 20
800.0
 30
0.0
 11
0.0026200000029917
 21
800.0
 31
0.0
1001
ACDBBLOCKREPETAG
1070
     1
1071
      115
1005
17006
  0
LINE
  5
17007
  8
0
 10
0.0026200000029917
 20
0.0
 30
0.0
 11
1200.0026200000029
 21
0.0
 31
0.0
1001
ACDBBLOCKREPETAG
1070
     1
1071
      116
1005
17007
  0
LINE
  5
17008
  8
0
 10
600.00262000000293
 20
800.0
 30
0.0
 11
600.00262000000293
 21
0.0
 31
0.0
1001
ACDBBLOCKREPETAG
1070
     1
1071
      117
1005
17008
  0
LINE
  5
17009
  8
0
 10
400.00262000000288
 20
0.0
 30
0.0
 11
400.00262000000288
 21
600.0
 31
0.0
1001
ACDBBLOCKREPETAG
1070
     1
1071
      118
1005
17009
  0
LINE
  5
1700A
  8
0
 10
200.00262000000299
 20
600.0
 30
0.0
 11
200.00262000000299
 21
0.0
 31
0.0
1001
ACDBBLOCKREPETAG
1070
     1
1071
      119
1005
1700A
  0
LINE
  5
1700B
  8
0
 10
200.00262000000299
 20
300.0
 30
0.0
 11
0.0026200000029917
 21
600.0
 31
0.0
1001
ACDBBLOCKREPETAG
1070
     1
1071
      120
1005
1700B
  0
LINE
  5
1700C
  8
0
 10
400.00262000000288
 20
600.0
 30
0.0
 11
200.00262000000299
 21
300.0
 31
0.0
1001
ACDBBLOCKREPETAG
1070
     1
1071
      121
1005
1700C
  0
LINE
  5
1700D
  8
0
 10
600.00262000000293
 20
300.0
 30
0.0
 11
400.00262000000288
 21
600.0
 31
0.0
1001
ACDBBLOCKREPETAG
1070
     1
1071
      122
1005
1700D
  0
LINE
  5
1700E
  8
0
 10
200.00262000000299
 20
600.0
 30
0.0
 11
0.0026200000029917
 21
300.0
 31
0.0
1001
ACDBBLOCKREPETAG
1070
     1
1071
      123
1005
1700E
  0
LINE
  5
1700F
  8
0
 10
400.00262000000288
 20
300.0
 30
0.0
 11
200.00262000000299
 21
600.0
 31
0.0
1001
ACDBBLOCKREPETAG
1070
     1
1071
      124
1005
1700F
  0
LINE
  5
17010
  8
0
 10
600.00262000000293
 20
600.0
 30
0.0
 11
400.00262000000288
 21
300.0
 31
0.0
1001
ACDBBLOCKREPETAG
1070
     1
1071
      125
1005
17010
  0
LINE
  5
17011
  8
0
 10
0.0026200000029917
 20
800.0
 30
0.0
 11
0.0026200000029917
 21
0.0
 31
0.0
1001
ACDBBLOCKREPETAG
1070
     1
1071
      126
1005
17011
  0
LINE
  5
17012
  8
0
 10
0.0026200000029917
 20
300.0
 30
0.0
 11
200.00262000000299
 21
0.0
 31
0.0
1001
ACDBBLOCKREPETAG
1070
     1
1071
      127
1005
17012
  0
LINE
  5
17013
  8
0
 10
0.0026200000029917
 20
0.0
 30
0.0
 11
200.00262000000299
 21
300.0
 31
0.0
1001
ACDBBLOCKREPETAG
1070
     1
1071
      128
1005
17013
  0
LINE
  5
17014
  8
0
 10
400.00262000000288
 20
300.0
 30
0.0
 11
600.00262000000293
 21
0.0
 31
0.0
1001
ACDBBLOCKREPETAG
1070
     1
1071
      129
1005
17014
  0
LINE
  5
17015
  8
0
 10
200.00262000000299
 20
0.0
 30
0.0
 11
400.00262000000288
 21
300.0
 31
0.0
1001
ACDBBLOCKREPETAG
1070
     1
1071
      130
1005
17015
  0
LINE
  5
17016
  8
0
 10
400.00262000000288
 20
0.0
 30
0.0
 11
600.00262000000293
 21
300.0
 31
0.0
1001
ACDBBLOCKREPETAG
1070
     1
1071
      131
1005
17016
  0
LINE
  5
17017
  8
0
 10
200.00262000000299
 20
300.0
 30
0.0
 11
400.00262000000288
 21
0.0
 31
0.0
1001
ACDBBLOCKREPETAG
1070
     1
1071
      132
1005
17017
  0
LINE
  5
17018
  8
0
  6
CONTINUOUS
 10
575.00262000000293
 20
400.0
 30
0.0
 11
625.00262000000293
 21
400.0
 31
0.0
1001
ACDBBLOCKREPETAG
1070
     1
1071
      133
1005
17018
  0
LINE
  5
17019
  8
0
 10
300.00262000000299
 20
600.0
 30
0.0
 11
0.0026200000029917
 21
800.0
 31
0.0
1001
ACDBBLOCKREPETAG
1070
     1
1071
      134
1005
17019
  0
LINE
  5
1701A
  8
0
 10
0.0026200000029917
 20
600.0
 30
0.0
 11
300.00262000000299
 21
800.0
 31
0.0
1001
ACDBBLOCKREPETAG
1070
     1
1071
      135
1005
1701A
  0
LINE
  5
1701B
  8
0
 10
600.00262000000293
 20
800.0
 30
0.0
 11
300.00262000000299
 21
600.0
 31
0.0
1001
ACDBBLOCKREPETAG
1070
     1
1071
      136
1005
1701B
  0
LINE
  5
1701C
  8
0
 10
300.00262000000299
 20
800.0
 30
0.0
 11
600.00262000000293
 21
600.0
 31
0.0
1001
ACDBBLOCKREPETAG
1070
     1
1071
      137
1005
1701C
  0
LINE
  5
1701D
  8
0
 10
300.00262000000299
 20
800.0
 30
0.0
 11
300.00262000000299
 21
600.0
 31
0.0
1001
ACDBBLOCKREPETAG
1070
     1
1071
      138
1005
1701D
  0
LINE
  5
1701E
  8
0
 10
1000.002620000003
 20
600.0
 30
0.0
 11
1200.0026200000029
 21
300.0
 31
0.0
1001
ACDBBLOCKREPETAG
1070
     1
1071
      139
1005
1701E
  0
LINE
  5
1701F
  8
0
 10
800.00262000000293
 20
300.0
 30
0.0
 11
1000.002620000003
 21
600.0
 31
0.0
1001
ACDBBLOCKREPETAG
1070
     1
1071
      140
1005
1701F
  0
LINE
  5
17020
  8
0
 10
1000.002620000003
 20
0.0
 30
0.0
 11
1000.002620000003
 21
600.0
 31
0.0
1001
ACDBBLOCKREPETAG
1070
     1
1071
      141
1005
17020
  0
LINE
  5
17021
  8
0
 10
800.00262000000293
 20
0.0
 30
0.0
 11
800.00262000000293
 21
600.0
 31
0.0
1001
ACDBBLOCKREPETAG
1070
     1
1071
      142
1005
17021
  0
LINE
  5
17022
  8
0
 10
1000.002620000003
 20
300.0
 30
0.0
 11
800.00262000000293
 21
600.0
 31
0.0
1001
ACDBBLOCKREPETAG
1070
     1
1071
      143
1005
17022
  0
LINE
  5
17023
  8
0
 10
1200.0026200000029
 20
600.0
 30
0.0
 11
1000.002620000003
 21
300.0
 31
0.0
1001
ACDBBLOCKREPETAG
1070
     1
1071
      144
1005
17023
  0
LINE
  5
17024
  8
0
 10
1200.0026200000029
 20
0.0
 30
0.0
 11
1200.0026200000029
 21
800.0
 31
0.0
1001
ACDBBLOCKREPETAG
1070
     1
1071
      145
1005
17024
  0
LINE
  5
17025
  8
0
 10
1000.002620000003
 20
0.0
 30
0.0
 11
1200.0026200000029
 21
300.0
 31
0.0
1001
ACDBBLOCKREPETAG
1070
     1
1071
      146
1005
17025
  0
LINE
  5
17026
  8
0
 10
800.00262000000293
 20
300.0
 30
0.0
 11
1000.002620000003
 21
0.0
 31
0.0
1001
ACDBBLOCKREPETAG
1070
     1
1071
      147
1005
17026
  0
LINE
  5
17027
  8
0
 10
1000.002620000003
 20
300.0
 30
0.0
 11
1200.0026200000029
 21
0.0
 31
0.0
1001
ACDBBLOCKREPETAG
1070
     1
1071
      148
1005
17027
  0
LINE
  5
17028
  8
0
 10
800.00262000000293
 20
0.0
 30
0.0
 11
1000.002620000003
 21
300.0
 31
0.0
1001
ACDBBLOCKREPETAG
1070
     1
1071
      149
1005
17028
  0
LINE
  5
17029
  8
0
 10
900.00262000000293
 20
600.0
 30
0.0
 11
1200.0026200000029
 21
800.0
 31
0.0
1001
ACDBBLOCKREPETAG
1070
     1
1071
      150
1005
17029
  0
LINE
  5
1702A
  8
0
 10
1200.0026200000029
 20
600.0
 30
0.0
 11
900.00262000000293
 21
800.0
 31
0.0
1001
ACDBBLOCKREPETAG
1070
     1
1071
      151
1005
1702A
  0
LINE
  5
1702B
  8
0
 10
900.00262000000293
 20
800.0
 30
0.0
 11
900.00262000000293
 21
600.0
 31
0.0
1001
ACDBBLOCKREPETAG
1070
     1
1071
      152
1005
1702B
  0
LINE
  5
1702C
  8
0
 10
0.0026600000005601
 20
800.0
 30
0.0
 11
0.0
 21
0.0
 31
0.0
1001
ACDBBLOCKREPETAG
1070
     1
1071
      153
1005
1702C
  0
LINE
  5
1702D
  8
0
 10
599.9999600000001
 20
0.0
 30
0.0
 11
600.00262000000112
 21
800.0
 31
0.0
1001
ACDBBLOCKREPETAG
1070
     1
1071
      154
1005
1702D
  0
LINE
  5
1702E
  8
0
 10
300.00266000000101
 20
800.0
 30
0.0
 11
299.99999999999909
 21
0.0
 31
0.0
1001
ACDBBLOCKREPETAG
1070
     1
1071
      155
1005
1702E
  0
LINE
  5
1702F
  8
0
 10
0.0020000000004075
 20
600.0
 30
0.0
 11
899.99995999999999
 21
0.0
 31
0.0
1001
ACDBBLOCKREPETAG
1070
     1
1071
      156
1005
1702F
  0
LINE
  5
17030
  8
0
 10
300.00266000000101
 20
800.0
 30
0.0
 11
1200.0006200000009
 21
200.0
 31
0.0
1001
ACDBBLOCKREPETAG
1070
     1
1071
      157
1005
17030
  0
LINE
  5
17031
  8
0
 10
0.00132000000076
 20
400.0
 30
0.0
 11
600.00262000000112
 21
800.0
 31
0.0
1001
ACDBBLOCKREPETAG
1070
     1
1071
      158
1005
17031
  0
LINE
  5
17032
  8
0
 10
0.0006600000001526
 20
200.0
 30
0.0
 11
900.00262000000112
 21
800.0
 31
0.0
1001
ACDBBLOCKREPETAG
1070
     1
1071
      159
1005
17032
  0
LINE
  5
17033
  8
0
 10
600.00262000000112
 20
800.0
 30
0.0
 11
1200.00128
 21
400.0
 31
0.0
1001
ACDBBLOCKREPETAG
1070
     1
1071
      160
1005
17033
  0
LINE
  5
17034
  8
0
 10
0.0
 20
0.0
 30
0.0
 11
1200.0026200000009
 21
800.0
 31
0.0
1001
ACDBBLOCKREPETAG
1070
     1
1071
      161
1005
17034
  0
LINE
  5
17035
  8
0
 10
299.99999999999909
 20
0.0
 30
0.0
 11
1200.0019600000001
 21
600.0
 31
0.0
1001
ACDBBLOCKREPETAG
1070
     1
1071
      162
1005
17035
  0
LINE
  5
17036
  8
0
 10
0.0026600000005601
 20
800.0
 30
0.0
 11
1199.9999600000001
 21
0.0
 31
0.0
1001
ACDBBLOCKREPETAG
1070
     1
1071
      163
1005
17036
  0
LINE
  5
17037
  8
0
 10
900.00262000000112
 20
800.0
 30
0.0
 11
899.99995999999999
 21
0.0
 31
0.0
1001
ACDBBLOCKREPETAG
1070
     1
1071
      164
1005
17037
  0
LINE
  5
17038
  8
0
 10
1199.9999600000001
 20
0.0
 30
0.0
 11
1200.0026200000009
 21
800.0
 31
0.0
1001
ACDBBLOCKREPETAG
1070
     1
1071
      165
1005
17038
  0
LINE
  5
17039
  8
0
 10
0.0
 20
0.0
 30
0.0
 11
1199.9999600000001
 21
0.0
 31
0.0
1001
ACDBBLOCKREPETAG
1070
     1
1071
      166
1005
17039
  0
LINE
  5
1703A
  8
0
 10
0.0013400000002548
 20
400.0
 30
0.0
 11
599.9999600000001
 21
0.0
 31
0.0
1001
ACDBBLOCKREPETAG
1070
     1
1071
      167
1005
1703A
  0
LINE
  5
1703B
  8
0
 10
1200.00128
 20
400.0
 30
0.0
 11
0.0013400000002548
 21
400.0
 31
0.0
1001
ACDBBLOCKREPETAG
1070
     1
1071
      168
1005
1703B
  0
LINE
  5
1703C
  8
0
 10
0.0006600000001526
 20
200.0
 30
0.0
 11
1200.0006200000009
 21
200.0
 31
0.0
1001
ACDBBLOCKREPETAG
1070
     1
1071
      169
1005
1703C
  0
LINE
  5
1703D
  8
0
 10
0.0006600000001526
 20
200.0
 30
0.0
 11
299.99999999999909
 21
0.0
 31
0.0
1001
ACDBBLOCKREPETAG
1070
     1
1071
      170
1005
1703D
  0
LINE
  5
1703E
  8
0
 10
599.9999600000001
 20
0.0
 30
0.0
 11
1200.00128
 21
400.0
 31
0.0
1001
ACDBBLOCKREPETAG
1070
     1
1071
      171
1005
1703E
  0
LINE
  5
1703F
  8
0
 10
899.99995999999999
 20
0.0
 30
0.0
 11
1200.0006200000009
 21
200.0
 31
0.0
1001
ACDBBLOCKREPETAG
1070
     1
1071
      172
1005
1703F
  0
LINE
  5
17040
  8
0
 10
1200.0026200000009
 20
800.0
 30
0.0
 11
0.0026600000005601
 21
800.0
 31
0.0
1001
ACDBBLOCKREPETAG
1070
     1
1071
      173
1005
17040
  0
LINE
  5
17041
  8
0
 10
0.0020000000004075
 20
600.0
 30
0.0
 11
1200.0019600000001
 21
600.0
 31
0.0
1001
ACDBBLOCKREPETAG
1070
     1
1071
      174
1005
17041
  0
LINE
  5
17042
  8
0
 10
0.0020000000004075
 20
600.0
 30
0.0
 11
300.00266000000101
 21
800.0
 31
0.0
1001
ACDBBLOCKREPETAG
1070
     1
1071
      175
1005
17042
  0
LINE
  5
17043
  8
0
 10
900.00262000000112
 20
800.0
 30
0.0
 11
1200.0019600000001
 21
600.0
 31
0.0
1001
ACDBBLOCKREPETAG
1070
     1
1071
      176
1005
17043
  0
LINE
  5
17044
  8
0
 10
1200.002619999826
 20
-100.001708411978
 30
0.0
 11
1200.002619999826
 21
899.99829158802015
 31
0.0
1001
ACDBBLOCKREPETAG
1070
     1
1071
      177
1005
17044
  0
LINE
  5
17045
  8
0
 10
1200.002619999826
 20
899.99829158802015
 30
0.0
 11
0.0026199998237644
 21
899.99829158802197
 31
0.0
1001
ACDBBLOCKREPETAG
1070
     1
1071
      178
1005
17045
  0
LINE
  5
17046
  8
0
 10
0.0026199998237644
 20
899.99829158802197
 30
0.0
 11
0.0026199998269476
 21
-100.0017084119789
 31
0.0
1001
ACDBBLOCKREPETAG
1070
     1
1071
      179
1005
17046
  0
LINE
  5
17047
  8
0
 10
0.0026199998255834
 20
199.998291588021
 30
0.0
 11
1200.002619999826
 21
199.99829158802191
 31
0.0
1001
ACDBBLOCKREPETAG
1070
     1
1071
      180
1005
17047
  0
LINE
  5
17048
  8
0
 10
0.0026199998255834
 20
499.998291588021
 30
0.0
 11
1200.002619999826
 21
499.99829158802191
 31
0.0
1001
ACDBBLOCKREPETAG
1070
     1
1071
      181
1005
17048
  0
LINE
  5
17049
  8
0
 10
900.00261999982649
 20
499.998291588021
 30
0.0
 11
900.00261999982649
 21
899.99829158802015
 31
0.0
1001
ACDBBLOCKREPETAG
1070
     1
1071
      182
1005
17049
  0
LINE
  5
1704A
  8
0
 10
600.00261999982649
 20
899.99829158802095
 30
0.0
 11
600.00261999982649
 21
499.998291588021
 31
0.0
1001
ACDBBLOCKREPETAG
1070
     1
1071
      183
1005
1704A
  0
LINE
  5
1704B
  8
0
 10
300.00261999982558
 20
499.998291588021
 30
0.0
 11
300.00261999982558
 21
899.99829158802197
 31
0.0
1001
ACDBBLOCKREPETAG
1070
     1
1071
      184
1005
1704B
  0
LINE
  5
1704C
  8
0
 10
900.00261999982649
 20
499.998291588021
 30
0.0
 11
600.00261999982649
 21
899.99829158802095
 31
0.0
1001
ACDBBLOCKREPETAG
1070
     1
1071
      185
1005
1704C
  0
LINE
  5
1704D
  8
0
 10
600.00261999982649
 20
899.99829158802095
 30
0.0
 11
300.00261999982558
 21
499.998291588021
 31
0.0
1001
ACDBBLOCKREPETAG
1070
     1
1071
      186
1005
1704D
  0
LINE
  5
1704E
  8
0
 10
300.00261999982558
 20
499.998291588021
 30
0.0
 11
0.0026199998237644
 21
899.99829158802197
 31
0.0
1001
ACDBBLOCKREPETAG
1070
     1
1071
      187
1005
1704E
  0
LINE
  5
1704F
  8
0
 10
300.00261999982558
 20
899.99829158802197
 30
0.0
 11
0.0026199998255834
 21
499.998291588021
 31
0.0
1001
ACDBBLOCKREPETAG
1070
     1
1071
      188
1005
1704F
  0
LINE
  5
17050
  8
0
 10
1200.002619999826
 20
499.99829158802191
 30
0.0
 11
900.00261999982649
 21
899.99829158802015
 31
0.0
1001
ACDBBLOCKREPETAG
1070
     1
1071
      189
1005
17050
  0
LINE
  5
17051
  8
0
 10
900.00261999982649
 20
899.99829158802015
 30
0.0
 11
600.00261999982649
 21
499.998291588021
 31
0.0
1001
ACDBBLOCKREPETAG
1070
     1
1071
      190
1005
17051
  0
LINE
  5
17052
  8
0
 10
600.00261999982649
 20
499.998291588021
 30
0.0
 11
300.00261999982558
 21
899.99829158802197
 31
0.0
1001
ACDBBLOCKREPETAG
1070
     1
1071
      191
1005
17052
  0
LINE
  5
17053
  8
0
 10
900.00261999982649
 20
499.998291588021
 30
0.0
 11
1200.002619999826
 21
899.99829158802015
 31
0.0
1001
ACDBBLOCKREPETAG
1070
     1
1071
      192
1005
17053
  0
LINE
  5
17054
  8
0
 10
0.0026199998269476
 20
-100.0017084119789
 30
0.0
 11
1200.002619999826
 21
-100.001708411978
 31
0.0
1001
ACDBBLOCKREPETAG
1070
     1
1071
      193
1005
17054
  0
LINE
  5
17055
  8
0
 10
400.00261999982558
 20
499.998291588021
 30
0.0
 11
400.00261999982558
 21
-100.0017084119789
 31
0.0
1001
ACDBBLOCKREPETAG
1070
     1
1071
      194
1005
17055
  0
LINE
  5
17056
  8
0
 10
800.00261999982649
 20
499.998291588021
 30
0.0
 11
800.00261999982649
 21
-100.0017084119789
 31
0.0
1001
ACDBBLOCKREPETAG
1070
     1
1071
      195
1005
17056
  0
LINE
  5
17057
  8
0
 10
0.0026199998269476
 20
-100.0017084119789
 30
0.0
 11
400.00261999982558
 21
199.998291588021
 31
0.0
1001
ACDBBLOCKREPETAG
1070
     1
1071
      196
1005
17057
  0
LINE
  5
17058
  8
0
 10
400.00261999982558
 20
199.998291588021
 30
0.0
 11
800.00261999982649
 21
-100.0017084119789
 31
0.0
1001
ACDBBLOCKREPETAG
1070
     1
1071
      197
1005
17058
  0
LINE
  5
17059
  8
0
 10
800.00261999982649
 20
-100.0017084119789
 30
0.0
 11
1200.002619999826
 21
199.99829158802191
 31
0.0
1001
ACDBBLOCKREPETAG
1070
     1
1071
      198
1005
17059
  0
LINE
  5
1705A
  8
0
 10
1200.002619999826
 20
199.99829158802191
 30
0.0
 11
800.00261999982649
 21
499.998291588021
 31
0.0
1001
ACDBBLOCKREPETAG
1070
     1
1071
      199
1005
1705A
  0
LINE
  5
1705B
  8
0
 10
800.00261999982649
 20
499.998291588021
 30
0.0
 11
400.00261999982558
 21
199.998291588021
 31
0.0
1001
ACDBBLOCKREPETAG
1070
     1
1071
      200
1005
1705B
  0
LINE
  5
1705C
  8
0
 10
400.00261999982558
 20
199.998291588021
 30
0.0
 11
0.0026199998255834
 21
499.998291588021
 31
0.0
1001
ACDBBLOCKREPETAG
1070
     1
1071
      201
1005
1705C
  0
LINE
  5
1705D
  8
0
 10
1200.002619999826
 20
-100.001708411978
 30
0.0
 11
800.00261999982649
 21
199.998291588021
 31
0.0
1001
ACDBBLOCKREPETAG
1070
     1
1071
      202
1005
1705D
  0
LINE
  5
1705E
  8
0
 10
800.00261999982649
 20
199.998291588021
 30
0.0
 11
400.00261999982558
 21
-100.0017084119789
 31
0.0
1001
ACDBBLOCKREPETAG
1070
     1
1071
      203
1005
1705E
  0
LINE
  5
1705F
  8
0
 10
400.00261999982558
 20
-100.0017084119789
 30
0.0
 11
0.0026199998255834
 21
199.998291588021
 31
0.0
1001
ACDBBLOCKREPETAG
1070
     1
1071
      204
1005
1705F
  0
LINE
  5
17060
  8
0
 10
0.0026199998255834
 20
199.998291588021
 30
0.0
 11
400.00261999982558
 21
499.998291588021
 31
0.0
1001
ACDBBLOCKREPETAG
1070
     1
1071
      205
1005
17060
  0
LINE
  5
17061
  8
0
 10
400.00261999982558
 20
499.998291588021
 30
0.0
 11
800.00261999982649
 21
199.998291588021
 31
0.0
1001
ACDBBLOCKREPETAG
1070
     1
1071
      206
1005
17061
  0
LINE
  5
17062
  8
0
 10
800.00261999982649
 20
199.998291588021
 30
0.0
 11
1200.002619999826
 21
499.99829158802191
 31
0.0
1001
ACDBBLOCKREPETAG
1070
     1
1071
      207
1005
17062
  0
LINE
  5
17063
  8
0
  6
CONTINUOUS
 10
600.00262000000293
 20
449.99829158811008
 30
0.0
 11
600.00262000000293
 21
349.99829158811019
 31
0.0
1001
ACDBBLOCKREPETAG
1070
     1
1071
      208
1005
17063
  0
LINE
  5
17064
  8
0
  6
CONTINUOUS
 10
550.01313607657175
 20
399.99829158811019
 30
0.0
 11
649.99210392343593
 21
399.99829158811019
 31
0.0
1001
ACDBBLOCKREPETAG
1070
     1
1071
      209
1005
17064
  0
LINE
  5
17065
  8
0
 10
1200.002619999821
 20
899.99829158802095
 30
0.0
 11
1200.002619999821
 21
-100.001708411978
 31
0.0
1001
ACDBBLOCKREPETAG
1070
     1
1071
      210
1005
17065
  0
LINE
  5
17066
  8
0
 10
1200.002619999821
 20
-100.001708411978
 30
0.0
 11
0.0026199998187622
 21
-100.0017084119785
 31
0.0
1001
ACDBBLOCKREPETAG
1070
     1
1071
      211
1005
17066
  0
LINE
  5
17067
  8
0
 10
0.0026199998187622
 20
-100.0017084119785
 30
0.0
 11
0.0026199998219454
 21
899.99829158802197
 31
0.0
1001
ACDBBLOCKREPETAG
1070
     1
1071
      212
1005
17067
  0
LINE
  5
17068
  8
0
 10
0.0026199998205811
 20
599.99829158802186
 30
0.0
 11
1200.002619999821
 21
599.99829158802095
 31
0.0
1001
ACDBBLOCKREPETAG
1070
     1
1071
      213
1005
17068
  0
LINE
  5
17069
  8
0
 10
0.0026199998205811
 20
299.99829158802203
 30
0.0
 11
1200.002619999821
 21
299.998291588021
 31
0.0
1001
ACDBBLOCKREPETAG
1070
     1
1071
      214
1005
17069
  0
LINE
  5
1706A
  8
0
 10
900.00261999982104
 20
299.9982915880218
 30
0.0
 11
900.00261999982104
 21
-100.0017084119778
 31
0.0
1001
ACDBBLOCKREPETAG
1070
     1
1071
      215
1005
1706A
  0
LINE
  5
1706B
  8
0
 10
600.00261999982104
 20
-100.0017084119787
 30
0.0
 11
600.00261999982104
 21
299.9982915880218
 31
0.0
1001
ACDBBLOCKREPETAG
1070
     1
1071
      216
1005
1706B
  0
LINE
  5
1706C
  8
0
 10
300.00261999982058
 20
299.9982915880218
 30
0.0
 11
300.00261999982058
 21
-100.0017084119787
 31
0.0
1001
ACDBBLOCKREPETAG
1070
     1
1071
      217
1005
1706C
  0
LINE
  5
1706D
  8
0
 10
900.00261999982104
 20
299.9982915880218
 30
0.0
 11
600.00261999982104
 21
-100.0017084119787
 31
0.0
1001
ACDBBLOCKREPETAG
1070
     1
1071
      218
1005
1706D
  0
LINE
  5
1706E
  8
0
 10
600.00261999982104
 20
-100.0017084119787
 30
0.0
 11
300.00261999982058
 21
299.9982915880218
 31
0.0
1001
ACDBBLOCKREPETAG
1070
     1
1071
      219
1005
1706E
  0
LINE
  5
1706F
  8
0
 10
300.00261999982058
 20
299.9982915880218
 30
0.0
 11
0.0026199998187622
 21
-100.0017084119785
 31
0.0
1001
ACDBBLOCKREPETAG
1070
     1
1071
      220
1005
1706F
  0
LINE
  5
17070
  8
0
 10
300.00261999982058
 20
-100.0017084119787
 30
0.0
 11
0.0026199998205811
 21
299.99829158802203
 31
0.0
1001
ACDBBLOCKREPETAG
1070
     1
1071
      221
1005
17070
  0
LINE
  5
17071
  8
0
 10
1200.002619999821
 20
299.998291588021
 30
0.0
 11
900.00261999982104
 21
-100.0017084119778
 31
0.0
1001
ACDBBLOCKREPETAG
1070
     1
1071
      222
1005
17071
  0
LINE
  5
17072
  8
0
 10
900.00261999982104
 20
-100.0017084119778
 30
0.0
 11
600.00261999982104
 21
299.9982915880218
 31
0.0
1001
ACDBBLOCKREPETAG
1070
     1
1071
      223
1005
17072
  0
LINE
  5
17073
  8
0
 10
600.00261999982104
 20
299.9982915880218
 30
0.0
 11
300.00261999982058
 21
-100.0017084119787
 31
0.0
1001
ACDBBLOCKREPETAG
1070
     1
1071
      224
1005
17073
  0
LINE
  5
17074
  8
0
 10
900.00261999982104
 20
299.9982915880218
 30
0.0
 11
1200.002619999821
 21
-100.001708411978
 31
0.0
1001
ACDBBLOCKREPETAG
1070
     1
1071
      225
1005
17074
  0
LINE
  5
17075
  8
0
 10
0.0026199998219454
 20
899.99829158802197
 30
0.0
 11
1200.002619999821
 21
899.99829158802095
 31
0.0
1001
ACDBBLOCKREPETAG
1070
     1
1071
      226
1005
17075
  0
LINE
  5
17076
  8
0
 10
400.00261999982052
 20
299.9982915880218
 30
0.0
 11
400.00261999982052
 21
899.99829158802197
 31
0.0
1001
ACDBBLOCKREPETAG
1070
     1
1071
      227
1005
17076
  0
LINE
  5
17077
  8
0
 10
800.00261999982104
 20
299.9982915880218
 30
0.0
 11
800.00261999982104
 21
899.99829158802152
 31
0.0
1001
ACDBBLOCKREPETAG
1070
     1
1071
      228
1005
17077
  0
LINE
  5
17078
  8
0
 10
0.0026199998219454
 20
899.99829158802197
 30
0.0
 11
400.00261999982052
 21
599.99829158802186
 31
0.0
1001
ACDBBLOCKREPETAG
1070
     1
1071
      229
1005
17078
  0
LINE
  5
17079
  8
0
 10
400.00261999982052
 20
599.99829158802186
 30
0.0
 11
800.00261999982104
 21
899.99829158802152
 31
0.0
1001
ACDBBLOCKREPETAG
1070
     1
1071
      230
1005
17079
  0
LINE
  5
1707A
  8
0
 10
800.00261999982104
 20
899.99829158802152
 30
0.0
 11
1200.002619999821
 21
599.99829158802095
 31
0.0
1001
ACDBBLOCKREPETAG
1070
     1
1071
      231
1005
1707A
  0
LINE
  5
1707B
  8
0
 10
1200.002619999821
 20
599.99829158802095
 30
0.0
 11
800.00261999982104
 21
299.9982915880218
 31
0.0
1001
ACDBBLOCKREPETAG
1070
     1
1071
      232
1005
1707B
  0
LINE
  5
1707C
  8
0
 10
800.00261999982104
 20
299.9982915880218
 30
0.0
 11
400.00261999982052
 21
599.99829158802186
 31
0.0
1001
ACDBBLOCKREPETAG
1070
     1
1071
      233
1005
1707C
  0
LINE
  5
1707D
  8
0
 10
400.00261999982052
 20
599.99829158802186
 30
0.0
 11
0.0026199998205811
 21
299.99829158802203
 31
0.0
1001
ACDBBLOCKREPETAG
1070
     1
1071
      234
1005
1707D
  0
LINE
  5
1707E
  8
0
 10
1200.002619999821
 20
899.99829158802095
 30
0.0
 11
800.00261999982104
 21
599.99829158802152
 31
0.0
1001
ACDBBLOCKREPETAG
1070
     1
1071
      235
1005
1707E
  0
LINE
  5
1707F
  8
0
 10
800.00261999982104
 20
599.99829158802152
 30
0.0
 11
400.00261999982052
 21
899.99829158802197
 31
0.0
1001
ACDBBLOCKREPETAG
1070
     1
1071
      236
1005
1707F
  0
LINE
  5
17080
  8
0
 10
400.00261999982052
 20
899.99829158802197
 30
0.0
 11
0.0026199998205811
 21
599.99829158802186
 31
0.0
1001
ACDBBLOCKREPETAG
1070
     1
1071
      237
1005
17080
  0
LINE
  5
17081
  8
0
 10
0.0026199998205811
 20
599.99829158802186
 30
0.0
 11
400.00261999982052
 21
299.9982915880218
 31
0.0
1001
ACDBBLOCKREPETAG
1070
     1
1071
      238
1005
17081
  0
LINE
  5
17082
  8
0
 10
400.00261999982052
 20
299.9982915880218
 30
0.0
 11
800.00261999982104
 21
599.99829158802152
 31
0.0
1001
ACDBBLOCKREPETAG
1070
     1
1071
      239
1005
17082
  0
LINE
  5
17083
  8
0
 10
800.00261999982104
 20
599.99829158802152
 30
0.0
 11
1200.002619999821
 21
299.998291588021
 31
0.0
1001
ACDBBLOCKREPETAG
1070
     1
1071
      240
1005
17083
  0
LINE
  5
17084
  8
0
  6
CONTINUOUS
 10
600.00261999999736
 20
349.99829158793312
 30
0.0
 11
600.00261999999736
 21
449.99829158793329
 31
0.0
1001
ACDBBLOCKREPETAG
1070
     1
1071
      241
1005
17084
  0
LINE
  5
17085
  8
0
  6
CONTINUOUS
 10
550.0131360765663
 20
399.99829158793312
 30
0.0
 11
649.99210392343048
 21
399.99829158793312
 31
0.0
1001
ACDBBLOCKREPETAG
1070
     1
1071
      242
1005
17085
  0
LINE
  5
17086
  8
0
 10
1200.0026199998219
 20
899.99829158802447
 30
0.0
 11
1200.0026199998181
 21
-100.0017084119755
 31
0.0
1001
ACDBBLOCKREPETAG
1070
     1
1071
      243
1005
17086
  0
LINE
  5
17087
  8
0
 10
1200.0026199998181
 20
199.99829158802439
 30
0.0
 11
0.0026199998183074
 21
199.99829158802439
 31
0.0
1001
ACDBBLOCKREPETAG
1070
     1
1071
      244
1005
17087
  0
LINE
  5
17088
  8
0
 10
0.0026199998183074
 20
-100.0017084119755
 30
0.0
 11
0.0026199998219454
 21
899.99829158802447
 31
0.0
1001
ACDBBLOCKREPETAG
1070
     1
1071
      245
1005
17088
  0
LINE
  5
17089
  8
0
 10
0.0026199998219454
 20
599.99829158802436
 30
0.0
 11
1200.0026199998219
 21
599.99829158802436
 31
0.0
1001
ACDBBLOCKREPETAG
1070
     1
1071
      246
1005
17089
  0
LINE
  5
1708A
  8
0
 10
0.0026199998192169
 20
-100.0017084119755
 30
0.0
 11
1200.0026199998181
 21
-100.0017084119755
 31
0.0
1001
ACDBBLOCKREPETAG
1070
     1
1071
      247
1005
1708A
  0
LINE
  5
1708B
  8
0
 10
900.00261999982183
 20
599.99829158802436
 30
0.0
 11
900.00261999981831
 21
199.99829158802439
 31
0.0
1001
ACDBBLOCKREPETAG
1070
     1
1071
      248
1005
1708B
  0
LINE
  5
1708C
  8
0
 10
600.00261999981831
 20
199.99829158802439
 30
0.0
 11
600.00261999981831
 21
599.99829158802436
 31
0.0
1001
ACDBBLOCKREPETAG
1070
     1
1071
      249
1005
1708C
  0
LINE
  5
1708D
  8
0
 10
300.00261999982149
 20
599.99829158802436
 30
0.0
 11
300.0026199998178
 21
199.99829158802439
 31
0.0
1001
ACDBBLOCKREPETAG
1070
     1
1071
      250
1005
1708D
  0
LINE
  5
1708E
  8
0
 10
900.00261999982183
 20
599.99829158802436
 30
0.0
 11
600.00261999981831
 21
199.99829158802439
 31
0.0
1001
ACDBBLOCKREPETAG
1070
     1
1071
      251
1005
1708E
  0
LINE
  5
1708F
  8
0
 10
600.00261999981831
 20
199.99829158802439
 30
0.0
 11
300.00261999982149
 21
599.99829158802436
 31
0.0
1001
ACDBBLOCKREPETAG
1070
     1
1071
      252
1005
1708F
  0
LINE
  5
17090
  8
0
 10
300.00261999982149
 20
599.99829158802436
 30
0.0
 11
0.0026199998183074
 21
199.99829158802439
 31
0.0
1001
ACDBBLOCKREPETAG
1070
     1
1071
      253
1005
17090
  0
LINE
  5
17091
  8
0
 10
300.0026199998178
 20
199.99829158802439
 30
0.0
 11
0.0026199998219454
 21
599.99829158802436
 31
0.0
1001
ACDBBLOCKREPETAG
1070
     1
1071
      254
1005
17091
  0
LINE
  5
17092
  8
0
 10
1200.0026199998219
 20
599.99829158802436
 30
0.0
 11
900.00261999981831
 21
199.99829158802439
 31
0.0
1001
ACDBBLOCKREPETAG
1070
     1
1071
      255
1005
17092
  0
LINE
  5
17093
  8
0
 10
900.00261999981831
 20
199.99829158802439
 30
0.0
 11
600.00261999981831
 21
599.99829158802436
 31
0.0
1001
ACDBBLOCKREPETAG
1070
     1
1071
      256
1005
17093
  0
LINE
  5
17094
  8
0
 10
600.00261999981831
 20
599.99829158802436
 30
0.0
 11
300.0026199998178
 21
199.99829158802439
 31
0.0
1001
ACDBBLOCKREPETAG
1070
     1
1071
      257
1005
17094
  0
LINE
  5
17095
  8
0
 10
900.00261999982183
 20
599.99829158802436
 30
0.0
 11
1200.0026199998181
 21
199.99829158802439
 31
0.0
1001
ACDBBLOCKREPETAG
1070
     1
1071
      258
1005
17095
  0
LINE
  5
17096
  8
0
 10
0.0026199998219454
 20
899.99829158802447
 30
0.0
 11
1200.0026199998219
 21
899.99829158802447
 31
0.0
1001
ACDBBLOCKREPETAG
1070
     1
1071
      259
1005
17096
  0
LINE
  5
17097
  8
0
 10
400.00261999981512
 20
-100.0017084119755
 30
0.0
 11
400.0026199998178
 21
199.9982915880255
 31
0.0
1001
ACDBBLOCKREPETAG
1070
     1
1071
      260
1005
17097
  0
LINE
  5
17098
  8
0
 10
800.00261999981456
 20
-100.0017084119755
 30
0.0
 11
800.00261999981649
 21
199.99829158802331
 31
0.0
1001
ACDBBLOCKREPETAG
1070
     1
1071
      261
1005
17098
  0
LINE
  5
17099
  8
0
 10
0.0026199998219454
 20
899.99829158802447
 30
0.0
 11
400.00261999982149
 21
599.99829158802436
 31
0.0
1001
ACDBBLOCKREPETAG
1070
     1
1071
      262
1005
17099
  0
LINE
  5
1709A
  8
0
 10
400.00261999982149
 20
599.99829158802436
 30
0.0
 11
800.00261999982183
 21
899.99829158802447
 31
0.0
1001
ACDBBLOCKREPETAG
1070
     1
1071
      263
1005
1709A
  0
LINE
  5
1709B
  8
0
 10
800.00261999982183
 20
899.99829158802447
 30
0.0
 11
1200.0026199998219
 21
599.99829158802436
 31
0.0
1001
ACDBBLOCKREPETAG
1070
     1
1071
      264
1005
1709B
  0
LINE
  5
1709C
  8
0
 10
1200.0026199998181
 20
199.99829158802439
 30
0.0
 11
800.00261999981456
 21
-100.0017084119755
 31
0.0
1001
ACDBBLOCKREPETAG
1070
     1
1071
      265
1005
1709C
  0
LINE
  5
1709D
  8
0
 10
800.00261999981456
 20
-100.0017084119755
 30
0.0
 11
400.00261999981871
 21
199.99829158802439
 31
0.0
1001
ACDBBLOCKREPETAG
1070
     1
1071
      266
1005
1709D
  0
LINE
  5
1709E
  8
0
 10
400.00261999981871
 20
199.99829158802439
 30
0.0
 11
0.0026199998192169
 21
-100.0017084119755
 31
0.0
1001
ACDBBLOCKREPETAG
1070
     1
1071
      267
1005
1709E
  0
LINE
  5
1709F
  8
0
 10
1200.0026199998219
 20
899.99829158802447
 30
0.0
 11
800.00261999982183
 21
599.99829158802436
 31
0.0
1001
ACDBBLOCKREPETAG
1070
     1
1071
      268
1005
1709F
  0
LINE
  5
170A0
  8
0
 10
800.00261999982183
 20
599.99829158802436
 30
0.0
 11
400.00261999982149
 21
899.99829158802447
 31
0.0
1001
ACDBBLOCKREPETAG
1070
     1
1071
      269
1005
170A0
  0
LINE
  5
170A1
  8
0
 10
400.00261999982149
 20
899.99829158802447
 30
0.0
 11
0.0026199998219454
 21
599.99829158802436
 31
0.0
1001
ACDBBLOCKREPETAG
1070
     1
1071
      270
1005
170A1
  0
LINE
  5
170A2
  8
0
 10
0.0026199998192169
 20
199.99829158802439
 30
0.0
 11
400.00261999981512
 21
-100.0017084119755
 31
0.0
1001
ACDBBLOCKREPETAG
1070
     1
1071
      271
1005
170A2
  0
LINE
  5
170A3
  8
0
 10
400.00261999981512
 20
-100.0017084119755
 30
0.0
 11
800.00261999981831
 21
199.99829158802439
 31
0.0
1001
ACDBBLOCKREPETAG
1070
     1
1071
      272
1005
170A3
  0
LINE
  5
170A4
  8
0
 10
800.00261999981831
 20
199.99829158802439
 30
0.0
 11
1200.0026199998181
 21
-100.0017084119755
 31
0.0
1001
ACDBBLOCKREPETAG
1070
     1
1071
      273
1005
170A4
  0
LINE
  5
170A5
  8
0
  6
CONTINUOUS
 10
550.01313607638531
 20
399.99829158802447
 30
0.0
 11
649.99210392325119
 21
399.99829158802447
 31
0.0
1001
ACDBBLOCKREPETAG
1070
     1
1071
      274
1005
170A5
  0
LINE
  5
170A6
  8
0
 10
400.00261999982149
 20
899.99829158802447
 30
0.0
 11
400.00261999982149
 21
599.99829158802436
 31
0.0
1001
ACDBBLOCKREPETAG
1070
     1
1071
      275
1005
170A6
  0
LINE
  5
170A7
  8
0
 10
800.00261999982183
 20
899.99829158802447
 30
0.0
 11
800.00261999982183
 21
599.99829158802436
 31
0.0
1001
ACDBBLOCKREPETAG
1070
     1
1071
      276
1005
170A7
  0
LINE
  5
170A8
  8
0
 10
900.00262000000293
 20
0.0
 30
0.0
 11
600.00262000000293
 21
200.0
 31
0.0
1001
ACDBBLOCKREPETAG
1070
     1
1071
      277
1005
170A8
  0
LINE
  5
170A9
  8
0
 10
600.00262000000293
 20
0.0
 30
0.0
 11
900.00262000000293
 21
200.0
 31
0.0
1001
ACDBBLOCKREPETAG
1070
     1
1071
      278
1005
170A9
  0
LINE
  5
170AA
  8
0
 10
800.00262000000293
 20
800.0
 30
0.0
 11
600.00262000000293
 21
500.0
 31
0.0
1001
ACDBBLOCKREPETAG
1070
     1
1071
      279
1005
170AA
  0
LINE
  5
170AB
  8
0
 10
800.00262000000293
 20
500.0
 30
0.0
 11
600.00262000000293
 21
800.0
 31
0.0
1001
ACDBBLOCKREPETAG
1070
     1
1071
      280
1005
170AB
  0
LINE
  5
170AC
  8
0
 10
600.00262000000293
 20
200.0
 30
0.0
 11
800.00262000000293
 21
500.0
 31
0.0
1001
ACDBBLOCKREPETAG
1070
     1
1071
      281
1005
170AC
  0
LINE
  5
170AD
  8
0
 10
1200.0026200000029
 20
500.0
 30
0.0
 11
0.0026200000029917
 21
500.0
 31
0.0
1001
ACDBBLOCKREPETAG
1070
     1
1071
      282
1005
170AD
  0
LINE
  5
170AE
  8
0
 10
600.00262000000293
 20
500.0
 30
0.0
 11
800.00262000000293
 21
200.0
 31
0.0
1001
ACDBBLOCKREPETAG
1070
     1
1071
      283
1005
170AE
  0
LINE
  5
170AF
  8
0
 10
1200.0026200000029
 20
800.0
 30
0.0
 11
0.0026200000029917
 21
800.0
 31
0.0
1001
ACDBBLOCKREPETAG
1070
     1
1071
      284
1005
170AF
  0
LINE
  5
170B0
  8
0
 10
0.0026200000029917
 20
200.0
 30
0.0
 11
1200.0026200000029
 21
200.0
 31
0.0
1001
ACDBBLOCKREPETAG
1070
     1
1071
      285
1005
170B0
  0
LINE
  5
170B1
  8
0
 10
600.00262000000293
 20
800.0
 30
0.0
 11
600.00262000000293
 21
0.0
 31
0.0
1001
ACDBBLOCKREPETAG
1070
     1
1071
      286
1005
170B1
  0
LINE
  5
170B2
  8
0
 10
400.00262000000288
 20
200.0
 30
0.0
 11
400.00262000000288
 21
800.0
 31
0.0
1001
ACDBBLOCKREPETAG
1070
     1
1071
      287
1005
170B2
  0
LINE
  5
170B3
  8
0
 10
200.00262000000299
 20
800.0
 30
0.0
 11
200.00262000000299
 21
200.0
 31
0.0
1001
ACDBBLOCKREPETAG
1070
     1
1071
      288
1005
170B3
  0
LINE
  5
170B4
  8
0
 10
200.00262000000299
 20
500.0
 30
0.0
 11
0.0026200000029917
 21
800.0
 31
0.0
1001
ACDBBLOCKREPETAG
1070
     1
1071
      289
1005
170B4
  0
LINE
  5
170B5
  8
0
 10
400.00262000000288
 20
800.0
 30
0.0
 11
200.00262000000299
 21
500.0
 31
0.0
1001
ACDBBLOCKREPETAG
1070
     1
1071
      290
1005
170B5
  0
LINE
  5
170B6
  8
0
 10
600.00262000000293
 20
500.0
 30
0.0
 11
400.00262000000288
 21
800.0
 31
0.0
1001
ACDBBLOCKREPETAG
1070
     1
1071
      291
1005
170B6
  0
LINE
  5
170B7
  8
0
 10
200.00262000000299
 20
800.0
 30
0.0
 11
0.0026200000029917
 21
500.0
 31
0.0
1001
ACDBBLOCKREPETAG
1070
     1
1071
      292
1005
170B7
  0
LINE
  5
170B8
  8
0
 10
400.00262000000288
 20
500.0
 30
0.0
 11
200.00262000000299
 21
800.0
 31
0.0
1001
ACDBBLOCKREPETAG
1070
     1
1071
      293
1005
170B8
  0
LINE
  5
170B9
  8
0
 10
600.00262000000293
 20
800.0
 30
0.0
 11
400.00262000000288
 21
500.0
 31
0.0
1001
ACDBBLOCKREPETAG
1070
     1
1071
      294
1005
170B9
  0
LINE
  5
170BA
  8
0
 10
0.0026200000029917
 20
800.0
 30
0.0
 11
0.0026200000029917
 21
0.0
 31
0.0
1001
ACDBBLOCKREPETAG
1070
     1
1071
      295
1005
170BA
  0
LINE
  5
170BB
  8
0
 10
0.0026200000029917
 20
500.0
 30
0.0
 11
200.00262000000299
 21
200.0
 31
0.0
1001
ACDBBLOCKREPETAG
1070
     1
1071
      296
1005
170BB
  0
LINE
  5
170BC
  8
0
 10
0.0026200000029917
 20
200.0
 30
0.0
 11
200.00262000000299
 21
500.0
 31
0.0
1001
ACDBBLOCKREPETAG
1070
     1
1071
      297
1005
170BC
  0
LINE
  5
170BD
  8
0
 10
400.00262000000288
 20
500.0
 30
0.0
 11
600.00262000000293
 21
200.0
 31
0.0
1001
ACDBBLOCKREPETAG
1070
     1
1071
      298
1005
170BD
  0
LINE
  5
170BE
  8
0
 10
200.00262000000299
 20
200.0
 30
0.0
 11
400.00262000000288
 21
500.0
 31
0.0
1001
ACDBBLOCKREPETAG
1070
     1
1071
      299
1005
170BE
  0
LINE
  5
170BF
  8
0
 10
400.00262000000288
 20
200.0
 30
0.0
 11
600.00262000000293
 21
500.0
 31
0.0
1001
ACDBBLOCKREPETAG
1070
     1
1071
      300
1005
170BF
  0
LINE
  5
170C0
  8
0
 10
200.00262000000299
 20
500.0
 30
0.0
 11
400.00262000000288
 21
200.0
 31
0.0
1001
ACDBBLOCKREPETAG
1070
     1
1071
      301
1005
170C0
  0
LINE
  5
170C1
  8
0
  6
CONTINUOUS
 10
575.00262000000293
 20
400.0
 30
0.0
 11
625.00262000000293
 21
400.0
 31
0.0
1001
ACDBBLOCKREPETAG
1070
     1
1071
      302
1005
170C1
  0
LINE
  5
170C2
  8
0
 10
300.00262000000299
 20
0.0
 30
0.0
 11
0.0026200000029917
 21
200.0
 31
0.0
1001
ACDBBLOCKREPETAG
1070
     1
1071
      303
1005
170C2
  0
LINE
  5
170C3
  8
0
 10
0.0026200000029917
 20
0.0
 30
0.0
 11
300.00262000000299
 21
200.0
 31
0.0
1001
ACDBBLOCKREPETAG
1070
     1
1071
      304
1005
170C3
  0
LINE
  5
170C4
  8
0
 10
600.00262000000293
 20
200.0
 30
0.0
 11
300.00262000000299
 21
0.0
 31
0.0
1001
ACDBBLOCKREPETAG
1070
     1
1071
      305
1005
170C4
  0
LINE
  5
170C5
  8
0
 10
300.00262000000299
 20
200.0
 30
0.0
 11
600.00262000000293
 21
0.0
 31
0.0
1001
ACDBBLOCKREPETAG
1070
     1
1071
      306
1005
170C5
  0
LINE
  5
170C6
  8
0
 10
300.00262000000299
 20
200.0
 30
0.0
 11
300.00262000000299
 21
0.0
 31
0.0
1001
ACDBBLOCKREPETAG
1070
     1
1071
      307
1005
170C6
  0
LINE
  5
170C7
  8
0
 10
1000.002620000003
 20
800.0
 30
0.0
 11
1200.0026200000029
 21
500.0
 31
0.0
1001
ACDBBLOCKREPETAG
1070
     1
1071
      308
1005
170C7
  0
LINE
  5
170C8
  8
0
 10
800.00262000000293
 20
500.0
 30
0.0
 11
1000.002620000003
 21
800.0
 31
0.0
1001
ACDBBLOCKREPETAG
1070
     1
1071
      309
1005
170C8
  0
LINE
  5
170C9
  8
0
 10
1000.002620000003
 20
200.0
 30
0.0
 11
1000.002620000003
 21
800.0
 31
0.0
1001
ACDBBLOCKREPETAG
1070
     1
1071
      310
1005
170C9
  0
LINE
  5
170CA
  8
0
 10
800.00262000000293
 20
200.0
 30
0.0
 11
800.00262000000293
 21
800.0
 31
0.0
1001
ACDBBLOCKREPETAG
1070
     1
1071
      311
1005
170CA
  0
LINE
  5
170CB
  8
0
 10
1000.002620000003
 20
500.0
 30
0.0
 11
800.00262000000293
 21
800.0
 31
0.0
1001
ACDBBLOCKREPETAG
1070
     1
1071
      312
1005
170CB
  0
LINE
  5
170CC
  8
0
 10
1200.0026200000029
 20
800.0
 30
0.0
 11
1000.002620000003
 21
500.0
 31
0.0
1001
ACDBBLOCKREPETAG
1070
     1
1071
      313
1005
170CC
  0
LINE
  5
170CD
  8
0
 10
1200.0026200000029
 20
0.0
 30
0.0
 11
1200.0026200000029
 21
800.0
 31
0.0
1001
ACDBBLOCKREPETAG
1070
     1
1071
      314
1005
170CD
  0
LINE
  5
170CE
  8
0
 10
1000.002620000003
 20
200.0
 30
0.0
 11
1200.0026200000029
 21
500.0
 31
0.0
1001
ACDBBLOCKREPETAG
1070
     1
1071
      315
1005
170CE
  0
LINE
  5
170CF
  8
0
 10
800.00262000000293
 20
500.0
 30
0.0
 11
1000.002620000003
 21
200.0
 31
0.0
1001
ACDBBLOCKREPETAG
1070
     1
1071
      316
1005
170CF
  0
LINE
  5
170D0
  8
0
 10
1000.002620000003
 20
500.0
 30
0.0
 11
1200.0026200000029
 21
200.0
 31
0.0
1001
ACDBBLOCKREPETAG
1070
     1
1071
      317
1005
170D0
  0
LINE
  5
170D1
  8
0
 10
800.00262000000293
 20
200.0
 30
0.0
 11
1000.002620000003
 21
500.0
 31
0.0
1001
ACDBBLOCKREPETAG
1070
     1
1071
      318
1005
170D1
  0
LINE
  5
170D2
  8
0
 10
900.00262000000293
 20
0.0
 30
0.0
 11
1200.0026200000029
 21
200.0
 31
0.0
1001
ACDBBLOCKREPETAG
1070
     1
1071
      319
1005
170D2
  0
LINE
  5
170D3
  8
0
 10
1200.0026200000029
 20
0.0
 30
0.0
 11
900.00262000000293
 21
200.0
 31
0.0
1001
ACDBBLOCKREPETAG
1070
     1
1071
      320
1005
170D3
  0
LINE
  5
170D4
  8
0
 10
900.00262000000293
 20
200.0
 30
0.0
 11
900.00262000000293
 21
0.0
 31
0.0
1001
ACDBBLOCKREPETAG
1070
     1
1071
      321
1005
170D4
  0
LINE
  5
170D5
  8
0
 10
0.0026200000029917
 20
0.0
 30
0.0
 11
1200.0026200000029
 21
0.0
 31
0.0
1001
ACDBBLOCKREPETAG
1070
     1
1071
      322
1005
170D5
  0
LINE
  5
170D6
  8
0
 10
187.50129000004469
 20
934.00001333333353
 30
0.0
 11
187.50129000004469
 21
-133.9999866666665
 31
0.0
1001
ACDBBLOCKREPETAG
1070
     1
1071
      323
1005
170D6
  0
LINE
  5
170D7
  8
0
 10
187.50129000004469
 20
-133.9999866666665
 30
0.0
 11
1012.501290000044
 21
-133.9999866666665
 31
0.0
1001
ACDBBLOCKREPETAG
1070
     1
1071
      324
1005
170D7
  0
LINE
  5
170D8
  8
0
 10
1012.501290000044
 20
934.00001333333353
 30
0.0
 11
187.50129000004469
 21
934.00001333333353
 31
0.0
1001
ACDBBLOCKREPETAG
1070
     1
1071
      325
1005
170D8
  0
LINE
  5
170D9
  8
0
 10
1012.5012900000449
 20
578.00001333333353
 30
0.0
 11
187.50129000004469
 21
578.00001333333353
 31
0.0
1001
ACDBBLOCKREPETAG
1070
     1
1071
      326
1005
170D9
  0
LINE
  5
170DA
  8
0
 10
187.50129000004469
 20
222.0000133333335
 30
0.0
 11
1012.501290000044
 21
222.0000133333335
 31
0.0
1001
ACDBBLOCKREPETAG
1070
     1
1071
      327
1005
170DA
  0
LINE
  5
170DB
  8
0
 10
1012.501290000044
 20
-133.9999866666665
 30
0.0
 11
1012.501290000044
 21
934.00001333333353
 31
0.0
1001
ACDBBLOCKREPETAG
1070
     1
1071
      328
1005
170DB
  0
LINE
  5
170DC
  8
0
 10
737.50129000004472
 20
934.00001333333353
 30
0.0
 11
737.50129000004472
 21
-133.9999866666665
 31
0.0
1001
ACDBBLOCKREPETAG
1070
     1
1071
      329
1005
170DC
  0
LINE
  5
170DD
  8
0
 10
462.50129000004472
 20
-133.99998666666551
 30
0.0
 11
462.50129000004472
 21
934.00001333333353
 31
0.0
1001
ACDBBLOCKREPETAG
1070
     1
1071
      330
1005
170DD
  0
LINE
  5
170DE
  8
0
 10
1012.501290000044
 20
-133.9999866666665
 30
0.0
 11
737.50129000004472
 21
222.0000133333335
 31
0.0
1001
ACDBBLOCKREPETAG
1070
     1
1071
      331
1005
170DE
  0
LINE
  5
170DF
  8
0
 10
737.50129000004472
 20
222.0000133333335
 30
0.0
 11
1012.501290000044
 21
578.00001333333353
 31
0.0
1001
ACDBBLOCKREPETAG
1070
     1
1071
      332
1005
170DF
  0
LINE
  5
170E0
  8
0
 10
1012.501290000044
 20
578.00001333333353
 30
0.0
 11
737.50129000004472
 21
934.00001333333353
 31
0.0
1001
ACDBBLOCKREPETAG
1070
     1
1071
      333
1005
170E0
  0
LINE
  5
170E1
  8
0
 10
737.50129000004472
 20
934.00001333333353
 30
0.0
 11
462.50129000004472
 21
578.00001333333353
 31
0.0
1001
ACDBBLOCKREPETAG
1070
     1
1071
      334
1005
170E1
  0
LINE
  5
170E2
  8
0
 10
462.50129000004472
 20
578.00001333333353
 30
0.0
 11
737.50129000004472
 21
222.0000133333335
 31
0.0
1001
ACDBBLOCKREPETAG
1070
     1
1071
      335
1005
170E2
  0
LINE
  5
170E3
  8
0
 10
737.50129000004472
 20
222.0000133333335
 30
0.0
 11
462.50129000004472
 21
-133.9999866666665
 31
0.0
1001
ACDBBLOCKREPETAG
1070
     1
1071
      336
1005
170E3
  0
LINE
  5
170E4
  8
0
 10
462.50129000004472
 20
-133.9999866666665
 30
0.0
 11
187.50129000004469
 21
222.0000133333335
 31
0.0
1001
ACDBBLOCKREPETAG
1070
     1
1071
      337
1005
170E4
  0
LINE
  5
170E5
  8
0
 10
187.50129000004469
 20
222.0000133333335
 30
0.0
 11
462.50129000004472
 21
578.00001333333353
 31
0.0
1001
ACDBBLOCKREPETAG
1070
     1
1071
      338
1005
170E5
  0
LINE
  5
170E6
  8
0
 10
462.50129000004472
 20
578.00001333333353
 30
0.0
 11
187.50129000004469
 21
934.00001333333353
 31
0.0
1001
ACDBBLOCKREPETAG
1070
     1
1071
      339
1005
170E6
  0
LINE
  5
170E7
  8
0
 10
187.50129000004469
 20
-133.9999866666665
 30
0.0
 11
462.50129000004472
 21
222.0000133333335
 31
0.0
1001
ACDBBLOCKREPETAG
1070
     1
1071
      340
1005
170E7
  0
LINE
  5
170E8
  8
0
 10
462.50129000004472
 20
222.0000133333335
 30
0.0
 11
187.50129000004469
 21
578.00001333333353
 31
0.0
1001
ACDBBLOCKREPETAG
1070
     1
1071
      341
1005
170E8
  0
LINE
  5
170E9
  8
0
 10
187.50129000004469
 20
578.00001333333353
 30
0.0
 11
462.50129000004472
 21
934.00001333333353
 31
0.0
1001
ACDBBLOCKREPETAG
1070
     1
1071
      342
1005
170E9
  0
LINE
  5
170EA
  8
0
 10
462.50129000004472
 20
934.00001333333353
 30
0.0
 11
737.50129000004472
 21
578.00001333333353
 31
0.0
1001
ACDBBLOCKREPETAG
1070
     1
1071
      343
1005
170EA
  0
LINE
  5
170EB
  8
0
 10
737.50129000004472
 20
578.00001333333353
 30
0.0
 11
462.50129000004472
 21
222.0000133333335
 31
0.0
1001
ACDBBLOCKREPETAG
1070
     1
1071
      344
1005
170EB
  0
LINE
  5
170EC
  8
0
 10
462.50129000004472
 20
222.0000133333335
 30
0.0
 11
737.50129000004472
 21
-133.9999866666665
 31
0.0
1001
ACDBBLOCKREPETAG
1070
     1
1071
      345
1005
170EC
  0
LINE
  5
170ED
  8
0
 10
737.50129000004472
 20
-133.9999866666665
 30
0.0
 11
1012.501290000044
 21
222.0000133333335
 31
0.0
1001
ACDBBLOCKREPETAG
1070
     1
1071
      346
1005
170ED
  0
LINE
  5
170EE
  8
0
 10
1012.501290000044
 20
222.0000133333335
 30
0.0
 11
737.50129000004472
 21
578.00001333333353
 31
0.0
1001
ACDBBLOCKREPETAG
1070
     1
1071
      347
1005
170EE
  0
LINE
  5
170EF
  8
0
 10
737.50129000004472
 20
578.00001333333353
 30
0.0
 11
1012.501290000044
 21
934.00001333333353
 31
0.0
1001
ACDBBLOCKREPETAG
1070
     1
1071
      348
1005
170EF
  0
ENDBLK
  5
170F0
  8
0
  0
BLOCK
  8
0
  2
*U2
 70
     1
 10
0.0
 20
0.0
 30
0.0
  3
*U2
  1

  0
LINE
  5
170F4
  8
0
 10
1200.0026200000029
 20
300.00000000000023
 30
0.0
 11
0.0026200000029348
 21
300.00000000000023
 31
0.0
1001
ACDBBLOCKREPETAG
1070
     1
1071
        0
1005
170F4
  0
LINE
  5
170F5
  8
0
 10
0.0026200000029348
 20
0.0000000000002274
 30
0.0
 11
1200.0026200000029
 21
0.0000000000002274
 31
0.0
1001
ACDBBLOCKREPETAG
1070
     1
1071
        1
1005
170F5
  0
LINE
  5
170F6
  8
0
 10
1000.002620000003
 20
300.00000000000023
 30
0.0
 11
1000.002620000003
 21
0.0000499999998738
 31
0.0
1001
ACDBBLOCKREPETAG
1070
     1
1071
        2
1005
170F6
  0
LINE
  5
170F7
  8
0
 10
800.00262000000293
 20
300.00000000000023
 30
0.0
 11
800.00262000000293
 21
0.0000499999998738
 31
0.0
1001
ACDBBLOCKREPETAG
1070
     1
1071
        3
1005
170F7
  0
LINE
  5
170F8
  8
0
 10
400.00262000000288
 20
300.00000000000023
 30
0.0
 11
400.00262000000288
 21
0.0000499999998738
 31
0.0
1001
ACDBBLOCKREPETAG
1070
     1
1071
        4
1005
170F8
  0
LINE
  5
170F9
  8
0
 10
200.00262000000291
 20
300.00000000000023
 30
0.0
 11
200.00262000000291
 21
0.0000499999998738
 31
0.0
1001
ACDBBLOCKREPETAG
1070
     1
1071
        5
1005
170F9
  0
LINE
  5
170FA
  8
0
 10
0.0026200000029348
 20
300.00000000000023
 30
0.0
 11
200.00262000000291
 21
0.0000000000002274
 31
0.0
1001
ACDBBLOCKREPETAG
1070
     1
1071
        6
1005
170FA
  0
LINE
  5
170FB
  8
0
 10
600.00262000000293
 20
0.0000000000002274
 30
0.0
 11
800.00262000000293
 21
300.00000000000023
 31
0.0
1001
ACDBBLOCKREPETAG
1070
     1
1071
        7
1005
170FB
  0
LINE
  5
170FC
  8
0
 10
800.00262000000293
 20
300.00000000000023
 30
0.0
 11
1000.002620000003
 21
0.0000000000002274
 31
0.0
1001
ACDBBLOCKREPETAG
1070
     1
1071
        8
1005
170FC
  0
LINE
  5
170FD
  8
0
 10
1000.002620000003
 20
0.0000000000002274
 30
0.0
 11
1200.0026200000029
 21
300.00000000000023
 31
0.0
1001
ACDBBLOCKREPETAG
1070
     1
1071
        9
1005
170FD
  0
LINE
  5
170FE
  8
0
 10
1200.0026200000029
 20
0.0000000000002274
 30
0.0
 11
1000.002620000003
 21
300.00000000000023
 31
0.0
1001
ACDBBLOCKREPETAG
1070
     1
1071
       10
1005
170FE
  0
LINE
  5
170FF
  8
0
 10
1000.002620000003
 20
300.00000000000023
 30
0.0
 11
800.00262000000293
 21
0.0000000000002274
 31
0.0
1001
ACDBBLOCKREPETAG
1070
     1
1071
       11
1005
170FF
  0
LINE
  5
17100
  8
0
 10
800.00262000000293
 20
0.0000000000002274
 30
0.0
 11
600.00262000000293
 21
300.00000000000023
 31
0.0
1001
ACDBBLOCKREPETAG
1070
     1
1071
       12
1005
17100
  0
LINE
  5
17101
  8
0
 10
600.00262000000293
 20
300.00000000000023
 30
0.0
 11
400.00262000000288
 21
0.0000000000002274
 31
0.0
1001
ACDBBLOCKREPETAG
1070
     1
1071
       13
1005
17101
  0
LINE
  5
17102
  8
0
 10
600.00262000000293
 20
0.0000000000002274
 30
0.0
 11
400.00262000000288
 21
300.00000000000023
 31
0.0
1001
ACDBBLOCKREPETAG
1070
     1
1071
       14
1005
17102
  0
LINE
  5
17103
  8
0
 10
400.00262000000288
 20
300.00000000000023
 30
0.0
 11
200.00262000000291
 21
0.0000000000002274
 31
0.0
1001
ACDBBLOCKREPETAG
1070
     1
1071
       15
1005
17103
  0
LINE
  5
17104
  8
0
 10
400.00262000000288
 20
0.0000000000002274
 30
0.0
 11
200.00262000000291
 21
300.00000000000023
 31
0.0
1001
ACDBBLOCKREPETAG
1070
     1
1071
       16
1005
17104
  0
LINE
  5
17105
  8
0
 10
200.00262000000291
 20
300.00000000000023
 30
0.0
 11
0.0026200000029348
 21
0.0000000000002274
 31
0.0
1001
ACDBBLOCKREPETAG
1070
     1
1071
       17
1005
17105
  0
LINE
  5
17106
  8
0
 10
0.0026200000029348
 20
500.00000000000023
 30
0.0
 11
1200.0026200000029
 21
500.00000000000023
 31
0.0
1001
ACDBBLOCKREPETAG
1070
     1
1071
       18
1005
17106
  0
LINE
  5
17107
  8
0
 10
0.0026200000029348
 20
800.0
 30
0.0
 11
1200.0026200000029
 21
800.0
 31
0.0
1001
ACDBBLOCKREPETAG
1070
     1
1071
       19
1005
17107
  0
LINE
  5
17108
  8
0
 10
1000.002620000003
 20
800.0
 30
0.0
 11
1000.002620000003
 21
500.00000000000023
 31
0.0
1001
ACDBBLOCKREPETAG
1070
     1
1071
       20
1005
17108
  0
LINE
  5
17109
  8
0
 10
800.00262000000293
 20
800.0
 30
0.0
 11
800.00262000000293
 21
500.00000000000023
 31
0.0
1001
ACDBBLOCKREPETAG
1070
     1
1071
       21
1005
17109
  0
LINE
  5
1710A
  8
0
 10
400.00262000000288
 20
800.0
 30
0.0
 11
400.00262000000288
 21
500.00000000000023
 31
0.0
1001
ACDBBLOCKREPETAG
1070
     1
1071
       22
1005
1710A
  0
LINE
  5
1710B
  8
0
 10
200.00262000000291
 20
800.0
 30
0.0
 11
200.00262000000291
 21
500.00000000000023
 31
0.0
1001
ACDBBLOCKREPETAG
1070
     1
1071
       23
1005
1710B
  0
LINE
  5
1710C
  8
0
 10
0.0026200000029348
 20
800.0
 30
0.0
 11
0.0026200000029348
 21
0.0000499999998738
 31
0.0
1001
ACDBBLOCKREPETAG
1070
     1
1071
       24
1005
1710C
  0
LINE
  5
1710D
  8
0
 10
1200.0026200000029
 20
0.0000499999998738
 30
0.0
 11
1200.0026200000029
 21
800.0
 31
0.0
1001
ACDBBLOCKREPETAG
1070
     1
1071
       25
1005
1710D
  0
LINE
  5
1710E
  8
0
 10
900.00262000000293
 20
500.00000000000023
 30
0.0
 11
900.00262000000293
 21
300.00000000000023
 31
0.0
1001
ACDBBLOCKREPETAG
1070
     1
1071
       26
1005
1710E
  0
LINE
  5
1710F
  8
0
 10
600.00262000000293
 20
800.0
 30
0.0
 11
600.00262000000293
 21
0.0000499999998738
 31
0.0
1001
ACDBBLOCKREPETAG
1070
     1
1071
       27
1005
1710F
  0
LINE
  5
17110
  8
0
 10
300.00262000000288
 20
500.00000000000023
 30
0.0
 11
300.00262000000288
 21
300.00000000000023
 31
0.0
1001
ACDBBLOCKREPETAG
1070
     1
1071
       28
1005
17110
  0
LINE
  5
17111
  8
0
 10
200.00262000000291
 20
800.0
 30
0.0
 11
400.00262000000288
 21
500.00000000000023
 31
0.0
1001
ACDBBLOCKREPETAG
1070
     1
1071
       29
1005
17111
  0
LINE
  5
17112
  8
0
 10
400.00262000000288
 20
500.00000000000023
 30
0.0
 11
600.00262000000293
 21
800.0
 31
0.0
1001
ACDBBLOCKREPETAG
1070
     1
1071
       30
1005
17112
  0
LINE
  5
17113
  8
0
 10
1200.0026200000029
 20
500.00000000000023
 30
0.0
 11
1000.002620000003
 21
800.0
 31
0.0
1001
ACDBBLOCKREPETAG
1070
     1
1071
       31
1005
17113
  0
LINE
  5
17114
  8
0
 10
1000.002620000003
 20
800.0
 30
0.0
 11
800.00262000000293
 21
500.00000000000023
 31
0.0
1001
ACDBBLOCKREPETAG
1070
     1
1071
       32
1005
17114
  0
LINE
  5
17115
  8
0
 10
800.00262000000293
 20
500.00000000000023
 30
0.0
 11
600.00262000000293
 21
800.0
 31
0.0
1001
ACDBBLOCKREPETAG
1070
     1
1071
       33
1005
17115
  0
LINE
  5
17116
  8
0
 10
600.00262000000293
 20
500.00000000000023
 30
0.0
 11
400.00262000000288
 21
800.0
 31
0.0
1001
ACDBBLOCKREPETAG
1070
     1
1071
       34
1005
17116
  0
LINE
  5
17117
  8
0
 10
400.00262000000288
 20
800.0
 30
0.0
 11
200.00262000000291
 21
500.00000000000023
 31
0.0
1001
ACDBBLOCKREPETAG
1070
     1
1071
       35
1005
17117
  0
LINE
  5
17118
  8
0
 10
200.00262000000291
 20
500.00000000000023
 30
0.0
 11
0.0026200000029348
 21
800.0
 31
0.0
1001
ACDBBLOCKREPETAG
1070
     1
1071
       36
1005
17118
  0
LINE
  5
17119
  8
0
 10
0.0026200000029348
 20
500.00000000000023
 30
0.0
 11
200.00262000000291
 21
800.0
 31
0.0
1001
ACDBBLOCKREPETAG
1070
     1
1071
       37
1005
17119
  0
LINE
  5
1711A
  8
0
 10
600.00262000000293
 20
500.00000000000023
 30
0.0
 11
800.00262000000293
 21
800.0
 31
0.0
1001
ACDBBLOCKREPETAG
1070
     1
1071
       38
1005
1711A
  0
LINE
  5
1711B
  8
0
 10
800.00262000000293
 20
800.0
 30
0.0
 11
1000.002620000003
 21
500.00000000000023
 31
0.0
1001
ACDBBLOCKREPETAG
1070
     1
1071
       39
1005
1711B
  0
LINE
  5
1711C
  8
0
 10
1000.002620000003
 20
500.00000000000023
 30
0.0
 11
1200.0026200000029
 21
800.0
 31
0.0
1001
ACDBBLOCKREPETAG
1070
     1
1071
       40
1005
1711C
  0
LINE
  5
1711D
  8
0
 10
0.0026200000029348
 20
300.00000000000023
 30
0.0
 11
300.00262000000288
 21
500.00000000000023
 31
0.0
1001
ACDBBLOCKREPETAG
1070
     1
1071
       41
1005
1711D
  0
LINE
  5
1711E
  8
0
 10
300.00262000000288
 20
300.00000000000023
 30
0.0
 11
600.00262000000293
 21
500.00000000000023
 31
0.0
1001
ACDBBLOCKREPETAG
1070
     1
1071
       42
1005
1711E
  0
LINE
  5
1711F
  8
0
 10
600.00262000000293
 20
300.00000000000023
 30
0.0
 11
900.00262000000293
 21
500.00000000000023
 31
0.0
1001
ACDBBLOCKREPETAG
1070
     1
1071
       43
1005
1711F
  0
LINE
  5
17120
  8
0
 10
900.00262000000293
 20
300.00000000000023
 30
0.0
 11
1200.0026200000029
 21
500.00000000000023
 31
0.0
1001
ACDBBLOCKREPETAG
1070
     1
1071
       44
1005
17120
  0
LINE
  5
17121
  8
0
 10
1200.0026200000029
 20
300.00000000000023
 30
0.0
 11
900.00262000000293
 21
500.00000000000023
 31
0.0
1001
ACDBBLOCKREPETAG
1070
     1
1071
       45
1005
17121
  0
LINE
  5
17122
  8
0
 10
900.00262000000293
 20
300.00000000000023
 30
0.0
 11
600.00262000000293
 21
500.00000000000023
 31
0.0
1001
ACDBBLOCKREPETAG
1070
     1
1071
       46
1005
17122
  0
LINE
  5
17123
  8
0
 10
600.00262000000293
 20
300.00000000000023
 30
0.0
 11
300.00262000000288
 21
500.00000000000023
 31
0.0
1001
ACDBBLOCKREPETAG
1070
     1
1071
       47
1005
17123
  0
LINE
  5
17124
  8
0
 10
300.00262000000288
 20
300.00000000000023
 30
0.0
 11
0.0026200000029348
 21
500.00000000000023
 31
0.0
1001
ACDBBLOCKREPETAG
1070
     1
1071
       48
1005
17124
  0
LINE
  5
17125
  8
0
  6
CONTINUOUS
 10
575.00262000000293
 20
400.00000000000023
 30
0.0
 11
625.00262000000293
 21
400.00000000000023
 31
0.0
1001
ACDBBLOCKREPETAG
1070
     1
1071
       49
1005
17125
  0
LINE
  5
17126
  8
0
 10
50.001290000044719
 20
934.00001333333353
 30
0.0
 11
50.001290000044719
 21
-133.9999866666665
 31
0.0
1001
ACDBBLOCKREPETAG
1070
     1
1071
       50
1005
17126
  0
LINE
  5
17127
  8
0
 10
50.001290000044719
 20
-133.9999866666665
 30
0.0
 11
1150.001290000044
 21
-133.9999866666665
 31
0.0
1001
ACDBBLOCKREPETAG
1070
     1
1071
       51
1005
17127
  0
LINE
  5
17128
  8
0
 10
1150.001290000044
 20
-133.9999866666665
 30
0.0
 11
1150.001290000044
 21
934.00001333333353
 31
0.0
1001
ACDBBLOCKREPETAG
1070
     1
1071
       52
1005
17128
  0
LINE
  5
17129
  8
0
 10
1150.001290000044
 20
934.00001333333353
 30
0.0
 11
50.001290000044719
 21
934.00001333333353
 31
0.0
1001
ACDBBLOCKREPETAG
1070
     1
1071
       53
1005
17129
  0
LINE
  5
1712A
  8
0
 10
1150.001290000044
 20
578.00001333333353
 30
0.0
 11
50.001290000044719
 21
578.00001333333353
 31
0.0
1001
ACDBBLOCKREPETAG
1070
     1
1071
       54
1005
1712A
  0
LINE
  5
1712B
  8
0
 10
50.001290000044719
 20
222.0000133333335
 30
0.0
 11
1150.001290000044
 21
222.0000133333335
 31
0.0
1001
ACDBBLOCKREPETAG
1070
     1
1071
       55
1005
1712B
  0
LINE
  5
1712C
  8
0
 10
875.00129000004472
 20
-133.9999866666665
 30
0.0
 11
875.00129000004472
 21
934.00001333333353
 31
0.0
1001
ACDBBLOCKREPETAG
1070
     1
1071
       56
1005
1712C
  0
LINE
  5
1712D
  8
0
 10
600.00129000004472
 20
934.00001333333353
 30
0.0
 11
600.00129000004472
 21
-133.9999866666665
 31
0.0
1001
ACDBBLOCKREPETAG
1070
     1
1071
       57
1005
1712D
  0
LINE
  5
1712E
  8
0
 10
325.00129000004472
 20
-133.99998666666551
 30
0.0
 11
325.00129000004472
 21
934.00001333333353
 31
0.0
1001
ACDBBLOCKREPETAG
1070
     1
1071
       58
1005
1712E
  0
LINE
  5
1712F
  8
0
 10
1150.001290000044
 20
934.00001333333353
 30
0.0
 11
875.00129000004472
 21
578.00001333333353
 31
0.0
1001
ACDBBLOCKREPETAG
1070
     1
1071
       59
1005
1712F
  0
LINE
  5
17130
  8
0
 10
875.00129000004472
 20
578.00001333333353
 30
0.0
 11
1150.001290000044
 21
222.0000133333335
 31
0.0
1001
ACDBBLOCKREPETAG
1070
     1
1071
       60
1005
17130
  0
LINE
  5
17131
  8
0
 10
1150.001290000044
 20
222.0000133333335
 30
0.0
 11
875.00129000004472
 21
-133.9999866666665
 31
0.0
1001
ACDBBLOCKREPETAG
1070
     1
1071
       61
1005
17131
  0
LINE
  5
17132
  8
0
 10
875.00129000004472
 20
-133.9999866666665
 30
0.0
 11
600.00129000004472
 21
222.0000133333335
 31
0.0
1001
ACDBBLOCKREPETAG
1070
     1
1071
       62
1005
17132
  0
LINE
  5
17133
  8
0
 10
600.00129000004472
 20
222.0000133333335
 30
0.0
 11
875.00129000004472
 21
578.00001333333353
 31
0.0
1001
ACDBBLOCKREPETAG
1070
     1
1071
       63
1005
17133
  0
LINE
  5
17134
  8
0
 10
875.00129000004472
 20
578.00001333333353
 30
0.0
 11
600.00129000004472
 21
934.00001333333353
 31
0.0
1001
ACDBBLOCKREPETAG
1070
     1
1071
       64
1005
17134
  0
LINE
  5
17135
  8
0
 10
600.00129000004472
 20
934.00001333333353
 30
0.0
 11
325.00129000004472
 21
578.00001333333353
 31
0.0
1001
ACDBBLOCKREPETAG
1070
     1
1071
       65
1005
17135
  0
LINE
  5
17136
  8
0
 10
325.00129000004472
 20
578.00001333333353
 30
0.0
 11
600.00129000004472
 21
222.0000133333335
 31
0.0
1001
ACDBBLOCKREPETAG
1070
     1
1071
       66
1005
17136
  0
LINE
  5
17137
  8
0
 10
600.00129000004472
 20
222.0000133333335
 30
0.0
 11
325.00129000004472
 21
-133.9999866666665
 31
0.0
1001
ACDBBLOCKREPETAG
1070
     1
1071
       67
1005
17137
  0
LINE
  5
17138
  8
0
 10
325.00129000004472
 20
-133.9999866666665
 30
0.0
 11
50.001290000044719
 21
222.0000133333335
 31
0.0
1001
ACDBBLOCKREPETAG
1070
     1
1071
       68
1005
17138
  0
LINE
  5
17139
  8
0
 10
50.001290000044719
 20
222.0000133333335
 30
0.0
 11
325.00129000004472
 21
578.00001333333353
 31
0.0
1001
ACDBBLOCKREPETAG
1070
     1
1071
       69
1005
17139
  0
LINE
  5
1713A
  8
0
 10
325.00129000004472
 20
578.00001333333353
 30
0.0
 11
50.001290000044719
 21
934.00001333333353
 31
0.0
1001
ACDBBLOCKREPETAG
1070
     1
1071
       70
1005
1713A
  0
LINE
  5
1713B
  8
0
 10
50.001290000044719
 20
-133.9999866666665
 30
0.0
 11
325.00129000004472
 21
222.0000133333335
 31
0.0
1001
ACDBBLOCKREPETAG
1070
     1
1071
       71
1005
1713B
  0
LINE
  5
1713C
  8
0
 10
325.00129000004472
 20
222.0000133333335
 30
0.0
 11
50.001290000044719
 21
578.00001333333353
 31
0.0
1001
ACDBBLOCKREPETAG
1070
     1
1071
       72
1005
1713C
  0
LINE
  5
1713D
  8
0
 10
50.001290000044719
 20
578.00001333333353
 30
0.0
 11
325.00129000004472
 21
934.00001333333353
 31
0.0
1001
ACDBBLOCKREPETAG
1070
     1
1071
       73
1005
1713D
  0
LINE
  5
1713E
  8
0
 10
325.00129000004472
 20
934.00001333333353
 30
0.0
 11
600.00129000004472
 21
578.00001333333353
 31
0.0
1001
ACDBBLOCKREPETAG
1070
     1
1071
       74
1005
1713E
  0
LINE
  5
1713F
  8
0
 10
600.00129000004472
 20
578.00001333333353
 30
0.0
 11
325.00129000004472
 21
222.0000133333335
 31
0.0
1001
ACDBBLOCKREPETAG
1070
     1
1071
       75
1005
1713F
  0
LINE
  5
17140
  8
0
 10
325.00129000004472
 20
222.0000133333335
 30
0.0
 11
600.00129000004472
 21
-133.9999866666665
 31
0.0
1001
ACDBBLOCKREPETAG
1070
     1
1071
       76
1005
17140
  0
LINE
  5
17141
  8
0
 10
600.00129000004472
 20
-133.9999866666665
 30
0.0
 11
875.00129000004472
 21
222.0000133333335
 31
0.0
1001
ACDBBLOCKREPETAG
1070
     1
1071
       77
1005
17141
  0
LINE
  5
17142
  8
0
 10
875.00129000004472
 20
222.0000133333335
 30
0.0
 11
600.00129000004472
 21
578.00001333333353
 31
0.0
1001
ACDBBLOCKREPETAG
1070
     1
1071
       78
1005
17142
  0
LINE
  5
17143
  8
0
 10
600.00129000004472
 20
578.00001333333353
 30
0.0
 11
875.00129000004472
 21
934.00001333333353
 31
0.0
1001
ACDBBLOCKREPETAG
1070
     1
1071
       79
1005
17143
  0
LINE
  5
17144
  8
0
 10
875.00129000004472
 20
934.00001333333353
 30
0.0
 11
1150.001290000044
 21
578.00001333333353
 31
0.0
1001
ACDBBLOCKREPETAG
1070
     1
1071
       80
1005
17144
  0
LINE
  5
17145
  8
0
 10
1150.001290000044
 20
578.00001333333353
 30
0.0
 11
875.00129000004472
 21
222.0000133333335
 31
0.0
1001
ACDBBLOCKREPETAG
1070
     1
1071
       81
1005
17145
  0
LINE
  5
17146
  8
0
 10
875.00129000004472
 20
222.0000133333335
 30
0.0
 11
1150.001290000044
 21
-133.9999866666665
 31
0.0
1001
ACDBBLOCKREPETAG
1070
     1
1071
       82
1005
17146
  0
LINE
  5
17147
  8
0
 10
1200.003872612335
 20
-0.001708412066364
 30
0.0
 11
1200.0038726123339
 21
799.99829158793273
 31
0.0
1001
ACDBBLOCKREPETAG
1070
     1
1071
       83
1005
17147
  0
LINE
  5
17148
  8
0
 10
1200.0038726123339
 20
799.99829158793273
 30
0.0
 11
0.0038726123334527
 21
799.99829158793273
 31
0.0
1001
ACDBBLOCKREPETAG
1070
     1
1071
       84
1005
17148
  0
LINE
  5
17149
  8
0
 10
0.0038726123334527
 20
799.99829158793273
 30
0.0
 11
0.0038726123343622
 21
-0.0017084120672735
 31
0.0
1001
ACDBBLOCKREPETAG
1070
     1
1071
       85
1005
17149
  0
LINE
  5
1714A
  8
0
 10
0.0038726123343622
 20
-0.0017084120672735
 30
0.0
 11
1200.003872612335
 21
-0.001708412066364
 31
0.0
1001
ACDBBLOCKREPETAG
1070
     1
1071
       86
1005
1714A
  0
LINE
  5
1714B
  8
0
 10
0.003872612334817
 20
399.99829158793273
 30
0.0
 11
1200.0038726123339
 21
399.99829158793358
 31
0.0
1001
ACDBBLOCKREPETAG
1070
     1
1071
       87
1005
1714B
  0
LINE
  5
1714C
  8
0
 10
900.00387261233527
 20
-0.0017084120672735
 30
0.0
 11
900.00387261233436
 21
799.99829158793273
 31
0.0
1001
ACDBBLOCKREPETAG
1070
     1
1071
       88
1005
1714C
  0
LINE
  5
1714D
  8
0
 10
600.00387261233425
 20
799.99829158793273
 30
0.0
 11
600.00387261233516
 21
-0.0017084120672735
 31
0.0
1001
ACDBBLOCKREPETAG
1070
     1
1071
       89
1005
1714D
  0
LINE
  5
1714E
  8
0
 10
300.00387261233527
 20
-0.0017084120672735
 30
0.0
 11
300.00387261233442
 21
799.99829158793455
 31
0.0
1001
ACDBBLOCKREPETAG
1070
     1
1071
       90
1005
1714E
  0
LINE
  5
1714F
  8
0
 10
0.0038726123343622
 20
-0.0017084120672735
 30
0.0
 11
300.00387261233442
 21
399.99829158793273
 31
0.0
1001
ACDBBLOCKREPETAG
1070
     1
1071
       91
1005
1714F
  0
LINE
  5
17150
  8
0
 10
300.00387261233442
 20
399.99829158793273
 30
0.0
 11
600.00387261233516
 21
-0.0017084120672735
 31
0.0
1001
ACDBBLOCKREPETAG
1070
     1
1071
       92
1005
17150
  0
LINE
  5
17151
  8
0
 10
600.00387261233516
 20
-0.0017084120672735
 30
0.0
 11
900.00387261233436
 21
399.99829158793273
 31
0.0
1001
ACDBBLOCKREPETAG
1070
     1
1071
       93
1005
17151
  0
LINE
  5
17152
  8
0
 10
900.00387261233436
 20
399.99829158793273
 30
0.0
 11
600.00387261233425
 21
799.99829158793273
 31
0.0
1001
ACDBBLOCKREPETAG
1070
     1
1071
       94
1005
17152
  0
LINE
  5
17153
  8
0
 10
600.00387261233425
 20
799.99829158793273
 30
0.0
 11
300.00387261233442
 21
399.99829158793273
 31
0.0
1001
ACDBBLOCKREPETAG
1070
     1
1071
       95
1005
17153
  0
LINE
  5
17154
  8
0
 10
300.00387261233442
 20
399.99829158793273
 30
0.0
 11
0.0038726123334527
 21
799.99829158793273
 31
0.0
1001
ACDBBLOCKREPETAG
1070
     1
1071
       96
1005
17154
  0
LINE
  5
17155
  8
0
 10
300.00387261233442
 20
799.99829158793455
 30
0.0
 11
0.003872612334817
 21
399.99829158793273
 31
0.0
1001
ACDBBLOCKREPETAG
1070
     1
1071
       97
1005
17155
  0
LINE
  5
17156
  8
0
 10
0.003872612334817
 20
399.99829158793273
 30
0.0
 11
300.00387261233527
 21
-0.0017084120672735
 31
0.0
1001
ACDBBLOCKREPETAG
1070
     1
1071
       98
1005
17156
  0
LINE
  5
17157
  8
0
 10
300.00387261233527
 20
-0.0017084120672735
 30
0.0
 11
600.00387261233425
 21
399.99829158793273
 31
0.0
1001
ACDBBLOCKREPETAG
1070
     1
1071
       99
1005
17157
  0
LINE
  5
17158
  8
0
 10
600.00387261233425
 20
399.99829158793273
 30
0.0
 11
900.00387261233527
 21
-0.0017084120672735
 31
0.0
1001
ACDBBLOCKREPETAG
1070
     1
1071
      100
1005
17158
  0
LINE
  5
17159
  8
0
 10
900.00387261233527
 20
-0.0017084120672735
 30
0.0
 11
1200.0038726123339
 21
399.99829158793358
 31
0.0
1001
ACDBBLOCKREPETAG
1070
     1
1071
      101
1005
17159
  0
LINE
  5
1715A
  8
0
 10
1200.0038726123339
 20
399.99829158793358
 30
0.0
 11
900.00387261233436
 21
799.99829158793273
 31
0.0
1001
ACDBBLOCKREPETAG
1070
     1
1071
      102
1005
1715A
  0
LINE
  5
1715B
  8
0
 10
900.00387261233436
 20
799.99829158793273
 30
0.0
 11
600.00387261233425
 21
399.99829158793273
 31
0.0
1001
ACDBBLOCKREPETAG
1070
     1
1071
      103
1005
1715B
  0
LINE
  5
1715C
  8
0
 10
600.00387261233425
 20
399.99829158793273
 30
0.0
 11
300.00387261233442
 21
799.99829158793455
 31
0.0
1001
ACDBBLOCKREPETAG
1070
     1
1071
      104
1005
1715C
  0
LINE
  5
1715D
  8
0
 10
1200.003872612335
 20
-0.001708412066364
 30
0.0
 11
900.00387261233436
 21
399.99829158793273
 31
0.0
1001
ACDBBLOCKREPETAG
1070
     1
1071
      105
1005
1715D
  0
LINE
  5
1715E
  8
0
 10
900.00387261233436
 20
399.99829158793273
 30
0.0
 11
1200.0038726123339
 21
799.99829158793273
 31
0.0
1001
ACDBBLOCKREPETAG
1070
     1
1071
      106
1005
1715E
  0
LINE
  5
1715F
  8
0
 10
900.00262000000293
 20
600.0
 30
0.0
 11
600.00262000000293
 21
800.0
 31
0.0
1001
ACDBBLOCKREPETAG
1070
     1
1071
      107
1005
1715F
  0
LINE
  5
17160
  8
0
 10
600.00262000000293
 20
600.0
 30
0.0
 11
900.00262000000293
 21
800.0
 31
0.0
1001
ACDBBLOCKREPETAG
1070
     1
1071
      108
1005
17160
  0
LINE
  5
17161
  8
0
 10
800.00262000000293
 20
600.0
 30
0.0
 11
600.00262000000293
 21
300.0
 31
0.0
1001
ACDBBLOCKREPETAG
1070
     1
1071
      109
1005
17161
  0
LINE
  5
17162
  8
0
 10
0.0026200000029917
 20
600.0
 30
0.0
 11
1200.0026200000029
 21
600.0
 31
0.0
1001
ACDBBLOCKREPETAG
1070
     1
1071
      110
1005
17162
  0
LINE
  5
17163
  8
0
 10
800.00262000000293
 20
300.0
 30
0.0
 11
600.00262000000293
 21
600.0
 31
0.0
1001
ACDBBLOCKREPETAG
1070
     1
1071
      111
1005
17163
  0
LINE
  5
17164
  8
0
 10
600.00262000000293
 20
0.0
 30
0.0
 11
800.00262000000293
 21
300.0
 31
0.0
1001
ACDBBLOCKREPETAG
1070
     1
1071
      112
1005
17164
  0
LINE
  5
17165
  8
0
 10
1200.0026200000029
 20
300.0
 30
0.0
 11
0.0026200000029917
 21
300.0
 31
0.0
1001
ACDBBLOCKREPETAG
1070
     1
1071
      113
1005
17165
  0
LINE
  5
17166
  8
0
 10
600.00262000000293
 20
300.0
 30
0.0
 11
800.00262000000293
 21
0.0
 31
0.0
1001
ACDBBLOCKREPETAG
1070
     1
1071
      114
1005
17166
  0
LINE
  5
17167
  8
0
 10
1200.0026200000029
 20
800.0
 30
0.0
 11
0.0026200000029917
 21
800.0
 31
0.0
1001
ACDBBLOCKREPETAG
1070
     1
1071
      115
1005
17167
  0
LINE
  5
17168
  8
0
 10
0.0026200000029917
 20
0.0
 30
0.0
 11
1200.0026200000029
 21
0.0
 31
0.0
1001
ACDBBLOCKREPETAG
1070
     1
1071
      116
1005
17168
  0
LINE
  5
17169
  8
0
 10
600.00262000000293
 20
800.0
 30
0.0
 11
600.00262000000293
 21
0.0
 31
0.0
1001
ACDBBLOCKREPETAG
1070
     1
1071
      117
1005
17169
  0
LINE
  5
1716A
  8
0
 10
400.00262000000288
 20
0.0
 30
0.0
 11
400.00262000000288
 21
600.0
 31
0.0
1001
ACDBBLOCKREPETAG
1070
     1
1071
      118
1005
1716A
  0
LINE
  5
1716B
  8
0
 10
200.00262000000299
 20
600.0
 30
0.0
 11
200.00262000000299
 21
0.0
 31
0.0
1001
ACDBBLOCKREPETAG
1070
     1
1071
      119
1005
1716B
  0
LINE
  5
1716C
  8
0
 10
200.00262000000299
 20
300.0
 30
0.0
 11
0.0026200000029917
 21
600.0
 31
0.0
1001
ACDBBLOCKREPETAG
1070
     1
1071
      120
1005
1716C
  0
LINE
  5
1716D
  8
0
 10
400.00262000000288
 20
600.0
 30
0.0
 11
200.00262000000299
 21
300.0
 31
0.0
1001
ACDBBLOCKREPETAG
1070
     1
1071
      121
1005
1716D
  0
LINE
  5
1716E
  8
0
 10
600.00262000000293
 20
300.0
 30
0.0
 11
400.00262000000288
 21
600.0
 31
0.0
1001
ACDBBLOCKREPETAG
1070
     1
1071
      122
1005
1716E
  0
LINE
  5
1716F
  8
0
 10
200.00262000000299
 20
600.0
 30
0.0
 11
0.0026200000029917
 21
300.0
 31
0.0
1001
ACDBBLOCKREPETAG
1070
     1
1071
      123
1005
1716F
  0
LINE
  5
17170
  8
0
 10
400.00262000000288
 20
300.0
 30
0.0
 11
200.00262000000299
 21
600.0
 31
0.0
1001
ACDBBLOCKREPETAG
1070
     1
1071
      124
1005
17170
  0
LINE
  5
17171
  8
0
 10
600.00262000000293
 20
600.0
 30
0.0
 11
400.00262000000288
 21
300.0
 31
0.0
1001
ACDBBLOCKREPETAG
1070
     1
1071
      125
1005
17171
  0
LINE
  5
17172
  8
0
 10
0.0026200000029917
 20
800.0
 30
0.0
 11
0.0026200000029917
 21
0.0
 31
0.0
1001
ACDBBLOCKREPETAG
1070
     1
1071
      126
1005
17172
  0
LINE
  5
17173
  8
0
 10
0.0026200000029917
 20
300.0
 30
0.0
 11
200.00262000000299
 21
0.0
 31
0.0
1001
ACDBBLOCKREPETAG
1070
     1
1071
      127
1005
17173
  0
LINE
  5
17174
  8
0
 10
0.0026200000029917
 20
0.0
 30
0.0
 11
200.00262000000299
 21
300.0
 31
0.0
1001
ACDBBLOCKREPETAG
1070
     1
1071
      128
1005
17174
  0
LINE
  5
17175
  8
0
 10
400.00262000000288
 20
300.0
 30
0.0
 11
600.00262000000293
 21
0.0
 31
0.0
1001
ACDBBLOCKREPETAG
1070
     1
1071
      129
1005
17175
  0
LINE
  5
17176
  8
0
 10
200.00262000000299
 20
0.0
 30
0.0
 11
400.00262000000288
 21
300.0
 31
0.0
1001
ACDBBLOCKREPETAG
1070
     1
1071
      130
1005
17176
  0
LINE
  5
17177
  8
0
 10
400.00262000000288
 20
0.0
 30
0.0
 11
600.00262000000293
 21
300.0
 31
0.0
1001
ACDBBLOCKREPETAG
1070
     1
1071
      131
1005
17177
  0
LINE
  5
17178
  8
0
 10
200.00262000000299
 20
300.0
 30
0.0
 11
400.00262000000288
 21
0.0
 31
0.0
1001
ACDBBLOCKREPETAG
1070
     1
1071
      132
1005
17178
  0
LINE
  5
17179
  8
0
  6
CONTINUOUS
 10
575.00262000000293
 20
400.0
 30
0.0
 11
625.00262000000293
 21
400.0
 31
0.0
1001
ACDBBLOCKREPETAG
1070
     1
1071
      133
1005
17179
  0
LINE
  5
1717A
  8
0
 10
300.00262000000299
 20
600.0
 30
0.0
 11
0.0026200000029917
 21
800.0
 31
0.0
1001
ACDBBLOCKREPETAG
1070
     1
1071
      134
1005
1717A
  0
LINE
  5
1717B
  8
0
 10
0.0026200000029917
 20
600.0
 30
0.0
 11
300.00262000000299
 21
800.0
 31
0.0
1001
ACDBBLOCKREPETAG
1070
     1
1071
      135
1005
1717B
  0
LINE
  5
1717C
  8
0
 10
600.00262000000293
 20
800.0
 30
0.0
 11
300.00262000000299
 21
600.0
 31
0.0
1001
ACDBBLOCKREPETAG
1070
     1
1071
      136
1005
1717C
  0
LINE
  5
1717D
  8
0
 10
300.00262000000299
 20
800.0
 30
0.0
 11
600.00262000000293
 21
600.0
 31
0.0
1001
ACDBBLOCKREPETAG
1070
     1
1071
      137
1005
1717D
  0
LINE
  5
1717E
  8
0
 10
300.00262000000299
 20
800.0
 30
0.0
 11
300.00262000000299
 21
600.0
 31
0.0
1001
ACDBBLOCKREPETAG
1070
     1
1071
      138
1005
1717E
  0
LINE
  5
1717F
  8
0
 10
1000.002620000003
 20
600.0
 30
0.0
 11
1200.0026200000029
 21
300.0
 31
0.0
1001
ACDBBLOCKREPETAG
1070
     1
1071
      139
1005
1717F
  0
LINE
  5
17180
  8
0
 10
800.00262000000293
 20
300.0
 30
0.0
 11
1000.002620000003
 21
600.0
 31
0.0
1001
ACDBBLOCKREPETAG
1070
     1
1071
      140
1005
17180
  0
LINE
  5
17181
  8
0
 10
1000.002620000003
 20
0.0
 30
0.0
 11
1000.002620000003
 21
600.0
 31
0.0
1001
ACDBBLOCKREPETAG
1070
     1
1071
      141
1005
17181
  0
LINE
  5
17182
  8
0
 10
800.00262000000293
 20
0.0
 30
0.0
 11
800.00262000000293
 21
600.0
 31
0.0
1001
ACDBBLOCKREPETAG
1070
     1
1071
      142
1005
17182
  0
LINE
  5
17183
  8
0
 10
1000.002620000003
 20
300.0
 30
0.0
 11
800.00262000000293
 21
600.0
 31
0.0
1001
ACDBBLOCKREPETAG
1070
     1
1071
      143
1005
17183
  0
LINE
  5
17184
  8
0
 10
1200.0026200000029
 20
600.0
 30
0.0
 11
1000.002620000003
 21
300.0
 31
0.0
1001
ACDBBLOCKREPETAG
1070
     1
1071
      144
1005
17184
  0
LINE
  5
17185
  8
0
 10
1200.0026200000029
 20
0.0
 30
0.0
 11
1200.0026200000029
 21
800.0
 31
0.0
1001
ACDBBLOCKREPETAG
1070
     1
1071
      145
1005
17185
  0
LINE
  5
17186
  8
0
 10
1000.002620000003
 20
0.0
 30
0.0
 11
1200.0026200000029
 21
300.0
 31
0.0
1001
ACDBBLOCKREPETAG
1070
     1
1071
      146
1005
17186
  0
LINE
  5
17187
  8
0
 10
800.00262000000293
 20
300.0
 30
0.0
 11
1000.002620000003
 21
0.0
 31
0.0
1001
ACDBBLOCKREPETAG
1070
     1
1071
      147
1005
17187
  0
LINE
  5
17188
  8
0
 10
1000.002620000003
 20
300.0
 30
0.0
 11
1200.0026200000029
 21
0.0
 31
0.0
1001
ACDBBLOCKREPETAG
1070
     1
1071
      148
1005
17188
  0
LINE
  5
17189
  8
0
 10
800.00262000000293
 20
0.0
 30
0.0
 11
1000.002620000003
 21
300.0
 31
0.0
1001
ACDBBLOCKREPETAG
1070
     1
1071
      149
1005
17189
  0
LINE
  5
1718A
  8
0
 10
900.00262000000293
 20
600.0
 30
0.0
 11
1200.0026200000029
 21
800.0
 31
0.0
1001
ACDBBLOCKREPETAG
1070
     1
1071
      150
1005
1718A
  0
LINE
  5
1718B
  8
0
 10
1200.0026200000029
 20
600.0
 30
0.0
 11
900.00262000000293
 21
800.0
 31
0.0
1001
ACDBBLOCKREPETAG
1070
     1
1071
      151
1005
1718B
  0
LINE
  5
1718C
  8
0
 10
900.00262000000293
 20
800.0
 30
0.0
 11
900.00262000000293
 21
600.0
 31
0.0
1001
ACDBBLOCKREPETAG
1070
     1
1071
      152
1005
1718C
  0
LINE
  5
1718D
  8
0
 10
0.0026600000005601
 20
800.0
 30
0.0
 11
0.0
 21
0.0
 31
0.0
1001
ACDBBLOCKREPETAG
1070
     1
1071
      153
1005
1718D
  0
LINE
  5
1718E
  8
0
 10
599.9999600000001
 20
0.0
 30
0.0
 11
600.00262000000112
 21
800.0
 31
0.0
1001
ACDBBLOCKREPETAG
1070
     1
1071
      154
1005
1718E
  0
LINE
  5
1718F
  8
0
 10
300.00266000000101
 20
800.0
 30
0.0
 11
299.99999999999909
 21
0.0
 31
0.0
1001
ACDBBLOCKREPETAG
1070
     1
1071
      155
1005
1718F
  0
LINE
  5
17190
  8
0
 10
0.0020000000004075
 20
600.0
 30
0.0
 11
899.99995999999999
 21
0.0
 31
0.0
1001
ACDBBLOCKREPETAG
1070
     1
1071
      156
1005
17190
  0
LINE
  5
17191
  8
0
 10
300.00266000000101
 20
800.0
 30
0.0
 11
1200.0006200000009
 21
200.0
 31
0.0
1001
ACDBBLOCKREPETAG
1070
     1
1071
      157
1005
17191
  0
LINE
  5
17192
  8
0
 10
0.00132000000076
 20
400.0
 30
0.0
 11
600.00262000000112
 21
800.0
 31
0.0
1001
ACDBBLOCKREPETAG
1070
     1
1071
      158
1005
17192
  0
LINE
  5
17193
  8
0
 10
0.0006600000001526
 20
200.0
 30
0.0
 11
900.00262000000112
 21
800.0
 31
0.0
1001
ACDBBLOCKREPETAG
1070
     1
1071
      159
1005
17193
  0
LINE
  5
17194
  8
0
 10
600.00262000000112
 20
800.0
 30
0.0
 11
1200.00128
 21
400.0
 31
0.0
1001
ACDBBLOCKREPETAG
1070
     1
1071
      160
1005
17194
  0
LINE
  5
17195
  8
0
 10
0.0
 20
0.0
 30
0.0
 11
1200.0026200000009
 21
800.0
 31
0.0
1001
ACDBBLOCKREPETAG
1070
     1
1071
      161
1005
17195
  0
LINE
  5
17196
  8
0
 10
299.99999999999909
 20
0.0
 30
0.0
 11
1200.0019600000001
 21
600.0
 31
0.0
1001
ACDBBLOCKREPETAG
1070
     1
1071
      162
1005
17196
  0
LINE
  5
17197
  8
0
 10
0.0026600000005601
 20
800.0
 30
0.0
 11
1199.9999600000001
 21
0.0
 31
0.0
1001
ACDBBLOCKREPETAG
1070
     1
1071
      163
1005
17197
  0
LINE
  5
17198
  8
0
 10
900.00262000000112
 20
800.0
 30
0.0
 11
899.99995999999999
 21
0.0
 31
0.0
1001
ACDBBLOCKREPETAG
1070
     1
1071
      164
1005
17198
  0
LINE
  5
17199
  8
0
 10
1199.9999600000001
 20
0.0
 30
0.0
 11
1200.0026200000009
 21
800.0
 31
0.0
1001
ACDBBLOCKREPETAG
1070
     1
1071
      165
1005
17199
  0
LINE
  5
1719A
  8
0
 10
0.0
 20
0.0
 30
0.0
 11
1199.9999600000001
 21
0.0
 31
0.0
1001
ACDBBLOCKREPETAG
1070
     1
1071
      166
1005
1719A
  0
LINE
  5
1719B
  8
0
 10
0.0013400000002548
 20
400.0
 30
0.0
 11
599.9999600000001
 21
0.0
 31
0.0
1001
ACDBBLOCKREPETAG
1070
     1
1071
      167
1005
1719B
  0
LINE
  5
1719C
  8
0
 10
1200.00128
 20
400.0
 30
0.0
 11
0.0013400000002548
 21
400.0
 31
0.0
1001
ACDBBLOCKREPETAG
1070
     1
1071
      168
1005
1719C
  0
LINE
  5
1719D
  8
0
 10
0.0006600000001526
 20
200.0
 30
0.0
 11
1200.0006200000009
 21
200.0
 31
0.0
1001
ACDBBLOCKREPETAG
1070
     1
1071
      169
1005
1719D
  0
LINE
  5
1719E
  8
0
 10
0.0006600000001526
 20
200.0
 30
0.0
 11
299.99999999999909
 21
0.0
 31
0.0
1001
ACDBBLOCKREPETAG
1070
     1
1071
      170
1005
1719E
  0
LINE
  5
1719F
  8
0
 10
599.9999600000001
 20
0.0
 30
0.0
 11
1200.00128
 21
400.0
 31
0.0
1001
ACDBBLOCKREPETAG
1070
     1
1071
      171
1005
1719F
  0
LINE
  5
171A0
  8
0
 10
899.99995999999999
 20
0.0
 30
0.0
 11
1200.0006200000009
 21
200.0
 31
0.0
1001
ACDBBLOCKREPETAG
1070
     1
1071
      172
1005
171A0
  0
LINE
  5
171A1
  8
0
 10
1200.0026200000009
 20
800.0
 30
0.0
 11
0.0026600000005601
 21
800.0
 31
0.0
1001
ACDBBLOCKREPETAG
1070
     1
1071
      173
1005
171A1
  0
LINE
  5
171A2
  8
0
 10
0.0020000000004075
 20
600.0
 30
0.0
 11
1200.0019600000001
 21
600.0
 31
0.0
1001
ACDBBLOCKREPETAG
1070
     1
1071
      174
1005
171A2
  0
LINE
  5
171A3
  8
0
 10
0.0020000000004075
 20
600.0
 30
0.0
 11
300.00266000000101
 21
800.0
 31
0.0
1001
ACDBBLOCKREPETAG
1070
     1
1071
      175
1005
171A3
  0
LINE
  5
171A4
  8
0
 10
900.00262000000112
 20
800.0
 30
0.0
 11
1200.0019600000001
 21
600.0
 31
0.0
1001
ACDBBLOCKREPETAG
1070
     1
1071
      176
1005
171A4
  0
LINE
  5
171A5
  8
0
 10
1200.002619999826
 20
-100.001708411978
 30
0.0
 11
1200.002619999826
 21
899.99829158802015
 31
0.0
1001
ACDBBLOCKREPETAG
1070
     1
1071
      177
1005
171A5
  0
LINE
  5
171A6
  8
0
 10
1200.002619999826
 20
899.99829158802015
 30
0.0
 11
0.0026199998237644
 21
899.99829158802197
 31
0.0
1001
ACDBBLOCKREPETAG
1070
     1
1071
      178
1005
171A6
  0
LINE
  5
171A7
  8
0
 10
0.0026199998237644
 20
899.99829158802197
 30
0.0
 11
0.0026199998269476
 21
-100.0017084119789
 31
0.0
1001
ACDBBLOCKREPETAG
1070
     1
1071
      179
1005
171A7
  0
LINE
  5
171A8
  8
0
 10
0.0026199998255834
 20
199.998291588021
 30
0.0
 11
1200.002619999826
 21
199.99829158802191
 31
0.0
1001
ACDBBLOCKREPETAG
1070
     1
1071
      180
1005
171A8
  0
LINE
  5
171A9
  8
0
 10
0.0026199998255834
 20
499.998291588021
 30
0.0
 11
1200.002619999826
 21
499.99829158802191
 31
0.0
1001
ACDBBLOCKREPETAG
1070
     1
1071
      181
1005
171A9
  0
LINE
  5
171AA
  8
0
 10
900.00261999982649
 20
499.998291588021
 30
0.0
 11
900.00261999982649
 21
899.99829158802015
 31
0.0
1001
ACDBBLOCKREPETAG
1070
     1
1071
      182
1005
171AA
  0
LINE
  5
171AB
  8
0
 10
600.00261999982649
 20
899.99829158802095
 30
0.0
 11
600.00261999982649
 21
499.998291588021
 31
0.0
1001
ACDBBLOCKREPETAG
1070
     1
1071
      183
1005
171AB
  0
LINE
  5
171AC
  8
0
 10
300.00261999982558
 20
499.998291588021
 30
0.0
 11
300.00261999982558
 21
899.99829158802197
 31
0.0
1001
ACDBBLOCKREPETAG
1070
     1
1071
      184
1005
171AC
  0
LINE
  5
171AD
  8
0
 10
900.00261999982649
 20
499.998291588021
 30
0.0
 11
600.00261999982649
 21
899.99829158802095
 31
0.0
1001
ACDBBLOCKREPETAG
1070
     1
1071
      185
1005
171AD
  0
LINE
  5
171AE
  8
0
 10
600.00261999982649
 20
899.99829158802095
 30
0.0
 11
300.00261999982558
 21
499.998291588021
 31
0.0
1001
ACDBBLOCKREPETAG
1070
     1
1071
      186
1005
171AE
  0
LINE
  5
171AF
  8
0
 10
300.00261999982558
 20
499.998291588021
 30
0.0
 11
0.0026199998237644
 21
899.99829158802197
 31
0.0
1001
ACDBBLOCKREPETAG
1070
     1
1071
      187
1005
171AF
  0
LINE
  5
171B0
  8
0
 10
300.00261999982558
 20
899.99829158802197
 30
0.0
 11
0.0026199998255834
 21
499.998291588021
 31
0.0
1001
ACDBBLOCKREPETAG
1070
     1
1071
      188
1005
171B0
  0
LINE
  5
171B1
  8
0
 10
1200.002619999826
 20
499.99829158802191
 30
0.0
 11
900.00261999982649
 21
899.99829158802015
 31
0.0
1001
ACDBBLOCKREPETAG
1070
     1
1071
      189
1005
171B1
  0
LINE
  5
171B2
  8
0
 10
900.00261999982649
 20
899.99829158802015
 30
0.0
 11
600.00261999982649
 21
499.998291588021
 31
0.0
1001
ACDBBLOCKREPETAG
1070
     1
1071
      190
1005
171B2
  0
LINE
  5
171B3
  8
0
 10
600.00261999982649
 20
499.998291588021
 30
0.0
 11
300.00261999982558
 21
899.99829158802197
 31
0.0
1001
ACDBBLOCKREPETAG
1070
     1
1071
      191
1005
171B3
  0
LINE
  5
171B4
  8
0
 10
900.00261999982649
 20
499.998291588021
 30
0.0
 11
1200.002619999826
 21
899.99829158802015
 31
0.0
1001
ACDBBLOCKREPETAG
1070
     1
1071
      192
1005
171B4
  0
LINE
  5
171B5
  8
0
 10
0.0026199998269476
 20
-100.0017084119789
 30
0.0
 11
1200.002619999826
 21
-100.001708411978
 31
0.0
1001
ACDBBLOCKREPETAG
1070
     1
1071
      193
1005
171B5
  0
LINE
  5
171B6
  8
0
 10
400.00261999982558
 20
499.998291588021
 30
0.0
 11
400.00261999982558
 21
-100.0017084119789
 31
0.0
1001
ACDBBLOCKREPETAG
1070
     1
1071
      194
1005
171B6
  0
LINE
  5
171B7
  8
0
 10
800.00261999982649
 20
499.998291588021
 30
0.0
 11
800.00261999982649
 21
-100.0017084119789
 31
0.0
1001
ACDBBLOCKREPETAG
1070
     1
1071
      195
1005
171B7
  0
LINE
  5
171B8
  8
0
 10
0.0026199998269476
 20
-100.0017084119789
 30
0.0
 11
400.00261999982558
 21
199.998291588021
 31
0.0
1001
ACDBBLOCKREPETAG
1070
     1
1071
      196
1005
171B8
  0
LINE
  5
171B9
  8
0
 10
400.00261999982558
 20
199.998291588021
 30
0.0
 11
800.00261999982649
 21
-100.0017084119789
 31
0.0
1001
ACDBBLOCKREPETAG
1070
     1
1071
      197
1005
171B9
  0
LINE
  5
171BA
  8
0
 10
800.00261999982649
 20
-100.0017084119789
 30
0.0
 11
1200.002619999826
 21
199.99829158802191
 31
0.0
1001
ACDBBLOCKREPETAG
1070
     1
1071
      198
1005
171BA
  0
LINE
  5
171BB
  8
0
 10
1200.002619999826
 20
199.99829158802191
 30
0.0
 11
800.00261999982649
 21
499.998291588021
 31
0.0
1001
ACDBBLOCKREPETAG
1070
     1
1071
      199
1005
171BB
  0
LINE
  5
171BC
  8
0
 10
800.00261999982649
 20
499.998291588021
 30
0.0
 11
400.00261999982558
 21
199.998291588021
 31
0.0
1001
ACDBBLOCKREPETAG
1070
     1
1071
      200
1005
171BC
  0
LINE
  5
171BD
  8
0
 10
400.00261999982558
 20
199.998291588021
 30
0.0
 11
0.0026199998255834
 21
499.998291588021
 31
0.0
1001
ACDBBLOCKREPETAG
1070
     1
1071
      201
1005
171BD
  0
LINE
  5
171BE
  8
0
 10
1200.002619999826
 20
-100.001708411978
 30
0.0
 11
800.00261999982649
 21
199.998291588021
 31
0.0
1001
ACDBBLOCKREPETAG
1070
     1
1071
      202
1005
171BE
  0
LINE
  5
171BF
  8
0
 10
800.00261999982649
 20
199.998291588021
 30
0.0
 11
400.00261999982558
 21
-100.0017084119789
 31
0.0
1001
ACDBBLOCKREPETAG
1070
     1
1071
      203
1005
171BF
  0
LINE
  5
171C0
  8
0
 10
400.00261999982558
 20
-100.0017084119789
 30
0.0
 11
0.0026199998255834
 21
199.998291588021
 31
0.0
1001
ACDBBLOCKREPETAG
1070
     1
1071
      204
1005
171C0
  0
LINE
  5
171C1
  8
0
 10
0.0026199998255834
 20
199.998291588021
 30
0.0
 11
400.00261999982558
 21
499.998291588021
 31
0.0
1001
ACDBBLOCKREPETAG
1070
     1
1071
      205
1005
171C1
  0
LINE
  5
171C2
  8
0
 10
400.00261999982558
 20
499.998291588021
 30
0.0
 11
800.00261999982649
 21
199.998291588021
 31
0.0
1001
ACDBBLOCKREPETAG
1070
     1
1071
      206
1005
171C2
  0
LINE
  5
171C3
  8
0
 10
800.00261999982649
 20
199.998291588021
 30
0.0
 11
1200.002619999826
 21
499.99829158802191
 31
0.0
1001
ACDBBLOCKREPETAG
1070
     1
1071
      207
1005
171C3
  0
LINE
  5
171C4
  8
0
  6
CONTINUOUS
 10
600.00262000000293
 20
449.99829158811008
 30
0.0
 11
600.00262000000293
 21
349.99829158811019
 31
0.0
1001
ACDBBLOCKREPETAG
1070
     1
1071
      208
1005
171C4
  0
LINE
  5
171C5
  8
0
  6
CONTINUOUS
 10
550.01313607657175
 20
399.99829158811019
 30
0.0
 11
649.99210392343593
 21
399.99829158811019
 31
0.0
1001
ACDBBLOCKREPETAG
1070
     1
1071
      209
1005
171C5
  0
LINE
  5
171C6
  8
0
 10
1200.002619999821
 20
899.99829158802095
 30
0.0
 11
1200.002619999821
 21
-100.001708411978
 31
0.0
1001
ACDBBLOCKREPETAG
1070
     1
1071
      210
1005
171C6
  0
LINE
  5
171C7
  8
0
 10
1200.002619999821
 20
-100.001708411978
 30
0.0
 11
0.0026199998187622
 21
-100.0017084119785
 31
0.0
1001
ACDBBLOCKREPETAG
1070
     1
1071
      211
1005
171C7
  0
LINE
  5
171C8
  8
0
 10
0.0026199998187622
 20
-100.0017084119785
 30
0.0
 11
0.0026199998219454
 21
899.99829158802197
 31
0.0
1001
ACDBBLOCKREPETAG
1070
     1
1071
      212
1005
171C8
  0
LINE
  5
171C9
  8
0
 10
0.0026199998205811
 20
599.99829158802186
 30
0.0
 11
1200.002619999821
 21
599.99829158802095
 31
0.0
1001
ACDBBLOCKREPETAG
1070
     1
1071
      213
1005
171C9
  0
LINE
  5
171CA
  8
0
 10
0.0026199998205811
 20
299.99829158802203
 30
0.0
 11
1200.002619999821
 21
299.998291588021
 31
0.0
1001
ACDBBLOCKREPETAG
1070
     1
1071
      214
1005
171CA
  0
LINE
  5
171CB
  8
0
 10
900.00261999982104
 20
299.9982915880218
 30
0.0
 11
900.00261999982104
 21
-100.0017084119778
 31
0.0
1001
ACDBBLOCKREPETAG
1070
     1
1071
      215
1005
171CB
  0
LINE
  5
171CC
  8
0
 10
600.00261999982104
 20
-100.0017084119787
 30
0.0
 11
600.00261999982104
 21
299.9982915880218
 31
0.0
1001
ACDBBLOCKREPETAG
1070
     1
1071
      216
1005
171CC
  0
LINE
  5
171CD
  8
0
 10
300.00261999982058
 20
299.9982915880218
 30
0.0
 11
300.00261999982058
 21
-100.0017084119787
 31
0.0
1001
ACDBBLOCKREPETAG
1070
     1
1071
      217
1005
171CD
  0
LINE
  5
171CE
  8
0
 10
900.00261999982104
 20
299.9982915880218
 30
0.0
 11
600.00261999982104
 21
-100.0017084119787
 31
0.0
1001
ACDBBLOCKREPETAG
1070
     1
1071
      218
1005
171CE
  0
LINE
  5
171CF
  8
0
 10
600.00261999982104
 20
-100.0017084119787
 30
0.0
 11
300.00261999982058
 21
299.9982915880218
 31
0.0
1001
ACDBBLOCKREPETAG
1070
     1
1071
      219
1005
171CF
  0
LINE
  5
171D0
  8
0
 10
300.00261999982058
 20
299.9982915880218
 30
0.0
 11
0.0026199998187622
 21
-100.0017084119785
 31
0.0
1001
ACDBBLOCKREPETAG
1070
     1
1071
      220
1005
171D0
  0
LINE
  5
171D1
  8
0
 10
300.00261999982058
 20
-100.0017084119787
 30
0.0
 11
0.0026199998205811
 21
299.99829158802203
 31
0.0
1001
ACDBBLOCKREPETAG
1070
     1
1071
      221
1005
171D1
  0
LINE
  5
171D2
  8
0
 10
1200.002619999821
 20
299.998291588021
 30
0.0
 11
900.00261999982104
 21
-100.0017084119778
 31
0.0
1001
ACDBBLOCKREPETAG
1070
     1
1071
      222
1005
171D2
  0
LINE
  5
171D3
  8
0
 10
900.00261999982104
 20
-100.0017084119778
 30
0.0
 11
600.00261999982104
 21
299.9982915880218
 31
0.0
1001
ACDBBLOCKREPETAG
1070
     1
1071
      223
1005
171D3
  0
LINE
  5
171D4
  8
0
 10
600.00261999982104
 20
299.9982915880218
 30
0.0
 11
300.00261999982058
 21
-100.0017084119787
 31
0.0
1001
ACDBBLOCKREPETAG
1070
     1
1071
      224
1005
171D4
  0
LINE
  5
171D5
  8
0
 10
900.00261999982104
 20
299.9982915880218
 30
0.0
 11
1200.002619999821
 21
-100.001708411978
 31
0.0
1001
ACDBBLOCKREPETAG
1070
     1
1071
      225
1005
171D5
  0
LINE
  5
171D6
  8
0
 10
0.0026199998219454
 20
899.99829158802197
 30
0.0
 11
1200.002619999821
 21
899.99829158802095
 31
0.0
1001
ACDBBLOCKREPETAG
1070
     1
1071
      226
1005
171D6
  0
LINE
  5
171D7
  8
0
 10
400.00261999982052
 20
299.9982915880218
 30
0.0
 11
400.00261999982052
 21
899.99829158802197
 31
0.0
1001
ACDBBLOCKREPETAG
1070
     1
1071
      227
1005
171D7
  0
LINE
  5
171D8
  8
0
 10
800.00261999982104
 20
299.9982915880218
 30
0.0
 11
800.00261999982104
 21
899.99829158802152
 31
0.0
1001
ACDBBLOCKREPETAG
1070
     1
1071
      228
1005
171D8
  0
LINE
  5
171D9
  8
0
 10
0.0026199998219454
 20
899.99829158802197
 30
0.0
 11
400.00261999982052
 21
599.99829158802186
 31
0.0
1001
ACDBBLOCKREPETAG
1070
     1
1071
      229
1005
171D9
  0
LINE
  5
171DA
  8
0
 10
400.00261999982052
 20
599.99829158802186
 30
0.0
 11
800.00261999982104
 21
899.99829158802152
 31
0.0
1001
ACDBBLOCKREPETAG
1070
     1
1071
      230
1005
171DA
  0
LINE
  5
171DB
  8
0
 10
800.00261999982104
 20
899.99829158802152
 30
0.0
 11
1200.002619999821
 21
599.99829158802095
 31
0.0
1001
ACDBBLOCKREPETAG
1070
     1
1071
      231
1005
171DB
  0
LINE
  5
171DC
  8
0
 10
1200.002619999821
 20
599.99829158802095
 30
0.0
 11
800.00261999982104
 21
299.9982915880218
 31
0.0
1001
ACDBBLOCKREPETAG
1070
     1
1071
      232
1005
171DC
  0
LINE
  5
171DD
  8
0
 10
800.00261999982104
 20
299.9982915880218
 30
0.0
 11
400.00261999982052
 21
599.99829158802186
 31
0.0
1001
ACDBBLOCKREPETAG
1070
     1
1071
      233
1005
171DD
  0
LINE
  5
171DE
  8
0
 10
400.00261999982052
 20
599.99829158802186
 30
0.0
 11
0.0026199998205811
 21
299.99829158802203
 31
0.0
1001
ACDBBLOCKREPETAG
1070
     1
1071
      234
1005
171DE
  0
LINE
  5
171DF
  8
0
 10
1200.002619999821
 20
899.99829158802095
 30
0.0
 11
800.00261999982104
 21
599.99829158802152
 31
0.0
1001
ACDBBLOCKREPETAG
1070
     1
1071
      235
1005
171DF
  0
LINE
  5
171E0
  8
0
 10
800.00261999982104
 20
599.99829158802152
 30
0.0
 11
400.00261999982052
 21
899.99829158802197
 31
0.0
1001
ACDBBLOCKREPETAG
1070
     1
1071
      236
1005
171E0
  0
LINE
  5
171E1
  8
0
 10
400.00261999982052
 20
899.99829158802197
 30
0.0
 11
0.0026199998205811
 21
599.99829158802186
 31
0.0
1001
ACDBBLOCKREPETAG
1070
     1
1071
      237
1005
171E1
  0
LINE
  5
171E2
  8
0
 10
0.0026199998205811
 20
599.99829158802186
 30
0.0
 11
400.00261999982052
 21
299.9982915880218
 31
0.0
1001
ACDBBLOCKREPETAG
1070
     1
1071
      238
1005
171E2
  0
LINE
  5
171E3
  8
0
 10
400.00261999982052
 20
299.9982915880218
 30
0.0
 11
800.00261999982104
 21
599.99829158802152
 31
0.0
1001
ACDBBLOCKREPETAG
1070
     1
1071
      239
1005
171E3
  0
LINE
  5
171E4
  8
0
 10
800.00261999982104
 20
599.99829158802152
 30
0.0
 11
1200.002619999821
 21
299.998291588021
 31
0.0
1001
ACDBBLOCKREPETAG
1070
     1
1071
      240
1005
171E4
  0
LINE
  5
171E5
  8
0
  6
CONTINUOUS
 10
600.00261999999736
 20
349.99829158793312
 30
0.0
 11
600.00261999999736
 21
449.99829158793329
 31
0.0
1001
ACDBBLOCKREPETAG
1070
     1
1071
      241
1005
171E5
  0
LINE
  5
171E6
  8
0
  6
CONTINUOUS
 10
550.0131360765663
 20
399.99829158793312
 30
0.0
 11
649.99210392343048
 21
399.99829158793312
 31
0.0
1001
ACDBBLOCKREPETAG
1070
     1
1071
      242
1005
171E6
  0
LINE
  5
171E7
  8
0
 10
1200.0026199998219
 20
899.99829158802447
 30
0.0
 11
1200.0026199998181
 21
-100.0017084119755
 31
0.0
1001
ACDBBLOCKREPETAG
1070
     1
1071
      243
1005
171E7
  0
LINE
  5
171E8
  8
0
 10
1200.0026199998181
 20
199.99829158802439
 30
0.0
 11
0.0026199998183074
 21
199.99829158802439
 31
0.0
1001
ACDBBLOCKREPETAG
1070
     1
1071
      244
1005
171E8
  0
LINE
  5
171E9
  8
0
 10
0.0026199998183074
 20
-100.0017084119755
 30
0.0
 11
0.0026199998219454
 21
899.99829158802447
 31
0.0
1001
ACDBBLOCKREPETAG
1070
     1
1071
      245
1005
171E9
  0
LINE
  5
171EA
  8
0
 10
0.0026199998219454
 20
599.99829158802436
 30
0.0
 11
1200.0026199998219
 21
599.99829158802436
 31
0.0
1001
ACDBBLOCKREPETAG
1070
     1
1071
      246
1005
171EA
  0
LINE
  5
171EB
  8
0
 10
0.0026199998192169
 20
-100.0017084119755
 30
0.0
 11
1200.0026199998181
 21
-100.0017084119755
 31
0.0
1001
ACDBBLOCKREPETAG
1070
     1
1071
      247
1005
171EB
  0
LINE
  5
171EC
  8
0
 10
900.00261999982183
 20
599.99829158802436
 30
0.0
 11
900.00261999981831
 21
199.99829158802439
 31
0.0
1001
ACDBBLOCKREPETAG
1070
     1
1071
      248
1005
171EC
  0
LINE
  5
171ED
  8
0
 10
600.00261999981831
 20
199.99829158802439
 30
0.0
 11
600.00261999981831
 21
599.99829158802436
 31
0.0
1001
ACDBBLOCKREPETAG
1070
     1
1071
      249
1005
171ED
  0
LINE
  5
171EE
  8
0
 10
300.00261999982149
 20
599.99829158802436
 30
0.0
 11
300.0026199998178
 21
199.99829158802439
 31
0.0
1001
ACDBBLOCKREPETAG
1070
     1
1071
      250
1005
171EE
  0
LINE
  5
171EF
  8
0
 10
900.00261999982183
 20
599.99829158802436
 30
0.0
 11
600.00261999981831
 21
199.99829158802439
 31
0.0
1001
ACDBBLOCKREPETAG
1070
     1
1071
      251
1005
171EF
  0
LINE
  5
171F0
  8
0
 10
600.00261999981831
 20
199.99829158802439
 30
0.0
 11
300.00261999982149
 21
599.99829158802436
 31
0.0
1001
ACDBBLOCKREPETAG
1070
     1
1071
      252
1005
171F0
  0
LINE
  5
171F1
  8
0
 10
300.00261999982149
 20
599.99829158802436
 30
0.0
 11
0.0026199998183074
 21
199.99829158802439
 31
0.0
1001
ACDBBLOCKREPETAG
1070
     1
1071
      253
1005
171F1
  0
LINE
  5
171F2
  8
0
 10
300.0026199998178
 20
199.99829158802439
 30
0.0
 11
0.0026199998219454
 21
599.99829158802436
 31
0.0
1001
ACDBBLOCKREPETAG
1070
     1
1071
      254
1005
171F2
  0
LINE
  5
171F3
  8
0
 10
1200.0026199998219
 20
599.99829158802436
 30
0.0
 11
900.00261999981831
 21
199.99829158802439
 31
0.0
1001
ACDBBLOCKREPETAG
1070
     1
1071
      255
1005
171F3
  0
LINE
  5
171F4
  8
0
 10
900.00261999981831
 20
199.99829158802439
 30
0.0
 11
600.00261999981831
 21
599.99829158802436
 31
0.0
1001
ACDBBLOCKREPETAG
1070
     1
1071
      256
1005
171F4
  0
LINE
  5
171F5
  8
0
 10
600.00261999981831
 20
599.99829158802436
 30
0.0
 11
300.0026199998178
 21
199.99829158802439
 31
0.0
1001
ACDBBLOCKREPETAG
1070
     1
1071
      257
1005
171F5
  0
LINE
  5
171F6
  8
0
 10
900.00261999982183
 20
599.99829158802436
 30
0.0
 11
1200.0026199998181
 21
199.99829158802439
 31
0.0
1001
ACDBBLOCKREPETAG
1070
     1
1071
      258
1005
171F6
  0
LINE
  5
171F7
  8
0
 10
0.0026199998219454
 20
899.99829158802447
 30
0.0
 11
1200.0026199998219
 21
899.99829158802447
 31
0.0
1001
ACDBBLOCKREPETAG
1070
     1
1071
      259
1005
171F7
  0
LINE
  5
171F8
  8
0
 10
400.00261999981512
 20
-100.0017084119755
 30
0.0
 11
400.0026199998178
 21
199.9982915880255
 31
0.0
1001
ACDBBLOCKREPETAG
1070
     1
1071
      260
1005
171F8
  0
LINE
  5
171F9
  8
0
 10
800.00261999981456
 20
-100.0017084119755
 30
0.0
 11
800.00261999981649
 21
199.99829158802331
 31
0.0
1001
ACDBBLOCKREPETAG
1070
     1
1071
      261
1005
171F9
  0
LINE
  5
171FA
  8
0
 10
0.0026199998219454
 20
899.99829158802447
 30
0.0
 11
400.00261999982149
 21
599.99829158802436
 31
0.0
1001
ACDBBLOCKREPETAG
1070
     1
1071
      262
1005
171FA
  0
LINE
  5
171FB
  8
0
 10
400.00261999982149
 20
599.99829158802436
 30
0.0
 11
800.00261999982183
 21
899.99829158802447
 31
0.0
1001
ACDBBLOCKREPETAG
1070
     1
1071
      263
1005
171FB
  0
LINE
  5
171FC
  8
0
 10
800.00261999982183
 20
899.99829158802447
 30
0.0
 11
1200.0026199998219
 21
599.99829158802436
 31
0.0
1001
ACDBBLOCKREPETAG
1070
     1
1071
      264
1005
171FC
  0
LINE
  5
171FD
  8
0
 10
1200.0026199998181
 20
199.99829158802439
 30
0.0
 11
800.00261999981456
 21
-100.0017084119755
 31
0.0
1001
ACDBBLOCKREPETAG
1070
     1
1071
      265
1005
171FD
  0
LINE
  5
171FE
  8
0
 10
800.00261999981456
 20
-100.0017084119755
 30
0.0
 11
400.00261999981871
 21
199.99829158802439
 31
0.0
1001
ACDBBLOCKREPETAG
1070
     1
1071
      266
1005
171FE
  0
LINE
  5
171FF
  8
0
 10
400.00261999981871
 20
199.99829158802439
 30
0.0
 11
0.0026199998192169
 21
-100.0017084119755
 31
0.0
1001
ACDBBLOCKREPETAG
1070
     1
1071
      267
1005
171FF
  0
LINE
  5
17200
  8
0
 10
1200.0026199998219
 20
899.99829158802447
 30
0.0
 11
800.00261999982183
 21
599.99829158802436
 31
0.0
1001
ACDBBLOCKREPETAG
1070
     1
1071
      268
1005
17200
  0
LINE
  5
17201
  8
0
 10
800.00261999982183
 20
599.99829158802436
 30
0.0
 11
400.00261999982149
 21
899.99829158802447
 31
0.0
1001
ACDBBLOCKREPETAG
1070
     1
1071
      269
1005
17201
  0
LINE
  5
17202
  8
0
 10
400.00261999982149
 20
899.99829158802447
 30
0.0
 11
0.0026199998219454
 21
599.99829158802436
 31
0.0
1001
ACDBBLOCKREPETAG
1070
     1
1071
      270
1005
17202
  0
LINE
  5
17203
  8
0
 10
0.0026199998192169
 20
199.99829158802439
 30
0.0
 11
400.00261999981512
 21
-100.0017084119755
 31
0.0
1001
ACDBBLOCKREPETAG
1070
     1
1071
      271
1005
17203
  0
LINE
  5
17204
  8
0
 10
400.00261999981512
 20
-100.0017084119755
 30
0.0
 11
800.00261999981831
 21
199.99829158802439
 31
0.0
1001
ACDBBLOCKREPETAG
1070
     1
1071
      272
1005
17204
  0
LINE
  5
17205
  8
0
 10
800.00261999981831
 20
199.99829158802439
 30
0.0
 11
1200.0026199998181
 21
-100.0017084119755
 31
0.0
1001
ACDBBLOCKREPETAG
1070
     1
1071
      273
1005
17205
  0
LINE
  5
17206
  8
0
  6
CONTINUOUS
 10
550.01313607638531
 20
399.99829158802447
 30
0.0
 11
649.99210392325119
 21
399.99829158802447
 31
0.0
1001
ACDBBLOCKREPETAG
1070
     1
1071
      274
1005
17206
  0
LINE
  5
17207
  8
0
 10
400.00261999982149
 20
899.99829158802447
 30
0.0
 11
400.00261999982149
 21
599.99829158802436
 31
0.0
1001
ACDBBLOCKREPETAG
1070
     1
1071
      275
1005
17207
  0
LINE
  5
17208
  8
0
 10
800.00261999982183
 20
899.99829158802447
 30
0.0
 11
800.00261999982183
 21
599.99829158802436
 31
0.0
1001
ACDBBLOCKREPETAG
1070
     1
1071
      276
1005
17208
  0
LINE
  5
17209
  8
0
 10
900.00262000000293
 20
0.0
 30
0.0
 11
600.00262000000293
 21
200.0
 31
0.0
1001
ACDBBLOCKREPETAG
1070
     1
1071
      277
1005
17209
  0
LINE
  5
1720A
  8
0
 10
600.00262000000293
 20
0.0
 30
0.0
 11
900.00262000000293
 21
200.0
 31
0.0
1001
ACDBBLOCKREPETAG
1070
     1
1071
      278
1005
1720A
  0
LINE
  5
1720B
  8
0
 10
800.00262000000293
 20
800.0
 30
0.0
 11
600.00262000000293
 21
500.0
 31
0.0
1001
ACDBBLOCKREPETAG
1070
     1
1071
      279
1005
1720B
  0
LINE
  5
1720C
  8
0
 10
800.00262000000293
 20
500.0
 30
0.0
 11
600.00262000000293
 21
800.0
 31
0.0
1001
ACDBBLOCKREPETAG
1070
     1
1071
      280
1005
1720C
  0
LINE
  5
1720D
  8
0
 10
600.00262000000293
 20
200.0
 30
0.0
 11
800.00262000000293
 21
500.0
 31
0.0
1001
ACDBBLOCKREPETAG
1070
     1
1071
      281
1005
1720D
  0
LINE
  5
1720E
  8
0
 10
1200.0026200000029
 20
500.0
 30
0.0
 11
0.0026200000029917
 21
500.0
 31
0.0
1001
ACDBBLOCKREPETAG
1070
     1
1071
      282
1005
1720E
  0
LINE
  5
1720F
  8
0
 10
600.00262000000293
 20
500.0
 30
0.0
 11
800.00262000000293
 21
200.0
 31
0.0
1001
ACDBBLOCKREPETAG
1070
     1
1071
      283
1005
1720F
  0
LINE
  5
17210
  8
0
 10
1200.0026200000029
 20
800.0
 30
0.0
 11
0.0026200000029917
 21
800.0
 31
0.0
1001
ACDBBLOCKREPETAG
1070
     1
1071
      284
1005
17210
  0
LINE
  5
17211
  8
0
 10
0.0026200000029917
 20
200.0
 30
0.0
 11
1200.0026200000029
 21
200.0
 31
0.0
1001
ACDBBLOCKREPETAG
1070
     1
1071
      285
1005
17211
  0
LINE
  5
17212
  8
0
 10
600.00262000000293
 20
800.0
 30
0.0
 11
600.00262000000293
 21
0.0
 31
0.0
1001
ACDBBLOCKREPETAG
1070
     1
1071
      286
1005
17212
  0
LINE
  5
17213
  8
0
 10
400.00262000000288
 20
200.0
 30
0.0
 11
400.00262000000288
 21
800.0
 31
0.0
1001
ACDBBLOCKREPETAG
1070
     1
1071
      287
1005
17213
  0
LINE
  5
17214
  8
0
 10
200.00262000000299
 20
800.0
 30
0.0
 11
200.00262000000299
 21
200.0
 31
0.0
1001
ACDBBLOCKREPETAG
1070
     1
1071
      288
1005
17214
  0
LINE
  5
17215
  8
0
 10
200.00262000000299
 20
500.0
 30
0.0
 11
0.0026200000029917
 21
800.0
 31
0.0
1001
ACDBBLOCKREPETAG
1070
     1
1071
      289
1005
17215
  0
LINE
  5
17216
  8
0
 10
400.00262000000288
 20
800.0
 30
0.0
 11
200.00262000000299
 21
500.0
 31
0.0
1001
ACDBBLOCKREPETAG
1070
     1
1071
      290
1005
17216
  0
LINE
  5
17217
  8
0
 10
600.00262000000293
 20
500.0
 30
0.0
 11
400.00262000000288
 21
800.0
 31
0.0
1001
ACDBBLOCKREPETAG
1070
     1
1071
      291
1005
17217
  0
LINE
  5
17218
  8
0
 10
200.00262000000299
 20
800.0
 30
0.0
 11
0.0026200000029917
 21
500.0
 31
0.0
1001
ACDBBLOCKREPETAG
1070
     1
1071
      292
1005
17218
  0
LINE
  5
17219
  8
0
 10
400.00262000000288
 20
500.0
 30
0.0
 11
200.00262000000299
 21
800.0
 31
0.0
1001
ACDBBLOCKREPETAG
1070
     1
1071
      293
1005
17219
  0
LINE
  5
1721A
  8
0
 10
600.00262000000293
 20
800.0
 30
0.0
 11
400.00262000000288
 21
500.0
 31
0.0
1001
ACDBBLOCKREPETAG
1070
     1
1071
      294
1005
1721A
  0
LINE
  5
1721B
  8
0
 10
0.0026200000029917
 20
800.0
 30
0.0
 11
0.0026200000029917
 21
0.0
 31
0.0
1001
ACDBBLOCKREPETAG
1070
     1
1071
      295
1005
1721B
  0
LINE
  5
1721C
  8
0
 10
0.0026200000029917
 20
500.0
 30
0.0
 11
200.00262000000299
 21
200.0
 31
0.0
1001
ACDBBLOCKREPETAG
1070
     1
1071
      296
1005
1721C
  0
LINE
  5
1721D
  8
0
 10
0.0026200000029917
 20
200.0
 30
0.0
 11
200.00262000000299
 21
500.0
 31
0.0
1001
ACDBBLOCKREPETAG
1070
     1
1071
      297
1005
1721D
  0
LINE
  5
1721E
  8
0
 10
400.00262000000288
 20
500.0
 30
0.0
 11
600.00262000000293
 21
200.0
 31
0.0
1001
ACDBBLOCKREPETAG
1070
     1
1071
      298
1005
1721E
  0
LINE
  5
1721F
  8
0
 10
200.00262000000299
 20
200.0
 30
0.0
 11
400.00262000000288
 21
500.0
 31
0.0
1001
ACDBBLOCKREPETAG
1070
     1
1071
      299
1005
1721F
  0
LINE
  5
17220
  8
0
 10
400.00262000000288
 20
200.0
 30
0.0
 11
600.00262000000293
 21
500.0
 31
0.0
1001
ACDBBLOCKREPETAG
1070
     1
1071
      300
1005
17220
  0
LINE
  5
17221
  8
0
 10
200.00262000000299
 20
500.0
 30
0.0
 11
400.00262000000288
 21
200.0
 31
0.0
1001
ACDBBLOCKREPETAG
1070
     1
1071
      301
1005
17221
  0
LINE
  5
17222
  8
0
  6
CONTINUOUS
 10
575.00262000000293
 20
400.0
 30
0.0
 11
625.00262000000293
 21
400.0
 31
0.0
1001
ACDBBLOCKREPETAG
1070
     1
1071
      302
1005
17222
  0
LINE
  5
17223
  8
0
 10
300.00262000000299
 20
0.0
 30
0.0
 11
0.0026200000029917
 21
200.0
 31
0.0
1001
ACDBBLOCKREPETAG
1070
     1
1071
      303
1005
17223
  0
LINE
  5
17224
  8
0
 10
0.0026200000029917
 20
0.0
 30
0.0
 11
300.00262000000299
 21
200.0
 31
0.0
1001
ACDBBLOCKREPETAG
1070
     1
1071
      304
1005
17224
  0
LINE
  5
17225
  8
0
 10
600.00262000000293
 20
200.0
 30
0.0
 11
300.00262000000299
 21
0.0
 31
0.0
1001
ACDBBLOCKREPETAG
1070
     1
1071
      305
1005
17225
  0
LINE
  5
17226
  8
0
 10
300.00262000000299
 20
200.0
 30
0.0
 11
600.00262000000293
 21
0.0
 31
0.0
1001
ACDBBLOCKREPETAG
1070
     1
1071
      306
1005
17226
  0
LINE
  5
17227
  8
0
 10
300.00262000000299
 20
200.0
 30
0.0
 11
300.00262000000299
 21
0.0
 31
0.0
1001
ACDBBLOCKREPETAG
1070
     1
1071
      307
1005
17227
  0
LINE
  5
17228
  8
0
 10
1000.002620000003
 20
800.0
 30
0.0
 11
1200.0026200000029
 21
500.0
 31
0.0
1001
ACDBBLOCKREPETAG
1070
     1
1071
      308
1005
17228
  0
LINE
  5
17229
  8
0
 10
800.00262000000293
 20
500.0
 30
0.0
 11
1000.002620000003
 21
800.0
 31
0.0
1001
ACDBBLOCKREPETAG
1070
     1
1071
      309
1005
17229
  0
LINE
  5
1722A
  8
0
 10
1000.002620000003
 20
200.0
 30
0.0
 11
1000.002620000003
 21
800.0
 31
0.0
1001
ACDBBLOCKREPETAG
1070
     1
1071
      310
1005
1722A
  0
LINE
  5
1722B
  8
0
 10
800.00262000000293
 20
200.0
 30
0.0
 11
800.00262000000293
 21
800.0
 31
0.0
1001
ACDBBLOCKREPETAG
1070
     1
1071
      311
1005
1722B
  0
LINE
  5
1722C
  8
0
 10
1000.002620000003
 20
500.0
 30
0.0
 11
800.00262000000293
 21
800.0
 31
0.0
1001
ACDBBLOCKREPETAG
1070
     1
1071
      312
1005
1722C
  0
LINE
  5
1722D
  8
0
 10
1200.0026200000029
 20
800.0
 30
0.0
 11
1000.002620000003
 21
500.0
 31
0.0
1001
ACDBBLOCKREPETAG
1070
     1
1071
      313
1005
1722D
  0
LINE
  5
1722E
  8
0
 10
1200.0026200000029
 20
0.0
 30
0.0
 11
1200.0026200000029
 21
800.0
 31
0.0
1001
ACDBBLOCKREPETAG
1070
     1
1071
      314
1005
1722E
  0
LINE
  5
1722F
  8
0
 10
1000.002620000003
 20
200.0
 30
0.0
 11
1200.0026200000029
 21
500.0
 31
0.0
1001
ACDBBLOCKREPETAG
1070
     1
1071
      315
1005
1722F
  0
LINE
  5
17230
  8
0
 10
800.00262000000293
 20
500.0
 30
0.0
 11
1000.002620000003
 21
200.0
 31
0.0
1001
ACDBBLOCKREPETAG
1070
     1
1071
      316
1005
17230
  0
LINE
  5
17231
  8
0
 10
1000.002620000003
 20
500.0
 30
0.0
 11
1200.0026200000029
 21
200.0
 31
0.0
1001
ACDBBLOCKREPETAG
1070
     1
1071
      317
1005
17231
  0
LINE
  5
17232
  8
0
 10
800.00262000000293
 20
200.0
 30
0.0
 11
1000.002620000003
 21
500.0
 31
0.0
1001
ACDBBLOCKREPETAG
1070
     1
1071
      318
1005
17232
  0
LINE
  5
17233
  8
0
 10
900.00262000000293
 20
0.0
 30
0.0
 11
1200.0026200000029
 21
200.0
 31
0.0
1001
ACDBBLOCKREPETAG
1070
     1
1071
      319
1005
17233
  0
LINE
  5
17234
  8
0
 10
1200.0026200000029
 20
0.0
 30
0.0
 11
900.00262000000293
 21
200.0
 31
0.0
1001
ACDBBLOCKREPETAG
1070
     1
1071
      320
1005
17234
  0
LINE
  5
17235
  8
0
 10
900.00262000000293
 20
200.0
 30
0.0
 11
900.00262000000293
 21
0.0
 31
0.0
1001
ACDBBLOCKREPETAG
1070
     1
1071
      321
1005
17235
  0
LINE
  5
17236
  8
0
 10
0.0026200000029917
 20
0.0
 30
0.0
 11
1200.0026200000029
 21
0.0
 31
0.0
1001
ACDBBLOCKREPETAG
1070
     1
1071
      322
1005
17236
  0
LINE
  5
17237
  8
0
 10
187.50129000004469
 20
934.00001333333353
 30
0.0
 11
187.50129000004469
 21
-133.9999866666665
 31
0.0
1001
ACDBBLOCKREPETAG
1070
     1
1071
      323
1005
17237
  0
LINE
  5
17238
  8
0
 10
187.50129000004469
 20
-133.9999866666665
 30
0.0
 11
1012.501290000044
 21
-133.9999866666665
 31
0.0
1001
ACDBBLOCKREPETAG
1070
     1
1071
      324
1005
17238
  0
LINE
  5
17239
  8
0
 10
1012.501290000044
 20
934.00001333333353
 30
0.0
 11
187.50129000004469
 21
934.00001333333353
 31
0.0
1001
ACDBBLOCKREPETAG
1070
     1
1071
      325
1005
17239
  0
LINE
  5
1723A
  8
0
 10
1012.5012900000449
 20
578.00001333333353
 30
0.0
 11
187.50129000004469
 21
578.00001333333353
 31
0.0
1001
ACDBBLOCKREPETAG
1070
     1
1071
      326
1005
1723A
  0
LINE
  5
1723B
  8
0
 10
187.50129000004469
 20
222.0000133333335
 30
0.0
 11
1012.501290000044
 21
222.0000133333335
 31
0.0
1001
ACDBBLOCKREPETAG
1070
     1
1071
      327
1005
1723B
  0
LINE
  5
1723C
  8
0
 10
1012.501290000044
 20
-133.9999866666665
 30
0.0
 11
1012.501290000044
 21
934.00001333333353
 31
0.0
1001
ACDBBLOCKREPETAG
1070
     1
1071
      328
1005
1723C
  0
LINE
  5
1723D
  8
0
 10
737.50129000004472
 20
934.00001333333353
 30
0.0
 11
737.50129000004472
 21
-133.9999866666665
 31
0.0
1001
ACDBBLOCKREPETAG
1070
     1
1071
      329
1005
1723D
  0
LINE
  5
1723E
  8
0
 10
462.50129000004472
 20
-133.99998666666551
 30
0.0
 11
462.50129000004472
 21
934.00001333333353
 31
0.0
1001
ACDBBLOCKREPETAG
1070
     1
1071
      330
1005
1723E
  0
LINE
  5
1723F
  8
0
 10
1012.501290000044
 20
-133.9999866666665
 30
0.0
 11
737.50129000004472
 21
222.0000133333335
 31
0.0
1001
ACDBBLOCKREPETAG
1070
     1
1071
      331
1005
1723F
  0
LINE
  5
17240
  8
0
 10
737.50129000004472
 20
222.0000133333335
 30
0.0
 11
1012.501290000044
 21
578.00001333333353
 31
0.0
1001
ACDBBLOCKREPETAG
1070
     1
1071
      332
1005
17240
  0
LINE
  5
17241
  8
0
 10
1012.501290000044
 20
578.00001333333353
 30
0.0
 11
737.50129000004472
 21
934.00001333333353
 31
0.0
1001
ACDBBLOCKREPETAG
1070
     1
1071
      333
1005
17241
  0
LINE
  5
17242
  8
0
 10
737.50129000004472
 20
934.00001333333353
 30
0.0
 11
462.50129000004472
 21
578.00001333333353
 31
0.0
1001
ACDBBLOCKREPETAG
1070
     1
1071
      334
1005
17242
  0
LINE
  5
17243
  8
0
 10
462.50129000004472
 20
578.00001333333353
 30
0.0
 11
737.50129000004472
 21
222.0000133333335
 31
0.0
1001
ACDBBLOCKREPETAG
1070
     1
1071
      335
1005
17243
  0
LINE
  5
17244
  8
0
 10
737.50129000004472
 20
222.0000133333335
 30
0.0
 11
462.50129000004472
 21
-133.9999866666665
 31
0.0
1001
ACDBBLOCKREPETAG
1070
     1
1071
      336
1005
17244
  0
LINE
  5
17245
  8
0
 10
462.50129000004472
 20
-133.9999866666665
 30
0.0
 11
187.50129000004469
 21
222.0000133333335
 31
0.0
1001
ACDBBLOCKREPETAG
1070
     1
1071
      337
1005
17245
  0
LINE
  5
17246
  8
0
 10
187.50129000004469
 20
222.0000133333335
 30
0.0
 11
462.50129000004472
 21
578.00001333333353
 31
0.0
1001
ACDBBLOCKREPETAG
1070
     1
1071
      338
1005
17246
  0
LINE
  5
17247
  8
0
 10
462.50129000004472
 20
578.00001333333353
 30
0.0
 11
187.50129000004469
 21
934.00001333333353
 31
0.0
1001
ACDBBLOCKREPETAG
1070
     1
1071
      339
1005
17247
  0
LINE
  5
17248
  8
0
 10
187.50129000004469
 20
-133.9999866666665
 30
0.0
 11
462.50129000004472
 21
222.0000133333335
 31
0.0
1001
ACDBBLOCKREPETAG
1070
     1
1071
      340
1005
17248
  0
LINE
  5
17249
  8
0
 10
462.50129000004472
 20
222.0000133333335
 30
0.0
 11
187.50129000004469
 21
578.00001333333353
 31
0.0
1001
ACDBBLOCKREPETAG
1070
     1
1071
      341
1005
17249
  0
LINE
  5
1724A
  8
0
 10
187.50129000004469
 20
578.00001333333353
 30
0.0
 11
462.50129000004472
 21
934.00001333333353
 31
0.0
1001
ACDBBLOCKREPETAG
1070
     1
1071
      342
1005
1724A
  0
LINE
  5
1724B
  8
0
 10
462.50129000004472
 20
934.00001333333353
 30
0.0
 11
737.50129000004472
 21
578.00001333333353
 31
0.0
1001
ACDBBLOCKREPETAG
1070
     1
1071
      343
1005
1724B
  0
LINE
  5
1724C
  8
0
 10
737.50129000004472
 20
578.00001333333353
 30
0.0
 11
462.50129000004472
 21
222.0000133333335
 31
0.0
1001
ACDBBLOCKREPETAG
1070
     1
1071
      344
1005
1724C
  0
LINE
  5
1724D
  8
0
 10
462.50129000004472
 20
222.0000133333335
 30
0.0
 11
737.50129000004472
 21
-133.9999866666665
 31
0.0
1001
ACDBBLOCKREPETAG
1070
     1
1071
      345
1005
1724D
  0
LINE
  5
1724E
  8
0
 10
737.50129000004472
 20
-133.9999866666665
 30
0.0
 11
1012.501290000044
 21
222.0000133333335
 31
0.0
1001
ACDBBLOCKREPETAG
1070
     1
1071
      346
1005
1724E
  0
LINE
  5
1724F
  8
0
 10
1012.501290000044
 20
222.0000133333335
 30
0.0
 11
737.50129000004472
 21
578.00001333333353
 31
0.0
1001
ACDBBLOCKREPETAG
1070
     1
1071
      347
1005
1724F
  0
LINE
  5
17250
  8
0
 10
737.50129000004472
 20
578.00001333333353
 30
0.0
 11
1012.501290000044
 21
934.00001333333353
 31
0.0
1001
ACDBBLOCKREPETAG
1070
     1
1071
      348
1005
17250
  0
ENDBLK
  5
17251
  8
0
  0
ENDSEC
  0
SECTION
  2
ENTITIES
  0
INSERT
  5
17264
  8
0
  2
*U2
 10
799.99829522654181
 20
-0.0038809331890661
 30
0.0
 50
90.0
  0
VIEWPORT
  5
16506
 67
     1
  8
0
 10
234.96284107683769
 20
134.34175373599001
 30
0.0
 40
671.76104579003902
 41
295.86350747198009
 68
     1
 69
     1
1001
ACAD
1000
MVIEW
1002
{
1070
    16
1010
0.0
1020
0.0
1030
0.0
1010
0.0
1020
0.0
1030
1.0
1040
0.0
1040
295.86350747198009
1040
234.96284107683769
1040
134.34175373599001
1040
50.0
1040
0.0
1040
0.0
1070
     0
1070
  2000
1070
     1
1070
     1
1070
     0
1070
     0
1070
     0
1070
     0
1040
0.0
1040
0.0
1040
0.0
1040
10.0
1040
10.0
1040
10.0
1040
10.0
1070
     0
1002
{
1002
}
1002
}
1001
GENIUS_GENODEF_13
1002
{
1000
HIER
1070
     0
1002
}
1002
{
1000
MANEDIT
1070
     0
1002
}
1002
{
1000
NOSEL
1070
     0
1002
}
1002
{
1000
BEHIND
1070
     0
1002
}
1002
{
1000
OTHER
1070
     0
1002
}
1002
{
1000
REACTOR
1002
}
1001
GENIUS_GENOBJ-N-SDF_13
1002
{
1000
OWNER
1000
GEN
1002
}
1001
GENIUS_GENSCREG_15
1000
PF
1040
1.0
1000
DF
1040
1.0
1000
MIN
1011
-100.9176818181818
1021
0.0
1031
0.0
1021
-13.58999999999997
1031
0.0
1000
MAX
1011
570.84336397185723
1021
0.0
1031
0.0
1021
282.27350747198011
1031
0.0
1000
FLAGS
1070
     4
  0
ENDSEC
  0
EOF
