  0
SECTION
  2
HEADER
  9
$ACADVER
  1
AC1003
  9
$INSBASE
 10
0.0
 20
0.0
  9
$EXTMIN
 10
0.0
 20
0.0
  9
$EXTMAX
 10
448.0
 20
345.0
  9
$LIMMIN
 10
0.0
 20
0.0
  9
$LIMMAX
 10
409.5875
 20
307.1875
  9
$VIEWCTR
 10
224.0
 20
172.5
  9
$VIEWSIZE
 40
200.0
  9
$SNAPMODE
 70
     0
  9
$SNAPUNIT
 10
1.0
 20
1.0
  9
$SNAPBASE
 10
0.0
 20
0.0
  9
$SNAPANG
 50
0.0
  9
$SNAPSTYLE
 70
     0
  9
$SNAPISOPAIR
 70
     0
  9
$GRIDMODE
 70
     0
  9
$GRIDUNIT
 10
0.0
 20
0.0
  9
$ORTHOMODE
 70
     0
  9
$REGENMODE
 70
     1
  9
$FILLMODE
 70
     1
  9
$QTEXTMODE
 70
     0
  9
$DRAGMODE
 70
     2
  9
$LTSCALE
 40
1.0
  9
$OSMODE
 70
     0
  9
$ATTMODE
 70
     1
  9
$TEXTSIZE
 40
0.2
  9
$TRACEWID
 40
0.05
  9
$TEXTSTYLE
  7
STANDARD
  9
$CLAYER
  8
0
  9
$CELTYPE
  6
BYLAYER
  9
$CECOLOR
 62
   256
  9
$DIMSCALE
 40
1.0
  9
$DIMASZ
 40
0.18
  9
$DIMEXO
 40
0.0625
  9
$DIMDLI
 40
0.38
  9
$DIMRND
 40
0.0
  9
$DIMDLE
 40
0.0
  9
$DIMEXE
 40
0.18
  9
$DIMTP
 40
0.0
  9
$DIMTM
 40
0.0
  9
$DIMTXT
 40
0.18
  9
$DIMCEN
 40
0.09
  9
$DIMTSZ
 40
0.0
  9
$DIMTOL
 70
     0
  9
$DIMLIM
 70
     0
  9
$DIMTIH
 70
     1
  9
$DIMTOH
 70
     1
  9
$DIMSE1
 70
     0
  9
$DIMSE2
 70
     0
  9
$DIMTAD
 70
     0
  9
$DIMZIN
 70
     0
  9
$DIMBLK
  1

  9
$DIMASO
 70
     1
  9
$DIMSHO
 70
     0
  9
$DIMPOST
  1

  9
$DIMAPOST
  1

  9
$DIMALT
 70
     0
  9
$DIMALTD
 70
     2
  9
$DIMALTF
 40
25.4
  9
$DIMLFAC
 40
1.0
  9
$LUNITS
 70
     2
  9
$LUPREC
 70
     4
  9
$AXISMODE
 70
     0
  9
$AXISUNIT
 10
0.0
 20
0.0
  9
$SKETCHINC
 40
0.1
  9
$FILLETRAD
 40
0.0
  9
$AUNITS
 70
     0
  9
$AUPREC
 70
     0
  9
$MENU
  1
ACAD
  9
$ELEVATION
 40
0.0
  9
$THICKNESS
 40
0.0
  9
$VIEWDIR
 10
0.0
 20
0.0
 30
1.0
  9
$LIMCHECK
 70
     0
  9
$BLIPMODE
 70
     1
  9
$CHAMFERA
 40
0.0
  9
$CHAMFERB
 40
0.0
  9
$FASTZOOM
 70
     1
  9
$SKPOLY
 70
     0
  9
$TDCREATE
 40
2447732.6512363921
  9
$TDUPDATE
 40
2447732.6512363921
  9
$TDINDWG
 40
0.0000000000
  9
$TDUSRTIMER
 40
0.0000000000
  9
$USRTIMER
 70
     1
  9
$ANGBASE
 50
0.0
  9
$ANGDIR
 70
     0
  9
$PDMODE
 70
     0
  9
$PDSIZE
 40
0.0
  9
$PLINEWID
 40
0.0
  9
$COORDS
 70
     0
  9
$USERI1
 70
     0
  9
$USERI2
 70
     0
  9
$USERI3
 70
     0
  9
$USERI4
 70
     0
  9
$USERI5
 70
     0
  9
$USERR1
 40
0.0
  9
$USERR2
 40
0.0
  9
$USERR3
 40
0.0
  9
$USERR4
 40
0.0
  9
$USERR5
 40
0.0
  0
ENDSEC
  0
SECTION
  2
TABLES
  0
TABLE
999
----------- Linientyp-Definitionen ---------
  2
LTYPE
 70
     4
  0
LTYPE
  2
AUSGEZOGEN
 70
    64
  3
-----------------
 72
    65
 73
     0
 40
0.0
  0
LTYPE
  2
MITTE
 70
    64
  3
-- - -- - -- - --
 72
    65
 73
     4
 40
2.2449
 49
1.02041
 49
-0.40816
 49
0.40816
 49
-0.40816
  0
LTYPE
  2
STRICHPUNKT
 70
    64
  3
-- - -- - --
 72
    65
 73
     4
 40
2.44898
 49
1.63265
 49
-0.40816
 49
0.0
 49
-0.40816
  0
LTYPE
  2
GESTRICHELT
 70
    64
  3
-- -- -- -- -- --
 72
    65
 73
     2
 40
1.63265
 49
0.81633
 49
-0.81633
  0
ENDTAB
  0
TABLE
999
---------- Layer-Definitionen --------
  2
LAYER
 70
     5
  0
LAYER
999
---------- Layer 0 (Linestyle) -------
  2
0
 70
    64
 62
     7
  6
AUSGEZOGEN
  0
LAYER
999
---------- Layer 1 (Linestyle) -------
  2
1
 70
    64
 62
     7
  6
MITTE
  0
LAYER
999
---------- Layer 2 (Linestyle) -------
  2
2
 70
    64
 62
     7
  6
STRICHPUNKT
  0
LAYER
999
---------- Layer 3 (Linestyle) -------
  2
3
 70
    64
 62
     7
  6
GESTRICHELT
  0
LAYER
999
---------- Layer 4 (Löschfläche) -------
  2
4
 70
    64
999
---------- Layer 4 (Löschfläche, Farbnummer: 8) -------
 62
     8
  6
AUSGEZOGEN
  0
ENDTAB
  0
ENDSEC
0
SECTION
2
TABLES
0
TABLE
2
LTYPE
70
4
0
LTYPE
2
AUSGEZOGEN
70
64
3
-----------------
72
65
73
0
40
0.0
0
LTYPE
2
MITTE
70
64
3
-- - -- - -- - --
72
65
73
4
40
0.0
49
0.0
49
0.0
49
0.0
49
0.0
0
LTYPE
2
STRICHPUNKT
70
64
3
---- - ---- - ----
72
65
73
4
40
0.0
49
0.0
49
0.0
49
0.0
49
0.0
0
LTYPE
2
GESTRICHELT
70
64
3
-- -- -- -- -- --
72
65
73
2
40
0.0
49
0.0
49
0.0
0
ENDTAB
0
ENDSEC
0
SECTION
2
ENTITIES
0
POLYLINE
8
0
62
7
66
1
70
0
0
VERTEX
8
0
10
5.0
20
15.0
0
VERTEX
8
0
10
5.0
20
290.0
0
SEQEND
0
POLYLINE
8
0
62
7
66
1
70
0
0
VERTEX
8
0
10
5.0
20
290.0
0
VERTEX
8
0
10
400.0
20
290.0
0
SEQEND
0
POLYLINE
8
0
62
7
66
1
70
0
0
VERTEX
8
0
10
400.0
20
290.0
0
VERTEX
8
0
10
400.0
20
15.0
0
SEQEND
0
POLYLINE
8
0
62
7
66
1
70
0
0
VERTEX
8
0
10
400.0
20
15.0
0
VERTEX
8
0
10
5.0
20
15.0
0
SEQEND
0
POLYLINE
8
0
62
7
66
1
70
0
0
VERTEX
8
0
10
67.5
20
10.0
0
VERTEX
8
0
10
67.5
20
15.0
0
SEQEND
0
POLYLINE
8
0
62
7
66
1
70
0
0
VERTEX
8
0
10
67.5
20
295.0
0
VERTEX
8
0
10
67.5
20
290.0
0
SEQEND
0
POLYLINE
8
0
62
7
66
1
70
0
0
VERTEX
8
0
10
115.0
20
10.0
0
VERTEX
8
0
10
115.0
20
15.0
0
SEQEND
0
POLYLINE
8
0
62
7
66
1
70
0
0
VERTEX
8
0
10
115.0
20
295.0
0
VERTEX
8
0
10
115.0
20
290.0
0
SEQEND
0
POLYLINE
8
0
62
7
66
1
70
0
0
VERTEX
8
0
10
162.5
20
10.0
0
VERTEX
8
0
10
162.5
20
15.0
0
SEQEND
0
POLYLINE
8
0
62
7
66
1
70
0
0
VERTEX
8
0
10
162.5
20
295.0
0
VERTEX
8
0
10
162.5
20
290.0
0
SEQEND
0
POLYLINE
8
0
62
7
66
1
70
0
0
VERTEX
8
0
10
210.0
20
10.0
0
VERTEX
8
0
10
210.0
20
15.0
0
SEQEND
0
POLYLINE
8
0
62
7
66
1
70
0
0
VERTEX
8
0
10
210.0
20
295.0
0
VERTEX
8
0
10
210.0
20
290.0
0
SEQEND
0
POLYLINE
8
0
62
7
66
1
70
0
0
VERTEX
8
0
10
257.5
20
10.0
0
VERTEX
8
0
10
257.5
20
15.0
0
SEQEND
0
POLYLINE
8
0
62
7
66
1
70
0
0
VERTEX
8
0
10
257.5
20
295.0
0
VERTEX
8
0
10
257.5
20
290.0
0
SEQEND
0
POLYLINE
8
0
62
7
66
1
70
0
0
VERTEX
8
0
10
305.0
20
10.0
0
VERTEX
8
0
10
305.0
20
15.0
0
SEQEND
0
POLYLINE
8
0
62
7
66
1
70
0
0
VERTEX
8
0
10
305.0
20
295.0
0
VERTEX
8
0
10
305.0
20
290.0
0
SEQEND
0
POLYLINE
8
0
62
7
66
1
70
0
0
VERTEX
8
0
10
352.5
20
10.0
0
VERTEX
8
0
10
352.5
20
15.0
0
SEQEND
0
POLYLINE
8
0
62
7
66
1
70
0
0
VERTEX
8
0
10
352.5
20
295.0
0
VERTEX
8
0
10
352.5
20
290.0
0
SEQEND
0
TEXT
8
5
62
7
40
3.0
50
0.0
1
1
7
STANDARD
10
43.75
20
291.0
72
1
11
43.75
21
291.0
0
TEXT
8
5
62
7
40
3.0
50
90.0
1
1
7
STANDARD
10
45.25
20
12.5
72
1
11
45.25
21
12.5
0
TEXT
8
5
62
7
40
3.0
50
0.0
1
2
7
STANDARD
10
91.25
20
291.0
72
1
11
91.25
21
291.0
0
TEXT
8
5
62
7
40
3.0
50
90.0
1
2
7
STANDARD
10
92.75
20
12.5
72
1
11
92.75
21
12.5
0
TEXT
8
5
62
7
40
3.0
50
0.0
1
3
7
STANDARD
10
138.75
20
291.0
72
1
11
138.75
21
291.0
0
TEXT
8
5
62
7
40
3.0
50
90.0
1
3
7
STANDARD
10
140.25
20
12.5
72
1
11
140.25
21
12.5
0
TEXT
8
5
62
7
40
3.0
50
0.0
1
4
7
STANDARD
10
186.25
20
291.0
72
1
11
186.25
21
291.0
0
TEXT
8
5
62
7
40
3.0
50
90.0
1
4
7
STANDARD
10
187.75
20
12.5
72
1
11
187.75
21
12.5
0
TEXT
8
5
62
7
40
3.0
50
0.0
1
5
7
STANDARD
10
233.75
20
291.0
72
1
11
233.75
21
291.0
0
TEXT
8
5
62
7
40
3.0
50
90.0
1
5
7
STANDARD
10
235.25
20
12.5
72
1
11
235.25
21
12.5
0
TEXT
8
5
62
7
40
3.0
50
0.0
1
6
7
STANDARD
10
281.25
20
291.0
72
1
11
281.25
21
291.0
0
TEXT
8
5
62
7
40
3.0
50
90.0
1
6
7
STANDARD
10
282.75
20
12.5
72
1
11
282.75
21
12.5
0
TEXT
8
5
62
7
40
3.0
50
0.0
1
7
7
STANDARD
10
328.75
20
291.0
72
1
11
328.75
21
291.0
0
TEXT
8
5
62
7
40
3.0
50
90.0
1
7
7
STANDARD
10
330.25
20
12.5
72
1
11
330.25
21
12.5
0
TEXT
8
5
62
7
40
3.0
50
0.0
1
8
7
STANDARD
10
376.25
20
291.0
72
1
11
376.25
21
291.0
0
TEXT
8
5
62
7
40
3.0
50
90.0
1
8
7
STANDARD
10
377.75
20
12.5
72
1
11
377.75
21
12.5
0
POLYLINE
8
0
62
7
66
1
70
0
0
VERTEX
8
0
10
0.0
20
81.6625
0
VERTEX
8
0
10
5.0
20
81.6625
0
SEQEND
0
POLYLINE
8
0
62
7
66
1
70
0
0
VERTEX
8
0
10
405.0
20
81.6625
0
VERTEX
8
0
10
400.0
20
81.6625
0
SEQEND
0
POLYLINE
8
0
62
7
66
1
70
0
0
VERTEX
8
0
10
0.0
20
123.325
0
VERTEX
8
0
10
5.0
20
123.325
0
SEQEND
0
POLYLINE
8
0
62
7
66
1
70
0
0
VERTEX
8
0
10
405.0
20
123.325
0
VERTEX
8
0
10
400.0
20
123.325
0
SEQEND
0
POLYLINE
8
0
62
7
66
1
70
0
0
VERTEX
8
0
10
0.0
20
164.9875
0
VERTEX
8
0
10
5.0
20
164.9875
0
SEQEND
0
POLYLINE
8
0
62
7
66
1
70
0
0
VERTEX
8
0
10
405.0
20
164.9875
0
VERTEX
8
0
10
400.0
20
164.9875
0
SEQEND
0
POLYLINE
8
0
62
7
66
1
70
0
0
VERTEX
8
0
10
0.0
20
206.65
0
VERTEX
8
0
10
5.0
20
206.65
0
SEQEND
0
POLYLINE
8
0
62
7
66
1
70
0
0
VERTEX
8
0
10
405.0
20
206.65
0
VERTEX
8
0
10
400.0
20
206.65
0
SEQEND
0
POLYLINE
8
0
62
7
66
1
70
0
0
VERTEX
8
0
10
0.0
20
248.3125
0
VERTEX
8
0
10
5.0
20
248.3125
0
SEQEND
0
POLYLINE
8
0
62
7
66
1
70
0
0
VERTEX
8
0
10
405.0
20
248.3125
0
VERTEX
8
0
10
400.0
20
248.3125
0
SEQEND
0
TEXT
8
5
62
7
40
3.0
50
0.0
1
F
7
STANDARD
10
2.5
20
59.325
72
1
11
2.5
21
59.325
0
TEXT
8
5
62
7
40
3.0
50
90.0
1
F
7
STANDARD
10
404.0
20
60.825
72
1
11
404.0
21
60.825
0
TEXT
8
5
62
7
40
3.0
50
0.0
1
E
7
STANDARD
10
2.5
20
100.9875
72
1
11
2.5
21
100.9875
0
TEXT
8
5
62
7
40
3.0
50
90.0
1
E
7
STANDARD
10
404.0
20
102.4875
72
1
11
404.0
21
102.4875
0
TEXT
8
5
62
7
40
3.0
50
0.0
1
D
7
STANDARD
10
2.5
20
142.65
72
1
11
2.5
21
142.65
0
TEXT
8
5
62
7
40
3.0
50
90.0
1
D
7
STANDARD
10
404.0
20
144.15
72
1
11
404.0
21
144.15
0
TEXT
8
5
62
7
40
3.0
50
0.0
1
C
7
STANDARD
10
2.5
20
184.3125
72
1
11
2.5
21
184.3125
0
TEXT
8
5
62
7
40
3.0
50
90.0
1
C
7
STANDARD
10
404.0
20
185.8125
72
1
11
404.0
21
185.8125
0
TEXT
8
5
62
7
40
3.0
50
0.0
1
B
7
STANDARD
10
2.5
20
225.975
72
1
11
2.5
21
225.975
0
TEXT
8
5
62
7
40
3.0
50
90.0
1
B
7
STANDARD
10
404.0
20
227.475
72
1
11
404.0
21
227.475
0
TEXT
8
5
62
7
40
3.0
50
0.0
1
A
7
STANDARD
10
2.5
20
267.6375
72
1
11
2.5
21
267.6375
0
TEXT
8
5
62
7
40
3.0
50
90.0
1
A
7
STANDARD
10
404.0
20
269.1375
72
1
11
404.0
21
269.1375
0
POLYLINE
8
0
62
7
66
1
70
0
0
VERTEX
8
0
10
107.5
20
170.0
0
VERTEX
8
0
10
400.0
20
170.0
0
SEQEND
0
POLYLINE
8
0
62
7
66
1
70
0
0
VERTEX
8
0
10
400.0
20
295.0
0
VERTEX
8
0
10
405.0
20
290.0
0
SEQEND
0
POLYLINE
8
0
62
7
66
1
70
0
0
VERTEX
8
0
10
405.0
20
290.0
0
VERTEX
8
0
10
404.75
20
290.25
0
SEQEND
0
POLYLINE
8
0
62
7
66
1
70
0
0
VERTEX
8
0
10
404.75
20
290.25
0
VERTEX
8
0
10
404.75
20
295.0
0
SEQEND
0
POLYLINE
8
0
62
7
66
1
70
0
0
VERTEX
8
0
10
404.75
20
295.0
0
VERTEX
8
0
10
404.5
20
295.0
0
SEQEND
0
POLYLINE
8
0
62
7
66
1
70
0
0
VERTEX
8
0
10
404.5
20
295.0
0
VERTEX
8
0
10
404.5
20
290.5
0
SEQEND
0
POLYLINE
8
0
62
7
66
1
70
0
0
VERTEX
8
0
10
404.5
20
290.5
0
VERTEX
8
0
10
404.25
20
290.75
0
SEQEND
0
POLYLINE
8
0
62
7
66
1
70
0
0
VERTEX
8
0
10
404.25
20
290.75
0
VERTEX
8
0
10
404.25
20
295.0
0
SEQEND
0
POLYLINE
8
0
62
7
66
1
70
0
0
VERTEX
8
0
10
404.25
20
295.0
0
VERTEX
8
0
10
404.0
20
295.0
0
SEQEND
0
POLYLINE
8
0
62
7
66
1
70
0
0
VERTEX
8
0
10
404.0
20
295.0
0
VERTEX
8
0
10
404.0
20
291.0
0
SEQEND
0
POLYLINE
8
0
62
7
66
1
70
0
0
VERTEX
8
0
10
404.0
20
291.0
0
VERTEX
8
0
10
403.75
20
291.25
0
SEQEND
0
POLYLINE
8
0
62
7
66
1
70
0
0
VERTEX
8
0
10
403.75
20
291.25
0
VERTEX
8
0
10
403.75
20
295.0
0
SEQEND
0
POLYLINE
8
0
62
7
66
1
70
0
0
VERTEX
8
0
10
403.75
20
295.0
0
VERTEX
8
0
10
403.5
20
295.0
0
SEQEND
0
POLYLINE
8
0
62
7
66
1
70
0
0
VERTEX
8
0
10
403.5
20
295.0
0
VERTEX
8
0
10
403.5
20
291.5
0
SEQEND
0
POLYLINE
8
0
62
7
66
1
70
0
0
VERTEX
8
0
10
403.5
20
291.5
0
VERTEX
8
0
10
403.25
20
291.75
0
SEQEND
0
POLYLINE
8
0
62
7
66
1
70
0
0
VERTEX
8
0
10
5.0
20
30.0
0
VERTEX
8
0
10
100.0
20
30.0
0
SEQEND
0
POLYLINE
8
0
62
7
66
1
70
0
0
VERTEX
8
0
10
107.5
20
165.0
0
VERTEX
8
0
10
400.0
20
165.0
0
SEQEND
0
POLYLINE
8
0
62
7
66
1
70
0
0
VERTEX
8
0
10
107.5
20
220.0
0
VERTEX
8
0
10
400.0
20
220.0
0
SEQEND
0
POLYLINE
8
0
62
7
66
1
70
0
0
VERTEX
8
0
10
3.75
20
295.0
0
VERTEX
8
0
10
3.75
20
293.75
0
SEQEND
0
POLYLINE
8
0
62
7
66
1
70
0
0
VERTEX
8
0
10
3.75
20
293.75
0
VERTEX
8
0
10
4.0
20
294.0
0
SEQEND
0
POLYLINE
8
0
62
7
66
1
70
0
0
VERTEX
8
0
10
4.0
20
294.0
0
VERTEX
8
0
10
4.0
20
295.0
0
SEQEND
0
POLYLINE
8
0
62
7
66
1
70
0
0
VERTEX
8
0
10
4.0
20
295.0
0
VERTEX
8
0
10
4.25
20
295.0
0
SEQEND
0
POLYLINE
8
0
62
7
66
1
70
0
0
VERTEX
8
0
10
4.25
20
295.0
0
VERTEX
8
0
10
4.25
20
294.25
0
SEQEND
0
POLYLINE
8
0
62
7
66
1
70
0
0
VERTEX
8
0
10
4.25
20
294.25
0
VERTEX
8
0
10
4.5
20
294.5
0
SEQEND
0
POLYLINE
8
0
62
7
66
1
70
0
0
VERTEX
8
0
10
4.5
20
294.5
0
VERTEX
8
0
10
4.5
20
295.0
0
SEQEND
0
POLYLINE
8
0
62
7
66
1
70
0
0
VERTEX
8
0
10
4.5
20
295.0
0
VERTEX
8
0
10
4.75
20
295.0
0
SEQEND
0
POLYLINE
8
0
62
7
66
1
70
0
0
VERTEX
8
0
10
4.75
20
295.0
0
VERTEX
8
0
10
4.75
20
294.75
0
SEQEND
0
POLYLINE
8
0
62
7
66
1
70
0
0
VERTEX
8
0
10
181.8
20
30.6
0
VERTEX
8
0
10
184.3
20
24.3
0
SEQEND
0
POLYLINE
8
0
62
7
66
1
70
0
0
VERTEX
8
0
10
184.3
20
24.3
0
VERTEX
8
0
10
184.7
20
24.3
0
SEQEND
0
POLYLINE
8
0
62
7
66
1
70
0
0
VERTEX
8
0
10
179.7
20
31.0
0
VERTEX
8
0
10
182.1
20
31.0
0
SEQEND
0
POLYLINE
8
0
62
7
66
1
70
0
0
VERTEX
8
0
10
182.1
20
31.0
0
VERTEX
8
0
10
182.1
20
30.7
0
SEQEND
0
POLYLINE
8
0
62
7
66
1
70
0
0
VERTEX
8
0
10
182.1
20
30.7
0
VERTEX
8
0
10
179.7
20
30.7
0
SEQEND
0
POLYLINE
8
0
62
7
66
1
70
0
0
VERTEX
8
0
10
179.7
20
30.7
0
VERTEX
8
0
10
179.7
20
30.9
0
SEQEND
0
POLYLINE
8
0
62
7
66
1
70
0
0
VERTEX
8
0
10
107.5
20
210.0
0
VERTEX
8
0
10
400.0
20
210.0
0
SEQEND
0
POLYLINE
8
0
62
7
66
1
70
0
0
VERTEX
8
0
10
214.6
20
29.9
0
VERTEX
8
0
10
215.4
20
29.9
0
SEQEND
0
POLYLINE
8
0
62
7
66
1
70
0
0
VERTEX
8
0
10
215.4
20
29.9
0
VERTEX
8
0
10
215.4
20
29.9
0
SEQEND
0
POLYLINE
8
0
62
7
66
1
70
0
0
VERTEX
8
0
10
214.8
20
24.6
0
VERTEX
8
0
10
215.1
20
24.6
0
SEQEND
0
POLYLINE
8
0
62
7
66
1
70
0
0
VERTEX
8
0
10
400.0
20
290.0
0
VERTEX
8
0
10
400.0
20
35.0
0
SEQEND
0
POLYLINE
8
0
62
7
66
1
70
0
0
VERTEX
8
0
10
215.9
20
26.7
0
VERTEX
8
0
10
216.5
20
26.7
0
SEQEND
0
POLYLINE
8
0
62
7
66
1
70
0
0
VERTEX
8
0
10
403.0
20
10.0
0
VERTEX
8
0
10
403.0
20
13.0
0
SEQEND
0
POLYLINE
8
0
62
7
66
1
70
0
0
VERTEX
8
0
10
403.0
20
13.0
0
VERTEX
8
0
10
402.75
20
12.75
0
SEQEND
0
POLYLINE
8
0
62
7
66
1
70
0
0
VERTEX
8
0
10
402.75
20
12.75
0
VERTEX
8
0
10
402.75
20
10.0
0
SEQEND
0
POLYLINE
8
0
62
7
66
1
70
0
0
VERTEX
8
0
10
402.75
20
10.0
0
VERTEX
8
0
10
402.5
20
10.0
0
SEQEND
0
POLYLINE
8
0
62
7
66
1
70
0
0
VERTEX
8
0
10
402.5
20
10.0
0
VERTEX
8
0
10
402.5
20
12.5
0
SEQEND
0
POLYLINE
8
0
62
7
66
1
70
0
0
VERTEX
8
0
10
402.5
20
12.5
0
VERTEX
8
0
10
402.25
20
12.25
0
SEQEND
0
POLYLINE
8
0
62
7
66
1
70
0
0
VERTEX
8
0
10
402.25
20
12.25
0
VERTEX
8
0
10
402.25
20
10.0
0
SEQEND
0
POLYLINE
8
0
62
7
66
1
70
0
0
VERTEX
8
0
10
402.25
20
10.0
0
VERTEX
8
0
10
402.0
20
10.0
0
SEQEND
0
POLYLINE
8
0
62
7
66
1
70
0
0
VERTEX
8
0
10
402.0
20
10.0
0
VERTEX
8
0
10
402.0
20
12.0
0
SEQEND
0
POLYLINE
8
0
62
7
66
1
70
0
0
VERTEX
8
0
10
402.0
20
12.0
0
VERTEX
8
0
10
401.75
20
11.75
0
SEQEND
0
POLYLINE
8
0
62
7
66
1
70
0
0
VERTEX
8
0
10
401.75
20
11.75
0
VERTEX
8
0
10
401.75
20
10.0
0
SEQEND
0
POLYLINE
8
0
62
7
66
1
70
0
0
VERTEX
8
0
10
401.75
20
10.0
0
VERTEX
8
0
10
401.5
20
10.0
0
SEQEND
0
POLYLINE
8
0
62
7
66
1
70
0
0
VERTEX
8
0
10
401.5
20
10.0
0
VERTEX
8
0
10
401.5
20
11.5
0
SEQEND
0
POLYLINE
8
0
62
7
66
1
70
0
0
VERTEX
8
0
10
401.5
20
11.5
0
VERTEX
8
0
10
401.25
20
11.25
0
SEQEND
0
POLYLINE
8
0
62
7
66
1
70
0
0
VERTEX
8
0
10
184.7
20
24.9
0
VERTEX
8
0
10
187.1
20
30.9
0
SEQEND
0
POLYLINE
8
0
62
7
66
1
70
0
0
VERTEX
8
0
10
107.5
20
145.0
0
VERTEX
8
0
10
400.0
20
145.0
0
SEQEND
0
POLYLINE
8
0
62
7
66
1
70
0
0
VERTEX
8
0
10
215.2
20
27.4
0
VERTEX
8
0
10
216.5
20
27.4
0
SEQEND
0
POLYLINE
8
0
62
7
66
1
70
0
0
VERTEX
8
0
10
216.5
20
27.4
0
VERTEX
8
0
10
216.5
20
27.6
0
SEQEND
0
POLYLINE
8
0
62
7
66
1
70
0
0
VERTEX
8
0
10
216.5
20
27.6
0
VERTEX
8
0
10
216.0
20
28.0
0
SEQEND
0
POLYLINE
8
0
62
7
66
1
70
0
0
VERTEX
8
0
10
216.0
20
28.0
0
VERTEX
8
0
10
215.7
20
29.6
0
SEQEND
0
POLYLINE
8
0
62
7
66
1
70
0
0
VERTEX
8
0
10
355.0
20
35.0
0
VERTEX
8
0
10
355.0
20
25.0
0
SEQEND
0
POLYLINE
8
0
62
7
66
1
70
0
0
VERTEX
8
0
10
0.0
20
15.0
0
VERTEX
8
0
10
0.0
20
10.0
0
SEQEND
0
POLYLINE
8
0
62
7
66
1
70
0
0
VERTEX
8
0
10
0.0
20
10.0
0
VERTEX
8
0
10
5.0
20
10.0
0
SEQEND
0
POLYLINE
8
0
62
7
66
1
70
0
0
VERTEX
8
0
10
5.0
20
10.0
0
VERTEX
8
0
10
0.0
20
15.0
0
SEQEND
0
POLYLINE
8
0
62
7
66
1
70
0
0
VERTEX
8
0
10
0.0
20
15.0
0
VERTEX
8
0
10
0.25
20
14.75
0
SEQEND
0
POLYLINE
8
0
62
7
66
1
70
0
0
VERTEX
8
0
10
0.25
20
14.75
0
VERTEX
8
0
10
0.25
20
10.0
0
SEQEND
0
POLYLINE
8
0
62
7
66
1
70
0
0
VERTEX
8
0
10
0.25
20
10.0
0
VERTEX
8
0
10
0.5
20
10.0
0
SEQEND
0
POLYLINE
8
0
62
7
66
1
70
0
0
VERTEX
8
0
10
0.5
20
10.0
0
VERTEX
8
0
10
0.5
20
14.5
0
SEQEND
0
POLYLINE
8
0
62
7
66
1
70
0
0
VERTEX
8
0
10
0.5
20
14.5
0
VERTEX
8
0
10
0.75
20
14.25
0
SEQEND
0
POLYLINE
8
0
62
7
66
1
70
0
0
VERTEX
8
0
10
0.75
20
14.25
0
VERTEX
8
0
10
0.75
20
10.0
0
SEQEND
0
POLYLINE
8
0
62
7
66
1
70
0
0
VERTEX
8
0
10
0.75
20
10.0
0
VERTEX
8
0
10
1.0
20
10.0
0
SEQEND
0
POLYLINE
8
0
62
7
66
1
70
0
0
VERTEX
8
0
10
1.0
20
10.0
0
VERTEX
8
0
10
1.0
20
14.0
0
SEQEND
0
POLYLINE
8
0
62
7
66
1
70
0
0
VERTEX
8
0
10
1.0
20
14.0
0
VERTEX
8
0
10
1.25
20
13.75
0
SEQEND
0
POLYLINE
8
0
62
7
66
1
70
0
0
VERTEX
8
0
10
1.25
20
13.75
0
VERTEX
8
0
10
1.25
20
10.0
0
SEQEND
0
POLYLINE
8
0
62
7
66
1
70
0
0
VERTEX
8
0
10
1.25
20
10.0
0
VERTEX
8
0
10
1.5
20
10.0
0
SEQEND
0
POLYLINE
8
0
62
7
66
1
70
0
0
VERTEX
8
0
10
107.5
20
272.5
0
VERTEX
8
0
10
350.0
20
272.5
0
SEQEND
0
POLYLINE
8
0
62
7
66
1
70
0
0
VERTEX
8
0
10
107.5
20
215.0
0
VERTEX
8
0
10
400.0
20
215.0
0
SEQEND
0
POLYLINE
8
0
62
7
66
1
70
0
0
VERTEX
8
0
10
237.5
20
235.0
0
VERTEX
8
0
10
237.5
20
235.0
0
SEQEND
0
POLYLINE
8
0
62
7
66
1
70
0
0
VERTEX
8
0
10
237.5
20
235.0
0
VERTEX
8
0
10
237.5
20
272.5
0
SEQEND
0
POLYLINE
8
0
62
7
66
1
70
0
0
VERTEX
8
0
10
107.5
20
160.0
0
VERTEX
8
0
10
400.0
20
160.0
0
SEQEND
0
POLYLINE
8
0
62
7
66
1
70
0
0
VERTEX
8
0
10
315.0
20
25.0
0
VERTEX
8
0
10
315.0
20
15.0
0
SEQEND
0
POLYLINE
8
0
62
7
66
1
70
0
40
1.0
41
1.0
0
VERTEX
8
0
10
180.0
20
140.0
40
1.0
41
1.0
0
VERTEX
8
0
10
160.0
20
140.0
40
1.0
41
1.0
0
SEQEND
0
POLYLINE
8
0
62
7
66
1
70
0
0
VERTEX
8
0
10
250.0
20
235.0
0
VERTEX
8
0
10
250.0
20
272.5
0
SEQEND
0
POLYLINE
8
0
62
7
66
1
70
0
0
VERTEX
8
0
10
107.5
20
200.0
0
VERTEX
8
0
10
400.0
20
200.0
0
SEQEND
0
POLYLINE
8
0
62
7
66
1
70
0
0
VERTEX
8
0
10
330.0
20
235.0
0
VERTEX
8
0
10
330.0
20
272.5
0
SEQEND
0
POLYLINE
8
0
62
7
66
1
70
0
0
VERTEX
8
0
10
290.0
20
235.0
0
VERTEX
8
0
10
290.0
20
272.5
0
SEQEND
0
POLYLINE
8
0
62
7
66
1
70
0
0
VERTEX
8
0
10
107.5
20
230.0
0
VERTEX
8
0
10
400.0
20
230.0
0
SEQEND
0
POLYLINE
8
0
62
7
66
1
70
0
0
VERTEX
8
0
10
160.0
20
235.0
0
VERTEX
8
0
10
160.0
20
272.5
0
SEQEND
0
POLYLINE
8
0
62
7
66
1
70
0
0
VERTEX
8
0
10
107.5
20
195.0
0
VERTEX
8
0
10
400.0
20
195.0
0
SEQEND
0
POLYLINE
8
0
62
7
66
1
70
0
0
VERTEX
8
0
10
107.5
20
205.0
0
VERTEX
8
0
10
400.0
20
205.0
0
SEQEND
0
POLYLINE
8
0
62
7
66
1
70
0
0
VERTEX
8
0
10
250.0
20
140.0
0
VERTEX
8
0
10
250.0
20
235.0
0
SEQEND
0
POLYLINE
8
0
62
7
66
1
70
0
0
VERTEX
8
0
10
107.5
20
140.0
0
VERTEX
8
0
10
400.0
20
140.0
0
SEQEND
0
POLYLINE
8
0
62
7
66
1
70
0
0
VERTEX
8
0
10
215.9
20
26.7
0
VERTEX
8
0
10
215.9
20
24.6
0
SEQEND
0
POLYLINE
8
0
62
7
66
1
70
0
0
VERTEX
8
0
10
182.2
20
30.5
0
VERTEX
8
0
10
184.4
20
24.8
0
SEQEND
0
POLYLINE
8
0
62
7
66
1
70
0
0
VERTEX
8
0
10
187.0
20
24.4
0
VERTEX
8
0
10
186.6
20
24.4
0
SEQEND
0
POLYLINE
8
0
62
7
66
1
70
0
0
VERTEX
8
0
10
186.6
20
24.4
0
VERTEX
8
0
10
186.6
20
23.7
0
SEQEND
0
POLYLINE
8
0
62
7
66
1
70
0
0
VERTEX
8
0
10
186.6
20
23.7
0
VERTEX
8
0
10
187.1
20
23.7
0
SEQEND
0
POLYLINE
8
0
62
7
66
1
70
0
0
VERTEX
8
0
10
2.0
20
292.0
0
VERTEX
8
0
10
2.0
20
295.0
0
SEQEND
0
POLYLINE
8
0
62
7
66
1
70
0
0
VERTEX
8
0
10
2.0
20
295.0
0
VERTEX
8
0
10
2.25
20
295.0
0
SEQEND
0
POLYLINE
8
0
62
7
66
1
70
0
0
VERTEX
8
0
10
2.25
20
295.0
0
VERTEX
8
0
10
2.25
20
292.25
0
SEQEND
0
POLYLINE
8
0
62
7
66
1
70
0
0
VERTEX
8
0
10
2.25
20
292.25
0
VERTEX
8
0
10
2.5
20
292.5
0
SEQEND
0
POLYLINE
8
0
62
7
66
1
70
0
0
VERTEX
8
0
10
2.5
20
292.5
0
VERTEX
8
0
10
2.5
20
295.0
0
SEQEND
0
POLYLINE
8
0
62
7
66
1
70
0
0
VERTEX
8
0
10
2.5
20
295.0
0
VERTEX
8
0
10
2.75
20
295.0
0
SEQEND
0
POLYLINE
8
0
62
7
66
1
70
0
0
VERTEX
8
0
10
2.75
20
295.0
0
VERTEX
8
0
10
2.75
20
292.75
0
SEQEND
0
POLYLINE
8
0
62
7
66
1
70
0
0
VERTEX
8
0
10
2.75
20
292.75
0
VERTEX
8
0
10
3.0
20
293.0
0
SEQEND
0
POLYLINE
8
0
62
7
66
1
70
0
0
VERTEX
8
0
10
3.0
20
293.0
0
VERTEX
8
0
10
3.0
20
295.0
0
SEQEND
0
POLYLINE
8
0
62
7
66
1
70
0
0
VERTEX
8
0
10
3.0
20
295.0
0
VERTEX
8
0
10
3.25
20
295.0
0
SEQEND
0
POLYLINE
8
0
62
7
66
1
70
0
0
VERTEX
8
0
10
3.25
20
295.0
0
VERTEX
8
0
10
3.25
20
293.25
0
SEQEND
0
POLYLINE
8
0
62
7
66
1
70
0
0
VERTEX
8
0
10
3.25
20
293.25
0
VERTEX
8
0
10
3.5
20
293.5
0
SEQEND
0
POLYLINE
8
0
62
7
66
1
70
0
0
VERTEX
8
0
10
3.5
20
293.5
0
VERTEX
8
0
10
3.5
20
295.0
0
SEQEND
0
POLYLINE
8
0
62
7
66
1
70
0
0
VERTEX
8
0
10
3.5
20
295.0
0
VERTEX
8
0
10
3.75
20
295.0
0
SEQEND
0
POLYLINE
8
0
62
7
66
1
70
0
0
VERTEX
8
0
10
179.5
20
31.2
0
VERTEX
8
0
10
179.5
20
30.5
0
SEQEND
0
POLYLINE
8
0
62
7
66
1
70
0
0
VERTEX
8
0
10
179.5
20
30.5
0
VERTEX
8
0
10
180.5
20
30.5
0
SEQEND
0
POLYLINE
8
0
62
7
66
1
70
0
0
VERTEX
8
0
10
180.5
20
30.5
0
VERTEX
8
0
10
180.5
20
24.4
0
SEQEND
0
POLYLINE
8
0
62
7
66
1
70
0
0
VERTEX
8
0
10
180.5
20
24.4
0
VERTEX
8
0
10
179.5
20
24.4
0
SEQEND
0
POLYLINE
8
0
62
7
66
1
70
0
0
VERTEX
8
0
10
179.5
20
24.4
0
VERTEX
8
0
10
179.5
20
23.7
0
SEQEND
0
POLYLINE
8
0
62
7
66
1
70
0
0
VERTEX
8
0
10
179.5
20
23.7
0
VERTEX
8
0
10
182.2
20
23.7
0
SEQEND
0
POLYLINE
8
0
62
7
66
1
70
0
0
VERTEX
8
0
10
182.2
20
23.7
0
VERTEX
8
0
10
182.2
20
24.4
0
SEQEND
0
POLYLINE
8
0
62
7
66
1
70
0
0
VERTEX
8
0
10
182.2
20
24.4
0
VERTEX
8
0
10
181.2
20
24.4
0
SEQEND
0
POLYLINE
8
0
62
7
66
1
70
0
0
VERTEX
8
0
10
181.2
20
24.4
0
VERTEX
8
0
10
181.2
20
30.5
0
SEQEND
0
POLYLINE
8
0
62
7
66
1
70
0
0
VERTEX
8
0
10
181.2
20
30.5
0
VERTEX
8
0
10
182.2
20
30.5
0
SEQEND
0
POLYLINE
8
0
62
7
66
1
70
0
0
VERTEX
8
0
10
182.2
20
30.5
0
VERTEX
8
0
10
182.2
20
31.2
0
SEQEND
0
POLYLINE
8
0
62
7
66
1
70
0
0
VERTEX
8
0
10
182.2
20
31.2
0
VERTEX
8
0
10
179.5
20
31.2
0
SEQEND
0
POLYLINE
8
0
62
7
66
1
70
0
0
VERTEX
8
0
10
187.6
20
30.5
0
VERTEX
8
0
10
187.6
20
24.4
0
SEQEND
0
POLYLINE
8
0
62
7
66
1
70
0
0
VERTEX
8
0
10
182.2
20
31.2
0
VERTEX
8
0
10
184.6
20
25.2
0
SEQEND
0
POLYLINE
8
0
62
7
66
1
70
0
0
VERTEX
8
0
10
184.6
20
25.2
0
VERTEX
8
0
10
187.0
20
31.2
0
SEQEND
0
POLYLINE
8
0
62
7
66
1
70
0
0
VERTEX
8
0
10
0.0
20
295.0
0
VERTEX
8
0
10
5.0
20
295.0
0
SEQEND
0
POLYLINE
8
0
62
7
66
1
70
0
0
VERTEX
8
0
10
5.0
20
295.0
0
VERTEX
8
0
10
0.0
20
290.0
0
SEQEND
0
POLYLINE
8
0
62
7
66
1
70
0
0
VERTEX
8
0
10
0.0
20
290.0
0
VERTEX
8
0
10
0.0
20
295.0
0
SEQEND
0
POLYLINE
8
0
62
7
66
1
70
0
0
VERTEX
8
0
10
213.5
20
26.7
0
VERTEX
8
0
10
214.2
20
26.7
0
SEQEND
0
POLYLINE
8
0
62
7
66
1
70
0
0
VERTEX
8
0
10
214.2
20
26.7
0
VERTEX
8
0
10
215.1
20
24.6
0
SEQEND
0
POLYLINE
8
0
62
7
66
1
70
0
40
1.0
41
1.0
0
VERTEX
8
0
10
107.5
20
235.0
40
1.0
41
1.0
0
VERTEX
8
0
10
160.0
20
235.0
40
1.0
41
1.0
0
SEQEND
0
POLYLINE
8
0
62
7
66
1
70
0
0
VERTEX
8
0
10
214.0
20
28.0
0
VERTEX
8
0
10
214.3
20
29.6
0
SEQEND
0
POLYLINE
8
0
62
7
66
1
70
0
0
VERTEX
8
0
10
214.8
20
27.4
0
VERTEX
8
0
10
214.8
20
27.1
0
SEQEND
0
POLYLINE
8
0
62
7
66
1
70
0
0
VERTEX
8
0
10
214.8
20
27.1
0
VERTEX
8
0
10
215.2
20
27.1
0
SEQEND
0
POLYLINE
8
0
62
7
66
1
70
0
0
VERTEX
8
0
10
215.2
20
27.1
0
VERTEX
8
0
10
215.2
20
27.4
0
SEQEND
0
POLYLINE
8
0
62
7
66
1
70
0
0
VERTEX
8
0
10
215.2
20
27.4
0
VERTEX
8
0
10
214.8
20
27.4
0
SEQEND
0
POLYLINE
8
0
62
7
66
1
70
0
0
VERTEX
8
0
10
401.25
20
11.25
0
VERTEX
8
0
10
401.25
20
10.0
0
SEQEND
0
POLYLINE
8
0
62
7
66
1
70
0
0
VERTEX
8
0
10
401.25
20
10.0
0
VERTEX
8
0
10
401.0
20
10.0
0
SEQEND
0
POLYLINE
8
0
62
7
66
1
70
0
0
VERTEX
8
0
10
401.0
20
10.0
0
VERTEX
8
0
10
401.0
20
11.0
0
SEQEND
0
POLYLINE
8
0
62
7
66
1
70
0
0
VERTEX
8
0
10
401.0
20
11.0
0
VERTEX
8
0
10
400.75
20
10.75
0
SEQEND
0
POLYLINE
8
0
62
7
66
1
70
0
0
VERTEX
8
0
10
400.75
20
10.75
0
VERTEX
8
0
10
400.75
20
10.0
0
SEQEND
0
POLYLINE
8
0
62
7
66
1
70
0
0
VERTEX
8
0
10
400.75
20
10.0
0
VERTEX
8
0
10
400.5
20
10.0
0
SEQEND
0
POLYLINE
8
0
62
7
66
1
70
0
0
VERTEX
8
0
10
400.5
20
10.0
0
VERTEX
8
0
10
400.5
20
10.5
0
SEQEND
0
POLYLINE
8
0
62
7
66
1
70
0
0
VERTEX
8
0
10
400.5
20
10.5
0
VERTEX
8
0
10
400.25
20
10.25
0
SEQEND
0
POLYLINE
8
0
62
7
66
1
70
0
0
VERTEX
8
0
10
400.25
20
10.25
0
VERTEX
8
0
10
400.25
20
10.0
0
SEQEND
0
POLYLINE
8
0
62
7
66
1
70
0
0
VERTEX
8
0
10
330.0
20
235.0
0
VERTEX
8
0
10
330.0
20
272.5
0
SEQEND
0
POLYLINE
8
0
62
7
66
1
70
0
0
VERTEX
8
0
10
186.9
20
24.2
0
VERTEX
8
0
10
189.6
20
24.2
0
SEQEND
0
POLYLINE
8
0
62
7
66
1
70
0
0
VERTEX
8
0
10
189.6
20
24.2
0
VERTEX
8
0
10
189.4
20
24.2
0
SEQEND
0
POLYLINE
8
0
62
7
66
1
70
0
0
VERTEX
8
0
10
189.4
20
24.2
0
VERTEX
8
0
10
189.4
20
23.9
0
SEQEND
0
POLYLINE
8
0
62
7
66
1
70
0
0
VERTEX
8
0
10
189.4
20
23.9
0
VERTEX
8
0
10
187.0
20
23.9
0
SEQEND
0
POLYLINE
8
0
62
7
66
1
70
0
0
VERTEX
8
0
10
187.0
20
23.9
0
VERTEX
8
0
10
186.9
20
23.9
0
SEQEND
0
POLYLINE
8
0
62
7
66
1
70
0
0
VERTEX
8
0
10
186.9
20
23.9
0
VERTEX
8
0
10
186.9
20
24.3
0
SEQEND
0
POLYLINE
8
0
62
7
66
1
70
0
0
VERTEX
8
0
10
290.0
20
140.0
0
VERTEX
8
0
10
290.0
20
235.0
0
SEQEND
0
POLYLINE
8
0
62
7
66
1
70
0
0
VERTEX
8
0
10
0.0
20
152.5
0
VERTEX
8
0
10
0.0
20
295.0
0
SEQEND
0
POLYLINE
8
0
62
7
66
1
70
0
0
VERTEX
8
0
10
0.0
20
295.0
0
VERTEX
8
0
10
405.0
20
295.0
0
SEQEND
0
POLYLINE
8
0
62
7
66
1
70
0
0
VERTEX
8
0
10
405.0
20
295.0
0
VERTEX
8
0
10
405.0
20
10.0
0
SEQEND
0
POLYLINE
8
0
62
7
66
1
70
0
0
VERTEX
8
0
10
405.0
20
10.0
0
VERTEX
8
0
10
0.0
20
10.0
0
SEQEND
0
POLYLINE
8
0
62
7
66
1
70
0
0
VERTEX
8
0
10
0.0
20
10.0
0
VERTEX
8
0
10
0.0
20
152.5
0
SEQEND
0
POLYLINE
8
0
62
7
66
1
70
0
0
VERTEX
8
0
10
181.5
20
30.5
0
VERTEX
8
0
10
184.1
20
23.9
0
SEQEND
0
POLYLINE
8
0
62
7
66
1
70
0
0
VERTEX
8
0
10
184.1
20
23.9
0
VERTEX
8
0
10
184.8
20
23.9
0
SEQEND
0
POLYLINE
8
0
62
7
66
1
70
0
0
VERTEX
8
0
10
237.5
20
140.0
0
VERTEX
8
0
10
237.5
20
235.0
0
SEQEND
0
POLYLINE
8
0
62
7
66
1
70
0
40
1.0
41
1.0
0
VERTEX
8
0
10
160.0
20
220.0
40
1.0
41
1.0
0
VERTEX
8
0
10
107.5
20
220.0
40
1.0
41
1.0
0
SEQEND
0
POLYLINE
8
0
62
7
66
1
70
0
0
VERTEX
8
0
10
350.0
20
258.0
0
VERTEX
8
0
10
350.0
20
258.0
0
SEQEND
0
POLYLINE
8
0
62
7
66
1
70
0
0
VERTEX
8
0
10
350.0
20
258.0
0
VERTEX
8
0
10
400.0
20
258.0
0
SEQEND
0
POLYLINE
8
0
62
7
66
1
70
0
0
VERTEX
8
0
10
107.5
20
155.0
0
VERTEX
8
0
10
400.0
20
155.0
0
SEQEND
0
POLYLINE
8
0
62
7
66
1
70
0
0
VERTEX
8
0
10
107.5
20
150.0
0
VERTEX
8
0
10
400.0
20
150.0
0
SEQEND
0
POLYLINE
8
0
62
7
66
1
70
0
40
1.0
41
1.0
0
VERTEX
8
0
10
160.0
20
230.0
40
1.0
41
1.0
0
VERTEX
8
0
10
107.5
20
230.0
40
1.0
41
1.0
0
SEQEND
0
POLYLINE
8
0
62
7
66
1
70
0
0
VERTEX
8
0
10
107.5
20
235.0
0
VERTEX
8
0
10
400.0
20
235.0
0
SEQEND
0
POLYLINE
8
0
62
7
66
1
70
0
40
1.0
41
1.0
0
VERTEX
8
0
10
160.0
20
225.0
40
1.0
41
1.0
0
VERTEX
8
0
10
107.5
20
225.0
40
1.0
41
1.0
0
SEQEND
0
POLYLINE
8
0
62
7
66
1
70
0
0
VERTEX
8
0
10
350.0
20
235.0
0
VERTEX
8
0
10
350.0
20
290.0
0
SEQEND
0
POLYLINE
8
0
62
7
66
1
70
0
40
1.0
41
1.0
0
VERTEX
8
0
10
180.0
20
140.0
40
1.0
41
1.0
0
VERTEX
8
0
10
180.0
20
290.0
40
1.0
41
1.0
0
SEQEND
0
POLYLINE
8
0
62
7
66
1
70
0
40
1.0
41
1.0
0
VERTEX
8
0
10
180.0
20
220.0
40
1.0
41
1.0
0
VERTEX
8
0
10
160.0
20
220.0
40
1.0
41
1.0
0
SEQEND
0
POLYLINE
8
0
62
7
66
1
70
0
0
VERTEX
8
0
10
107.5
20
225.0
0
VERTEX
8
0
10
400.0
20
225.0
0
SEQEND
0
POLYLINE
8
0
62
7
66
1
70
0
0
VERTEX
8
0
10
107.5
20
190.0
0
VERTEX
8
0
10
400.0
20
190.0
0
SEQEND
0
POLYLINE
8
0
62
7
66
1
70
0
0
VERTEX
8
0
10
107.5
20
185.0
0
VERTEX
8
0
10
400.0
20
185.0
0
SEQEND
0
POLYLINE
8
0
62
7
66
1
70
0
0
VERTEX
8
0
10
107.5
20
180.0
0
VERTEX
8
0
10
400.0
20
180.0
0
SEQEND
0
POLYLINE
8
0
62
7
66
1
70
0
0
VERTEX
8
0
10
107.5
20
175.0
0
VERTEX
8
0
10
400.0
20
175.0
0
SEQEND
0
POLYLINE
8
0
62
7
66
1
70
0
40
1.0
41
1.0
0
VERTEX
8
0
10
107.5
20
140.0
40
1.0
41
1.0
0
VERTEX
8
0
10
107.5
20
290.0
40
1.0
41
1.0
0
SEQEND
0
POLYLINE
8
0
62
7
66
1
70
0
40
1.0
41
1.0
0
VERTEX
8
0
10
107.5
20
140.0
40
1.0
41
1.0
0
VERTEX
8
0
10
160.0
20
140.0
40
1.0
41
1.0
0
SEQEND
0
POLYLINE
8
0
62
7
66
1
70
0
0
VERTEX
8
0
10
160.0
20
140.0
0
VERTEX
8
0
10
160.0
20
272.5
0
SEQEND
0
POLYLINE
8
0
62
7
66
1
70
0
0
VERTEX
8
0
10
290.0
20
135.0
0
VERTEX
8
0
10
400.0
20
135.0
0
SEQEND
0
POLYLINE
8
0
62
7
66
1
70
0
0
VERTEX
8
0
10
330.0
20
140.0
0
VERTEX
8
0
10
330.0
20
272.5
0
SEQEND
0
POLYLINE
8
0
62
7
66
1
70
0
0
VERTEX
8
0
10
355.0
20
135.0
0
VERTEX
8
0
10
355.0
20
290.0
0
SEQEND
0
POLYLINE
8
0
62
7
66
1
70
0
0
VERTEX
8
0
10
360.0
20
135.0
0
VERTEX
8
0
10
360.0
20
290.0
0
SEQEND
0
POLYLINE
8
0
62
7
66
1
70
0
0
VERTEX
8
0
10
365.0
20
135.0
0
VERTEX
8
0
10
365.0
20
290.0
0
SEQEND
0
POLYLINE
8
0
62
7
66
1
70
0
0
VERTEX
8
0
10
370.0
20
135.0
0
VERTEX
8
0
10
370.0
20
290.0
0
SEQEND
0
POLYLINE
8
0
62
7
66
1
70
0
0
VERTEX
8
0
10
375.0
20
135.0
0
VERTEX
8
0
10
375.0
20
290.0
0
SEQEND
0
POLYLINE
8
0
62
7
66
1
70
0
0
VERTEX
8
0
10
380.0
20
135.0
0
VERTEX
8
0
10
380.0
20
290.0
0
SEQEND
0
POLYLINE
8
0
62
7
66
1
70
0
0
VERTEX
8
0
10
385.0
20
135.0
0
VERTEX
8
0
10
385.0
20
290.0
0
SEQEND
0
POLYLINE
8
0
62
7
66
1
70
0
0
VERTEX
8
0
10
390.0
20
135.0
0
VERTEX
8
0
10
390.0
20
290.0
0
SEQEND
0
POLYLINE
8
0
62
7
66
1
70
0
0
VERTEX
8
0
10
395.0
20
135.0
0
VERTEX
8
0
10
395.0
20
290.0
0
SEQEND
0
POLYLINE
8
0
62
7
66
1
70
0
0
VERTEX
8
0
10
290.0
20
135.0
0
VERTEX
8
0
10
290.0
20
272.5
0
SEQEND
0
POLYLINE
8
0
62
7
66
1
70
0
0
VERTEX
8
0
10
290.0
20
135.0
0
VERTEX
8
0
10
290.0
20
130.0
0
SEQEND
0
POLYLINE
8
0
62
7
66
1
70
0
0
VERTEX
8
0
10
290.0
20
130.0
0
VERTEX
8
0
10
400.0
20
130.0
0
SEQEND
0
POLYLINE
8
0
62
7
66
1
70
0
0
VERTEX
8
0
10
290.0
20
130.0
0
VERTEX
8
0
10
290.0
20
125.0
0
SEQEND
0
POLYLINE
8
0
62
7
66
1
70
0
0
VERTEX
8
0
10
290.0
20
125.0
0
VERTEX
8
0
10
400.0
20
125.0
0
SEQEND
0
POLYLINE
8
0
62
7
66
1
70
0
0
VERTEX
8
0
10
355.0
20
125.0
0
VERTEX
8
0
10
355.0
20
135.0
0
SEQEND
0
POLYLINE
8
0
62
7
66
1
70
0
0
VERTEX
8
0
10
360.0
20
125.0
0
VERTEX
8
0
10
360.0
20
135.0
0
SEQEND
0
POLYLINE
8
0
62
7
66
1
70
0
0
VERTEX
8
0
10
365.0
20
125.0
0
VERTEX
8
0
10
365.0
20
135.0
0
SEQEND
0
POLYLINE
8
0
62
7
66
1
70
0
0
VERTEX
8
0
10
370.0
20
125.0
0
VERTEX
8
0
10
370.0
20
135.0
0
SEQEND
0
POLYLINE
8
0
62
7
66
1
70
0
0
VERTEX
8
0
10
375.0
20
125.0
0
VERTEX
8
0
10
375.0
20
135.0
0
SEQEND
0
POLYLINE
8
0
62
7
66
1
70
0
0
VERTEX
8
0
10
380.0
20
125.0
0
VERTEX
8
0
10
380.0
20
135.0
0
SEQEND
0
POLYLINE
8
0
62
7
66
1
70
0
0
VERTEX
8
0
10
385.0
20
125.0
0
VERTEX
8
0
10
385.0
20
135.0
0
SEQEND
0
POLYLINE
8
0
62
7
66
1
70
0
0
VERTEX
8
0
10
390.0
20
125.0
0
VERTEX
8
0
10
390.0
20
135.0
0
SEQEND
0
POLYLINE
8
0
62
7
66
1
70
0
0
VERTEX
8
0
10
395.0
20
125.0
0
VERTEX
8
0
10
395.0
20
135.0
0
SEQEND
0
POLYLINE
8
0
62
7
66
1
70
0
0
VERTEX
8
0
10
187.3
20
31.0
0
VERTEX
8
0
10
189.5
20
31.0
0
SEQEND
0
POLYLINE
8
0
62
7
66
1
70
0
0
VERTEX
8
0
10
189.5
20
31.0
0
VERTEX
8
0
10
189.5
20
30.7
0
SEQEND
0
POLYLINE
8
0
62
7
66
1
70
0
0
VERTEX
8
0
10
189.5
20
30.7
0
VERTEX
8
0
10
187.3
20
30.7
0
SEQEND
0
POLYLINE
8
0
62
7
66
1
70
0
0
VERTEX
8
0
10
187.3
20
30.7
0
VERTEX
8
0
10
187.3
20
31.0
0
SEQEND
0
POLYLINE
8
0
62
7
66
1
70
0
0
VERTEX
8
0
10
179.7
20
24.2
0
VERTEX
8
0
10
182.1
20
24.2
0
SEQEND
0
POLYLINE
8
0
62
7
66
1
70
0
0
VERTEX
8
0
10
182.1
20
24.2
0
VERTEX
8
0
10
182.1
20
23.9
0
SEQEND
0
POLYLINE
8
0
62
7
66
1
70
0
0
VERTEX
8
0
10
182.1
20
23.9
0
VERTEX
8
0
10
179.7
20
23.9
0
SEQEND
0
POLYLINE
8
0
62
7
66
1
70
0
0
VERTEX
8
0
10
179.7
20
23.9
0
VERTEX
8
0
10
179.7
20
24.1
0
SEQEND
0
POLYLINE
8
0
62
7
66
1
70
0
0
VERTEX
8
0
10
180.7
20
30.6
0
VERTEX
8
0
10
180.7
20
24.4
0
SEQEND
0
POLYLINE
8
0
62
7
66
1
70
0
0
VERTEX
8
0
10
180.7
20
24.4
0
VERTEX
8
0
10
181.0
20
24.4
0
SEQEND
0
POLYLINE
8
0
62
7
66
1
70
0
0
VERTEX
8
0
10
187.0
20
31.2
0
VERTEX
8
0
10
187.0
20
30.5
0
SEQEND
0
POLYLINE
8
0
62
7
66
1
70
0
0
VERTEX
8
0
10
187.0
20
30.5
0
VERTEX
8
0
10
188.0
20
30.5
0
SEQEND
0
POLYLINE
8
0
62
7
66
1
70
0
0
VERTEX
8
0
10
188.0
20
30.5
0
VERTEX
8
0
10
188.0
20
24.4
0
SEQEND
0
POLYLINE
8
0
62
7
66
1
70
0
0
VERTEX
8
0
10
188.0
20
24.4
0
VERTEX
8
0
10
187.0
20
24.4
0
SEQEND
0
POLYLINE
8
0
62
7
66
1
70
0
0
VERTEX
8
0
10
187.0
20
24.4
0
VERTEX
8
0
10
187.0
20
23.7
0
SEQEND
0
POLYLINE
8
0
62
7
66
1
70
0
0
VERTEX
8
0
10
187.0
20
23.7
0
VERTEX
8
0
10
189.7
20
23.7
0
SEQEND
0
POLYLINE
8
0
62
7
66
1
70
0
0
VERTEX
8
0
10
189.7
20
23.7
0
VERTEX
8
0
10
189.7
20
24.4
0
SEQEND
0
POLYLINE
8
0
62
7
66
1
70
0
0
VERTEX
8
0
10
189.7
20
24.4
0
VERTEX
8
0
10
188.7
20
24.4
0
SEQEND
0
POLYLINE
8
0
62
7
66
1
70
0
0
VERTEX
8
0
10
188.7
20
24.4
0
VERTEX
8
0
10
188.7
20
30.5
0
SEQEND
0
POLYLINE
8
0
62
7
66
1
70
0
0
VERTEX
8
0
10
188.7
20
30.5
0
VERTEX
8
0
10
189.7
20
30.5
0
SEQEND
0
POLYLINE
8
0
62
7
66
1
70
0
0
VERTEX
8
0
10
189.7
20
30.5
0
VERTEX
8
0
10
189.7
20
31.2
0
SEQEND
0
POLYLINE
8
0
62
7
66
1
70
0
0
VERTEX
8
0
10
189.7
20
31.2
0
VERTEX
8
0
10
187.0
20
31.2
0
SEQEND
0
POLYLINE
8
0
62
7
66
1
70
0
0
VERTEX
8
0
10
214.8
20
27.4
0
VERTEX
8
0
10
213.5
20
27.4
0
SEQEND
0
POLYLINE
8
0
62
7
66
1
70
0
0
VERTEX
8
0
10
213.5
20
27.4
0
VERTEX
8
0
10
213.5
20
27.6
0
SEQEND
0
POLYLINE
8
0
62
7
66
1
70
0
0
VERTEX
8
0
10
213.5
20
27.6
0
VERTEX
8
0
10
214.0
20
28.0
0
SEQEND
0
POLYLINE
8
0
62
7
66
1
70
0
0
VERTEX
8
0
10
382.5
20
25.0
0
VERTEX
8
0
10
382.5
20
15.0
0
SEQEND
0
POLYLINE
8
0
62
7
66
1
70
0
0
VERTEX
8
0
10
355.0
20
30.0
0
VERTEX
8
0
10
400.0
20
30.0
0
SEQEND
0
POLYLINE
8
0
62
7
66
1
70
0
0
VERTEX
8
0
10
404.75
20
14.75
0
VERTEX
8
0
10
404.75
20
10.0
0
SEQEND
0
POLYLINE
8
0
62
7
66
1
70
0
0
VERTEX
8
0
10
404.75
20
10.0
0
VERTEX
8
0
10
404.5
20
10.0
0
SEQEND
0
POLYLINE
8
0
62
7
66
1
70
0
0
VERTEX
8
0
10
404.5
20
10.0
0
VERTEX
8
0
10
404.5
20
14.5
0
SEQEND
0
POLYLINE
8
0
62
7
66
1
70
0
0
VERTEX
8
0
10
404.5
20
14.5
0
VERTEX
8
0
10
404.25
20
14.25
0
SEQEND
0
POLYLINE
8
0
62
7
66
1
70
0
0
VERTEX
8
0
10
404.25
20
14.25
0
VERTEX
8
0
10
404.25
20
10.0
0
SEQEND
0
POLYLINE
8
0
62
7
66
1
70
0
0
VERTEX
8
0
10
404.25
20
10.0
0
VERTEX
8
0
10
404.0
20
10.0
0
SEQEND
0
POLYLINE
8
0
62
7
66
1
70
0
0
VERTEX
8
0
10
404.0
20
10.0
0
VERTEX
8
0
10
404.0
20
14.0
0
SEQEND
0
POLYLINE
8
0
62
7
66
1
70
0
0
VERTEX
8
0
10
404.0
20
14.0
0
VERTEX
8
0
10
403.75
20
13.75
0
SEQEND
0
POLYLINE
8
0
62
7
66
1
70
0
0
VERTEX
8
0
10
403.75
20
13.75
0
VERTEX
8
0
10
403.75
20
10.0
0
SEQEND
0
POLYLINE
8
0
62
7
66
1
70
0
0
VERTEX
8
0
10
403.75
20
10.0
0
VERTEX
8
0
10
403.5
20
10.0
0
SEQEND
0
POLYLINE
8
0
62
7
66
1
70
0
0
VERTEX
8
0
10
403.5
20
10.0
0
VERTEX
8
0
10
403.5
20
13.5
0
SEQEND
0
POLYLINE
8
0
62
7
66
1
70
0
0
VERTEX
8
0
10
403.5
20
13.5
0
VERTEX
8
0
10
403.25
20
13.25
0
SEQEND
0
POLYLINE
8
0
62
7
66
1
70
0
0
VERTEX
8
0
10
403.25
20
13.25
0
VERTEX
8
0
10
403.25
20
10.0
0
SEQEND
0
POLYLINE
8
0
62
7
66
1
70
0
0
VERTEX
8
0
10
403.25
20
10.0
0
VERTEX
8
0
10
403.0
20
10.0
0
SEQEND
0
POLYLINE
8
0
62
7
66
1
70
0
0
VERTEX
8
0
10
5.0
20
25.0
0
VERTEX
8
0
10
100.0
20
25.0
0
SEQEND
0
POLYLINE
8
0
62
7
66
1
70
0
0
VERTEX
8
0
10
184.7
20
24.3
0
VERTEX
8
0
10
187.1
20
30.5
0
SEQEND
0
POLYLINE
8
0
62
7
66
1
70
0
0
VERTEX
8
0
10
184.8
20
23.9
0
VERTEX
8
0
10
187.4
20
30.5
0
SEQEND
0
POLYLINE
8
0
62
7
66
1
70
0
0
VERTEX
8
0
10
184.4
20
24.8
0
VERTEX
8
0
10
184.7
20
24.8
0
SEQEND
0
POLYLINE
8
0
62
7
66
1
70
0
0
VERTEX
8
0
10
3.25
20
11.75
0
VERTEX
8
0
10
3.25
20
10.0
0
SEQEND
0
POLYLINE
8
0
62
7
66
1
70
0
0
VERTEX
8
0
10
3.25
20
10.0
0
VERTEX
8
0
10
3.5
20
10.0
0
SEQEND
0
POLYLINE
8
0
62
7
66
1
70
0
0
VERTEX
8
0
10
3.5
20
10.0
0
VERTEX
8
0
10
3.5
20
11.5
0
SEQEND
0
POLYLINE
8
0
62
7
66
1
70
0
0
VERTEX
8
0
10
3.5
20
11.5
0
VERTEX
8
0
10
3.75
20
11.25
0
SEQEND
0
POLYLINE
8
0
62
7
66
1
70
0
0
VERTEX
8
0
10
3.75
20
11.25
0
VERTEX
8
0
10
3.75
20
10.0
0
SEQEND
0
POLYLINE
8
0
62
7
66
1
70
0
0
VERTEX
8
0
10
3.75
20
10.0
0
VERTEX
8
0
10
4.0
20
10.0
0
SEQEND
0
POLYLINE
8
0
62
7
66
1
70
0
0
VERTEX
8
0
10
4.0
20
10.0
0
VERTEX
8
0
10
4.0
20
11.0
0
SEQEND
0
POLYLINE
8
0
62
7
66
1
70
0
0
VERTEX
8
0
10
4.0
20
11.0
0
VERTEX
8
0
10
4.25
20
10.75
0
SEQEND
0
POLYLINE
8
0
62
7
66
1
70
0
0
VERTEX
8
0
10
4.25
20
10.75
0
VERTEX
8
0
10
4.25
20
10.0
0
SEQEND
0
POLYLINE
8
0
62
7
66
1
70
0
0
VERTEX
8
0
10
4.25
20
10.0
0
VERTEX
8
0
10
4.5
20
10.0
0
SEQEND
0
POLYLINE
8
0
62
7
66
1
70
0
0
VERTEX
8
0
10
4.5
20
10.0
0
VERTEX
8
0
10
4.5
20
10.5
0
SEQEND
0
POLYLINE
8
0
62
7
66
1
70
0
0
VERTEX
8
0
10
4.5
20
10.5
0
VERTEX
8
0
10
4.75
20
10.25
0
SEQEND
0
POLYLINE
8
0
62
7
66
1
70
0
0
VERTEX
8
0
10
187.9
20
30.6
0
VERTEX
8
0
10
187.9
20
24.4
0
SEQEND
0
POLYLINE
8
0
62
7
66
1
70
0
0
VERTEX
8
0
10
187.9
20
24.4
0
VERTEX
8
0
10
188.5
20
24.4
0
SEQEND
0
POLYLINE
8
0
62
7
66
1
70
0
0
VERTEX
8
0
10
188.5
20
24.4
0
VERTEX
8
0
10
188.5
20
30.6
0
SEQEND
0
POLYLINE
8
0
62
7
66
1
70
0
0
VERTEX
8
0
10
188.5
20
30.6
0
VERTEX
8
0
10
188.2
20
30.6
0
SEQEND
0
POLYLINE
8
0
62
7
66
1
70
0
0
VERTEX
8
0
10
188.2
20
30.6
0
VERTEX
8
0
10
188.2
20
24.4
0
SEQEND
0
POLYLINE
8
0
62
7
66
1
70
0
40
1.0
41
1.0
0
VERTEX
8
0
10
400.0
20
290.0
40
1.0
41
1.0
0
VERTEX
8
0
10
400.0
20
15.0
40
1.0
41
1.0
0
SEQEND
0
POLYLINE
8
0
62
7
66
1
70
0
40
1.0
41
1.0
0
VERTEX
8
0
10
400.0
20
35.0
40
1.0
41
1.0
0
VERTEX
8
0
10
5.0
20
35.0
40
1.0
41
1.0
0
SEQEND
0
POLYLINE
8
0
62
7
66
1
70
0
0
VERTEX
8
0
10
213.9
20
26.7
0
VERTEX
8
0
10
213.9
20
24.6
0
SEQEND
0
POLYLINE
8
0
62
7
66
1
70
0
0
VERTEX
8
0
10
213.9
20
24.6
0
VERTEX
8
0
10
213.6
20
24.6
0
SEQEND
0
POLYLINE
8
0
62
7
66
1
70
0
0
VERTEX
8
0
10
213.9
20
24.6
0
VERTEX
8
0
10
213.5
20
24.6
0
SEQEND
0
POLYLINE
8
0
62
7
66
1
70
0
0
VERTEX
8
0
10
213.9
20
26.7
0
VERTEX
8
0
10
214.8
20
24.6
0
SEQEND
0
POLYLINE
8
0
62
7
66
1
70
0
0
VERTEX
8
0
10
213.9
20
24.6
0
VERTEX
8
0
10
214.3
20
24.6
0
SEQEND
0
POLYLINE
8
0
62
7
66
1
70
0
0
VERTEX
8
0
10
216.1
20
24.6
0
VERTEX
8
0
10
216.5
20
24.6
0
SEQEND
0
POLYLINE
8
0
62
7
66
1
70
0
40
1.0
41
1.0
0
VERTEX
8
0
10
400.0
20
290.0
40
1.0
41
1.0
0
VERTEX
8
0
10
5.0
20
290.0
40
1.0
41
1.0
0
SEQEND
0
POLYLINE
8
0
62
7
66
1
70
0
40
1.0
41
1.0
0
VERTEX
8
0
10
5.0
20
290.0
40
1.0
41
1.0
0
VERTEX
8
0
10
5.0
20
15.0
40
1.0
41
1.0
0
SEQEND
0
POLYLINE
8
0
62
7
66
1
70
0
40
1.0
41
1.0
0
VERTEX
8
0
10
5.0
20
15.0
40
1.0
41
1.0
0
VERTEX
8
0
10
400.0
20
15.0
40
1.0
41
1.0
0
SEQEND
0
POLYLINE
8
0
62
7
66
1
70
0
0
VERTEX
8
0
10
215.1
20
24.6
0
VERTEX
8
0
10
215.9
20
26.7
0
SEQEND
0
POLYLINE
8
0
62
7
66
1
70
0
0
VERTEX
8
0
10
5.0
20
20.0
0
VERTEX
8
0
10
220.0
20
20.0
0
SEQEND
0
POLYLINE
8
0
62
7
66
1
70
0
0
VERTEX
8
0
10
216.1
20
26.7
0
VERTEX
8
0
10
216.1
20
24.6
0
SEQEND
0
POLYLINE
8
0
62
7
66
1
70
0
0
VERTEX
8
0
10
216.1
20
24.6
0
VERTEX
8
0
10
215.7
20
24.6
0
SEQEND
0
POLYLINE
8
0
62
7
66
1
70
0
0
VERTEX
8
0
10
1.5
20
10.0
0
VERTEX
8
0
10
1.5
20
13.5
0
SEQEND
0
POLYLINE
8
0
62
7
66
1
70
0
0
VERTEX
8
0
10
1.5
20
13.5
0
VERTEX
8
0
10
1.75
20
13.25
0
SEQEND
0
POLYLINE
8
0
62
7
66
1
70
0
0
VERTEX
8
0
10
1.75
20
13.25
0
VERTEX
8
0
10
1.75
20
10.0
0
SEQEND
0
POLYLINE
8
0
62
7
66
1
70
0
0
VERTEX
8
0
10
1.75
20
10.0
0
VERTEX
8
0
10
2.0
20
10.0
0
SEQEND
0
POLYLINE
8
0
62
7
66
1
70
0
0
VERTEX
8
0
10
2.0
20
10.0
0
VERTEX
8
0
10
2.0
20
13.0
0
SEQEND
0
POLYLINE
8
0
62
7
66
1
70
0
0
VERTEX
8
0
10
2.0
20
13.0
0
VERTEX
8
0
10
2.25
20
12.75
0
SEQEND
0
POLYLINE
8
0
62
7
66
1
70
0
0
VERTEX
8
0
10
2.25
20
12.75
0
VERTEX
8
0
10
2.25
20
10.0
0
SEQEND
0
POLYLINE
8
0
62
7
66
1
70
0
0
VERTEX
8
0
10
2.25
20
10.0
0
VERTEX
8
0
10
2.5
20
10.0
0
SEQEND
0
POLYLINE
8
0
62
7
66
1
70
0
0
VERTEX
8
0
10
2.5
20
10.0
0
VERTEX
8
0
10
2.5
20
12.5
0
SEQEND
0
POLYLINE
8
0
62
7
66
1
70
0
0
VERTEX
8
0
10
2.5
20
12.5
0
VERTEX
8
0
10
2.75
20
12.25
0
SEQEND
0
POLYLINE
8
0
62
7
66
1
70
0
0
VERTEX
8
0
10
2.75
20
12.25
0
VERTEX
8
0
10
2.75
20
10.0
0
SEQEND
0
POLYLINE
8
0
62
7
66
1
70
0
0
VERTEX
8
0
10
2.75
20
10.0
0
VERTEX
8
0
10
3.0
20
10.0
0
SEQEND
0
POLYLINE
8
0
62
7
66
1
70
0
0
VERTEX
8
0
10
3.0
20
10.0
0
VERTEX
8
0
10
3.0
20
12.0
0
SEQEND
0
POLYLINE
8
0
62
7
66
1
70
0
0
VERTEX
8
0
10
3.0
20
12.0
0
VERTEX
8
0
10
3.25
20
11.75
0
SEQEND
0
POLYLINE
8
0
62
7
66
1
70
0
0
VERTEX
8
0
10
401.5
20
293.5
0
VERTEX
8
0
10
401.5
20
295.0
0
SEQEND
0
POLYLINE
8
0
62
7
66
1
70
0
0
VERTEX
8
0
10
401.5
20
295.0
0
VERTEX
8
0
10
401.25
20
295.0
0
SEQEND
0
POLYLINE
8
0
62
7
66
1
70
0
0
VERTEX
8
0
10
401.25
20
295.0
0
VERTEX
8
0
10
401.25
20
293.75
0
SEQEND
0
POLYLINE
8
0
62
7
66
1
70
0
0
VERTEX
8
0
10
401.25
20
293.75
0
VERTEX
8
0
10
401.0
20
294.0
0
SEQEND
0
POLYLINE
8
0
62
7
66
1
70
0
0
VERTEX
8
0
10
401.0
20
294.0
0
VERTEX
8
0
10
401.0
20
295.0
0
SEQEND
0
POLYLINE
8
0
62
7
66
1
70
0
0
VERTEX
8
0
10
401.0
20
295.0
0
VERTEX
8
0
10
400.75
20
295.0
0
SEQEND
0
POLYLINE
8
0
62
7
66
1
70
0
0
VERTEX
8
0
10
400.75
20
295.0
0
VERTEX
8
0
10
400.75
20
294.25
0
SEQEND
0
POLYLINE
8
0
62
7
66
1
70
0
0
VERTEX
8
0
10
400.75
20
294.25
0
VERTEX
8
0
10
400.5
20
294.5
0
SEQEND
0
POLYLINE
8
0
62
7
66
1
70
0
0
VERTEX
8
0
10
400.5
20
294.5
0
VERTEX
8
0
10
400.5
20
295.0
0
SEQEND
0
POLYLINE
8
0
62
7
66
1
70
0
0
VERTEX
8
0
10
400.5
20
295.0
0
VERTEX
8
0
10
400.25
20
295.0
0
SEQEND
0
POLYLINE
8
0
62
7
66
1
70
0
0
VERTEX
8
0
10
400.25
20
295.0
0
VERTEX
8
0
10
400.25
20
294.75
0
SEQEND
0
POLYLINE
8
0
62
7
66
1
70
0
0
VERTEX
8
0
10
181.0
20
24.4
0
VERTEX
8
0
10
181.0
20
30.6
0
SEQEND
0
POLYLINE
8
0
62
7
66
1
70
0
0
VERTEX
8
0
10
405.0
20
15.0
0
VERTEX
8
0
10
400.0
20
10.0
0
SEQEND
0
POLYLINE
8
0
62
7
66
1
70
0
0
VERTEX
8
0
10
4.75
20
10.0
0
VERTEX
8
0
10
4.75
20
10.25
0
SEQEND
0
POLYLINE
8
0
62
7
66
1
70
0
0
VERTEX
8
0
10
285.0
20
25.0
0
VERTEX
8
0
10
400.0
20
25.0
0
SEQEND
0
POLYLINE
8
0
62
7
66
1
70
0
0
VERTEX
8
0
10
139.5
20
20.0
0
VERTEX
8
0
10
139.5
20
15.0
0
SEQEND
0
POLYLINE
8
0
62
7
66
1
70
0
0
VERTEX
8
0
10
16.0
20
15.0
0
VERTEX
8
0
10
16.0
20
35.0
0
SEQEND
0
POLYLINE
8
0
62
7
66
1
70
0
0
VERTEX
8
0
10
53.0
20
15.0
0
VERTEX
8
0
10
53.0
20
35.0
0
SEQEND
0
POLYLINE
8
0
62
7
66
1
70
0
0
VERTEX
8
0
10
39.0
20
15.0
0
VERTEX
8
0
10
39.0
20
35.0
0
SEQEND
0
POLYLINE
8
0
62
7
66
1
70
0
0
VERTEX
8
0
10
78.0
20
35.0
0
VERTEX
8
0
10
78.0
20
15.0
0
SEQEND
0
POLYLINE
8
0
62
7
66
1
70
0
0
VERTEX
8
0
10
65.0
20
35.0
0
VERTEX
8
0
10
65.0
20
15.0
0
SEQEND
0
POLYLINE
8
0
62
7
66
1
70
0
0
VERTEX
8
0
10
100.0
20
35.0
0
VERTEX
8
0
10
100.0
20
15.0
0
SEQEND
0
POLYLINE
8
0
62
7
66
1
70
0
0
VERTEX
8
0
10
285.0
20
35.0
0
VERTEX
8
0
10
285.0
20
15.0
0
SEQEND
0
POLYLINE
8
0
62
7
66
1
70
0
0
VERTEX
8
0
10
181.2
20
30.5
0
VERTEX
8
0
10
183.9
20
23.7
0
SEQEND
0
POLYLINE
8
0
62
7
66
1
70
0
0
VERTEX
8
0
10
183.9
20
23.7
0
VERTEX
8
0
10
184.9
20
23.7
0
SEQEND
0
POLYLINE
8
0
62
7
66
1
70
0
0
VERTEX
8
0
10
184.9
20
23.7
0
VERTEX
8
0
10
187.6
20
30.6
0
SEQEND
0
POLYLINE
8
0
62
7
66
1
70
0
40
1.0
41
1.0
0
VERTEX
8
0
10
5.0
20
152.5
40
1.0
41
1.0
0
VERTEX
8
0
10
0.0
20
152.5
40
1.0
41
1.0
0
SEQEND
0
POLYLINE
8
0
62
7
66
1
70
0
0
VERTEX
8
0
10
16.0
20
35.0
0
VERTEX
8
0
10
16.0
20
290.0
0
SEQEND
0
POLYLINE
8
0
62
7
66
1
70
0
0
VERTEX
8
0
10
220.0
20
35.0
0
VERTEX
8
0
10
220.0
20
15.0
0
SEQEND
0
POLYLINE
8
0
62
7
66
1
70
0
0
VERTEX
8
0
10
382.5
20
20.0
0
VERTEX
8
0
10
400.0
20
20.0
0
SEQEND
0
POLYLINE
8
0
62
7
66
1
70
0
0
VERTEX
8
0
10
403.25
20
291.75
0
VERTEX
8
0
10
403.25
20
295.0
0
SEQEND
0
POLYLINE
8
0
62
7
66
1
70
0
0
VERTEX
8
0
10
403.25
20
295.0
0
VERTEX
8
0
10
403.0
20
295.0
0
SEQEND
0
POLYLINE
8
0
62
7
66
1
70
0
0
VERTEX
8
0
10
403.0
20
295.0
0
VERTEX
8
0
10
403.0
20
292.0
0
SEQEND
0
POLYLINE
8
0
62
7
66
1
70
0
0
VERTEX
8
0
10
403.0
20
292.0
0
VERTEX
8
0
10
402.75
20
292.25
0
SEQEND
0
POLYLINE
8
0
62
7
66
1
70
0
0
VERTEX
8
0
10
402.75
20
292.25
0
VERTEX
8
0
10
402.75
20
295.0
0
SEQEND
0
POLYLINE
8
0
62
7
66
1
70
0
0
VERTEX
8
0
10
402.75
20
295.0
0
VERTEX
8
0
10
402.5
20
295.0
0
SEQEND
0
POLYLINE
8
0
62
7
66
1
70
0
0
VERTEX
8
0
10
402.5
20
295.0
0
VERTEX
8
0
10
402.5
20
292.5
0
SEQEND
0
POLYLINE
8
0
62
7
66
1
70
0
0
VERTEX
8
0
10
402.5
20
292.5
0
VERTEX
8
0
10
402.25
20
292.75
0
SEQEND
0
POLYLINE
8
0
62
7
66
1
70
0
0
VERTEX
8
0
10
402.25
20
292.75
0
VERTEX
8
0
10
402.25
20
295.0
0
SEQEND
0
POLYLINE
8
0
62
7
66
1
70
0
0
VERTEX
8
0
10
402.25
20
295.0
0
VERTEX
8
0
10
402.0
20
295.0
0
SEQEND
0
POLYLINE
8
0
62
7
66
1
70
0
0
VERTEX
8
0
10
402.0
20
295.0
0
VERTEX
8
0
10
402.0
20
293.0
0
SEQEND
0
POLYLINE
8
0
62
7
66
1
70
0
0
VERTEX
8
0
10
402.0
20
293.0
0
VERTEX
8
0
10
401.75
20
293.25
0
SEQEND
0
POLYLINE
8
0
62
7
66
1
70
0
0
VERTEX
8
0
10
401.75
20
293.25
0
VERTEX
8
0
10
401.75
20
295.0
0
SEQEND
0
POLYLINE
8
0
62
7
66
1
70
0
0
VERTEX
8
0
10
401.75
20
295.0
0
VERTEX
8
0
10
401.5
20
295.0
0
SEQEND
0
POLYLINE
8
0
62
7
66
1
70
0
0
VERTEX
8
0
10
214.8
20
29.9
0
VERTEX
8
0
10
214.8
20
30.2
0
SEQEND
0
POLYLINE
8
0
62
7
66
1
70
0
0
VERTEX
8
0
10
214.8
20
30.2
0
VERTEX
8
0
10
215.2
20
30.2
0
SEQEND
0
POLYLINE
8
0
62
7
66
1
70
0
0
VERTEX
8
0
10
215.2
20
30.2
0
VERTEX
8
0
10
215.2
20
29.9
0
SEQEND
0
POLYLINE
8
0
62
7
66
1
70
0
0
VERTEX
8
0
10
0.25
20
295.0
0
VERTEX
8
0
10
0.25
20
290.25
0
SEQEND
0
POLYLINE
8
0
62
7
66
1
70
0
0
VERTEX
8
0
10
0.25
20
290.25
0
VERTEX
8
0
10
0.5
20
290.5
0
SEQEND
0
POLYLINE
8
0
62
7
66
1
70
0
0
VERTEX
8
0
10
0.5
20
290.5
0
VERTEX
8
0
10
0.5
20
295.0
0
SEQEND
0
POLYLINE
8
0
62
7
66
1
70
0
0
VERTEX
8
0
10
0.5
20
295.0
0
VERTEX
8
0
10
0.75
20
295.0
0
SEQEND
0
POLYLINE
8
0
62
7
66
1
70
0
0
VERTEX
8
0
10
0.75
20
295.0
0
VERTEX
8
0
10
0.75
20
290.75
0
SEQEND
0
POLYLINE
8
0
62
7
66
1
70
0
0
VERTEX
8
0
10
0.75
20
290.75
0
VERTEX
8
0
10
1.0
20
291.0
0
SEQEND
0
POLYLINE
8
0
62
7
66
1
70
0
0
VERTEX
8
0
10
1.0
20
291.0
0
VERTEX
8
0
10
1.0
20
295.0
0
SEQEND
0
POLYLINE
8
0
62
7
66
1
70
0
0
VERTEX
8
0
10
1.0
20
295.0
0
VERTEX
8
0
10
1.25
20
295.0
0
SEQEND
0
POLYLINE
8
0
62
7
66
1
70
0
0
VERTEX
8
0
10
1.25
20
295.0
0
VERTEX
8
0
10
1.25
20
291.25
0
SEQEND
0
POLYLINE
8
0
62
7
66
1
70
0
0
VERTEX
8
0
10
1.25
20
291.25
0
VERTEX
8
0
10
1.5
20
291.5
0
SEQEND
0
POLYLINE
8
0
62
7
66
1
70
0
0
VERTEX
8
0
10
1.5
20
291.5
0
VERTEX
8
0
10
1.5
20
295.0
0
SEQEND
0
POLYLINE
8
0
62
7
66
1
70
0
0
VERTEX
8
0
10
1.5
20
295.0
0
VERTEX
8
0
10
1.75
20
295.0
0
SEQEND
0
POLYLINE
8
0
62
7
66
1
70
0
0
VERTEX
8
0
10
1.75
20
295.0
0
VERTEX
8
0
10
1.75
20
291.75
0
SEQEND
0
POLYLINE
8
0
62
7
66
1
70
0
0
VERTEX
8
0
10
1.75
20
291.75
0
VERTEX
8
0
10
2.0
20
292.0
0
SEQEND
0
POLYLINE
8
0
62
7
66
1
70
0
0
VERTEX
8
0
10
177.5
20
35.0
0
VERTEX
8
0
10
177.5
20
15.0
0
SEQEND
0
ARC
8
0
6
AUSGEZOGEN
62
7
10
214.6
20
29.6
40
0.3
50
90.0
51
180.0
0
ARC
8
0
6
AUSGEZOGEN
62
7
10
215.0
20
24.4
40
1.8
50
214.0
51
326.0
0
ARC
8
0
6
AUSGEZOGEN
62
7
10
212.5
20
26.9
40
5.3125
50
319.0
51
401.0
0
ARC
8
0
6
AUSGEZOGEN
62
7
10
215.0
20
29.4
40
1.8
50
34.0
51
146.0
0
ARC
8
0
6
AUSGEZOGEN
62
7
10
217.5
20
26.9
40
5.3125
50
139.0
51
222.0
0
ARC
8
0
6
AUSGEZOGEN
62
7
10
215.4
20
29.6
40
0.3
50
0.0
51
90.0
0
TEXT
8
5
62
7
40
2.2
50
90.0
1
Kabelkennz.
7
STANDARD
10
353.6
20
238.5
72
0
0
TEXT
8
5
62
7
40
2.0
50
0.0
1
Bemerkung: Außenbrücken sind nicht eingetragen
7
STANDARD
10
181.0
20
136.5
72
0
0
TEXT
8
5
62
7
40
3.5
50
0.0
1
OELLER
7
STANDARD
10
189.8
20
24.6
72
0
0
TEXT
8
5
62
7
40
2.5
50
0.0
1
Klemmenplan
7
STANDARD
10
221.0
20
16.0
72
0
0
TEXT
8
5
62
7
40
3.0
50
0.0
1
Betriebsmittel -
7
STANDARD
10
188.5
20
258.5
72
0
0
TEXT
8
5
62
7
40
2.5
50
0.0
1
Stand
7
STANDARD
10
17.0
20
31.0
72
0
0
TEXT
8
5
62
7
40
3.5
50
0.0
1
OELLER
7
STANDARD
10
189.7
20
24.5
72
0
0
TEXT
8
5
62
7
40
3.0
50
90.0
1
max. Anschluß-
7
STANDARD
10
169.0
20
238.5
72
0
0
TEXT
8
5
62
7
40
3.0
50
90.0
1
Querschnitt
7
STANDARD
10
173.5
20
238.5
72
0
0
TEXT
8
5
62
7
40
2.5
50
0.0
1
Zeichnungs-Nr.
7
STANDARD
10
316.0
20
21.0
72
0
0
TEXT
8
5
62
7
40
3.0
50
90.0
1
Brücken
7
STANDARD
10
124.0
20
238.5
72
0
0
TEXT
8
5
62
7
40
2.5
50
0.0
1
N-Schiene 
7
STANDARD
10
293.5
20
136.25
72
0
0
TEXT
8
5
62
7
40
2.5
50
0.0
1
PE-Schiene 
7
STANDARD
10
293.5
20
131.25
72
0
0
TEXT
8
5
62
7
40
2.5
50
0.0
1
Kunden-
7
STANDARD
10
101.0
20
25.0
72
0
0
TEXT
8
5
62
7
40
2.5
50
0.0
1
Ers.f.
7
STANDARD
10
140.5
20
16.0
72
0
0
TEXT
8
5
62
7
40
2.5
50
0.0
1
Zust.
7
STANDARD
10
6.0
20
16.0
72
0
0
TEXT
8
5
62
7
40
2.5
50
0.0
1
Datum
7
STANDARD
10
40.0
20
16.0
72
0
0
TEXT
8
5
62
7
40
2.5
50
0.0
1
Name
7
STANDARD
10
54.0
20
16.0
72
0
0
TEXT
8
5
62
7
40
2.5
50
0.0
1
Ers.d.
7
STANDARD
10
178.5
20
16.0
72
0
0
TEXT
8
5
62
7
40
2.5
50
0.0
1
Roi/Engelh
7
STANDARD
10
79.0
20
26.0
72
0
0
TEXT
8
5
62
7
40
2.0
50
0.0
1
+ Bl.
7
STANDARD
10
383.5
20
16.5
72
0
0
TEXT
8
5
62
7
40
2.5
50
0.0
1
DIN/IEC
7
STANDARD
10
79.0
20
16.0
72
0
0
TEXT
8
5
62
7
40
2.5
50
0.0
1
Müller
7
STANDARD
10
79.0
20
21.0
72
0
0
TEXT
8
5
62
7
40
2.0
50
0.0
1
Blatt
7
STANDARD
10
383.5
20
21.5
72
0
0
TEXT
8
5
62
7
40
2.5
50
0.0
1
25.09.02
7
STANDARD
10
40.0
20
31.0
72
0
0
TEXT
8
5
62
7
40
2.5
50
0.0
1
Urspr.
7
STANDARD
10
101.0
20
16.0
72
0
0
TEXT
8
5
62
7
40
2.5
50
0.0
1
Gepr.
7
STANDARD
10
66.0
20
21.0
72
0
0
TEXT
8
5
62
7
40
2.2
50
0.0
1
Klöckner
7
STANDARD
10
196.0
20
29.1
72
0
0
TEXT
8
5
62
7
40
2.5
50
0.0
1
Norm
7
STANDARD
10
66.0
20
16.0
72
0
0
TEXT
8
5
62
7
40
2.5
50
0.0
1
Datum
7
STANDARD
10
66.0
20
31.0
72
0
0
TEXT
8
5
62
7
40
2.5
50
0.0
1
Bearb.
7
STANDARD
10
66.0
20
26.0
72
0
0
TEXT
8
5
62
7
40
2.5
50
0.0
1
Werks-Nr.
7
STANDARD
10
354.0
20
31.0
72
2
11
354.0
21
31.0
0
TEXT
8
5
62
7
40
2.5
50
0.0
1
24.04.02
7
STANDARD
10
79.0
20
31.0
72
0
0
TEXT
8
5
62
7
40
2.5
50
0.0
1
Änderung
7
STANDARD
10
17.0
20
16.0
72
0
0
TEXT
8
5
62
7
40
3.5
50
0.0
1
OELLER
7
STANDARD
10
189.9
20
24.7
72
0
0
TEXT
8
5
62
7
40
1.5
50
270.0
1
Erstellt mit Projektierungssystem CAE33
7
STANDARD
10
406.0
20
289.0
72
0
0
TEXT
8
5
62
7
40
2.5
50
0.0
1
Kunde
7
STANDARD
10
101.0
20
31.0
72
0
0
TEXT
8
5
62
7
40
2.5
50
0.0
1
Zeichnung
7
STANDARD
10
101.0
20
21.0
72
0
0
TEXT
8
5
62
7
40
3.0
50
0.0
1
NDR Hannover
7
STANDARD
10
119.0
20
31.0
72
0
0
TEXT
8
5
62
7
40
3.0
50
0.0
1
HV 2
7
STANDARD
10
119.0
20
21.0
72
0
0
TEXT
8
5
62
7
40
2.5
50
0.0
1
Auftrags-Nr.
7
STANDARD
10
286.0
20
31.0
72
0
0
TEXT
8
5
62
7
40
2.5
50
0.0
1
Ersteller
7
STANDARD
10
286.0
20
21.0
72
0
0
TEXT
8
5
62
7
40
3.0
50
0.0
1
50066100
7
STANDARD
10
286.0
20
26.0
72
0
0
TEXT
8
5
62
7
40
3.0
50
0.0
1
MH-Hannover
7
STANDARD
10
286.0
20
16.0
72
0
0
TEXT
8
5
62
7
40
3.0
50
90.0
1
Klemmen - Nr.
7
STANDARD
10
154.0
20
238.5
72
0
0
TEXT
8
5
62
7
40
2.5
50
0.0
1
PEN-Schiene 
7
STANDARD
10
293.5
20
126.25
72
0
0
TEXT
8
5
62
7
40
3.0
50
0.0
1
Ort
7
STANDARD
10
336.0
20
258.5
72
0
0
TEXT
8
5
62
7
40
4.0
50
0.0
1
Klemmenleiste
7
STANDARD
10
113.5
20
283.0
72
0
0
TEXT
8
5
62
7
40
3.0
50
90.0
1
Anschluß
7
STANDARD
10
245.25
20
238.5
72
0
0
TEXT
8
5
62
7
40
4.0
50
0.0
1
Zielbezeichnung
7
STANDARD
10
238.5
20
283.0
72
0
0
TEXT
8
5
62
7
40
3.0
50
0.0
1
Beschreibung 2
7
STANDARD
10
296.0
20
258.5
72
0
0
TEXT
8
5
62
7
40
2.2
50
0.0
1
(=AN.FG-BMK)
7
STANDARD
10
188.5
20
238.9
72
0
0
TEXT
8
5
62
7
40
3.0
50
0.0
1
Beschreibung 1
7
STANDARD
10
256.0
20
258.5
72
0
0
TEXT
8
5
62
7
40
2.2
50
0.0
1
(Text 2)
7
STANDARD
10
263.5
20
238.9
72
0
0
TEXT
8
5
62
7
40
2.2
50
0.0
1
(Text3)
7
STANDARD
10
301.0
20
238.9
72
0
0
TEXT
8
5
62
7
40
3.0
50
0.0
1
Kennzeichnung
7
STANDARD
10
188.5
20
253.5
72
0
0
TEXT
8
5
62
7
40
3.0
50
0.0
1
L1
7
STANDARD
10
158.0
20
231.0
72
2
11
158.0
21
231.0
0
TEXT
8
5
62
7
40
3.0
50
0.0
1
L1.1
7
STANDARD
10
182.5
20
231.0
72
0
0
TEXT
8
5
62
7
40
2.2
50
0.0
1
300qmm
7
STANDARD
10
163.5
20
231.4
72
0
0
TEXT
8
5
62
7
40
3.0
50
0.0
1
L2
7
STANDARD
10
158.0
20
226.0
72
2
11
158.0
21
226.0
0
TEXT
8
5
62
7
40
3.0
50
0.0
1
L2.1
7
STANDARD
10
182.5
20
226.0
72
0
0
TEXT
8
5
62
7
40
2.2
50
0.0
1
300qmm
7
STANDARD
10
163.5
20
226.4
72
0
0
TEXT
8
5
62
7
40
3.0
50
0.0
1
L3
7
STANDARD
10
158.0
20
221.0
72
2
11
158.0
21
221.0
0
TEXT
8
5
62
7
40
3.0
50
0.0
1
L3.1
7
STANDARD
10
182.5
20
221.0
72
0
0
TEXT
8
5
62
7
40
2.2
50
0.0
1
300qmm
7
STANDARD
10
163.5
20
221.4
72
0
0
TEXT
8
5
62
7
40
3.0
50
0.0
1
1
7
STANDARD
10
158.0
20
216.0
72
2
11
158.0
21
216.0
0
TEXT
8
5
62
7
40
3.0
50
0.0
1
2
7
STANDARD
10
158.0
20
211.0
72
2
11
158.0
21
211.0
0
TEXT
8
5
62
7
40
3.0
50
0.0
1
3
7
STANDARD
10
158.0
20
206.0
72
2
11
158.0
21
206.0
0
TEXT
8
5
62
7
40
3.0
50
0.0
1
4
7
STANDARD
10
158.0
20
201.0
72
2
11
158.0
21
201.0
0
TEXT
8
5
62
7
40
3.0
50
0.0
1
5
7
STANDARD
10
158.0
20
196.0
72
2
11
158.0
21
196.0
0
TEXT
8
5
62
7
40
3.0
50
0.0
1
6
7
STANDARD
10
158.0
20
191.0
72
2
11
158.0
21
191.0
0
TEXT
8
5
62
7
40
3.0
50
0.0
1
7
7
STANDARD
10
158.0
20
186.0
72
2
11
158.0
21
186.0
0
TEXT
8
5
62
7
40
3.0
50
0.0
1
+24-2
7
STANDARD
10
182.5
20
186.0
72
0
0
TEXT
8
5
62
7
40
3.0
50
0.0
1
8
7
STANDARD
10
158.0
20
181.0
72
2
11
158.0
21
181.0
0
TEXT
8
5
62
7
40
3.0
50
0.0
1
.Mess-02D01
7
STANDARD
10
182.5
20
181.0
72
0
0
TEXT
8
5
62
7
40
3.0
50
0.0
1
:4
7
STANDARD
10
239.0
20
181.0
72
0
0
TEXT
8
5
62
7
40
2.2
50
0.0
1
+02.0002
7
STANDARD
10
331.0
20
181.4
72
0
0
TEXT
8
5
62
7
40
3.0
50
0.0
1
9
7
STANDARD
10
158.0
20
176.0
72
2
11
158.0
21
176.0
0
TEXT
8
5
62
7
40
3.0
50
0.0
1
10
7
STANDARD
10
158.0
20
171.0
72
2
11
158.0
21
171.0
0
TEXT
8
5
62
7
40
3.0
50
0.0
1
11
7
STANDARD
10
158.0
20
166.0
72
2
11
158.0
21
166.0
0
TEXT
8
5
62
7
40
3.0
50
0.0
1
12
7
STANDARD
10
158.0
20
161.0
72
2
11
158.0
21
161.0
0
TEXT
8
5
62
7
40
3.0
50
0.0
1
13
7
STANDARD
10
158.0
20
156.0
72
2
11
158.0
21
156.0
0
TEXT
8
5
62
7
40
3.0
50
0.0
1
-X1
7
STANDARD
10
182.5
20
156.0
72
0
0
TEXT
8
5
62
7
40
3.0
50
0.0
1
:7
7
STANDARD
10
239.0
20
156.0
72
0
0
TEXT
8
5
62
7
40
2.2
50
0.0
1
+02.112
7
STANDARD
10
331.0
20
156.4
72
0
0
TEXT
8
5
62
7
40
3.0
50
0.0
1
14
7
STANDARD
10
158.0
20
151.0
72
2
11
158.0
21
151.0
0
TEXT
8
5
62
7
40
3.0
50
0.0
1
.Mess-02D01
7
STANDARD
10
182.5
20
151.0
72
0
0
TEXT
8
5
62
7
40
3.0
50
0.0
1
:5
7
STANDARD
10
239.0
20
151.0
72
0
0
TEXT
8
5
62
7
40
2.2
50
0.0
1
+02.0002
7
STANDARD
10
331.0
20
151.4
72
0
0
TEXT
8
5
62
7
40
3.0
50
0.0
1
15
7
STANDARD
10
158.0
20
146.0
72
2
11
158.0
21
146.0
0
TEXT
8
5
62
7
40
3.0
50
0.0
1
16
7
STANDARD
10
158.0
20
141.0
72
2
11
158.0
21
141.0
0
TEXT
8
5
62
7
40
2.5
50
0.0
1
-X1
7
STANDARD
10
179.0
20
276.25
72
2
11
179.0
21
276.25
0
TEXT
8
5
62
7
40
2.5
50
0.0
1
=F02.SL-V25
7
STANDARD
10
356.0
20
31.0
72
0
0
TEXT
8
5
62
7
40
4.0
50
0.0
1
-X1
7
STANDARD
10
226.0
20
21.0
72
0
0
TEXT
8
5
62
7
40
2.0
50
0.0
1
-
7
STANDARD
10
391.2
20
16.5
72
0
0
TEXT
8
5
62
7
40
2.5
50
0.0
1
+02.112
7
STANDARD
10
356.0
20
26.0
72
0
0
TEXT
8
5
62
7
40
2.0
50
0.0
1
1
7
STANDARD
10
391.2
20
21.5
72
0
0
TEXT
8
5
62
7
40
2.5
50
0.0
1
+02.112
7
STANDARD
10
108.5
20
276.25
72
0
0
CIRCLE
8
0
6
AUSGEZOGEN
62
7
10
112.5
20
187.5
40
0.8
0
CIRCLE
8
0
6
AUSGEZOGEN
62
7
10
112.5
20
187.5
40
0.4
0
CIRCLE
8
0
6
AUSGEZOGEN
62
7
10
112.5
20
187.5
40
0.8
0
CIRCLE
8
0
6
AUSGEZOGEN
62
7
10
112.5
20
187.5
40
0.4
0
CIRCLE
8
0
6
AUSGEZOGEN
62
7
10
112.5
20
157.5
40
0.8
0
CIRCLE
8
0
6
AUSGEZOGEN
62
7
10
112.5
20
157.5
40
0.4
0
CIRCLE
8
0
6
AUSGEZOGEN
62
7
10
112.5
20
157.5
40
0.8
0
CIRCLE
8
0
6
AUSGEZOGEN
62
7
10
112.5
20
157.5
40
0.4
0
POLYLINE
8
0
62
7
66
1
70
0
40
1.0
41
1.0
0
VERTEX
8
0
10
112.5
20
187.5
40
1.0
41
1.0
0
VERTEX
8
0
10
112.5
20
157.5
40
1.0
41
1.0
0
SEQEND
0
ENDSEC
0
EOF
