999
created by FILOU-NC12
0
SECTION
2
HEADER
9
$ACADVER
1
AC1009
9
$INSBASE
10
0.0
20
0.0
30
0.0
9
$EXTMIN
10
0.0
20
0.0
9
$EXTMAX
10
1000.0
20
1000.0
0
ENDSEC
  0
SECTION
  2
TABLES
  0
TABLE
  2
LTYPE
 70
     2
  0
LTYPE
  2
FASTFEED
 70
     0
  3
Fastfeed __ __ __ __ __ __ __ __ __ __ __ __ __
 72
    65
 73
     2
 40
9.525
 49
6.35
 49
-3.175
  0
ENDTAB
  0
TABLE
  2
LAYER
 70
    10
  0
LAYER
  2
0
 70
     0
 62
 7 
  6
CONTINUOUS
  0
LAYER
  2
Ebene_1
 70
     0
 62
 7 
  6
CONTINUOUS
  0
ENDTAB
  0
ENDSEC
  0
SECTION
  2
ENTITIES
  0
LINE
  8
Ebene_1
 10
125.23952505504
 20
-254.996332143413
 30
0
 11
125.23952540101
 21
-81.5097504117298
 31
0
 62
 7 
  0
LINE
  8
Ebene_1
 10
125.23952540101
 20
-81.5097504117298
 30
0
 11
471.263783994055
 21
-81.509750585118
 31
0
 62
 7 
  0
LINE
  8
Ebene_1
 10
471.263783994055
 20
-81.509750585118
 30
0
 11
471.263783648128
 21
-254.996332316758
 31
0
 62
 7 
  0
LINE
  8
Ebene_1
 10
471.263783648128
 20
-254.996332316758
 30
0
 11
125.239525401118
 21
-254.996332316758
 31
0
 62
 7 
  0
LINE
  8
Ebene_1
 10
171.34481688545
 20
-203.239360164894
 30
0
 11
189.787595422642
 21
-187.403591144697
 31
0
 62
 7 
  0
LINE
  8
Ebene_1
 10
211.610258812885
 20
-166.704153747099
 30
0
 11
213.785442513213
 21
-164.303599525075
 31
0
 62
 7 
  0
LINE
  8
Ebene_1
 10
148.432672787941
 20
-148.363941165894
 30
0
 11
151.903027372265
 21
-146.158112934738
 31
0
 62
 7 
  0
LINE
  8
Ebene_1
 10
160.446297254077
 20
-204.570695679857
 30
0
 11
157.080471592255
 21
-208.367568977047
 31
0
 62
 7 
  0
LINE
  8
Ebene_1
 10
157.984746521984
 20
-215.330032084757
 30
0
 11
159.967962165551
 21
-214.253024596592
 31
0
 62
 7 
  0
LINE
  8
Ebene_1
 10
271.837717800318
 20
-118.518793242073
 30
0
 11
256.221785182136
 21
-140.854414134017
 31
0
 62
 7 
  0
LINE
  8
Ebene_1
 10
305.552037739087
 20
-130.542759098324
 30
0
 11
309.808014203866
 21
-126.984427037293
 31
0
 62
 7 
  0
LINE
  8
Ebene_1
 10
314.915214758915
 20
-122.563121571304
 30
0
 11
316.685460431383
 21
-120.934755537986
 31
0
 62
 7 
  0
LINE
  8
Ebene_1
 10
317.874805500717
 20
-119.845808545242
 30
0
 11
317.541181611171
 21
-119.152043958427
 31
0
 62
 7 
  0
LINE
  8
Ebene_1
 10
257.500441046149
 20
-186.780979498339
 30
0
 11
252.956516536031
 21
-195.270175274738
 31
0
 62
 7 
  0
LINE
  8
Ebene_1
 10
248.81962201781
 20
-199.003659819554
 30
0
 11
249.742119023367
 21
-195.901627244587
 31
0
 62
 7 
  0
LINE
  8
Ebene_1
 10
268.889645720924
 20
-145.650605628464
 30
0
 11
270.627000477558
 21
-141.45499519554
 31
0
 62
 7 
  0
LINE
  8
Ebene_1
 10
274.099169807147
 20
-133.114022031237
 30
0
 11
285.372888100709
 21
-106.279037860389
 31
0
 62
 7 
  0
LINE
  8
Ebene_1
 10
275.914011676163
 20
-107.536145649688
 30
0
 11
261.389051725801
 21
-124.691136440251
 31
0
 62
 7 
  0
ARC
  8
Ebene_1
 10
-224.415401182178
 20
296.065111975193
 30
0
 40
636.636559814813
 50
310.587713873878
 51
311.499932462878
 62
 7 
  0
ARC
  8
Ebene_1
 10
-13.8519668760214
 20
58.0658789119732
 30
0
 40
318.862119676083
 50
311.499932462878
 51
312.638109184431
 62
 7 
  0
ARC
  8
Ebene_1
 10
153.086337711991
 20
-123.235987611669
 30
0
 40
72.4097625283442
 50
312.638109184431
 51
314.100505798608
 62
 7 
  0
ARC
  8
Ebene_1
 10
111.531720615376
 20
-80.3557067066651
 30
0
 40
132.121609699055
 50
314.100505798608
 51
317.112756061376
 62
 7 
  0
ARC
  8
Ebene_1
 10
-82.6929255892607
 20
100.048408041943
 30
0
 40
397.204347370796
 50
317.112756061376
 51
317.811249095702
 62
 7 
  0
ARC
  8
Ebene_1
 10
135.997056488241
 20
-94.3855736732317
 30
0
 40
104.592367500641
 50
318.050052995084
 51
320.617906257577
 62
 7 
  0
ARC
  8
Ebene_1
 10
183.666917289565
 20
-133.517095418351
 30
0
 40
42.9182917239718
 50
320.617906257577
 51
324.727933092963
 62
 7 
  0
ARC
  8
Ebene_1
 10
188.765526624087
 20
-137.123381516248
 30
0
 40
36.6732043293897
 50
324.727933092963
 51
326.494090300552
 62
 7 
  0
ARC
  8
Ebene_1
 10
86.113230789012
 20
-69.1640816042337
 30
0
 40
159.782750201117
 50
326.494090300552
 51
329.652340893178
 62
 7 
  0
ARC
  8
Ebene_1
 10
125.753767626478
 20
-92.3723952410417
 30
0
 40
113.848035848822
 50
329.652340893178
 51
333.815371878312
 62
 7 
  0
ARC
  8
Ebene_1
 10
189.038844316516
 20
-123.49142658861
 30
0
 40
43.3257341019643
 50
333.815371878312
 51
334.788988784174
 62
 7 
  0
ARC
  8
Ebene_1
 10
188.694806967078
 20
-123.329454134973
 30
0
 40
43.7059929263788
 50
334.788988784174
 51
344.709641715795
 62
 7 
  0
ARC
  8
Ebene_1
 10
195.273270650423
 20
-125.127928333201
 30
0
 40
36.8861180100197
 50
344.709641715795
 51
354.744775033488
 62
 7 
  0
ARC
  8
Ebene_1
 10
195.827111554602
 20
-125.178870096337
 30
0
 40
36.3299392524489
 50
354.744775033488
 51
364.503957970774
 62
 7 
  0
ARC
  8
Ebene_1
 10
194.699888049039
 20
-125.26766286111
 30
0
 40
37.4606545068657
 50
4.50395797077392
 51
13.8717057440609
 62
 7 
  0
ARC
  8
Ebene_1
 10
202.514046229134
 20
-123.337948897148
 30
0
 40
29.4117499822573
 50
13.8717057440609
 51
28.7225804359454
 62
 7 
  0
ARC
  8
Ebene_1
 10
205.453576423208
 20
-121.727097081247
 30
0
 40
26.059783196225
 50
28.7225804359454
 51
56.5781562348025
 62
 7 
  0
ARC
  8
Ebene_1
 10
203.618609981067
 20
-124.50766249663
 30
0
 40
29.3912462191335
 50
56.5781562348025
 51
74.189025259719
 62
 7 
  0
ARC
  8
Ebene_1
 10
201.870773593603
 20
-130.679872538543
 30
0
 40
35.8061592223504
 50
74.1890252597189
 51
89.9757263463751
 62
 7 
  0
ARC
  8
Ebene_1
 10
201.851399257777
 20
-176.411249629289
 30
0
 40
81.5375404171152
 50
89.975726346375
 51
92.8866295481301
 62
 7 
  0
ARC
  8
Ebene_1
 10
219.936793749902
 20
-535.078643172503
 30
0
 40
440.660612197554
 50
92.8866295481301
 51
93.1500629454981
 62
 7 
  0
ARC
  8
Ebene_1
 10
178.878900878825
 20
210.961453817993
 30
0
 40
306.508429508941
 50
272.789849313821
 51
273.150062945499
 62
 7 
  0
ARC
  8
Ebene_1
 10
189.027168512168
 20
2.70887765342593
 30
0
 40
98.0087345088357
 50
272.130019903445
 51
272.789849313821
 62
 7 
  0
ARC
  8
Ebene_1
 10
188.908806152878
 20
5.89126066989498
 30
0
 40
101.193317890003
 50
271.780710709452
 51
272.130019903445
 62
 7 
  0
ARC
  8
Ebene_1
 10
193.167603241932
 20
-131.094790757022
 30
0
 40
35.8589190059475
 50
91.7807107094511
 51
95.7875002431355
 62
 7 
  0
ARC
  8
Ebene_1
 10
194.531348052287
 20
-144.549803971666
 30
0
 40
49.3828674129032
 50
95.7875002431356
 51
103.892335849334
 62
 7 
  0
ARC
  8
Ebene_1
 10
203.635815100956
 20
-181.360363028511
 30
0
 40
87.30263242164
 50
103.892335849334
 51
107.62003856929
 62
 7 
  0
ARC
  8
Ebene_1
 10
197.682029413621
 20
-162.61440250277
 30
0
 40
67.633911058944
 50
107.62003856929
 51
121.544216065721
 62
 7 
  0
ARC
  8
Ebene_1
 10
201.852363662078
 20
-169.407995818005
 30
0
 40
75.6053976126968
 50
121.544216065721
 51
130.633405934197
 62
 7 
  0
ARC
  8
Ebene_1
 10
205.03244027235
 20
-173.113879816227
 30
0
 40
80.4886816977648
 50
130.633405934197
 51
132.223017146057
 62
 7 
  0
ARC
  8
Ebene_1
 10
194.924578599961
 20
-161.97545688102
 30
0
 40
65.44762677892
 50
132.223017146057
 51
139.97210071269
 62
 7 
  0
ARC
  8
Ebene_1
 10
198.476691021472
 20
-164.958981777832
 30
0
 40
70.0864761475622
 50
139.97210071269
 51
147.582253110024
 62
 7 
  0
ARC
  8
Ebene_1
 10
209.022031797137
 20
-171.655841253289
 30
0
 40
82.5785591967941
 50
147.582253110024
 51
151.02739427019
 62
 7 
  0
ARC
  8
Ebene_1
 10
172.699860229042
 20
-151.544829099097
 30
0
 40
41.0604552264995
 50
151.02739427019
 51
158.652174198804
 62
 7 
  0
ARC
  8
Ebene_1
 10
160.739294936926
 20
-146.870094496794
 30
0
 40
28.2187938967132
 50
158.652174198804
 51
168.939264558745
 62
 7 
  0
ARC
  8
Ebene_1
 10
156.692785459416
 20
-146.079080308492
 30
0
 40
24.0956952564101
 50
168.939264558745
 51
180.968726199074
 62
 7 
  0
ARC
  8
Ebene_1
 10
152.595078490835
 20
-146.148368734662
 30
0
 40
19.9974025281681
 50
180.968726199074
 51
190.854178509017
 62
 7 
  0
ARC
  8
Ebene_1
 10
148.894181492374
 20
-146.857980140038
 30
0
 40
16.2290889876228
 50
190.854178509017
 51
208.083460701205
 62
 7 
  0
ARC
  8
Ebene_1
 10
148.828744546507
 20
-146.892895944125
 30
0
 40
16.154919537986
 50
208.083460701205
 51
226.930549959291
 62
 7 
  0
ARC
  8
Ebene_1
 10
150.520368558183
 20
-145.083254025623
 30
0
 40
18.632094475304
 50
226.930549959291
 51
250.524378875384
 62
 7 
  0
ARC
  8
Ebene_1
 10
152.673693616616
 20
-138.994219135914
 30
0
 40
25.0906666623565
 50
250.524378875384
 51
275.233246290245
 62
 7 
  0
ARC
  8
Ebene_1
 10
152.252741414831
 20
-134.398280894353
 30
0
 40
29.7058426152794
 50
275.233246290245
 51
287.738192104772
 62
 7 
  0
ARC
  8
Ebene_1
 10
150.585439122437
 20
-129.185930616852
 30
0
 40
35.1783641866925
 50
287.738192104772
 51
299.47877056774
 62
 7 
  0
ARC
  8
Ebene_1
 10
153.222658819658
 20
-133.851233100759
 30
0
 40
29.8192621165914
 50
299.478770567739
 51
319.546312330797
 62
 7 
  0
ARC
  8
Ebene_1
 10
145.243260330463
 20
-127.047329854247
 30
0
 40
40.3056294398
 50
319.546312330797
 51
334.609154765256
 62
 7 
  0
ARC
  8
Ebene_1
 10
141.889071460957
 20
-125.455300602305
 30
0
 40
44.0184639515125
 50
334.609154765256
 51
338.333601711674
 62
 7 
  0
ARC
  8
Ebene_1
 10
153.618508045119
 20
-130.115043981448
 30
0
 40
31.3973352008284
 50
338.333601711674
 51
345.171916230257
 62
 7 
  0
ARC
  8
Ebene_1
 10
147.362321068181
 20
-128.458807095049
 30
0
 40
37.8690425577994
 50
345.171916230257
 51
355.326496846845
 62
 7 
  0
ARC
  8
Ebene_1
 10
130.090291718195
 20
-127.046829053386
 30
0
 40
55.1986899822834
 50
355.326496846845
 51
361.400805201181
 62
 7 
  0
ARC
  8
Ebene_1
 10
110.091020824075
 20
-127.535881932086
 30
0
 40
75.2039395187067
 50
1.40080520118137
 51
3.52840312302481
 62
 7 
  0
ARC
  8
Ebene_1
 10
169.005785632527
 20
-123.903184705591
 30
0
 40
16.1772845095104
 50
3.52840312302482
 51
4.29485358903539
 62
 7 
  0
ARC
  8
Ebene_1
 10
168.648222481248
 20
-123.930037715657
 30
0
 40
16.5358545742151
 50
4.29485358903538
 51
16.5378733848214
 62
 7 
  0
ARC
  8
Ebene_1
 10
173.087296462338
 20
-122.61193171388
 30
0
 40
11.9052194944982
 50
16.5378733848214
 51
43.3475187741471
 62
 7 
  0
ARC
  8
Ebene_1
 10
175.60727484286
 20
-120.233275215663
 30
0
 40
8.43992040570216
 50
43.3475187741471
 51
56.4800607860787
 62
 7 
  0
ARC
  8
Ebene_1
 10
175.684610757749
 20
-120.116521693447
 30
0
 40
8.29987673864911
 50
56.4800607860784
 51
73.8236441390995
 62
 7 
  0
ARC
  8
Ebene_1
 10
174.827968457468
 20
-123.069652004527
 30
0
 40
11.3747449740135
 50
73.8236441390995
 51
88.8154324881634
 62
 7 
  0
ARC
  8
Ebene_1
 10
174.578207405842
 20
-135.148503587542
 30
0
 40
23.456178504328
 50
88.8154324881633
 51
95.8269956590733
 62
 7 
  0
ARC
  8
Ebene_1
 10
177.980081940188
 20
-168.483108464297
 30
0
 40
56.9639183958341
 50
95.8269956590732
 51
97.6665127040621
 62
 7 
  0
ARC
  8
Ebene_1
 10
172.677744397447
 20
-129.092799301237
 30
0
 40
17.2183370140175
 50
97.6665127040621
 51
98.4306725013569
 62
 7 
  0
ARC
  8
Ebene_1
 10
173.085233526955
 20
-131.842125039006
 30
0
 40
19.9976965451014
 50
98.430672501357
 51
102.950373810956
 62
 7 
  0
ARC
  8
Ebene_1
 10
172.953265907862
 20
-131.268243164421
 30
0
 40
19.408836749847
 50
102.950373810956
 51
120.112079672826
 62
 7 
  0
ARC
  8
Ebene_1
 10
174.944823548437
 20
-134.702191568491
 30
0
 40
23.3785097184362
 50
120.112079672826
 51
134.762642461375
 62
 7 
  0
ARC
  8
Ebene_1
 10
182.659585003305
 20
-142.481138720949
 30
0
 40
34.3343101504564
 50
134.762642461375
 51
154.453751074252
 62
 7 
  0
ARC
  8
Ebene_1
 10
186.575065834227
 20
-144.352608377163
 30
0
 40
38.6740553977552
 50
154.453751074252
 51
164.910074383487
 62
 7 
  0
ARC
  8
Ebene_1
 10
201.986015363827
 20
-148.507894823401
 30
0
 40
54.6353764851259
 50
164.910074383487
 51
169.120322379057
 62
 7 
  0
ARC
  8
Ebene_1
 10
180.896221444985
 20
-144.454397902815
 30
0
 40
33.1595704507904
 50
169.120322379057
 51
176.406476326781
 62
 7 
  0
ARC
  8
Ebene_1
 10
174.426819538063
 20
-144.048111781163
 30
0
 40
26.6774234726718
 50
176.406476326781
 51
180.960112810236
 62
 7 
  0
ARC
  8
Ebene_1
 10
177.520954314593
 20
-143.996258109694
 30
0
 40
29.7719927187181
 50
180.960112810236
 51
181.461577276281
 62
 7 
  0
ARC
  8
Ebene_1
 10
135.361637716763
 20
-145.071947608074
 30
0
 40
12.4010446854457
 50
359.711867960617
 51
361.461577276281
 62
 7 
  0
ARC
  8
Ebene_1
 10
103.383699644351
 20
-144.911133910065
 30
0
 40
44.3793871129151
 50
359.202375970169
 51
359.711867960617
 62
 7 
  0
ARC
  8
Ebene_1
 10
228.569332512268
 20
-146.653976413555
 30
0
 40
80.8183771504014
 50
179.202375970168
 51
179.451198041812
 62
 7 
  0
ARC
  8
Ebene_1
 10
162.900548986507
 20
-146.024955227628
 30
0
 40
15.1465810929947
 50
179.451198041812
 51
180.025960160323
 62
 7 
  0
ARC
  8
Ebene_1
 10
155.279427245595
 20
-146.028408283987
 30
0
 40
7.52545856980919
 50
180.025960160323
 51
188.682989765875
 62
 7 
  0
ARC
  8
Ebene_1
 10
150.511151341663
 20
-146.756608319818
 30
0
 40
2.70189864085567
 50
188.682989765875
 51
215.962263153336
 62
 7 
  0
ARC
  8
Ebene_1
 10
148.389411805051
 20
-148.296008239878
 30
0
 40
0.0805381591401363
 50
215.962263153343
 51
302.48976162371
 62
 7 
  0
ARC
  8
Ebene_1
 10
-1136.2372261133
 20
1882.38074263213
 30
0
 40
2402.9721598875
 50
302.415911256192
 51
302.587620494813
 62
 7 
  0
ARC
  8
Ebene_1
 10
-157.795593071203
 20
351.705659869157
 30
0
 40
586.295458253023
 50
302.587620494813
 51
302.960809026988
 62
 7 
  0
ARC
  8
Ebene_1
 10
313.913271357182
 20
-375.751167682925
 30
0
 40
280.712436020411
 50
122.88228286277
 51
122.960809026987
 62
 7 
  0
ARC
  8
Ebene_1
 10
166.528579859599
 20
-147.774577293211
 30
0
 40
9.24315036629414
 50
122.28716242369
 51
122.882282862769
 62
 7 
  0
ARC
  8
Ebene_1
 10
182.621525003922
 20
-173.243731899071
 30
0
 40
39.3705584817526
 50
121.839354137805
 51
122.28716242369
 62
 7 
  0
ARC
  8
Ebene_1
 10
-931.846420907121
 20
1621.45542220304
 30
0
 40
2073.20698002376
 50
301.839354137805
 51
301.852115450081
 62
 7 
  0
ARC
  8
Ebene_1
 10
158.626935552076
 20
-133.731293703545
 30
0
 40
6.85450553100625
 50
301.852115450081
 51
302.074052021417
 62
 7 
  0
ARC
  8
Ebene_1
 10
155.720631601984
 20
-129.093583834895
 30
0
 40
12.3276175777389
 50
302.074052021416
 51
308.622160650851
 62
 7 
  0
ARC
  8
Ebene_1
 10
161.440867632215
 20
-136.253518260154
 30
0
 40
3.16324301012315
 50
308.622160650851
 51
327.201441606862
 62
 7 
  0
ARC
  8
Ebene_1
 10
162.618249322301
 20
-137.012247054946
 30
0
 40
1.76256566391001
 50
327.201441606861
 51
337.182227924857
 62
 7 
  0
ARC
  8
Ebene_1
 10
135.323779970161
 20
-125.528745078696
 30
0
 40
31.3743686291707
 50
337.182227924857
 51
342.58863374151
 62
 7 
  0
ARC
  8
Ebene_1
 10
51.507102149218
 20
-99.2439289116952
 30
0
 40
119.215856787517
 50
342.58863374151
 51
343.185786395433
 62
 7 
  0
ARC
  8
Ebene_1
 10
246.658712009964
 20
-158.216502708199
 30
0
 40
84.6515395548733
 50
161.573559756217
 51
163.185786395433
 62
 7 
  0
ARC
  8
Ebene_1
 10
186.778435231315
 20
-138.266290386339
 30
0
 40
21.5353093222703
 50
157.204808357353
 51
161.573559756217
 62
 7 
  0
ARC
  8
Ebene_1
 10
263.058586452227
 20
-170.323980920391
 30
0
 40
104.278024969403
 50
155.510491380682
 51
157.204808357353
 62
 7 
  0
ARC
  8
Ebene_1
 10
191.631084846892
 20
-137.788387118573
 30
0
 40
25.7894726218339
 50
147.309761513693
 51
155.510491380682
 62
 7 
  0
ARC
  8
Ebene_1
 10
182.485734652929
 20
-131.919376668337
 30
0
 40
14.9228855847187
 50
131.792145793502
 51
147.309761513693
 62
 7 
  0
ARC
  8
Ebene_1
 10
175.397580121103
 20
-123.989519799375
 30
0
 40
4.28688235844715
 50
106.105931507392
 51
131.792145793502
 62
 7 
  0
ARC
  8
Ebene_1
 10
175.041944816476
 20
-122.757870953975
 30
0
 40
3.00491693446989
 50
78.2255005599903
 51
106.105931507391
 62
 7 
  0
ARC
  8
Ebene_1
 10
175.15057843307
 20
-122.236712523211
 30
0
 40
2.47255674380013
 50
29.580157873696
 51
78.2255005599899
 62
 7 
  0
ARC
  8
Ebene_1
 10
174.184170833001
 20
-122.78526585419
 30
0
 40
3.58379677475591
 50
5.35369507252912
 51
29.580157873696
 62
 7 
  0
ARC
  8
Ebene_1
 10
159.77544276908
 20
-124.135543759857
 30
0
 40
18.0556554958242
 50
355.220349887358
 51
365.353695072529
 62
 7 
  0
ARC
  8
Ebene_1
 10
93.7731222471384
 20
-118.616780860896
 30
0
 40
84.2882989446258
 50
353.697121559718
 51
355.220349887358
 62
 7 
  0
ARC
  8
Ebene_1
 10
274.166881897652
 20
-138.541610516716
 30
0
 40
97.202492440669
 50
173.697121559717
 51
174.191544328968
 62
 7 
  0
ARC
  8
Ebene_1
 10
35.8425443469901
 20
-114.297971940356
 30
0
 40
142.351768386357
 50
354.067872016629
 51
354.191544328969
 62
 7 
  0
ARC
  8
Ebene_1
 10
159.33967527235
 20
-127.130152212208
 30
0
 40
18.1897524663309
 50
353.721899902616
 51
354.067872016629
 62
 7 
  0
ARC
  8
Ebene_1
 10
146.792776765979
 20
-125.749815712369
 30
0
 40
30.8123508906639
 50
351.694516154887
 51
353.721899902616
 62
 7 
  0
ARC
  8
Ebene_1
 10
146.976208624037
 20
-125.776593456844
 30
0
 40
30.6269748022654
 50
338.055391389407
 51
351.694516154887
 62
 7 
  0
ARC
  8
Ebene_1
 10
141.251086351162
 20
-123.469929722369
 30
0
 40
36.7993100672453
 50
325.530081032453
 51
338.055391389407
 62
 7 
  0
ARC
  8
Ebene_1
 10
131.581324100821
 20
-116.831558339007
 30
0
 40
48.5284309465597
 50
317.724591655065
 51
325.530081032453
 62
 7 
  0
ARC
  8
Ebene_1
 10
144.300457288544
 20
-128.395103823627
 30
0
 40
31.3385521447203
 50
306.261356608795
 51
317.724591655065
 62
 7 
  0
ARC
  8
Ebene_1
 10
147.730284386564
 20
-133.070853962974
 30
0
 40
25.5397287047527
 50
295.279881104109
 51
306.261356608795
 62
 7 
  0
ARC
  8
Ebene_1
 10
148.37665770866
 20
-134.439510965152
 30
0
 40
24.0261169774174
 50
276.267028970788
 51
295.279881104109
 62
 7 
  0
ARC
  8
Ebene_1
 10
147.958388325849
 20
-130.630781015588
 30
0
 40
27.8577449741437
 50
265.762131719828
 51
276.267028970788
 62
 7 
  0
ARC
  8
Ebene_1
 10
146.631746629692
 20
-148.534194074931
 30
0
 40
9.90524717123588
 50
262.976147923899
 51
265.762131719828
 62
 7 
  0
ARC
  8
Ebene_1
 10
146.59507191079
 20
-148.831861192
 30
0
 40
9.60532926981832
 50
254.070071777984
 51
262.976147923899
 62
 7 
  0
ARC
  8
Ebene_1
 10
146.295345071907
 20
-149.881978263644
 30
0
 40
8.51327522257281
 50
229.927497672352
 51
254.070071777984
 62
 7 
  0
ARC
  8
Ebene_1
 10
148.417164190053
 20
-147.359781268907
 30
0
 40
11.8092718928367
 50
217.116309659847
 51
229.927497672352
 62
 7 
  0
ARC
  8
Ebene_1
 10
151.163239312427
 20
-145.281711898868
 30
0
 40
15.2530054604081
 50
209.311957068016
 51
217.116309659847
 62
 7 
  0
ARC
  8
Ebene_1
 10
149.86859245187
 20
-146.008589139098
 30
0
 40
13.7682627163898
 50
180.832978154435
 51
209.311957068016
 62
 7 
  0
ARC
  8
Ebene_1
 10
158.516373215106
 20
-145.882857015935
 30
0
 40
22.4169574558165
 50
166.464957475047
 51
180.832978154435
 62
 7 
  0
ARC
  8
Ebene_1
 10
166.933751299297
 20
-147.909136359434
 30
0
 40
31.0747898514052
 50
158.820044778669
 51
166.464957475047
 62
 7 
  0
ARC
  8
Ebene_1
 10
172.93864104171
 20
-150.235863066702
 30
0
 40
37.5146934212464
 50
146.717413317108
 51
158.820044778669
 62
 7 
  0
ARC
  8
Ebene_1
 10
188.285257252964
 20
-160.310030371339
 30
0
 40
55.872456793111
 50
139.59730984168
 51
146.717413317108
 62
 7 
  0
ARC
  8
Ebene_1
 10
218.854684440778
 20
-186.329127166246
 30
0
 40
96.0157411208006
 50
136.489330521922
 51
139.59730984168
 62
 7 
  0
ARC
  8
Ebene_1
 10
180.01492150924
 20
-149.457820050148
 30
0
 40
42.4618386203505
 50
134.077316987417
 51
136.489330521922
 62
 7 
  0
ARC
  8
Ebene_1
 10
201.536290793666
 20
-171.683750479025
 30
0
 40
73.3998624632839
 50
129.807886527751
 51
134.077316987417
 62
 7 
  0
ARC
  8
Ebene_1
 10
332.918092761651
 20
-329.328958538144
 30
0
 40
278.614846108139
 50
128.898820380603
 51
129.807886527751
 62
 7 
  0
ARC
  8
Ebene_1
 10
194.677330059491
 20
-157.998085562892
 30
0
 40
58.4676759992843
 50
126.003367668538
 51
128.898820380603
 62
 7 
  0
ARC
  8
Ebene_1
 10
194.656786401673
 20
-157.969813138408
 30
0
 40
58.4327278682505
 50
123.072008502972
 51
126.003367668538
 62
 7 
  0
ARC
  8
Ebene_1
 10
194.295328063258
 20
-157.414744596591
 30
0
 40
57.7703433752824
 50
112.610871578983
 51
123.072008502972
 62
 7 
  0
ARC
  8
Ebene_1
 10
198.915401945638
 20
-168.50782601116
 30
0
 40
69.7870624761402
 50
105.329331368334
 51
112.610871578983
 62
 7 
  0
ARC
  8
Ebene_1
 10
195.541132675003
 20
-156.198337010017
 30
0
 40
57.0234731463307
 50
99.1440101575366
 51
105.329331368334
 62
 7 
  0
ARC
  8
Ebene_1
 10
195.387176809088
 20
-155.241863494219
 30
0
 40
56.0546883430472
 50
97.8599756286054
 51
99.1440101575366
 62
 7 
  0
ARC
  8
Ebene_1
 10
199.541527833983
 20
-185.33505599585
 30
0
 40
86.4332805977634
 50
94.1637427355835
 51
97.8599756286054
 62
 7 
  0
ARC
  8
Ebene_1
 10
196.2927663963
 20
-140.708732611638
 30
0
 40
41.6888598319152
 50
85.9559857358843
 51
94.1637427355836
 62
 7 
  0
ARC
  8
Ebene_1
 10
197.188922448524
 20
-128.033043552526
 30
0
 40
28.9815316787105
 50
75.5959432065429
 51
85.9559857358843
 62
 7 
  0
ARC
  8
Ebene_1
 10
201.03775764466
 20
-113.047225250376
 30
0
 40
13.5093539860882
 50
58.9748615694223
 51
75.5959432065428
 62
 7 
  0
ARC
  8
Ebene_1
 10
202.464249155252
 20
-110.675502400405
 30
0
 40
10.7416930048872
 50
28.3420521397302
 51
58.9748615694223
 62
 7 
  0
ARC
  8
Ebene_1
 10
199.979800305148
 20
-112.015593326161
 30
0
 40
13.5645160206069
 50
12.7497547143159
 51
28.3420521397302
 62
 7 
  0
ARC
  8
Ebene_1
 10
186.146625046181
 20
-115.145659064264
 30
0
 40
27.7473947576668
 50
356.845944397709
 51
372.749754714316
 62
 7 
  0
ARC
  8
Ebene_1
 10
170.416198979264
 20
-114.27884450385
 30
0
 40
43.5016853392469
 50
348.999811316842
 51
356.845944397709
 62
 7 
  0
ARC
  8
Ebene_1
 10
143.515172472639
 20
-109.049722719184
 30
0
 40
70.9062276953792
 50
339.277132559046
 51
348.999811316842
 62
 7 
  0
ARC
  8
Ebene_1
 10
118.038001544152
 20
-99.4110801853691
 30
0
 40
98.1457149962444
 50
332.244311968043
 51
339.277132559046
 62
 7 
  0
ARC
  8
Ebene_1
 10
38.869171981125
 20
-57.7483084208271
 30
0
 40
187.607942363351
 50
327.418226991227
 51
332.244311968043
 62
 7 
  0
ARC
  8
Ebene_1
 10
59.9810640487984
 20
-71.2404656017532
 30
0
 40
162.552996901988
 50
322.901352736435
 51
327.418226991227
 62
 7 
  0
ARC
  8
Ebene_1
 10
83.6196594301124
 20
-89.117317568905
 30
0
 40
132.915773215263
 50
321.100181292828
 51
322.901352736435
 62
 7 
  0
ARC
  8
Ebene_1
 10
-1032.38814049169
 20
811.381625863554
 30
0
 40
1566.92126714103
 50
320.127421456464
 51
321.100181292828
 62
 7 
  0
ARC
  8
Ebene_1
 10
-1815.92018498332
 20
1465.87920099752
 30
0
 40
2587.84709236119
 50
319.970636291294
 51
320.127421456464
 62
 7 
  0
ARC
  8
Ebene_1
 10
-8.24750326867172
 20
-52.5176607603427
 30
0
 40
227.082480204032
 50
319.176498555217
 51
319.970636291294
 62
 7 
  0
ARC
  8
Ebene_1
 10
-175.216900170695
 20
91.7260139280655
 30
0
 40
447.729295702105
 50
318.564502925106
 51
319.176498555217
 62
 7 
  0
ARC
  8
Ebene_1
 10
846.682496465991
 20
-820.146890000209
 30
0
 40
921.85947429178
 50
138.422216534341
 51
138.651107372166
 62
 7 
  0
ARC
  8
Ebene_1
 10
425.20855269583
 20
-449.23526016965
 30
0
 40
360.418718360457
 50
138.651107372166
 51
139.006304220297
 62
 7 
  0
ARC
  8
Ebene_1
 10
414.227956209961
 20
-439.692094235772
 30
0
 40
345.870676731874
 50
139.006304220297
 51
139.139994961099
 62
 7 
  0
ARC
  8
Ebene_1
 10
153.773673187415
 20
-214.397553127165
 30
0
 40
1.49578827726249
 50
139.1399949611
 51
149.122955681832
 62
 7 
  0
ARC
  8
Ebene_1
 10
154.709942831022
 20
-214.957389590134
 30
0
 40
2.58666760643185
 50
149.122955681832
 51
177.098186053455
 62
 7 
  0
ARC
  8
Ebene_1
 10
153.532519061321
 20
-214.897706502873
 30
0
 40
1.40773215257437
 50
177.098186053454
 51
194.88407485073
 62
 7 
  0
ARC
  8
Ebene_1
 10
152.676544847193
 20
-215.125208891051
 30
0
 40
0.522040788792195
 50
194.884074850732
 51
219.359186374868
 62
 7 
  0
ARC
  8
Ebene_1
 10
153.891825557112
 20
-214.128414985794
 30
0
 40
2.09382490038574
 50
219.359186374869
 51
244.055178303429
 62
 7 
  0
ARC
  8
Ebene_1
 10
153.80966372616
 20
-214.297284266549
 30
0
 40
1.90602873309734
 50
244.05517830343
 51
261.298252029423
 62
 7 
  0
ARC
  8
Ebene_1
 10
153.625015805033
 20
-215.503717675241
 30
0
 40
0.685546687189326
 50
261.298252029422
 51
274.3272438062
 62
 7 
  0
ARC
  8
Ebene_1
 10
153.469895782392
 20
-213.453725084162
 30
0
 40
2.74139975706113
 50
274.3272438062
 51
275.502801855475
 62
 7 
  0
ARC
  8
Ebene_1
 10
154.449921685507
 20
-223.626468956171
 30
0
 40
7.4784421524922
 50
95.0521963888896
 51
95.5028018554749
 62
 7 
  0
ARC
  8
Ebene_1
 10
160.60751682359
 20
-293.27723664301
 30
0
 40
77.4008664329088
 50
94.9141034890281
 51
95.0521963888896
 62
 7 
  0
ARC
  8
Ebene_1
 10
159.187609503227
 20
-276.762501740486
 30
0
 40
60.8252033783259
 50
94.8719235880806
 51
94.9141034890281
 62
 7 
  0
ARC
  8
Ebene_1
 10
287.401314587062
 20
-1780.97140100974
 30
0
 40
1570.48846610023
 50
94.8636225968441
 51
94.8719235880806
 62
 7 
  0
ARC
  8
Ebene_1
 10
151.579196997248
 20
-184.767466929379
 30
0
 40
31.4836456421072
 50
274.863622596845
 51
277.917594915236
 62
 7 
  0
ARC
  8
Ebene_1
 10
154.88326085398
 20
-208.524980182391
 30
0
 40
7.49747725413009
 50
277.917594915236
 51
289.654982165318
 62
 7 
  0
ARC
  8
Ebene_1
 10
155.928759380901
 20
-211.4521892576
 30
0
 40
4.38916257575768
 50
289.654982165318
 51
297.932014707207
 62
 7 
  0
ARC
  8
Ebene_1
 10
-111.729268635744
 20
285.771427877971
 30
0
 40
569.072788224476
 50
298.518236459619
 51
299.343092770416
 62
 7 
  0
ARC
  8
Ebene_1
 10
82.7178600943927
 20
-60.1194556486021
 30
0
 40
172.272852264063
 50
299.343092770416
 51
301.395511033341
 62
 7 
  0
ARC
  8
Ebene_1
 10
101.738470218124
 20
-91.2857077682443
 30
0
 40
135.76095172925
 50
301.395511033341
 51
302.675445884501
 62
 7 
  0
ARC
  8
Ebene_1
 10
-43.3354305943769
 20
134.903277109592
 30
0
 40
404.476216604584
 50
302.675445884501
 51
305.667091793947
 62
 7 
  0
ARC
  8
Ebene_1
 10
34.9000826439596
 20
25.8949739921942
 30
0
 40
270.298701050747
 50
305.667091793947
 51
306.680854860573
 62
 7 
  0
ARC
  8
Ebene_1
 10
70.6690160999035
 20
-22.1262111933076
 30
0
 40
210.420066904701
 50
306.680854860573
 51
308.168823120111
 62
 7 
  0
ARC
  8
Ebene_1
 10
-54.0967792668788
 20
136.60047943885
 30
0
 40
412.312776066132
 50
308.168823120111
 51
309.852505059568
 62
 7 
  0
ARC
  8
Ebene_1
 10
-277.810058593635
 20
404.609710851312
 30
0
 40
761.42103931613
 50
309.852505059568
 51
310.708837195422
 62
 7 
  0
ARC
  8
Ebene_1
 10
27.6016595087198
 20
49.6465887482264
 30
0
 40
293.152808910306
 50
310.708837195422
 51
312.718578927288
 62
 7 
  0
ARC
  8
Ebene_1
 10
83.1535595554674
 20
-10.5152743336261
 30
0
 40
211.265915158721
 50
312.718578927288
 51
313.954894474884
 62
 7 
  0
ARC
  8
Ebene_1
 10
-186.322036880845
 20
268.974860019549
 30
0
 40
599.507891605708
 50
313.954894474884
 51
316.512663515335
 62
 7 
  0
ARC
  8
Ebene_1
 10
-103.047551901395
 20
189.985297078453
 30
0
 40
484.729884556369
 50
316.512663515335
 51
318.567507999058
 62
 7 
  0
ARC
  8
Ebene_1
 10
-46.0622098563962
 20
139.688497731428
 30
0
 40
408.722666264022
 50
318.567507999058
 51
319.0448866123
 62
 7 
  0
ARC
  8
Ebene_1
 10
-711.970483089567
 20
717.638449652116
 30
0
 40
1290.45957446596
 50
319.0448866123
 51
319.134363988
 62
 7 
  0
ARC
  8
Ebene_1
 10
935.3179295607
 20
-707.559112802195
 30
0
 40
887.784490481207
 50
138.751215738074
 51
139.134363988
 62
 7 
  0
ARC
  8
Ebene_1
 10
325.93904027765
 20
-173.171044064824
 30
0
 40
77.2826467370356
 50
137.437121894158
 51
138.751215738074
 62
 7 
  0
ARC
  8
Ebene_1
 10
402.512853804216
 20
-243.492767151456
 30
0
 40
181.247514148456
 50
136.634564310576
 51
137.437121894158
 62
 7 
  0
ARC
  8
Ebene_1
 10
-124.357010456788
 20
254.141567498672
 30
0
 40
543.481252280119
 50
316.634564310576
 51
316.838715833733
 62
 7 
  0
ARC
  8
Ebene_1
 10
154.426521994968
 20
-7.29932047975795
 30
0
 40
161.28811279011
 50
316.838715833733
 51
317.040373086329
 62
 7 
  0
ARC
  8
Ebene_1
 10
272.559716876491
 20
-117.304781549316
 30
0
 40
0.132620692431499
 50
135.178549630601
 51
137.040373086324
 62
 7 
  0
ARC
  8
Ebene_1
 10
270.68457734119
 20
-117.074201918981
 30
0
 40
1.78640934137633
 50
350.598378515108
 51
355.597593448768
 62
 7 
  0
ARC
  8
Ebene_1
 10
270.81356276492
 20
-117.09555906779
 30
0
 40
1.65566773613898
 50
328.192675346651
 51
350.598378515108
 62
 7 
  0
ARC
  8
Ebene_1
 10
267.120885256965
 20
-114.805348409826
 30
0
 40
6.0008871823355
 50
323.028303461587
 51
328.192675346651
 62
 7 
  0
ARC
  8
Ebene_1
 10
279.532742139323
 20
-124.148744064313
 30
0
 40
9.53466023719317
 50
143.028303461587
 51
143.809483220435
 62
 7 
  0
ARC
  8
Ebene_1
 10
1072.71372146306
 20
-707.050804061065
 30
0
 40
993.598225631566
 50
145.260623629282
 51
146.198323728106
 62
 7 
  0
ARC
  8
Ebene_1
 10
321.267379615003
 20
-203.969486184513
 30
0
 40
89.2960543009663
 50
146.198323728106
 51
148.200237854512
 62
 7 
  0
ARC
  8
Ebene_1
 10
337.624092187456
 20
-214.110983648201
 30
0
 40
108.541625661251
 50
148.200237854512
 51
157.30954409059
 62
 7 
  0
ARC
  8
Ebene_1
 10
340.822860491665
 20
-215.448431384239
 30
0
 40
112.008740471961
 50
157.30954409059
 51
161.851738914536
 62
 7 
  0
ARC
  8
Ebene_1
 10
283.136006972438
 20
-196.539665000634
 30
0
 40
51.3019491294888
 50
161.851738914536
 51
169.326457955466
 62
 7 
  0
ARC
  8
Ebene_1
 10
266.370785958715
 20
-193.379861127137
 30
0
 40
34.241556515075
 50
169.326457955466
 51
175.893314470801
 62
 7 
  0
ARC
  8
Ebene_1
 10
264.06066270989
 20
-193.213998490811
 30
0
 40
31.9254866027258
 50
175.893314470801
 51
178.763347290239
 62
 7 
  0
ARC
  8
Ebene_1
 10
282.42213452556
 20
-193.610367834972
 30
0
 40
50.2912361353372
 50
178.763347290239
 51
179.429671757374
 62
 7 
  0
ARC
  8
Ebene_1
 10
280.668407680346
 20
-193.592910476085
 30
0
 40
48.5374224032088
 50
179.429671757374
 51
180.235138180344
 62
 7 
  0
ARC
  8
Ebene_1
 10
274.335693645911
 20
-193.618899671575
 30
0
 40
42.2046550397084
 50
180.235138180344
 51
188.660185122167
 62
 7 
  0
ARC
  8
Ebene_1
 10
265.258456015996
 20
-195.00145742278
 30
0
 40
33.022732097026
 50
188.660185122167
 51
195.59749685729
 62
 7 
  0
ARC
  8
Ebene_1
 10
264.249882813543
 20
-195.283008623714
 30
0
 40
31.9755974430998
 50
195.59749685729
 51
196.108083850199
 62
 7 
  0
ARC
  8
Ebene_1
 10
297.615461526996
 20
-185.647429243698
 30
0
 40
66.7046376381903
 50
196.108083850199
 51
198.80061448557
 62
 7 
  0
ARC
  8
Ebene_1
 10
253.783942001793
 20
-200.569420192861
 30
0
 40
20.4027163197916
 50
198.80061448557
 51
208.753053064412
 62
 7 
  0
ARC
  8
Ebene_1
 10
247.252333797061
 20
-204.153235972558
 30
0
 40
12.9525054984177
 50
208.753053064412
 51
222.763350675264
 62
 7 
  0
ARC
  8
Ebene_1
 10
243.475073172373
 20
-207.646532369664
 30
0
 40
7.80752565930642
 50
222.763350675264
 51
225.614410961527
 62
 7 
  0
ARC
  8
Ebene_1
 10
243.738926155485
 20
-207.376958972565
 30
0
 40
8.18473675819026
 50
225.614410961528
 51
243.636597220331
 62
 7 
  0
ARC
  8
Ebene_1
 10
242.554346537462
 20
-209.767111278645
 30
0
 40
5.5171429139747
 50
243.636597220331
 51
263.665072909674
 62
 7 
  0
ARC
  8
Ebene_1
 10
242.368290475334
 20
-211.44301885924
 30
0
 40
3.830939166811
 50
263.665072909674
 51
281.826228618497
 62
 7 
  0
ARC
  8
Ebene_1
 10
242.39874704722
 20
-211.588473576168
 30
0
 40
3.68233002359388
 50
281.826228618497
 51
306.112997184055
 62
 7 
  0
ARC
  8
Ebene_1
 10
241.448181798645
 20
-210.285544193621
 30
0
 40
5.29515340750919
 50
306.112997184055
 51
322.730253980189
 62
 7 
  0
ARC
  8
Ebene_1
 10
241.807909265875
 20
-210.559283027441
 30
0
 40
4.84311712597746
 50
322.73025398019
 51
323.71748679021
 62
 7 
  0
ARC
  8
Ebene_1
 10
231.763135998587
 20
-203.185382375065
 30
0
 40
17.3039309365726
 50
323.71748679021
 51
324.239769695375
 62
 7 
  0
ARC
  8
Ebene_1
 10
395.096574403096
 20
-320.812916186573
 30
0
 40
183.977088565061
 50
143.952254421937
 51
144.239769695374
 62
 7 
  0
ARC
  8
Ebene_1
 10
763.811328859188
 20
-589.169596621354
 30
0
 40
640.00984844925
 50
143.797058057447
 51
143.952254421937
 62
 7 
  0
ARC
  8
Ebene_1
 10
-0.262969142455013
 20
-29.8914962231787
 30
0
 40
306.880602686305
 50
323.797058057448
 51
324.694191002746
 62
 7 
  0
ARC
  8
Ebene_1
 10
193.116021872621
 20
-166.84089088692
 30
0
 40
69.9194859080999
 50
324.694191002746
 51
327.808007086986
 62
 7 
  0
ARC
  8
Ebene_1
 10
208.02622719714
 20
-176.227438523223
 30
0
 40
52.3007033352912
 50
327.808007086986
 51
330.859052359636
 62
 7 
  0
ARC
  8
Ebene_1
 10
85.5972788272751
 20
-107.969711955873
 30
0
 40
192.471900929855
 50
330.859052359636
 51
332.771004392266
 62
 7 
  0
ARC
  8
Ebene_1
 10
-341.340887198061
 20
111.719899354951
 30
0
 40
672.617423586245
 50
332.771004392266
 51
332.95966217001
 62
 7 
  0
ARC
  8
Ebene_1
 10
514.116033021493
 20
-324.916068269593
 30
0
 40
287.829092662809
 50
151.712670134004
 51
152.95966217001
 62
 7 
  0
ARC
  8
Ebene_1
 10
334.213719572814
 20
-228.09996344906
 30
0
 40
83.5298010908439
 50
149.483385078745
 51
151.712670134004
 62
 7 
  0
ARC
  8
Ebene_1
 10
945.885018504482
 20
-588.640854858007
 30
0
 40
793.551992514965
 50
147.86556719367
 51
149.483385078745
 62
 7 
  0
ARC
  8
Ebene_1
 10
1152.45493042411
 20
-718.39497318468
 30
0
 40
1037.49309141635
 50
147.476369165783
 51
147.86556719367
 62
 7 
  0
ARC
  8
Ebene_1
 10
328.83687745668
 20
-193.214724289004
 30
0
 40
60.6814458039609
 50
146.22791721843
 51
147.476369165783
 62
 7 
  0
ARC
  8
Ebene_1
 10
357.605212976099
 20
-212.453153771038
 30
0
 40
95.289743905616
 50
140.094325436102
 51
146.22791721843
 62
 7 
  0
ARC
  8
Ebene_1
 10
417.59909728518
 20
-262.625923811044
 30
0
 40
173.498266510117
 50
137.106154062021
 51
140.094325436102
 62
 7 
  0
ARC
  8
Ebene_1
 10
557.45607555711
 20
-392.561057359197
 30
0
 40
364.399060907447
 50
136.381300173532
 51
137.106154062021
 62
 7 
  0
ARC
  8
Ebene_1
 10
340.642054647314
 20
-185.956880372966
 30
0
 40
64.9101535815969
 50
133.784147645484
 51
136.381300173532
 62
 7 
  0
ARC
  8
Ebene_1
 10
365.228367545205
 20
-211.6094539885
 30
0
 40
100.44241096856
 50
130.660491629393
 51
133.784147645484
 62
 7 
  0
ARC
  8
Ebene_1
 10
543.82592984616
 20
-419.538119764305
 30
0
 40
374.543522442318
 50
130.515058849914
 51
130.660491629393
 62
 7 
  0
ARC
  8
Ebene_1
 10
541.653789396481
 20
-416.996223176013
 30
0
 40
371.199956621417
 50
130.130216318553
 51
130.515058849914
 62
 7 
  0
ARC
  8
Ebene_1
 10
908.733934701413
 20
-852.451605298683
 30
0
 40
940.734172359761
 50
129.880021091587
 51
130.130216318553
 62
 7 
  0
ARC
  8
Ebene_1
 10
-37.1822602849537
 20
286.265544279706
 30
0
 40
539.608922631314
 50
310.018901170741
 51
310.384318547273
 62
 7 
  0
ARC
  8
Ebene_1
 10
274.966676306349
 20
-80.7116639593538
 30
0
 40
57.8317646194219
 50
310.384318547273
 51
311.378933254139
 62
 7 
  0
ARC
  8
Ebene_1
 10
228.890238817233
 20
-28.4094500693454
 30
0
 40
127.535133759548
 50
311.378933254139
 51
312.416872852973
 62
 7 
  0
ARC
  8
Ebene_1
 10
524.358453098059
 20
-346.519759027722
 30
0
 40
306.621371862102
 50
132.447683637125
 51
132.632591851044
 62
 7 
  0
ARC
  8
Ebene_1
 10
418.159731901165
 20
-230.411524539172
 30
0
 40
149.270520260011
 50
132.232158845367
 51
132.447683637125
 62
 7 
  0
ARC
  8
Ebene_1
 10
312.861815891166
 20
-114.415006404988
 30
0
 40
7.39103640052771
 50
312.232158845368
 51
312.706402947888
 62
 7 
  0
ARC
  8
Ebene_1
 10
317.535862536145
 20
-119.154601853883
 30
0
 40
0.0059021511585832
 50
25.6824837006664
 51
42.1936635493941
 62
 7 
  0
ARC
  8
Ebene_1
 10
316.066359062649
 20
-112.066158949734
 30
0
 40
7.23592624076457
 50
279.481099597963
 51
281.748977444306
 62
 7 
  0
ARC
  8
Ebene_1
 10
312.914454508102
 20
-93.1928763263223
 30
0
 40
26.3705884876962
 50
278.187580450016
 51
279.481099597963
 62
 7 
  0
ARC
  8
Ebene_1
 10
318.998549228206
 20
-135.478494607046
 30
0
 40
16.3504803419373
 50
98.1875804500161
 51
102.51804740203
 62
 7 
  0
ARC
  8
Ebene_1
 10
316.199813639179
 20
-122.873005789212
 30
0
 40
3.43803405032273
 50
102.51804740203
 51
113.549899561324
 62
 7 
  0
ARC
  8
Ebene_1
 10
316.074946892091
 20
-122.586514510072
 30
0
 40
3.12551371890142
 50
113.549899561324
 51
116.112247299934
 62
 7 
  0
ARC
  8
Ebene_1
 10
334.37276251136
 20
-159.916803656318
 30
0
 40
44.6990695468446
 50
116.112247299934
 51
126.501961693075
 62
 7 
  0
ARC
  8
Ebene_1
 10
354.650598583182
 20
-187.318764155285
 30
0
 40
78.7880424698091
 50
126.501961693075
 51
131.742734460633
 62
 7 
  0
ARC
  8
Ebene_1
 10
514.685719818734
 20
-366.668743711311
 30
0
 40
319.157872514316
 50
131.742734460633
 51
133.416536715218
 62
 7 
  0
ARC
  8
Ebene_1
 10
409.835835518365
 20
-255.857182073962
 30
0
 40
166.603946211816
 50
133.416536715218
 51
136.821746226842
 62
 7 
  0
ARC
  8
Ebene_1
 10
370.342121855132
 20
-218.798314262007
 30
0
 40
112.445723360457
 50
136.821746226842
 51
141.575995249612
 62
 7 
  0
ARC
  8
Ebene_1
 10
352.564985472961
 20
-204.696198822229
 30
0
 40
89.75439819362
 50
141.575995249612
 51
144.115037622367
 62
 7 
  0
ARC
  8
Ebene_1
 10
388.034424570236
 20
-230.357606250299
 30
0
 40
133.533262284237
 50
144.115037622367
 51
144.286882258645
 62
 7 
  0
ARC
  8
Ebene_1
 10
140.909722436739
 20
-52.6946864870843
 30
0
 40
170.826280794931
 50
323.784612395088
 51
324.286882258646
 62
 7 
  0
ARC
  8
Ebene_1
 10
-450.076203096666
 20
380.085409980513
 30
0
 40
903.330871959435
 50
323.438365018838
 51
323.784612395088
 62
 7 
  0
ARC
  8
Ebene_1
 10
735.826958883369
 20
-499.412566089626
 30
0
 40
573.111812165388
 50
143.438365018838
 51
144.030883748382
 62
 7 
  0
ARC
  8
Ebene_1
 10
396.964452600999
 20
-253.493506482318
 30
0
 40
154.418628506863
 50
144.030883748382
 51
146.870966613806
 62
 7 
  0
ARC
  8
Ebene_1
 10
342.379241335301
 20
-217.870427616596
 30
0
 40
89.2377337846031
 50
146.870966613806
 51
149.462242245264
 62
 7 
  0
ARC
  8
Ebene_1
 10
601.445642241361
 20
-370.702250143454
 30
0
 40
390.024977622004
 50
149.462242245264
 51
151.321152334047
 62
 7 
  0
ARC
  8
Ebene_1
 10
856.743147714645
 20
-510.351075837652
 30
0
 40
681.020872470454
 50
151.321152334047
 51
151.632505730886
 62
 7 
  0
ARC
  8
Ebene_1
 10
-1158.23268232794
 20
557.846443860864
 30
0
 40
1599.5748175714
 50
331.667463337033
 51
331.912267290157
 62
 7 
  0
ARC
  8
Ebene_1
 10
-112.028594930395
 20
-6.24300765307847
 30
0
 40
410.987462011603
 50
331.446981173306
 51
331.667463337033
 62
 7 
  0
ARC
  8
Ebene_1
 10
929.060249887559
 20
-572.756135688949
 30
0
 40
774.256439909588
 50
151.446981173305
 51
151.488132203489
 62
 7 
  0
ARC
  8
Ebene_1
 10
280.406562933045
 20
-220.391934111939
 30
0
 40
36.0747982029622
 50
151.488132203489
 51
152.154649371369
 62
 7 
  0
ARC
  8
Ebene_1
 10
315.923875861168
 20
-239.154031274777
 30
0
 40
76.2431415541879
 50
152.154649371369
 51
152.743908441046
 62
 7 
  0
ARC
  8
Ebene_1
 10
306.482032070941
 20
-234.289891997337
 30
0
 40
65.6220180227824
 50
152.743908441046
 51
152.831929523713
 62
 7 
  0
ARC
  8
Ebene_1
 10
2168.75524414943
 20
-1190.05678927276
 30
0
 40
2158.83769691319
 50
152.831929523713
 51
152.8472757451
 62
 7 
  0
ARC
  8
Ebene_1
 10
87.4659565684768
 20
-122.589358128946
 30
0
 40
180.233019237139
 50
332.646761699276
 51
332.847275745101
 62
 7 
  0
ARC
  8
Ebene_1
 10
251.229495138934
 20
-204.04085491342
 30
0
 40
3.92611103617417
 50
184.858502521699
 51
200.283593322285
 62
 7 
  0
ARC
  8
Ebene_1
 10
249.030891640048
 20
-204.227737741473
 30
0
 40
1.71957924697735
 50
166.131694820762
 51
184.858502521699
 62
 7 
  0
ARC
  8
Ebene_1
 10
248.999327543273
 20
-204.21994494465
 30
0
 40
1.68706740471162
 50
164.472698855872
 51
166.131694820763
 62
 7 
  0
ARC
  8
Ebene_1
 10
248.97837582441
 20
-204.21412376615
 30
0
 40
1.66532204561019
 50
162.80290588126
 51
164.472698855871
 62
 7 
  0
ARC
  8
Ebene_1
 10
-923.154421529378
 20
158.556444777265
 30
0
 40
1225.32195581579
 50
342.802905881261
 51
342.839507965968
 62
 7 
  0
ARC
  8
Ebene_1
 10
77.8707240138644
 20
-150.556369197759
 30
0
 40
177.656897806587
 50
342.839507965968
 51
343.0401502617
 62
 7 
  0
ARC
  8
Ebene_1
 10
-317.20803741806
 20
-30.071336374665
 30
0
 40
590.69911219752
 50
343.0401502617
 51
343.382138939066
 62
 7 
  0
ARC
  8
Ebene_1
 10
750.513192434318
 20
-344.737234895794
 30
0
 40
522.421004621809
 50
162.514404572402
 51
163.447373255201
 62
 7 
  0
ARC
  8
Ebene_1
 10
398.499483313028
 20
-233.845027776415
 30
0
 40
153.353621872892
 50
160.194920663875
 51
162.514404572402
 62
 7 
  0
ARC
  8
Ebene_1
 10
369.482613030166
 20
-223.39540576842
 30
0
 40
122.51252330098
 50
159.006011321377
 51
160.194920663875
 62
 7 
  0
ARC
  8
Ebene_1
 10
912.253543821221
 20
-431.680310807873
 30
0
 40
703.875477899123
 50
157.522256345621
 51
159.006011321377
 62
 7 
  0
ARC
  8
Ebene_1
 10
3037.95555343154
 20
-1311.20767538704
 30
0
 40
3004.34878109239
 50
157.330418625401
 51
157.522256345621
 62
 7 
  0
ARC
  8
Ebene_1
 10
-2722.23096745017
 20
1094.73811032389
 30
0
 40
3238.11258275501
 50
337.330418625401
 51
337.435705385636
 62
 7 
  0
ARC
  8
Ebene_1
 10
-1094.47391915395
 20
418.358082995824
 30
0
 40
1475.42062167777
 50
337.435705385636
 51
337.525652066055
 62
 7 
  0
ARC
  8
Ebene_1
 10
3562.52667801681
 20
-1507.26173755858
 30
0
 40
3563.99095740539
 50
157.399079017414
 51
157.466474052344
 62
 7 
  0
ARC
  8
Ebene_1
 10
4662.6968544878
 20
-1965.23913046267
 30
0
 40
4755.67787501732
 50
157.340735853337
 51
157.399079017414
 62
 7 
  0
ARC
  8
Ebene_1
 10
-742.56268572904
 20
331.946919044377
 30
0
 40
1117.44956631151
 50
336.910645613105
 51
337.21771287054
 62
 7 
  0
ARC
  8
Ebene_1
 10
25.652135124337
 20
9.298564981524
 30
0
 40
284.229324503711
 50
337.21771287054
 51
337.522048853425
 62
 7 
  0
ARC
  8
Ebene_1
 10
-506.490476816084
 20
229.479373353896
 30
0
 40
860.124582183687
 50
337.522048853425
 51
337.547443957998
 62
 7 
  0
ARC
  8
Ebene_1
 10
296.376804570816
 20
-102.300528834161
 30
0
 40
8.59503600017153
 50
156.898453321084
 51
157.547443957997
 62
 7 
  0
ARC
  8
Ebene_1
 10
318.645335028077
 20
-111.799572500326
 30
0
 40
32.8049364398197
 50
156.548200274862
 51
156.898453321084
 62
 7 
  0
ARC
  8
Ebene_1
 10
282.270966339143
 20
-96.0199189353533
 30
0
 40
6.84468101292545
 50
336.548200274862
 51
344.006065211577
 62
 7 
  0
ARC
  8
Ebene_1
 10
287.409354145374
 20
-97.4927392836404
 30
0
 40
1.49938129957441
 50
344.006065211577
 51
364.637726766389
 62
 7 
  0
ARC
  8
Ebene_1
 10
287.74621481809
 20
-97.4654128616836
 30
0
 40
1.16141407311629
 50
4.63772676638962
 51
45.4016386861426
 62
 7 
  0
ARC
  8
Ebene_1
 10
286.775844104807
 20
-98.4494842774174
 30
0
 40
2.54344731166826
 50
45.401638686142
 51
75.6449382949665
 62
 7 
  0
ARC
  8
Ebene_1
 10
287.019710932274
 20
-97.4965835691982
 30
0
 40
1.55983621511456
 50
75.6449382949661
 51
118.215033052338
 62
 7 
  0
ARC
  8
Ebene_1
 10
287.799528263268
 20
-98.9500209297791
 30
0
 40
3.20925891134807
 50
118.215033052337
 51
133.961457231368
 62
 7 
  0
ARC
  8
Ebene_1
 10
289.562655876201
 20
-100.778252618309
 30
0
 40
5.74915065833945
 50
133.961457231368
 51
137.263571691372
 62
 7 
  0
ARC
  8
Ebene_1
 10
288.901454148169
 20
-100.167334414445
 30
0
 40
4.84892358867031
 50
137.263571691372
 51
137.931200120672
 62
 7 
  0
ARC
  8
Ebene_1
 10
301.001784301309
 20
-111.088858777703
 30
0
 40
21.1491592996115
 50
137.931200120672
 51
138.250875393196
 62
 7 
  0
ARC
  8
Ebene_1
 10
248.765861608054
 20
-64.4679490904185
 30
0
 40
48.8658450900602
 50
317.06882455059
 51
318.250875393197
 62
 7 
  0
ARC
  8
Ebene_1
 10
137.79635393556
 20
38.7638573331935
 30
0
 40
200.427837326102
 50
316.528698987961
 51
317.06882455059
 62
 7 
  0
ARC
  8
Ebene_1
 10
392.144208554383
 20
-202.361229886747
 30
0
 40
150.049178804803
 50
136.528698987961
 51
137.451136928856
 62
 7 
  0
ARC
  8
Ebene_1
 10
308.637668099908
 20
-125.710467397306
 30
0
 40
36.6971532874458
 50
137.451136928856
 51
139.457517744069
 62
 7 
  0
ARC
  8
Ebene_1
 10
1591.34481687421
 20
-1222.89174237551
 30
0
 40
1724.63802300993
 50
139.457517744069
 51
139.705342432387
 62
 7 
  0
ARC
  8
Ebene_1
 10
-692.335269647794
 20
683.244749899553
 30
0
 40
1249.94018961517
 50
319.01040841637
 51
319.730805089077
 62
 7 
  0
ARC
  8
Ebene_1
 10
51.036856195654
 20
37.2782696633274
 30
0
 40
265.117966536413
 50
317.282727301387
 51
319.01040841637
 62
 7 
  0
ARC
  8
Ebene_1
 10
129.384782678528
 20
-35.0628594219673
 30
0
 40
158.480090800345
 50
315.960454212075
 51
317.282727301387
 62
 7 
  0
ARC
  8
Ebene_1
 10
-303.112645093872
 20
383.172326487486
 30
0
 40
760.123420159573
 50
314.993259029476
 51
315.960454212075
 62
 7 
  0
ARC
  8
Ebene_1
 10
5.80244168363275
 20
74.1845421204533
 30
0
 40
323.200106834682
 50
313.702348412798
 51
314.993259029476
 62
 7 
  0
ARC
  8
Ebene_1
 10
14.6302892968846
 20
64.947485293422
 30
0
 40
310.423013569444
 50
312.995957803155
 51
313.702348412798
 62
 7 
  0
ARC
  8
Ebene_1
 10
-205.366748239012
 20
300.898796308636
 30
0
 40
633.02449790324
 50
310.967705563268
 51
312.995957803155
 62
 7 
  0
ARC
  8
Ebene_1
 10
105.100162845448
 20
-56.6593628111836
 30
0
 40
159.48723428877
 50
310.590430968229
 51
310.967705563268
 62
 7 
  0
ARC
  8
Ebene_1
 10
110.920541893474
 20
-63.4524112953417
 30
0
 40
150.541714741487
 50
307.411042772677
 51
310.590430968229
 62
 7 
  0
ARC
  8
Ebene_1
 10
131.025315573236
 20
-89.7378626791472
 30
0
 40
117.449013443998
 50
304.658726285437
 51
307.411042772677
 62
 7 
  0
ARC
  8
Ebene_1
 10
-145.850945353611
 20
310.738319580038
 30
0
 40
604.318232456377
 50
303.2367309636
 51
304.658726285437
 62
 7 
  0
ARC
  8
Ebene_1
 10
-1168.42720468423
 20
1871.21434193657
 30
0
 40
2469.99441617536
 50
303.036883857544
 51
303.2367309636
 62
 7 
  0
ARC
  8
Ebene_1
 10
162.099777023748
 20
-174.732913858098
 30
0
 40
29.4612321054058
 50
299.87180650107
 51
303.036883857544
 62
 7 
  0
ARC
  8
Ebene_1
 10
127.519481822958
 20
-114.527401499403
 30
0
 40
98.8910566374237
 50
297.893362551709
 51
299.87180650107
 62
 7 
  0
ARC
  8
Ebene_1
 10
324.616532858904
 20
-486.883255216705
 30
0
 40
322.41183834979
 50
117.893362551708
 51
118.214448901973
 62
 7 
  0
ARC
  8
Ebene_1
 10
205.423396519347
 20
-264.72353874183
 30
0
 40
70.2968975496517
 50
118.214448901973
 51
118.998105866441
 62
 7 
  0
LINE
  8
Ebene_1
 10
364.671412089725
 20
-192.44195116948
 30
0
 11
363.463698504098
 21
-193.552708625137
 31
0
 62
 7 
  0
LINE
  8
Ebene_1
 10
364.497921200706
 20
-170.401717293386
 30
0
 11
368.42141881377
 21
-166.974728494745
 31
0
 62
 7 
  0
LINE
  8
Ebene_1
 10
390.631455769944
 20
-145.63586206645
 30
0
 11
393.447645759051
 21
-142.555881770102
 31
0
 62
 7 
  0
LINE
  8
Ebene_1
 10
337.435136379987
 20
-179.173021830684
 30
0
 11
337.066514158614
 21
-179.237487707477
 31
0
 62
 7 
  0
ARC
  8
Ebene_1
 10
365.461715668771
 20
-185.938783010249
 30
0
 40
5.07749050410356
 50
286.799233457922
 51
289.427316656479
 62
 7 
  0
ARC
  8
Ebene_1
 10
363.731335107424
 20
-180.207208953961
 30
0
 40
11.0645731033159
 50
285.232650016841
 51
286.799233457922
 62
 7 
  0
ARC
  8
Ebene_1
 10
367.345972901792
 20
-193.481385198184
 30
0
 40
2.69294707101614
 50
105.23265001684
 51
114.703474685901
 62
 7 
  0
ARC
  8
Ebene_1
 10
366.37818362522
 20
-191.377596479118
 30
0
 40
0.377230538640579
 50
114.703474685904
 51
131.590729371083
 62
 7 
  0
ARC
  8
Ebene_1
 10
367.020988789988
 20
-192.10184135729
 30
0
 40
1.34559468678439
 50
131.59072937108
 51
132.919610027532
 62
 7 
  0
ARC
  8
Ebene_1
 10
163.457878809095
 20
26.8078552294463
 30
0
 40
297.584823646295
 50
312.776636714534
 51
312.919610027533
 62
 7 
  0
ARC
  8
Ebene_1
 10
7.94384654712766
 20
194.885159141126
 30
0
 40
526.570837019591
 50
312.645015319213
 51
312.776636714534
 62
 7 
  0
ARC
  8
Ebene_1
 10
623.083737552925
 20
-475.958188634767
 30
0
 40
383.608419896102
 50
132.592841377543
 51
133.45759010994
 62
 7 
  0
ARC
  8
Ebene_1
 10
431.440123880483
 20
-273.708349400058
 30
0
 40
104.982735272631
 50
133.45759010994
 51
135.607689276027
 62
 7 
  0
ARC
  8
Ebene_1
 10
284.719510042366
 20
-130.067476854833
 30
0
 40
100.345389421935
 50
314.113855600915
 51
315.607689276027
 62
 7 
  0
ARC
  8
Ebene_1
 10
340.901572923006
 20
-188.014821591325
 30
0
 40
19.6340584235306
 50
305.354711420231
 51
314.113855600915
 62
 7 
  0
ARC
  8
Ebene_1
 10
345.599358617392
 20
-194.636326301929
 30
0
 40
11.5153445436765
 50
295.714334204436
 51
305.354711420231
 62
 7 
  0
ARC
  8
Ebene_1
 10
346.001968583498
 20
-195.472352701066
 30
0
 40
10.5874248678091
 50
291.455528965454
 51
295.714334204436
 62
 7 
  0
ARC
  8
Ebene_1
 10
345.847920434334
 20
-195.080386789868
 30
0
 40
11.0085758001394
 50
290.343398652735
 51
291.455528965454
 62
 7 
  0
ARC
  8
Ebene_1
 10
349.163430764821
 20
-204.022554075878
 30
0
 40
1.47154457849866
 50
281.109889347134
 51
290.343398652737
 62
 7 
  0
ARC
  8
Ebene_1
 10
348.736725036413
 20
-201.849602124476
 30
0
 40
3.68599664656286
 50
260.137725198761
 51
281.109889347134
 62
 7 
  0
ARC
  8
Ebene_1
 10
348.22602418327
 20
-204.787204814775
 30
0
 40
0.704331855300713
 50
237.067795425883
 51
260.137725198761
 62
 7 
  0
ARC
  8
Ebene_1
 10
347.907467530902
 20
-205.279012074222
 30
0
 40
0.118368783758133
 50
205.274606462829
 51
237.067795425876
 62
 7 
  0
ARC
  8
Ebene_1
 10
801.270077040181
 20
-23.7835082699743
 30
0
 40
488.460533103621
 50
201.809415947493
 51
201.818612629449
 62
 7 
  0
ARC
  8
Ebene_1
 10
332.674104579707
 20
-211.297859673327
 30
0
 40
16.2609914902858
 50
21.8094159474925
 51
23.2718770210484
 62
 7 
  0
ARC
  8
Ebene_1
 10
272.645179885015
 20
-237.115476931059
 30
0
 40
81.6063904168188
 50
23.2718770210484
 51
23.875337446255
 62
 7 
  0
ARC
  8
Ebene_1
 10
374.734741120635
 20
-191.928173497537
 30
0
 40
30.036660889004
 50
200.356446960743
 51
203.875337446256
 62
 7 
  0
ARC
  8
Ebene_1
 10
352.362648644118
 20
-200.228927513088
 30
0
 40
6.17428382793753
 50
184.673199072703
 51
200.356446960743
 62
 7 
  0
ARC
  8
Ebene_1
 10
349.281220990766
 20
-200.480815912824
 30
0
 40
3.08257812577799
 50
171.552261301504
 51
184.673199072703
 62
 7 
  0
ARC
  8
Ebene_1
 10
357.283381825952
 20
-201.669285824263
 30
0
 40
11.1725125360551
 50
170.82833701149
 51
171.552261301504
 62
 7 
  0
ARC
  8
Ebene_1
 10
415.878054733757
 20
-211.129814754708
 30
0
 40
70.5260069640698
 50
170.540205010572
 51
170.828337011491
 62
 7 
  0
ARC
  8
Ebene_1
 10
398.021687828978
 20
-208.154563089849
 30
0
 40
52.4234667691876
 50
167.282939799649
 51
170.540205010572
 62
 7 
  0
ARC
  8
Ebene_1
 10
437.511086080031
 20
-217.066239562439
 30
0
 40
92.9059389242125
 50
163.399828158632
 51
167.282939799649
 62
 7 
  0
ARC
  8
Ebene_1
 10
495.915183289465
 20
-234.477447865001
 30
0
 40
153.85008339605
 50
161.790413476621
 51
163.399828158632
 62
 7 
  0
ARC
  8
Ebene_1
 10
375.30576906028
 20
-194.800727552339
 30
0
 40
26.882083744657
 50
154.525576801584
 51
161.790413476621
 62
 7 
  0
ARC
  8
Ebene_1
 10
363.529576069846
 20
-189.190223111016
 30
0
 40
13.8376795254503
 50
141.829363669336
 51
154.525576801584
 62
 7 
  0
ARC
  8
Ebene_1
 10
361.267524428196
 20
-187.412040407822
 30
0
 40
10.9603871601475
 50
130.028940195034
 51
141.829363669336
 62
 7 
  0
ARC
  8
Ebene_1
 10
628.966516238972
 20
-506.116214261611
 30
0
 40
427.175596695229
 50
129.921952480573
 51
130.028940195034
 62
 7 
  0
ARC
  8
Ebene_1
 10
623.810037225777
 20
-499.953933991576
 30
0
 40
419.14048786336
 50
129.723859875831
 51
129.921952480573
 62
 7 
  0
ARC
  8
Ebene_1
 10
1427.92594622901
 20
-1467.6959511579
 30
0
 40
1677.36423859343
 50
129.629039625427
 51
129.723859875831
 62
 7 
  0
ARC
  8
Ebene_1
 10
-84.1365684829376
 20
358.188632583312
 30
0
 40
693.329238332857
 50
309.629039625428
 51
310.065086537102
 62
 7 
  0
ARC
  8
Ebene_1
 10
236.507527363863
 20
-23.059742096442
 30
0
 40
195.169666109893
 50
310.065086537102
 51
310.979609638818
 62
 7 
  0
ARC
  8
Ebene_1
 10
-129.889518385269
 20
403.39331126283
 30
0
 40
757.385959012367
 50
311.142594382846
 51
311.910033891627
 62
 7 
  0
ARC
  8
Ebene_1
 10
216.614985803668
 20
17.3437608211203
 30
0
 40
238.637824731898
 50
311.910033891627
 51
313.639076691195
 62
 7 
  0
ARC
  8
Ebene_1
 10
306.103376606549
 20
-76.5000645460079
 30
0
 40
108.965793637968
 50
313.639076691195
 51
315.875615940522
 62
 7 
  0
ARC
  8
Ebene_1
 10
193.098418768988
 20
33.1026530794585
 30
0
 40
266.391573632087
 50
315.875615940522
 51
317.470582628411
 62
 7 
  0
ARC
  8
Ebene_1
 10
-263.651649431152
 20
452.068600235486
 30
0
 40
886.19242041852
 50
317.470582628411
 51
317.587496436456
 62
 7 
  0
ARC
  8
Ebene_1
 10
234.216191622856
 20
3.65411567481868
 30
0
 40
216.175899071036
 50
317.441132383238
 51
318.649797089925
 62
 7 
  0
ARC
  8
Ebene_1
 10
358.893790418541
 20
-106.071537582823
 30
0
 40
50.0909129215535
 50
318.649797089925
 51
322.904844816113
 62
 7 
  0
ARC
  8
Ebene_1
 10
371.200160844141
 20
-115.377136734586
 30
0
 40
34.662337853668
 50
322.904844816113
 51
324.913986678698
 62
 7 
  0
ARC
  8
Ebene_1
 10
-184.430247468588
 20
274.923855402316
 30
0
 40
713.676339995612
 50
324.913986678698
 51
326.209724698089
 62
 7 
  0
ARC
  8
Ebene_1
 10
21.6628409090871
 20
137.007208221953
 30
0
 40
465.693754626153
 50
326.209724698089
 51
327.324914044109
 62
 7 
  0
ARC
  8
Ebene_1
 10
390.408561025187
 20
-99.4969724048432
 30
0
 40
27.6211196009862
 50
327.324914044109
 51
338.626608454231
 62
 7 
  0
ARC
  8
Ebene_1
 10
398.788995502383
 20
-102.776739933858
 30
0
 40
18.6217553417199
 50
338.626608454231
 51
351.200309998579
 62
 7 
  0
ARC
  8
Ebene_1
 10
400.73846657164
 20
-103.078523199956
 30
0
 40
16.6490641369019
 50
351.200309998579
 51
362.103300948244
 62
 7 
  0
ARC
  8
Ebene_1
 10
400.860948116481
 20
-103.074024939631
 30
0
 40
16.5265000182842
 50
2.103300948244
 51
4.77573749503534
 62
 7 
  0
ARC
  8
Ebene_1
 10
412.123601809786
 20
-102.133076234423
 30
0
 40
5.22460846504579
 50
4.77573749503537
 51
6.2434574312853
 62
 7 
  0
ARC
  8
Ebene_1
 10
412.265428149672
 20
-102.11756011314
 30
0
 40
5.08193590039157
 50
6.24345743128503
 51
19.27509077334
 62
 7 
  0
ARC
  8
Ebene_1
 10
413.440746550043
 20
-101.706543006254
 30
0
 40
3.83682208856401
 50
19.2750907733396
 51
50.1602503031521
 62
 7 
  0
ARC
  8
Ebene_1
 10
412.399324168458
 20
-102.954735125501
 30
0
 40
5.46241248697894
 50
50.1602503031521
 51
64.251406657953
 62
 7 
  0
ARC
  8
Ebene_1
 10
409.739952169016
 20
-108.468529849786
 30
0
 40
11.5840292418047
 50
64.2514066579524
 51
69.186915645644
 62
 7 
  0
ARC
  8
Ebene_1
 10
409.757301610271
 20
-108.422888523777
 30
0
 40
11.5352016496896
 50
69.1869156456439
 51
83.7027984583084
 62
 7 
  0
ARC
  8
Ebene_1
 10
409.377632756162
 20
-111.863426648504
 30
0
 40
14.9966249157011
 50
83.7027984583085
 51
96.7112814099251
 62
 7 
  0
ARC
  8
Ebene_1
 10
410.806014458022
 20
-124.00203366287
 30
0
 40
27.2189837115884
 50
96.7112814099251
 51
102.858189185249
 62
 7 
  0
ARC
  8
Ebene_1
 10
413.821392800251
 20
-137.212157370276
 30
0
 40
40.7688868445173
 50
102.858189185249
 51
104.635055518262
 62
 7 
  0
ARC
  8
Ebene_1
 10
410.733263074795
 20
-125.386311536148
 30
0
 40
28.5464822163845
 50
104.635055518262
 51
110.100768328075
 62
 7 
  0
ARC
  8
Ebene_1
 10
413.004214467775
 20
-131.591720033511
 30
0
 40
35.1543801308825
 50
110.100768328075
 51
123.170995046054
 62
 7 
  0
ARC
  8
Ebene_1
 10
423.498059935156
 20
-147.645728556656
 30
0
 40
54.3338478595364
 50
123.170995046053
 51
131.142592051656
 62
 7 
  0
ARC
  8
Ebene_1
 10
462.267501473594
 20
-192.021339320716
 30
0
 40
113.259771084258
 50
131.142592051656
 51
135.739174376609
 62
 7 
  0
ARC
  8
Ebene_1
 10
488.269750919847
 20
-217.361186265076
 30
0
 40
149.567136995719
 50
135.739174376609
 51
141.647954225222
 62
 7 
  0
ARC
  8
Ebene_1
 10
588.281065719374
 20
-296.492978882631
 30
0
 40
277.097932064196
 50
141.647954225222
 51
144.114093337989
 62
 7 
  0
ARC
  8
Ebene_1
 10
890.00237098113
 20
-514.789694028769
 30
0
 40
649.507923729902
 50
144.114093337989
 51
144.855631749943
 62
 7 
  0
ARC
  8
Ebene_1
 10
479.545517487853
 20
-225.840682427222
 30
0
 40
147.54541528419
 50
144.855631749943
 51
145.121022486173
 62
 7 
  0
ARC
  8
Ebene_1
 10
491.658683656486
 20
-234.284338482887
 30
0
 40
162.311055203113
 50
145.121022486173
 51
148.402518347791
 62
 7 
  0
ARC
  8
Ebene_1
 10
463.480003451573
 20
-216.950406021842
 30
0
 40
129.227777967403
 50
148.402518347791
 51
151.151240263744
 62
 7 
  0
ARC
  8
Ebene_1
 10
653.077717034552
 20
-321.392845722941
 30
0
 40
345.689128343425
 50
151.151240263744
 51
153.069917211984
 62
 7 
  0
ARC
  8
Ebene_1
 10
1810.19215126668
 20
-909.19461155908
 30
0
 40
1643.54302221146
 50
153.069917211984
 51
153.317415715497
 62
 7 
  0
ARC
  8
Ebene_1
 10
364.94160571097
 20
-182.859653881706
 30
0
 40
26.0413652808494
 50
153.317415715497
 51
154.991262822019
 62
 7 
  0
ARC
  8
Ebene_1
 10
432.071908094378
 20
-214.175491666734
 30
0
 40
100.116726867992
 50
154.991262822019
 51
157.401327667949
 62
 7 
  0
ARC
  8
Ebene_1
 10
671.951966006571
 20
-314.021400776865
 30
0
 40
359.94676314168
 50
157.401327667949
 51
157.568446603573
 62
 7 
  0
ARC
  8
Ebene_1
 10
134.591289104883
 20
-92.1910296388394
 30
0
 40
221.400990478711
 50
336.905438950162
 51
337.568446603574
 62
 7 
  0
ARC
  8
Ebene_1
 10
344.298361420504
 20
-217.176947277904
 30
0
 40
38.6170603695678
 50
99.0153571866827
 51
99.4814664854109
 62
 7 
  0
ARC
  8
Ebene_1
 10
350.209502094519
 20
-252.570859076388
 30
0
 40
74.5011874519825
 50
99.4814664854108
 51
99.8730234848737
 62
 7 
  0
ARC
  8
Ebene_1
 10
329.099118392738
 20
-133.68832367974
 30
0
 40
46.2407367903643
 50
278.593023565381
 51
279.92171986535
 62
 7 
  0
ARC
  8
Ebene_1
 10
334.200466653284
 20
-167.447217977816
 30
0
 40
12.0985825187897
 50
274.967105816486
 51
278.593023565381
 62
 7 
  0
ARC
  8
Ebene_1
 10
320.65331919693
 20
-11.571962935018
 30
0
 40
168.561422640211
 50
273.879371158076
 51
274.967105816486
 62
 7 
  0
ARC
  8
Ebene_1
 10
321.739342106373
 20
-27.5872941062099
 30
0
 40
152.509311306097
 50
273.013904682856
 51
273.879371158076
 62
 7 
  0
ARC
  8
Ebene_1
 10
328.641856336501
 20
-158.686361556261
 30
0
 40
21.2286570231063
 50
271.427329467729
 51
273.013904682856
 62
 7 
  0
ARC
  8
Ebene_1
 10
329.12950626401
 20
-178.257528073488
 30
0
 40
1.65141612207922
 50
245.89378620341
 51
271.427329467729
 62
 7 
  0
ARC
  8
Ebene_1
 10
328.692250699577
 20
-179.234740788784
 30
0
 40
0.580838184905219
 50
182.475266669531
 51
245.893786203413
 62
 7 
  0
ARC
  8
Ebene_1
 10
329.618858817756
 20
-179.194684956001
 30
0
 40
1.50831167477736
 50
162.791932960125
 51
182.475266669532
 62
 7 
  0
ARC
  8
Ebene_1
 10
330.435460922698
 20
-179.447591530832
 30
0
 40
2.36318051465158
 50
158.484880898946
 51
162.791932960124
 62
 7 
  0
ARC
  8
Ebene_1
 10
331.403646619349
 20
-179.829265174903
 30
0
 40
3.40388139087822
 50
154.896404583358
 51
158.484880898946
 62
 7 
  0
ARC
  8
Ebene_1
 10
323.444743783262
 20
-176.100433610759
 30
0
 40
5.38522090617327
 50
334.896404583358
 51
336.297080970098
 62
 7 
  0
ARC
  8
Ebene_1
 10
323.615660626829
 20
-176.175471245412
 30
0
 40
5.1985575352905
 50
336.297080970099
 51
340.977277865533
 62
 7 
  0
ARC
  8
Ebene_1
 10
307.825732155413
 20
-170.731557575075
 30
0
 40
21.9005944524614
 50
340.977277865533
 51
343.045495265274
 62
 7 
  0
ARC
  8
Ebene_1
 10
368.337726530746
 20
-189.179403309934
 30
0
 40
41.3609616107393
 50
162.243418622461
 51
163.045495265274
 62
 7 
  0
ARC
  8
Ebene_1
 10
482.422467791074
 20
-225.71266473777
 30
0
 40
161.152477917157
 50
161.614850409563
 51
162.243418622461
 62
 7 
  0
ARC
  8
Ebene_1
 10
234.208289954181
 20
-143.214244953802
 30
0
 40
100.412556722599
 50
341.614850409564
 51
343.157751621019
 62
 7 
  0
ARC
  8
Ebene_1
 10
305.299217102227
 20
-164.735072966246
 30
0
 40
26.1356022810631
 50
343.157751621019
 51
350.827296776361
 62
 7 
  0
ARC
  8
Ebene_1
 10
316.066372451877
 20
-166.473707769432
 30
0
 40
15.228976528689
 50
350.827296776361
 51
359.547209003826
 62
 7 
  0
ARC
  8
Ebene_1
 10
317.083444252168
 20
-166.481745543674
 30
0
 40
14.211872968199
 50
359.547209003826
 51
363.430744312426
 62
 7 
  0
ARC
  8
Ebene_1
 10
314.989289508251
 20
-166.607288964057
 30
0
 40
16.309787466426
 50
3.43074431242636
 51
10.7195483355953
 62
 7 
  0
ARC
  8
Ebene_1
 10
321.73190014381
 20
-165.330876708588
 30
0
 40
9.44742443109613
 50
10.7195483355953
 51
25.802360530252
 62
 7 
  0
ARC
  8
Ebene_1
 10
324.018440351579
 20
-164.225403763585
 30
0
 40
6.90767315314049
 50
25.8023605302518
 51
55.8517938481634
 62
 7 
  0
ARC
  8
Ebene_1
 10
321.473047386264
 20
-167.978128452021
 30
0
 40
11.4422037721868
 50
55.8517938481634
 51
83.1631510711697
 62
 7 
  0
ARC
  8
Ebene_1
 10
320.761315728565
 20
-173.914414380047
 30
0
 40
17.4210040341001
 50
83.1631510711696
 51
94.6204837788255
 62
 7 
  0
ARC
  8
Ebene_1
 10
321.806629365314
 20
-186.848595176309
 30
0
 40
30.3973561204745
 50
94.6204837788256
 51
100.044966625356
 62
 7 
  0
ARC
  8
Ebene_1
 10
320.842391816645
 20
-181.405117484359
 30
0
 40
24.8691372904161
 50
100.044966625356
 51
107.78747119199
 62
 7 
  0
ARC
  8
Ebene_1
 10
321.961630558949
 20
-184.893758763867
 30
0
 40
28.5329213096182
 50
107.78747119199
 51
121.376624348761
 62
 7 
  0
ARC
  8
Ebene_1
 10
328.462002353381
 20
-195.552853678175
 30
0
 40
41.0177576264493
 50
121.376624348761
 51
130.894030835207
 62
 7 
  0
ARC
  8
Ebene_1
 10
348.388885459664
 20
-218.561920064893
 30
0
 40
71.456184102203
 50
130.894030835207
 51
141.500499163647
 62
 7 
  0
ARC
  8
Ebene_1
 10
359.484624386468
 20
-227.387711500972
 30
0
 40
85.6339842420334
 50
141.500499163647
 51
148.197037314861
 62
 7 
  0
ARC
  8
Ebene_1
 10
360.236321518137
 20
-227.853837282483
 30
0
 40
86.5184738247577
 50
148.197037314861
 51
152.359241193705
 62
 7 
  0
ARC
  8
Ebene_1
 10
329.915949122258
 20
-211.975255270359
 30
0
 40
52.2919585341158
 50
152.359241193705
 51
159.902973703076
 62
 7 
  0
ARC
  8
Ebene_1
 10
315.563108056807
 20
-206.723705979353
 30
0
 40
37.008542142289
 50
159.902973703076
 51
170.469151706318
 62
 7 
  0
ARC
  8
Ebene_1
 10
310.263033512443
 20
-205.833843918826
 30
0
 40
31.63428455053
 50
170.469151706318
 51
180.087896820898
 62
 7 
  0
ARC
  8
Ebene_1
 10
310.071019706289
 20
-205.834138485311
 30
0
 40
31.4422705184298
 50
180.087896820898
 51
183.568182485433
 62
 7 
  0
ARC
  8
Ebene_1
 10
292.959286279693
 20
-206.901177724534
 30
0
 40
14.29730059717
 50
183.568182485433
 51
185.015127175786
 62
 7 
  0
ARC
  8
Ebene_1
 10
291.820361018771
 20
-207.001123780032
 30
0
 40
13.1539983781675
 50
185.015127175786
 51
195.833623149768
 62
 7 
  0
ARC
  8
Ebene_1
 10
287.768293329863
 20
-208.150312085173
 30
0
 40
8.94212393604989
 50
195.833623149767
 51
211.625812150824
 62
 7 
  0
ARC
  8
Ebene_1
 10
286.573142823392
 20
-208.886315992489
 30
0
 40
7.53852624272691
 50
211.625812150824
 51
239.036538729966
 62
 7 
  0
ARC
  8
Ebene_1
 10
290.804780812483
 20
-201.833503628425
 30
0
 40
15.7634227352918
 50
239.036538729966
 51
252.617221895802
 62
 7 
  0
ARC
  8
Ebene_1
 10
290.518032387387
 20
-202.74948371669
 30
0
 40
14.8036080753744
 50
252.617221895802
 51
277.175455489116
 62
 7 
  0
ARC
  8
Ebene_1
 10
290.113231370942
 20
-199.534076878038
 30
0
 40
18.0443957884097
 50
277.175455489116
 51
293.663874068931
 62
 7 
  0
ARC
  8
Ebene_1
 10
284.619687768051
 20
-186.997965141428
 30
0
 40
31.7313647293279
 50
293.663874068931
 51
307.446402887845
 62
 7 
  0
ARC
  8
Ebene_1
 10
276.629745367601
 20
-176.565076607701
 30
0
 40
44.8723061993929
 50
307.446402887845
 51
315.510498422286
 62
 7 
  0
ARC
  8
Ebene_1
 10
252.034402346318
 20
-152.404157444382
 30
0
 40
79.3495583107634
 50
315.510498422286
 51
319.843057992753
 62
 7 
  0
ARC
  8
Ebene_1
 10
220.035982904137
 20
-125.404590047877
 30
0
 40
121.216914167041
 50
319.843057992753
 51
327.855718311752
 62
 7 
  0
ARC
  8
Ebene_1
 10
207.701741847665
 20
-117.654044979166
 30
0
 40
135.784153140205
 50
327.855718311752
 51
330.208880631394
 62
 7 
  0
ARC
  8
Ebene_1
 10
343.686736092681
 20
-195.505397682874
 30
0
 40
20.9090240488934
 50
149.873270181497
 51
150.208880631393
 62
 7 
  0
ARC
  8
Ebene_1
 10
325.988627472089
 20
-185.235128940167
 30
0
 40
0.446827959673298
 50
138.731480206738
 51
149.873270181491
 62
 7 
  0
ARC
  8
Ebene_1
 10
327.149460613888
 20
-186.253816264225
 30
0
 40
1.99125583021141
 50
115.630922013986
 51
138.731480206737
 62
 7 
  0
ARC
  8
Ebene_1
 10
327.581259880148
 20
-187.153804051191
 30
0
 40
2.98946854453221
 50
100.052869373966
 51
115.630922013986
 62
 7 
  0
ARC
  8
Ebene_1
 10
327.416226930951
 20
-186.222879633885
 30
0
 40
2.04402888751625
 50
94.3931078333927
 51
100.052869373965
 62
 7 
  0
ARC
  8
Ebene_1
 10
338.046960995966
 20
-324.599204153686
 30
0
 40
140.82810468287
 50
92.7848582113912
 51
94.3931078333933
 62
 7 
  0
ARC
  8
Ebene_1
 10
261.24029760817
 20
1254.3794398279
 30
0
 40
1440.01749868601
 50
272.784858211392
 51
272.835702092106
 62
 7 
  0
ARC
  8
Ebene_1
 10
325.82167711955
 20
-49.4312679463563
 30
0
 40
134.608322876977
 50
272.835702092106
 51
273.001999989218
 62
 7 
  0
ARC
  8
Ebene_1
 10
326.534099069619
 20
-63.0160155150826
 30
0
 40
121.004907440368
 50
273.001999989218
 51
273.650269069119
 62
 7 
  0
ARC
  8
Ebene_1
 10
334.023246119779
 20
-180.408954154615
 30
0
 40
3.3733242411102
 50
273.65026906912
 51
278.907142744008
 62
 7 
  0
ARC
  8
Ebene_1
 10
331.472317996881
 20
-164.132343491549
 30
0
 40
19.8486175303123
 50
278.907142744008
 51
281.9699358192
 62
 7 
  0
ARC
  8
Ebene_1
 10
341.881727181089
 20
-213.231431815653
 30
0
 40
30.3417826854902
 50
100.699230140084
 51
101.969935819199
 62
 7 
  0
ARC
  8
Ebene_1
 10
78.733980411622
 20
-107.004587622334
 30
0
 40
268.613316664473
 50
343.471615205805
 51
343.47265253049
 62
 7 
  0
ARC
  8
Ebene_1
 10
78.35303570224
 20
-106.89154134631
 30
0
 40
269.010680895537
 50
343.470578647536
 51
343.471615205805
 62
 7 
  0
ARC
  8
Ebene_1
 10
78.1165980563974
 20
-106.821373241324
 30
0
 40
269.257310827477
 50
343.18306609122
 51
343.470578647536
 62
 7 
  0
ARC
  8
Ebene_1
 10
-713.027614176196
 20
132.29430862023
 30
0
 40
1095.7471618609
 50
343.047585956897
 51
343.18306609122
 62
 7 
  0
ARC
  8
Ebene_1
 10
700.171275200609
 20
-298.480862199183
 30
0
 40
381.648637757583
 50
163.047585956896
 51
163.854950528339
 62
 7 
  0
ARC
  8
Ebene_1
 10
425.419175185
 20
-218.943665977704
 30
0
 40
95.6156290929163
 50
163.854950528339
 51
165.184933702451
 62
 7 
  0
ARC
  8
Ebene_1
 10
519.878865912666
 20
-243.92756737783
 30
0
 40
193.323502376176
 50
165.184933702451
 51
166.476632217125
 62
 7 
  0
ARC
  8
Ebene_1
 10
375.40635329397
 20
-209.180461209803
 30
0
 40
44.731213580924
 50
166.476632217125
 51
172.638640624666
 62
 7 
  0
ARC
  8
Ebene_1
 10
357.63512791861
 20
-206.884568141396
 30
0
 40
26.8122968635722
 50
172.638640624666
 51
178.972304062722
 62
 7 
  0
ARC
  8
Ebene_1
 10
354.102616253744
 20
-206.821199821928
 30
0
 40
23.2792168749042
 50
178.972304062722
 51
182.307043515547
 62
 7 
  0
ARC
  8
Ebene_1
 10
352.883686392547
 20
-206.870307191062
 30
0
 40
22.0592982135909
 50
182.307043515547
 51
186.085783279683
 62
 7 
  0
ARC
  8
Ebene_1
 10
351.295053286866
 20
-207.039684416666
 30
0
 40
20.4616612745399
 50
186.085783279683
 51
190.009327327287
 62
 7 
  0
ARC
  8
Ebene_1
 10
345.712917991292
 20
-208.024902489821
 30
0
 40
14.7932497589771
 50
190.009327327287
 51
195.620554058443
 62
 7 
  0
ARC
  8
Ebene_1
 10
340.494971856648
 20
-209.483797217226
 30
0
 40
9.37519330950249
 50
195.620554058443
 51
222.538500317688
 62
 7 
  0
ARC
  8
Ebene_1
 10
339.652010630334
 20
-210.257271557051
 30
0
 40
8.23114515341952
 50
222.538500317688
 51
245.22089401175
 62
 7 
  0
ARC
  8
Ebene_1
 10
339.535953301375
 20
-210.508683370591
 30
0
 40
7.9542386645235
 50
245.220894011749
 51
281.603905442315
 62
 7 
  0
ARC
  8
Ebene_1
 10
339.276147951441
 20
-209.243448243711
 30
0
 40
9.24587280240652
 50
281.603905442315
 51
296.039789513639
 62
 7 
  0
ARC
  8
Ebene_1
 10
333.254360296596
 20
-196.918684378423
 30
0
 40
22.9630784542573
 50
296.039789513639
 51
296.764238719022
 62
 7 
  0
ARC
  8
Ebene_1
 10
334.017615867973
 20
-198.432019870157
 30
0
 40
21.2681615306945
 50
296.764238719023
 51
302.234769573668
 62
 7 
  0
ARC
  8
Ebene_1
 10
329.670258163999
 20
-191.53781476749
 30
0
 40
29.4185960592293
 50
302.234769573668
 51
312.651236418096
 62
 7 
  0
ARC
  8
Ebene_1
 10
265.824712424405
 20
-122.230798832144
 30
0
 40
123.650841966079
 50
312.651236418096
 51
318.75981811725
 62
 7 
  0
ARC
  8
Ebene_1
 10
282.150234248412
 20
-136.542948909401
 30
0
 40
101.940008203644
 50
318.75981811725
 51
323.818829892344
 62
 7 
  0
ARC
  8
Ebene_1
 10
310.577236095248
 20
-157.33402589375
 30
0
 40
66.7212161151995
 50
323.818829892344
 51
324.085664065359
 62
 7 
  0
ARC
  8
Ebene_1
 10
496.026986049816
 20
-291.647985109368
 30
0
 40
162.258803533648
 50
143.989904733699
 51
144.085664065359
 62
 7 
  0
ARC
  8
Ebene_1
 10
375.199001374956
 20
-203.828784251941
 30
0
 40
12.8880770849048
 50
142.371081911691
 51
143.989904733699
 62
 7 
  0
ARC
  8
Ebene_1
 10
424.802344938608
 20
-242.068399996692
 30
0
 40
75.520017059649
 50
141.846732048156
 51
142.371081911691
 62
 7 
  0
ARC
  8
Ebene_1
 10
348.776648686288
 20
-182.342419360567
 30
0
 40
21.1603804033159
 50
321.846732048157
 51
325.850988271983
 62
 7 
  0
ARC
  8
Ebene_1
 10
361.491331314459
 20
-190.966777905679
 30
0
 40
5.79669872704648
 50
325.850988271983
 51
340.012539520331
 62
 7 
  0
ARC
  8
Ebene_1
 10
362.817051927523
 20
-191.448972195813
 30
0
 40
4.38600865571897
 50
340.012539520331
 51
360.144814872627
 62
 7 
  0
ARC
  8
Ebene_1
 10
362.195234952093
 20
-191.450543839285
 30
0
 40
5.007827617312
 50
0.144814872627417
 51
8.30520764608723
 62
 7 
  0
LINE
  8
Ebene_1
 10
399.592420215051
 20
-173.176426535784
 30
0
 11
402.852892665854
 21
-170.452449097558
 31
0
 62
 7 
  0
LINE
  8
Ebene_1
 10
369.58120270553
 20
-193.680938065186
 30
0
 11
366.349959779551
 21
-199.881268869367
 31
0
 62
 7 
  0
LINE
  8
Ebene_1
 10
359.502986242393
 20
-213.236161304872
 30
0
 11
346.760484440184
 21
-238.503133280447
 31
0
 62
 7 
  0
LINE
  8
Ebene_1
 10
341.796879686944
 20
-248.495111114411
 30
0
 11
357.208338711477
 21
-246.550381329322
 31
0
 62
 7 
  0
LINE
  8
Ebene_1
 10
357.210118344056
 20
-246.549272991144
 30
0
 11
374.410876636929
 21
-212.950749164864
 31
0
 62
 7 
  0
LINE
  8
Ebene_1
 10
374.410876636929
 20
-212.950749164864
 30
0
 11
385.72326453321
 21
-191.019473020632
 31
0
 62
 7 
  0
ARC
  8
Ebene_1
 10
277.189224325384
 20
-51.9250250597386
 30
0
 40
171.776127425788
 50
311.546401358632
 51
311.736471169118
 62
 7 
  0
ARC
  8
Ebene_1
 10
28.2782354081802
 20
227.088763834304
 30
0
 40
545.681696783547
 50
311.736471169118
 51
311.843112293531
 62
 7 
  0
ARC
  8
Ebene_1
 10
652.173635678436
 20
-469.644466357474
 30
0
 40
389.563011585258
 50
131.493410447909
 51
131.843112293531
 62
 7 
  0
ARC
  8
Ebene_1
 10
449.216114321004
 20
-240.189549411001
 30
0
 40
83.2277142614511
 50
130.264173605883
 51
131.493410447909
 62
 7 
  0
ARC
  8
Ebene_1
 10
889.065873172253
 20
-759.500511303841
 30
0
 40
763.780199749212
 50
129.855711092229
 51
130.264173605883
 62
 7 
  0
ARC
  8
Ebene_1
 10
167.604515643156
 20
110.133241556951
 30
0
 40
366.155880318589
 50
309.977108119281
 51
311.148241784
 62
 7 
  0
ARC
  8
Ebene_1
 10
310.223608194911
 20
-53.0764851374099
 30
0
 40
149.41266716548
 50
311.148241784
 51
312.577079006443
 62
 7 
  0
ARC
  8
Ebene_1
 10
339.054113303707
 20
-84.4546084361585
 30
0
 40
106.80064249427
 50
312.577079006443
 51
315.039670453524
 62
 7 
  0
ARC
  8
Ebene_1
 10
256.927358586214
 20
-2.44150089953628
 30
0
 40
222.865079977252
 50
315.039670453524
 51
317.366163228576
 62
 7 
  0
ARC
  8
Ebene_1
 10
-272.159851903895
 20
484.656107282898
 30
0
 40
942.029425729495
 50
317.366163228576
 51
319.1126624238
 62
 7 
  0
ARC
  8
Ebene_1
 10
365.595923068601
 20
-67.5386194723482
 30
0
 40
98.4350654075043
 50
319.1126624238
 51
319.845515556756
 62
 7 
  0
ARC
  8
Ebene_1
 10
368.475233314505
 20
-69.9679071447988
 30
0
 40
94.6678560839217
 50
319.845515556756
 51
325.736560448255
 62
 7 
  0
ARC
  8
Ebene_1
 10
383.568537403108
 20
-80.2497545693011
 30
0
 40
76.4052107450945
 50
325.736560448255
 51
336.16048067058
 62
 7 
  0
ARC
  8
Ebene_1
 10
424.866975384497
 20
-98.4985728399763
 30
0
 40
31.2545701297192
 50
336.16048067058
 51
342.952655135405
 62
 7 
  0
ARC
  8
Ebene_1
 10
438.397479130615
 20
-102.647491702287
 30
0
 40
17.1022537345229
 50
342.952655135405
 51
355.312631443953
 62
 7 
  0
ARC
  8
Ebene_1
 10
442.771200306268
 20
-103.006106307201
 30
0
 40
12.713855238806
 50
355.312631443953
 51
368.059482234982
 62
 7 
  0
ARC
  8
Ebene_1
 10
450.763746708066
 20
-101.874364487063
 30
0
 40
4.6415793805149
 50
8.05948223498209
 51
26.4962920896744
 62
 7 
  0
ARC
  8
Ebene_1
 10
451.794835599949
 20
-101.360365841064
 30
0
 40
3.48947742710385
 50
26.4962920896743
 51
62.4696495310383
 62
 7 
  0
ARC
  8
Ebene_1
 10
449.505697017898
 20
-105.752078656603
 30
0
 40
8.44198153129215
 50
62.4696495310381
 51
69.0227490982718
 62
 7 
  0
ARC
  8
Ebene_1
 10
447.024148843256
 20
-112.224412567054
 30
0
 40
15.3737336612699
 50
69.0227490982717
 51
73.4340951650524
 62
 7 
  0
ARC
  8
Ebene_1
 10
447.18839250004
 20
-111.672268284472
 30
0
 40
14.7976787267525
 50
73.4340951650522
 51
91.7998429693191
 62
 7 
  0
ARC
  8
Ebene_1
 10
447.32636372807
 20
-116.06296724064
 30
0
 40
19.1905449190528
 50
91.799842969319
 51
105.876095912345
 62
 7 
  0
ARC
  8
Ebene_1
 10
451.475068712915
 20
-130.650204718011
 30
0
 40
34.3562710893526
 50
105.876095912345
 51
115.441858252943
 62
 7 
  0
ARC
  8
Ebene_1
 10
455.553074603085
 20
-139.222297206389
 30
0
 40
43.8489473015472
 50
115.441858252943
 51
125.835012316422
 62
 7 
  0
ARC
  8
Ebene_1
 10
469.744116649413
 20
-158.873340391651
 30
0
 40
68.0883609213042
 50
125.835012316422
 51
132.134119465764
 62
 7 
  0
ARC
  8
Ebene_1
 10
502.712069381219
 20
-195.316046759653
 30
0
 40
117.230570423432
 50
132.134119465764
 51
134.561098081485
 62
 7 
  0
ARC
  8
Ebene_1
 10
493.987010972557
 20
-186.456280976243
 30
0
 40
104.795857158887
 50
134.561098081485
 51
137.071457108948
 62
 7 
  0
ARC
  8
Ebene_1
 10
546.073889870254
 20
-234.906772721276
 30
0
 40
175.933000084639
 50
137.071457108948
 51
139.983380164162
 62
 7 
  0
ARC
  8
Ebene_1
 10
645.994013663878
 20
-318.799114918531
 30
0
 40
306.401219273354
 50
139.983380164162
 51
142.093254730437
 62
 7 
  0
ARC
  8
Ebene_1
 10
528.287510928727
 20
-227.144845403354
 30
0
 40
157.219028960633
 50
142.093254730437
 51
144.200153512918
 62
 7 
  0
ARC
  8
Ebene_1
 10
519.74607983638
 20
-220.984605802279
 30
0
 40
146.687903804793
 50
144.200153512918
 51
144.913173675609
 62
 7 
  0
ARC
  8
Ebene_1
 10
705.944350536067
 20
-351.782994635953
 30
0
 40
374.235732915595
 50
144.913173675609
 51
146.461931247537
 62
 7 
  0
ARC
  8
Ebene_1
 10
537.810965523377
 20
-240.337211794294
 30
0
 40
172.520593005335
 50
146.461931247537
 51
149.10527748537
 62
 7 
  0
ARC
  8
Ebene_1
 10
509.428838149676
 20
-223.354409442538
 30
0
 40
139.4455158327
 50
149.10527748537
 51
152.159989249938
 62
 7 
  0
ARC
  8
Ebene_1
 10
622.492023017389
 20
-283.066803626018
 30
0
 40
267.308152249887
 50
152.159989249938
 51
154.400081364494
 62
 7 
  0
ARC
  8
Ebene_1
 10
1370.37112408045
 20
-641.38912432439
 30
0
 40
1096.59581965943
 50
154.400081364494
 51
154.753446396301
 62
 7 
  0
ARC
  8
Ebene_1
 10
398.088586424969
 20
-182.90240002659
 30
0
 40
21.6337694515586
 50
154.753446396301
 51
156.827002781535
 62
 7 
  0
ARC
  8
Ebene_1
 10
448.097324889817
 20
-204.308280356955
 30
0
 40
76.0312476611547
 50
156.827002781535
 51
159.780136133511
 62
 7 
  0
ARC
  8
Ebene_1
 10
627.297414211836
 20
-270.311621432809
 30
0
 40
267.000127445781
 50
159.780136133511
 51
160.039923081504
 62
 7 
  0
ARC
  8
Ebene_1
 10
267.824918409593
 20
-139.7579193235
 30
0
 40
115.445612983812
 50
338.087147739739
 51
340.039923081504
 62
 7 
  0
ARC
  8
Ebene_1
 10
345.068546047522
 20
-170.829787253336
 30
0
 40
32.1867456643714
 50
333.748182602922
 51
338.087147739739
 62
 7 
  0
ARC
  8
Ebene_1
 10
-66.3075487214436
 20
32.054674521736
 30
0
 40
490.872254675857
 50
332.621518912094
 51
333.748182602922
 62
 7 
  0
ARC
  8
Ebene_1
 10
1684.5822657192
 20
-887.984277040202
 30
0
 40
1487.01787557404
 50
152.435927992453
 51
152.578674827111
 62
 7 
  0
ARC
  8
Ebene_1
 10
876.104131095927
 20
-468.527180977735
 30
0
 40
576.204420688192
 50
152.578674827111
 51
153.032032559939
 62
 7 
  0
ARC
  8
Ebene_1
 10
3813.95894617953
 20
-1963.37067430886
 30
0
 40
3872.49748776586
 50
153.032032559939
 51
153.131812575659
 62
 7 
  0
ARC
  8
Ebene_1
 10
875.764718727991
 20
-504.584805915159
 30
0
 40
592.152798191915
 50
153.298248626176
 51
153.540625174411
 62
 7 
  0
ARC
  8
Ebene_1
 10
1994.04913801641
 20
-1061.15118295866
 30
0
 40
1841.28296533966
 50
153.540625174411
 51
153.693941065209
 62
 7 
  0
ARC
  8
Ebene_1
 10
-1630.43987958528
 20
730.659794905479
 30
0
 40
2201.92210231517
 50
333.609009084543
 51
333.69394106521
 62
 7 
  0
ARC
  8
Ebene_1
 10
-878.460284524101
 20
357.521246902241
 30
0
 40
1362.45460002914
 50
333.589622809329
 51
333.609009084543
 62
 7 
  0
ARC
  8
Ebene_1
 10
378.24017830463
 20
-147.875359217484
 30
0
 40
43.788253394756
 50
279.839717771236
 51
280.310165048467
 62
 7 
  0
ARC
  8
Ebene_1
 10
362.216398698807
 20
-59.7910300106443
 30
0
 40
133.318195674838
 50
280.310165048467
 51
280.579780164722
 62
 7 
  0
ARC
  8
Ebene_1
 10
398.201571244998
 20
-252.452102893712
 30
0
 40
62.6747165634213
 50
99.339955380712
 51
100.579780164722
 62
 7 
  0
ARC
  8
Ebene_1
 10
390.160183551372
 20
-203.560088495513
 30
0
 40
13.1258216418095
 50
96.2295772842975
 51
99.339955380712
 62
 7 
  0
ARC
  8
Ebene_1
 10
386.005014441118
 20
-165.494137234392
 30
0
 40
25.1662411878276
 50
276.229577284298
 51
277.512311744917
 62
 7 
  0
ARC
  8
Ebene_1
 10
386.461879215191
 20
-168.958616897506
 30
0
 40
21.671767728504
 50
277.512311744917
 51
278.894605141356
 62
 7 
  0
ARC
  8
Ebene_1
 10
386.375172990861
 20
-168.40458123326
 30
0
 40
22.2325470849298
 50
278.894605141357
 51
282.396998562374
 62
 7 
  0
ARC
  8
Ebene_1
 10
386.439570811132
 20
-168.697552493983
 30
0
 40
21.9325816888167
 50
282.396998562374
 51
300.245789024625
 62
 7 
  0
ARC
  8
Ebene_1
 10
384.485600545663
 20
-165.34645841564
 30
0
 40
25.8117351171109
 50
300.245789024625
 51
316.102646817251
 62
 7 
  0
ARC
  8
Ebene_1
 10
366.987236913419
 20
-148.508963698387
 30
0
 40
50.0953501313494
 50
316.102646817251
 51
322.196451032806
 62
 7 
  0
ARC
  8
Ebene_1
 10
248.597000836907
 20
-56.6643372246379
 30
0
 40
199.934208276874
 50
322.196451032806
 51
323.406921900653
 62
 7 
  0
ARC
  8
Ebene_1
 10
703.327881709447
 20
-394.292064671765
 30
0
 40
366.433743111822
 50
143.064961346203
 51
143.406921900652
 62
 7 
  0
ARC
  8
Ebene_1
 10
504.048523667534
 20
-244.478234966443
 30
0
 40
117.121797724978
 50
142.519007967179
 51
143.064961346203
 62
 7 
  0
ARC
  8
Ebene_1
 10
342.935028392721
 20
-120.936400631319
 30
0
 40
85.9056467020115
 50
322.519007967179
 51
322.646071167635
 62
 7 
  0
ARC
  8
Ebene_1
 10
409.890660472961
 20
-172.042589302935
 30
0
 40
1.67442216025808
 50
322.646071167634
 51
326.996109151738
 62
 7 
  0
ARC
  8
Ebene_1
 10
405.512047502488
 20
-169.198662031574
 30
0
 40
6.89554980378345
 50
326.996109151738
 51
337.858011624616
 62
 7 
  0
ARC
  8
Ebene_1
 10
374.963640990158
 20
-156.768154516551
 30
0
 40
39.876190451345
 50
337.858011624616
 51
338.943748613643
 62
 7 
  0
ARC
  8
Ebene_1
 10
428.782183033784
 20
-177.487803327243
 30
0
 40
17.7930328357773
 50
156.980011002954
 51
158.943748613642
 62
 7 
  0
ARC
  8
Ebene_1
 10
420.063769764467
 20
-173.783466262474
 30
0
 40
8.32029072886699
 50
155.463687367304
 51
156.980011002954
 62
 7 
  0
ARC
  8
Ebene_1
 10
483.934356989465
 20
-264.004949506754
 30
0
 40
117.810176859568
 50
127.329974826917
 51
127.602973064639
 62
 7 
  0
ARC
  8
Ebene_1
 10
480.859442967764
 20
-260.012520836623
 30
0
 40
112.770873045851
 50
127.602973064639
 51
127.80177791706
 62
 7 
  0
ARC
  8
Ebene_1
 10
499.414120838185
 20
-283.931534786268
 30
0
 40
143.042894768861
 50
127.80177791706
 51
128.183796240088
 62
 7 
  0
ARC
  8
Ebene_1
 10
724.356691816177
 20
-569.948960249216
 30
0
 40
506.918049054837
 50
128.183796240088
 51
128.355735182955
 62
 7 
  0
ARC
  8
Ebene_1
 10
291.249770289035
 20
-22.6359312352596
 30
0
 40
191.031202111142
 50
307.275545835085
 51
308.355735182955
 62
 7 
  0
ARC
  8
Ebene_1
 10
378.578857785161
 20
-137.373300302741
 30
0
 40
46.8402405933216
 50
301.739423117176
 51
307.275545835085
 62
 7 
  0
ARC
  8
Ebene_1
 10
390.140222629452
 20
-156.06396760948
 30
0
 40
24.8628385304297
 50
290.309892206893
 51
301.739423117176
 62
 7 
  0
ARC
  8
Ebene_1
 10
392.394409894009
 20
-162.15459570023
 30
0
 40
18.3684478150873
 50
278.805615913623
 51
290.309892206893
 62
 7 
  0
ARC
  8
Ebene_1
 10
392.398584524844
 20
-162.181544703024
 30
0
 40
18.3411773861548
 50
272.453298216202
 51
278.805615913623
 62
 7 
  0
ARC
  8
Ebene_1
 10
392.343075686506
 20
-160.885950775681
 30
0
 40
19.6379598874634
 50
266.416619510546
 51
272.453298216202
 62
 7 
  0
LINE
  8
Ebene_1
 10
436.167260891058
 20
-193.946482171328
 30
0
 11
435.375634310782
 21
-195.028457715141
 31
0
 62
 7 
  0
LINE
  8
Ebene_1
 10
424.203372917305
 20
-200.14055380526
 30
0
 11
424.668139109586
 21
-198.939788661902
 31
0
 62
 7 
  0
LINE
  8
Ebene_1
 10
442.147507643579
 20
-162.340876814205
 30
0
 11
425.348613964926
 21
-162.340876814205
 31
0
 62
 7 
  0
LINE
  8
Ebene_1
 10
421.924577059053
 20
-170.328846978925
 30
0
 11
420.293161174851
 21
-174.086377594179
 31
0
 62
 7 
  0
LINE
  8
Ebene_1
 10
413.551867058352
 20
-187.589813360857
 30
0
 11
411.523511078317
 21
-191.193065346441
 31
0
 62
 7 
  0
ARC
  8
Ebene_1
 10
436.107970578794
 20
-178.976023971704
 30
0
 40
9.95213773261745
 50
307.581144235731
 51
309.270453490549
 62
 7 
  0
ARC
  8
Ebene_1
 10
426.540886659987
 20
-166.544451327239
 30
0
 40
25.6388548246065
 50
306.506695817364
 51
307.581144235731
 62
 7 
  0
ARC
  8
Ebene_1
 10
446.375502132943
 20
-193.342845428666
 30
0
 40
7.70129960478059
 50
126.506695817363
 51
133.023426881911
 62
 7 
  0
ARC
  8
Ebene_1
 10
442.113405434003
 20
-188.776051344075
 30
0
 40
1.45461436521859
 50
133.023426881911
 51
140.476067839131
 62
 7 
  0
ARC
  8
Ebene_1
 10
451.261441134791
 20
-196.323529876968
 30
0
 40
13.3142513490124
 50
140.47606783913
 51
140.92950019378
 62
 7 
  0
ARC
  8
Ebene_1
 10
57.6887229095379
 20
123.18800854105
 30
0
 40
493.62470721845
 50
320.889500190827
 51
320.929500193781
 62
 7 
  0
ARC
  8
Ebene_1
 10
-679.448922769142
 20
722.467858128456
 30
0
 40
1443.62904762865
 50
320.862967920707
 51
320.889500190827
 62
 7 
  0
ARC
  8
Ebene_1
 10
660.456570165582
 20
-367.88253892407
 30
0
 40
283.857773840406
 50
140.862967920706
 51
141.741868156873
 62
 7 
  0
ARC
  8
Ebene_1
 10
493.564662290943
 20
-236.277155893267
 30
0
 40
71.3186344878587
 50
141.741868156873
 51
143.591167119246
 62
 7 
  0
ARC
  8
Ebene_1
 10
357.291370416517
 20
-137.904680608625
 30
0
 40
96.7485306287608
 50
321.906299146762
 51
323.812073931011
 62
 7 
  0
ARC
  8
Ebene_1
 10
411.764922742108
 20
-180.607731530018
 30
0
 40
27.5320697183382
 50
313.607829031156
 51
321.906299146762
 62
 7 
  0
ARC
  8
Ebene_1
 10
419.854274716919
 20
-189.100064038316
 30
0
 40
15.80358615038
 50
296.719604931598
 51
313.607829031156
 62
 7 
  0
ARC
  8
Ebene_1
 10
421.251501209425
 20
-191.875773203798
 30
0
 40
12.6960464092495
 50
290.319412355754
 51
296.719604931598
 62
 7 
  0
ARC
  8
Ebene_1
 10
425.217385772621
 20
-202.585799058934
 30
0
 40
1.27532426981075
 50
276.313330474219
 51
290.319412355755
 62
 7 
  0
ARC
  8
Ebene_1
 10
425.033477538019
 20
-200.923524997061
 30
0
 40
2.94774087327144
 50
240.494866857729
 51
276.313330474219
 62
 7 
  0
ARC
  8
Ebene_1
 10
423.666376536509
 20
-203.339362809523
 30
0
 40
0.171909919403369
 50
205.604897464398
 51
240.494866857723
 62
 7 
  0
ARC
  8
Ebene_1
 10
424.473037626438
 20
-202.952790790441
 30
0
 40
1.06641539168531
 50
185.859264780917
 51
205.604897464402
 62
 7 
  0
ARC
  8
Ebene_1
 10
425.553402472952
 20
-202.841922189977
 30
0
 40
2.15245408719837
 50
180.766986193129
 51
185.859264780917
 62
 7 
  0
ARC
  8
Ebene_1
 10
426.725846161205
 20
-202.826226411917
 30
0
 40
3.32500283227157
 50
176.670300365327
 51
180.766986193129
 62
 7 
  0
ARC
  8
Ebene_1
 10
426.871487949844
 20
-202.83469981223
 30
0
 40
3.47089090276007
 50
162.734173244086
 51
176.670300365327
 62
 7 
  0
ARC
  8
Ebene_1
 10
424.268960483104
 20
-202.025805280358
 30
0
 40
0.745554303580574
 50
158.688360871839
 51
162.734173244086
 62
 7 
  0
ARC
  8
Ebene_1
 10
538.239342306635
 20
-246.487673854564
 30
0
 40
123.081590246027
 50
158.59484181982
 51
158.688360871839
 62
 7 
  0
ARC
  8
Ebene_1
 10
158.96235878189
 20
-97.811258595039
 30
0
 40
284.295025045098
 50
338.594841819821
 51
338.712083504414
 62
 7 
  0
ARC
  8
Ebene_1
 10
-70.6933089724313
 20
-8.32804675978555
 30
0
 40
530.768088344185
 50
338.712083504414
 51
338.814619952747
 62
 7 
  0
ARC
  8
Ebene_1
 10
686.133150492024
 20
-300.1302278697
 30
0
 40
280.363080958042
 50
157.760787287667
 51
158.842899308878
 62
 7 
  0
ARC
  8
Ebene_1
 10
500.08683532243
 20
-224.057557876333
 30
0
 40
79.3648657716784
 50
155.543788652502
 51
157.760787287667
 62
 7 
  0
ARC
  8
Ebene_1
 10
493.417346730724
 20
-221.024250488543
 30
0
 40
72.0379952402899
 50
154.426712438219
 51
155.543788652502
 62
 7 
  0
ARC
  8
Ebene_1
 10
1385.5056089423
 20
-647.930060551015
 30
0
 40
1061.01223061792
 50
153.609279861656
 51
154.426712438219
 62
 7 
  0
ARC
  8
Ebene_1
 10
4019.98242027996
 20
-1955.16391491322
 30
0
 40
4001.98629025641
 50
153.556875094152
 51
153.609279861656
 62
 7 
  0
ARC
  8
Ebene_1
 10
-2664.3180564403
 20
1369.22483141957
 30
0
 40
3463.36255623608
 50
333.556875094152
 51
333.624971548066
 62
 7 
  0
ARC
  8
Ebene_1
 10
-1096.98209893233
 20
592.043750116539
 30
0
 40
1713.91909134995
 50
333.624971548066
 51
333.668489220996
 62
 7 
  0
ARC
  8
Ebene_1
 10
549.446031663457
 20
-222.798678490975
 30
0
 40
123.11486932582
 50
153.478029503652
 51
153.668489220995
 62
 7 
  0
ARC
  8
Ebene_1
 10
503.162752340636
 20
-199.700522971015
 30
0
 40
71.3880220093774
 50
152.551610450206
 51
153.478029503652
 62
 7 
  0
ARC
  8
Ebene_1
 10
695.408054814609
 20
-299.55709977829
 30
0
 40
288.02041168132
 50
152.005428758086
 51
152.551610450206
 62
 7 
  0
ARC
  8
Ebene_1
 10
-444.840825808979
 20
306.58540920586
 30
0
 40
1003.32626948565
 50
332.005428758087
 51
332.083259653093
 62
 7 
  0
ARC
  8
Ebene_1
 10
262.189009753718
 20
-68.0321473034287
 30
0
 40
203.182843579515
 50
332.083259653093
 51
332.256213302668
 62
 7 
  0
ARC
  8
Ebene_1
 10
257.444165181822
 20
-65.536420746209
 30
0
 40
208.544018922652
 50
332.256213302668
 51
332.341990938272
 62
 7 
  0
ARC
  8
Ebene_1
 10
442.147507643579
 20
-162.902668541345
 30
0
 40
0.561791727140023
 50
88.8647298010505
 51
90
 62
 7 
  0
ARC
  8
Ebene_1
 10
425.348613964926
 20
-169.453641504089
 30
0
 40
7.11276468988388
 50
90
 51
90.6070745325079
 62
 7 
  0
ARC
  8
Ebene_1
 10
1840.57005784363
 20
-749.038621948333
 30
0
 40
1532.085443488
 50
157.484159280719
 51
157.58406298918
 62
 7 
  0
ARC
  8
Ebene_1
 10
-89.2571119746653
 20
47.006790415561
 30
0
 40
555.478017562826
 50
337.193535536557
 51
337.58406298918
 62
 7 
  0
ARC
  8
Ebene_1
 10
293.487476358361
 20
-113.935036374971
 30
0
 40
140.272416072563
 50
336.294814264063
 51
337.193535536557
 62
 7 
  0
ARC
  8
Ebene_1
 10
237.013841596507
 20
-94.622171777358
 30
0
 40
199.764533867249
 50
335.008470893361
 51
336.559946837183
 62
 7 
  0
ARC
  8
Ebene_1
 10
356.186909426666
 20
-150.172037135485
 30
0
 40
68.2806655131506
 50
332.071105279992
 51
335.008470893361
 62
 7 
  0
ARC
  8
Ebene_1
 10
179.52013966127
 20
-56.5176957570033
 30
0
 40
268.236368603552
 50
330.748499221253
 51
332.071105279992
 62
 7 
  0
ARC
  8
Ebene_1
 10
716.660569241067
 20
-362.971341035484
 30
0
 40
350.16624660712
 50
150.622469079632
 51
151.792718257682
 62
 7 
  0
ARC
  8
Ebene_1
 10
425.442172353458
 20
-206.773751490772
 30
0
 40
19.7031750463669
 50
151.792718257682
 51
152.743763703615
 62
 7 
  0
ARC
  8
Ebene_1
 10
427.317980640206
 20
-207.74011458491
 30
0
 40
21.8132732332634
 50
152.743763703614
 51
165.040613779237
 62
 7 
  0
ARC
  8
Ebene_1
 10
425.082404325767
 20
-207.142791844389
 30
0
 40
19.4992732518407
 50
165.040613779237
 51
178.486715862156
 62
 7 
  0
ARC
  8
Ebene_1
 10
425.109303906894
 20
-207.143502475745
 30
0
 40
19.5261822180372
 50
178.486715862156
 51
182.637053486789
 62
 7 
  0
ARC
  8
Ebene_1
 10
425.215665759993
 20
-207.138603683608
 30
0
 40
19.6326568251459
 50
182.637053486789
 51
184.682548298711
 62
 7 
  0
ARC
  8
Ebene_1
 10
425.257039906547
 20
-207.135214796567
 30
0
 40
19.6741695287254
 50
184.682548298711
 51
188.028290399545
 62
 7 
  0
ARC
  8
Ebene_1
 10
417.592563361069
 20
-208.216246161402
 30
0
 40
11.9338317112947
 50
188.028290399545
 51
191.702988256204
 62
 7 
  0
ARC
  8
Ebene_1
 10
419.522024611827
 20
-207.816568997565
 30
0
 40
13.9042536339982
 50
191.702988256204
 51
207.094039954988
 62
 7 
  0
ARC
  8
Ebene_1
 10
418.028103168071
 20
-208.580851138652
 30
0
 40
12.226180789543
 50
207.094039954988
 51
211.165805654905
 62
 7 
  0
ARC
  8
Ebene_1
 10
415.6831400651
 20
-209.999099182709
 30
0
 40
9.48569187900764
 50
211.165805654905
 51
214.450140093184
 62
 7 
  0
ARC
  8
Ebene_1
 10
412.105660284719
 20
-212.453251928859
 30
0
 40
5.14734803826976
 50
214.450140093184
 51
246.202432406019
 62
 7 
  0
ARC
  8
Ebene_1
 10
412.932745231708
 20
-210.577783687704
 30
0
 40
7.19709207914798
 50
246.202432406019
 51
267.467849664179
 62
 7 
  0
ARC
  8
Ebene_1
 10
413.141324601134
 20
-205.861264333163
 30
0
 40
11.9182211999316
 50
267.467849664179
 51
281.850095757793
 62
 7 
  0
ARC
  8
Ebene_1
 10
412.863271400532
 20
-204.536087987425
 30
0
 40
13.2722544084121
 50
281.850095757793
 51
289.87237260551
 62
 7 
  0
ARC
  8
Ebene_1
 10
413.481911166703
 20
-206.24763961872
 30
0
 40
11.452330193815
 50
289.87237260551
 51
293.613625816066
 62
 7 
  0
ARC
  8
Ebene_1
 10
404.797328762336
 20
-186.382294680099
 30
0
 40
33.1330566823039
 50
293.613625816066
 51
305.811669566719
 62
 7 
  0
ARC
  8
Ebene_1
 10
390.805258310184
 20
-166.990136657777
 30
0
 40
57.0461039222664
 50
305.811669566719
 51
311.477275593547
 62
 7 
  0
ARC
  8
Ebene_1
 10
362.597832013522
 20
-135.081949349603
 30
0
 40
99.6347328691479
 50
311.477275593547
 51
315.571061180839
 62
 7 
  0
ARC
  8
Ebene_1
 10
398.591847592633
 20
-170.36552493462
 30
0
 40
49.2313613194892
 50
315.571061180839
 51
322.871692228222
 62
 7 
  0
ARC
  8
Ebene_1
 10
410.327215607923
 20
-179.250031841288
 30
0
 40
34.512213061899
 50
322.871692228222
 51
331.673045915316
 62
 7 
  0
ARC
  8
Ebene_1
 10
414.183325780108
 20
-181.32867383393
 30
0
 40
30.1315352383655
 50
331.673045915316
 51
337.61838850248
 62
 7 
  0
ARC
  8
Ebene_1
 10
412.802181223491
 20
-180.75992562649
 30
0
 40
31.6252001304134
 50
337.61838850248
 51
340.541260028045
 62
 7 
  0
ARC
  8
Ebene_1
 10
435.770912579692
 20
-188.874970254648
 30
0
 40
7.26505708012894
 50
340.541260028045
 51
354.077668359722
 62
 7 
  0
ARC
  8
Ebene_1
 10
438.052486044064
 20
-189.111646736838
 30
0
 40
4.97124077742573
 50
354.077668359722
 51
377.727525006906
 62
 7 
  0
ARC
  8
Ebene_1
 10
437.117093356122
 20
-189.410663831425
 30
0
 40
5.95326455692899
 50
17.7275250069056
 51
27.2952755882527
 62
 7 
  0
LINE
  8
Ebene_1
 10
440.141448535163
 20
-136.933046102694
 30
0
 11
438.44973533755
 21
-137.766820427476
 31
0
 62
 7 
  0
ARC
  8
Ebene_1
 10
628.621733076682
 20
-174.109921637095
 30
0
 40
188.243687129903
 50
173.091639055294
 51
173.099521213641
 62
 7 
  0
ARC
  8
Ebene_1
 10
1189.29007358251
 20
-242.04126160877
 30
0
 40
753.012361009671
 50
173.087698074551
 51
173.091639055294
 62
 7 
  0
ARC
  8
Ebene_1
 10
-389.28779322782
 20
-50.6684423276712
 30
0
 40
837.123368273544
 50
353.087698074552
 51
353.090892851955
 62
 7 
  0
ARC
  8
Ebene_1
 10
235.073414494709
 20
-126.32514774466
 30
0
 40
208.195029920685
 50
353.090892851955
 51
353.098147192785
 62
 7 
  0
ARC
  8
Ebene_1
 10
441.769877904294
 20
-151.344950185712
 30
0
 40
0.0102017624285192
 50
88.6350939531837
 51
173.098147192669
 62
 7 
  0
ARC
  8
Ebene_1
 10
440.391187783765
 20
-209.208406871206
 30
0
 40
57.8900808746247
 50
87.8219215865339
 51
88.6350939531036
 62
 7 
  0
ARC
  8
Ebene_1
 10
443.430473759111
 20
-129.296514435255
 30
0
 40
22.0795871998078
 50
267.821921586534
 51
270.745464100016
 62
 7 
  0
ARC
  8
Ebene_1
 10
443.649361104547
 20
-146.119072899091
 30
0
 40
5.25560476581855
 50
270.745464100017
 51
278.289171417826
 62
 7 
  0
ARC
  8
Ebene_1
 10
439.11813686657
 20
-115.01751103035
 30
0
 40
36.6855131934604
 50
278.289171417826
 51
281.072758440424
 62
 7 
  0
ARC
  8
Ebene_1
 10
444.369232521607
 20
-141.850092373603
 30
0
 40
9.34394361304625
 50
281.072758440424
 51
291.937916624902
 62
 7 
  0
ARC
  8
Ebene_1
 10
446.337026959301
 20
-146.735789712776
 30
0
 40
4.07685205896952
 50
291.937916624903
 51
306.582531307489
 62
 7 
  0
ARC
  8
Ebene_1
 10
446.678480232266
 20
-147.195849907592
 30
0
 40
3.50392473332318
 50
306.582531307488
 51
332.184477042717
 62
 7 
  0
ARC
  8
Ebene_1
 10
444.135292505447
 20
-145.854098452543
 30
0
 40
6.37935527168984
 50
332.184477042717
 51
348.617153445768
 62
 7 
  0
ARC
  8
Ebene_1
 10
427.328313083921
 20
-142.470452950123
 30
0
 40
23.5235558701904
 50
348.617153445768
 51
359.057673371856
 62
 7 
  0
ARC
  8
Ebene_1
 10
414.794037987085
 20
-142.264286869948
 30
0
 40
36.0595263813147
 50
359.057673371855
 51
363.984753540165
 62
 7 
  0
ARC
  8
Ebene_1
 10
446.251492302871
 20
-140.072979010582
 30
0
 40
4.52584181759304
 50
3.98475354016485
 51
23.630731837865
 62
 7 
  0
ARC
  8
Ebene_1
 10
446.458891526196
 20
-139.982236010525
 30
0
 40
4.29945999434909
 50
23.6307318378651
 51
55.93654094549
 62
 7 
  0
ARC
  8
Ebene_1
 10
445.751457906304
 20
-141.028547865203
 30
0
 40
5.56248446909023
 50
55.93654094549
 51
85.4701156720365
 62
 7 
  0
ARC
  8
Ebene_1
 10
445.478310791431
 20
-144.476219799317
 30
0
 40
9.020959727298
 50
85.4701156720366
 51
107.459087614921
 62
 7 
  0
ARC
  8
Ebene_1
 10
447.979437017416
 20
-152.4285743483
 30
0
 40
17.3573603457332
 50
107.459087614921
 51
114.384080065755
 62
 7 
  0
ARC
  8
Ebene_1
 10
454.768486159672
 20
-167.406010592197
 30
0
 40
33.8016537235573
 50
114.384080065756
 51
115.641028241344
 62
 7 
  0
ARC
  8
Ebene_1
 10
444.728924067857
 20
-150.503457162217
 30
0
 40
14.2003565597339
 50
116.243394333473
 51
121.785862279043
 62
 7 
  0
ARC
  8
Ebene_1
 10
440.26570743012
 20
-143.301058030343
 30
0
 40
5.72717203381946
 50
121.785862279043
 51
138.383754719008
 62
 7 
  0
ARC
  8
Ebene_1
 10
438.565065978224
 20
-141.790295396938
 30
0
 40
3.4524005986198
 50
138.383754719008
 51
166.216973607697
 62
 7 
  0
ARC
  8
Ebene_1
 10
438.916397377364
 20
-141.876480313871
 30
0
 40
3.81414856603479
 50
166.216973607697
 51
172.2177473802
 62
 7 
  0
ARC
  8
Ebene_1
 10
438.89374364236
 20
-141.873384286546
 30
0
 40
3.79128424678353
 50
172.2177473802
 51
175.166355331443
 62
 7 
  0
ARC
  8
Ebene_1
 10
493.995611968238
 20
-146.533003596509
 30
0
 40
59.0898189933404
 50
175.166355331443
 51
178.094566710044
 62
 7 
  0
ARC
  8
Ebene_1
 10
457.373198844556
 20
-145.314636336713
 30
0
 40
22.447144939972
 50
178.094566710044
 51
183.055159324426
 62
 7 
  0
ARC
  8
Ebene_1
 10
452.470730372022
 20
-145.576296689897
 30
0
 40
17.53769861023
 50
183.055159324426
 51
188.732482114261
 62
 7 
  0
ARC
  8
Ebene_1
 10
436.638471541119
 20
-148.008159320782
 30
0
 40
1.51975943116541
 50
188.732482114262
 51
200.749218911009
 62
 7 
  0
ARC
  8
Ebene_1
 10
438.523776384893
 20
-147.293910601514
 30
0
 40
3.5358262918963
 50
200.749218911009
 51
219.061246226237
 62
 7 
  0
ARC
  8
Ebene_1
 10
439.794001067729
 20
-146.263052801096
 30
0
 40
5.17171704300627
 50
219.061246226236
 51
238.780562361094
 62
 7 
  0
ARC
  8
Ebene_1
 10
438.795246207433
 20
-147.910931170626
 30
0
 40
3.24479867635745
 50
238.780562361093
 51
252.306880632297
 62
 7 
  0
ARC
  8
Ebene_1
 10
439.947849564042
 20
-144.297849571583
 30
0
 40
7.03727189828141
 50
252.306880632297
 51
264.59472327061
 62
 7 
  0
ARC
  8
Ebene_1
 10
441.955919816026
 20
-123.075546576264
 30
0
 40
28.3543657565452
 50
264.59472327061
 51
266.600313234451
 62
 7 
  0
ARC
  8
Ebene_1
 10
383.420223065954
 20
-1108.4344001737
 30
0
 40
958.741626615457
 50
86.5728641606524
 51
86.6003132344508
 62
 7 
  0
ARC
  8
Ebene_1
 10
439.712449446388
 20
-168.4484435397
 30
0
 40
17.0716135960343
 50
86.3671607797271
 51
86.5728641606525
 62
 7 
  0
ARC
  8
Ebene_1
 10
439.296330312494
 20
-175.002521626649
 30
0
 40
23.6388881223064
 50
84.8665478794785
 51
86.3671607797269
 62
 7 
  0
ARC
  8
Ebene_1
 10
440.46775127589
 20
-161.962994422537
 30
0
 40
10.5468486791841
 50
83.0627702148043
 51
84.8665478794785
 62
 7 
  0
LINE
  8
Ebene_1
 10
178.262806581755
 20
-199.365128308634
 30
0
 11
180.923550720479
 21
-197.632476057841
 31
0
 62
 7 
  0
LINE
  8
Ebene_1
 10
258.691679216566
 20
-127.869545518223
 30
0
 11
274.272819756227
 21
-109.473517048361
 31
0
 62
 7 
  0
LINE
  8
Ebene_1
 10
282.160987526542
 20
-100.285476934339
 30
0
 11
283.807461959692
 21
-98.5405212609921
 31
0
 62
 7 
  0
LINE
  8
Ebene_1
 10
286.199546353603
 20
-104.337502728988
 30
0
 11
284.762987289306
 21
-107.709516634835
 31
0
 62
 7 
  0
LINE
  8
Ebene_1
 10
283.358402060946
 20
-111.015473671815
 30
0
 11
270.162234593024
 21
-142.5757612281
 31
0
 62
 7 
  0
LINE
  8
Ebene_1
 10
270.162234593024
 20
-142.5757612281
 30
0
 11
256.406557458006
 21
-176.105989295935
 31
0
 62
 7 
  0
LINE
  8
Ebene_1
 10
249.984153046158
 20
-195.087969803697
 30
0
 11
248.368180643278
 21
-200.510375471028
 31
0
 62
 7 
  0
LINE
  8
Ebene_1
 10
248.649530082455
 20
-203.278137055507
 30
0
 11
256.707883599744
 21
-188.252222274969
 31
0
 62
 7 
  0
LINE
  8
Ebene_1
 10
317.540548457056
 20
-119.150727331448
 30
0
 11
317.875024659463
 21
-119.846264279959
 31
0
 62
 7 
  0
LINE
  8
Ebene_1
 10
316.329416659455
 20
-121.262788112634
 30
0
 11
315.649295571003
 21
-121.889568892156
 31
0
 62
 7 
  0
LINE
  8
Ebene_1
 10
308.106825029122
 20
-128.409168662353
 30
0
 11
303.524889169273
 21
-132.240326306713
 31
0
 62
 7 
  0
LINE
  8
Ebene_1
 10
248.069200264778
 20
-210.191332270012
 30
0
 11
246.165679368403
 21
-212.798202761597
 31
0
 62
 7 
  0
LINE
  8
Ebene_1
 10
261.214523935073
 20
-133.693752320355
 30
0
 11
267.229278190977
 21
-125.114112303661
 31
0
 62
 7 
  0
LINE
  8
Ebene_1
 10
162.329984639002
 20
-212.966164070336
 30
0
 11
158.285463659998
 21
-215.166885104532
 31
0
 62
 7 
  0
LINE
  8
Ebene_1
 10
154.785209206074
 20
-144.326723449798
 30
0
 11
150.452385508187
 21
-147.079445177139
 31
0
 62
 7 
  0
LINE
  8
Ebene_1
 10
191.988977774859
 20
-95.2550218247256
 30
0
 11
192.679173916093
 21
-95.2317926041452
 31
0
 62
 7 
  0
LINE
  8
Ebene_1
 10
213.667591516595
 20
-164.434599930561
 30
0
 11
210.909610114095
 21
-167.476035329167
 31
0
 62
 7 
  0
LINE
  8
Ebene_1
 10
177.104587950698
 20
-197.982006878725
 30
0
 11
174.200991363494
 21
-200.338100604229
 31
0
 62
 7 
  0
LINE
  8
Ebene_1
 10
171.24100993455
 20
-203.086830815888
 30
0
 11
171.308326640283
 21
-203.185745292382
 31
0
 62
 7 
  0
ARC
  8
Ebene_1
 10
205.563197926478
 20
-264.97576682105
 30
0
 40
70.5852782656904
 50
118.30318073943
 51
118.998105866441
 62
 7 
  0
ARC
  8
Ebene_1
 10
275.319983132508
 20
-394.510948201392
 30
0
 40
217.708941547701
 50
117.863281145918
 51
118.30318073943
 62
 7 
  0
ARC
  8
Ebene_1
 10
120.854645467796
 20
-102.324042088839
 30
0
 40
112.794808269906
 50
297.863281145919
 51
299.628663577117
 62
 7 
  0
ARC
  8
Ebene_1
 10
161.712040551847
 20
-174.162360546885
 30
0
 40
30.1505662930218
 50
299.628663577117
 51
302.494589676106
 62
 7 
  0
ARC
  8
Ebene_1
 10
155.185151603873
 20
-163.915061903643
 30
0
 40
42.2999452410569
 50
302.494589676106
 51
303.063743410042
 62
 7 
  0
ARC
  8
Ebene_1
 10
-456.742559697617
 20
780.879308549264
 30
0
 40
1167.94836400875
 50
303.091053574972
 51
303.680562465628
 62
 7 
  0
ARC
  8
Ebene_1
 10
-36.1286111753551
 20
149.731552175877
 30
0
 40
409.487037330427
 50
303.680562465628
 51
304.664748040549
 62
 7 
  0
ARC
  8
Ebene_1
 10
-22.3205613981193
 20
129.763957987157
 30
0
 40
385.210154162771
 50
304.664748040549
 51
304.935889994843
 62
 7 
  0
ARC
  8
Ebene_1
 10
130.601378245014
 20
-89.1521421916519
 30
0
 40
118.171994826476
 50
304.935889994843
 51
307.506036842216
 62
 7 
  0
ARC
  8
Ebene_1
 10
110.259647364374
 20
-62.6480649546811
 30
0
 40
151.582354378622
 50
307.506036842216
 51
310.957388341168
 62
 7 
  0
ARC
  8
Ebene_1
 10
-203.98708004481
 20
299.394896012404
 30
0
 40
630.984180901212
 50
310.957388341168
 51
312.986456591779
 62
 7 
  0
ARC
  8
Ebene_1
 10
10.7894135106007
 20
68.9661265747414
 30
0
 40
315.98202222843
 50
312.986456591779
 51
314.939099937901
 62
 7 
  0
ARC
  8
Ebene_1
 10
-288.48005582612
 20
368.872464069922
 30
0
 40
739.663537693592
 50
314.939099937901
 51
315.984390729106
 62
 7 
  0
ARC
  8
Ebene_1
 10
144.473841395723
 20
-49.454261255484
 30
0
 40
137.628384034721
 50
315.984390729106
 51
317.293915705596
 62
 7 
  0
ARC
  8
Ebene_1
 10
19.8604279598181
 20
65.5601901749904
 30
0
 40
307.206763688498
 50
317.293915705596
 51
318.997102262946
 62
 7 
  0
ARC
  8
Ebene_1
 10
-499.180707348852
 20
516.801854501458
 30
0
 40
994.973250053336
 50
318.997102262946
 51
319.61440836491
 62
 7 
  0
ARC
  8
Ebene_1
 10
1913.66059427315
 20
-1497.15705232094
 30
0
 40
2147.8495918714
 50
139.487360154346
 51
139.753271027073
 62
 7 
  0
ARC
  8
Ebene_1
 10
309.341315355448
 20
-126.326732410297
 30
0
 40
37.6325142480292
 50
138.184292328753
 51
139.487360154346
 62
 7 
  0
ARC
  8
Ebene_1
 10
330.479257758411
 20
-145.236664328679
 30
0
 40
65.9944276917451
 50
137.067513830897
 51
138.184292328753
 62
 7 
  0
ARC
  8
Ebene_1
 10
205.675878544709
 20
-24.8051483996176
 30
0
 40
107.431138586251
 50
316.658122310633
 51
317.360141669576
 62
 7 
  0
ARC
  8
Ebene_1
 10
248.137473077009
 20
-63.9051368500055
 30
0
 40
49.7094259726612
 50
317.360141669576
 51
318.19493080531
 62
 7 
  0
ARC
  8
Ebene_1
 10
341.71753042091
 20
-147.590264077759
 30
0
 40
75.8311158917617
 50
138.072009557779
 51
138.19493080531
 62
 7 
  0
ARC
  8
Ebene_1
 10
287.746905402472
 20
-99.1175788007045
 30
0
 40
3.28851059770572
 50
137.481736586652
 51
138.072009557778
 62
 7 
  0
ARC
  8
Ebene_1
 10
288.507677259002
 20
-99.8151440198171
 30
0
 40
4.32067872965111
 50
123.540985795623
 51
137.481736586652
 62
 7 
  0
ARC
  8
Ebene_1
 10
287.049760494354
 20
-97.6158918208994
 30
0
 40
1.68207464281181
 50
101.706197869036
 51
123.540985795623
 62
 7 
  0
ARC
  8
Ebene_1
 10
287.021461543489
 20
-97.4793157574384
 30
0
 40
1.54259757756261
 50
75.0938627176172
 51
101.706197869037
 62
 7 
  0
ARC
  8
Ebene_1
 10
286.755168935361
 20
-98.4796857083892
 30
0
 40
2.5778037366968
 50
45.4305584043256
 51
75.0938627176176
 62
 7 
  0
ARC
  8
Ebene_1
 10
287.754283718506
 20
-97.4654409242603
 30
0
 40
1.15410333561798
 50
353.546064051016
 51
405.430558404326
 62
 7 
  0
ARC
  8
Ebene_1
 10
285.927090748666
 20
-97.2587465225945
 30
0
 40
2.99294991016205
 50
338.076231547604
 51
353.546064051016
 62
 7 
  0
ARC
  8
Ebene_1
 10
273.862529869045
 20
-92.4030095489574
 30
0
 40
15.9980185672371
 50
336.540007387414
 51
338.076231547604
 62
 7 
  0
ARC
  8
Ebene_1
 10
312.646010944918
 20
-109.234355876567
 30
0
 40
26.2802574567754
 50
156.540007387413
 51
156.815683150237
 62
 7 
  0
ARC
  8
Ebene_1
 10
296.021434112714
 20
-102.114438959726
 30
0
 40
8.19518704627951
 50
156.815683150237
 51
157.352578231561
 62
 7 
  0
ARC
  8
Ebene_1
 10
347.782566164755
 20
-123.710800094588
 30
0
 40
64.2809927869143
 50
157.352578231561
 51
157.544280029583
 62
 7 
  0
ARC
  8
Ebene_1
 10
-68.8177901814043
 20
48.4736360304545
 30
0
 40
386.499815313259
 50
337.245599375678
 51
337.544280029583
 62
 7 
  0
ARC
  8
Ebene_1
 10
-420.050448015849
 20
195.789434158601
 30
0
 40
767.375548732417
 50
336.976522110657
 51
337.245599375678
 62
 7 
  0
ARC
  8
Ebene_1
 10
2001.25658361387
 20
-839.375019501649
 30
0
 40
1865.92729609398
 50
156.913587239987
 51
156.981062921309
 62
 7 
  0
ARC
  8
Ebene_1
 10
975.521668236949
 20
-403.57621926445
 30
0
 40
751.4531102505
 50
156.981062921309
 51
157.087389963166
 62
 7 
  0
ARC
  8
Ebene_1
 10
691.021458327971
 20
-345.020909969585
 30
0
 40
466.28570907159
 50
158.761174036069
 51
159.271617803709
 62
 7 
  0
ARC
  8
Ebene_1
 10
376.019872958334
 20
-225.813376121213
 30
0
 40
129.482450608143
 50
159.271617803709
 51
161.630228349238
 62
 7 
  0
ARC
  8
Ebene_1
 10
528.525181808062
 20
-276.455792754691
 30
0
 40
290.176332227294
 50
161.630228349238
 51
163.25500017035
 62
 7 
  0
ARC
  8
Ebene_1
 10
1037.81218400734
 20
-429.68531294996
 30
0
 40
822.015157876948
 50
163.25500017035
 51
163.417660583863
 62
 7 
  0
ARC
  8
Ebene_1
 10
-175.936138248097
 20
-72.7949349784141
 30
0
 40
443.108777581866
 50
342.938743615296
 51
343.248225056829
 62
 7 
  0
ARC
  8
Ebene_1
 10
25.6641201014766
 20
-134.666078913498
 30
0
 40
232.227999371877
 50
342.799653620598
 51
342.938743615296
 62
 7 
  0
ARC
  8
Ebene_1
 10
-359.841884178655
 20
-15.3294823797953
 30
0
 40
635.782335996179
 50
342.76365472623
 51
342.799653620598
 62
 7 
  0
ARC
  8
Ebene_1
 10
248.978880298946
 20
-204.214282970984
 30
0
 40
1.66585103823648
 50
162.763654726231
 51
179.606014233826
 62
 7 
  0
ARC
  8
Ebene_1
 10
250.257333952498
 20
-204.223074202826
 30
0
 40
2.94433491769565
 50
179.606014233826
 51
194.637630233979
 62
 7 
  0
ARC
  8
Ebene_1
 10
251.335842237415
 20
-203.941387313536
 30
0
 40
4.05902214926912
 50
194.637630233979
 51
197.596793590994
 62
 7 
  0
ARC
  8
Ebene_1
 10
252.483331726868
 20
-203.577452882906
 30
0
 40
5.26284123792137
 50
197.596793590994
 51
200.282889640381
 62
 7 
  0
ARC
  8
Ebene_1
 10
243.801304743022
 20
-203.422092854539
 30
0
 40
4.23667197304496
 50
332.141356350595
 51
332.576735955782
 62
 7 
  0
ARC
  8
Ebene_1
 10
177.691911198524
 20
-169.120175948891
 30
0
 40
78.7153495809569
 50
332.576735955782
 51
332.779829894201
 62
 7 
  0
ARC
  8
Ebene_1
 10
-91.1646114216221
 20
-30.827024768953
 30
0
 40
381.054274330441
 50
332.779829894201
 51
332.861414694317
 62
 7 
  0
ARC
  8
Ebene_1
 10
380.876747799121
 20
-272.784066596619
 30
0
 40
149.385406410887
 50
152.490685229904
 51
152.861414694316
 62
 7 
  0
ARC
  8
Ebene_1
 10
284.092717695597
 20
-222.381489407191
 30
0
 40
40.2636016676723
 50
151.67599116905
 51
152.490685229904
 62
 7 
  0
ARC
  8
Ebene_1
 10
786.688932494901
 20
-473.132352933908
 30
0
 40
601.694773977857
 50
150.661404824242
 51
151.740685672717
 62
 7 
  0
ARC
  8
Ebene_1
 10
496.732282371904
 20
-310.159345034853
 30
0
 40
269.07628343018
 50
149.09598042278
 51
150.661404824242
 62
 7 
  0
ARC
  8
Ebene_1
 10
336.582432789096
 20
-214.296377063956
 30
0
 40
82.4277287891507
 50
146.974589898684
 51
149.09598042278
 62
 7 
  0
ARC
  8
Ebene_1
 10
400.910849117792
 20
-256.112311322399
 30
0
 40
159.152675874596
 50
143.854316374927
 51
146.974589898684
 62
 7 
  0
ARC
  8
Ebene_1
 10
964.708464225115
 20
-667.929576211325
 30
0
 40
857.336899744844
 50
143.437945263991
 51
143.854316374927
 62
 7 
  0
ARC
  8
Ebene_1
 10
-275.577894269005
 20
251.914538815293
 30
0
 40
686.820944199779
 50
323.437945263991
 51
323.753276093983
 62
 7 
  0
ARC
  8
Ebene_1
 10
71.797077949942
 20
-2.76078916037798
 30
0
 40
256.090292859954
 50
323.753276093983
 51
324.276753772011
 62
 7 
  0
ARC
  8
Ebene_1
 10
351.653012106308
 20
-204.02990050672
 30
0
 40
88.6249505869791
 50
141.657339264803
 51
144.27675377201
 62
 7 
  0
ARC
  8
Ebene_1
 10
371.151271121636
 20
-219.452284195135
 30
0
 40
113.485200450195
 50
136.411147822077
 51
141.657339264803
 62
 7 
  0
ARC
  8
Ebene_1
 10
418.997172070741
 20
-264.997571946369
 30
0
 40
179.542777411315
 50
133.022516199605
 51
136.411147822077
 62
 7 
  0
ARC
  8
Ebene_1
 10
579.546287741708
 20
-437.029829048128
 30
0
 40
414.853457207739
 50
132.1400883283
 51
133.022516199605
 62
 7 
  0
ARC
  8
Ebene_1
 10
368.236785453678
 20
-203.497650934057
 30
0
 40
99.9106306948664
 50
128.642921542036
 51
132.1400883283
 62
 7 
  0
ARC
  8
Ebene_1
 10
339.189520319324
 20
-167.166623705381
 30
0
 40
53.3951800222532
 50
121.272773468562
 51
128.642921542036
 62
 7 
  0
ARC
  8
Ebene_1
 10
330.850555321317
 20
-153.436742462138
 30
0
 40
37.3313082538558
 50
115.563001562601
 51
121.272773468562
 62
 7 
  0
ARC
  8
Ebene_1
 10
315.857230833807
 20
-122.091331874522
 30
0
 40
2.58458834975532
 50
108.225301160182
 51
115.5630015626
 62
 7 
  0
ARC
  8
Ebene_1
 10
317.186406553961
 20
-126.128034153556
 30
0
 40
6.83449109977318
 50
98.9129544194564
 51
108.225301160182
 62
 7 
  0
ARC
  8
Ebene_1
 10
322.568293694871
 20
-160.445281700497
 30
0
 40
41.5711891062838
 50
98.1298352330585
 51
98.9129544194565
 62
 7 
  0
ARC
  8
Ebene_1
 10
313.234863725945
 20
-95.1090961579129
 30
0
 40
24.4282810146183
 50
278.129835233059
 51
279.388553880138
 62
 7 
  0
ARC
  8
Ebene_1
 10
315.925533609814
 20
-111.382290214664
 30
0
 40
7.9341442008096
 50
279.388553880138
 51
281.627923636345
 62
 7 
  0
ARC
  8
Ebene_1
 10
317.661215767428
 20
-119.817002515491
 30
0
 40
0.677299589285913
 50
100.286045610482
 51
101.627923636342
 62
 7 
  0
ARC
  8
Ebene_1
 10
305.206765668787
 20
-105.922262473864
 30
0
 40
18.8245391519415
 50
312.217988994911
 51
312.296308671477
 62
 7 
  0
ARC
  8
Ebene_1
 10
414.134963838294
 20
-225.977557672582
 30
0
 40
143.282296798017
 50
132.21798899491
 51
132.495551592445
 62
 7 
  0
ARC
  8
Ebene_1
 10
621.172676890935
 20
-451.95479495461
 30
0
 40
449.762844950238
 50
132.495551592445
 51
132.670926675202
 62
 7 
  0
ARC
  8
Ebene_1
 10
189.179605983435
 20
15.5025108368997
 30
0
 40
186.738228428597
 50
311.778089151469
 51
312.629630896058
 62
 7 
  0
ARC
  8
Ebene_1
 10
270.562568796587
 20
-75.5894628125152
 30
0
 40
64.5869521373014
 50
310.300148686258
 51
311.778089151469
 62
 7 
  0
ARC
  8
Ebene_1
 10
-186.865822822711
 20
463.788744982743
 30
0
 40
771.813637510415
 50
309.889654056387
 51
310.300148686258
 62
 7 
  0
ARC
  8
Ebene_1
 10
613.971449995816
 20
-501.823700539412
 30
0
 40
482.668558783619
 50
130.029943549087
 51
130.629522122542
 62
 7 
  0
ARC
  8
Ebene_1
 10
364.05718925459
 20
-210.547603981877
 30
0
 40
98.873167790413
 50
130.629522122542
 51
131.192079315276
 62
 7 
  0
ARC
  8
Ebene_1
 10
359.376524519894
 20
-205.199432119593
 30
0
 40
91.7660189508879
 50
131.192079315276
 51
134.274476143675
 62
 7 
  0
ARC
  8
Ebene_1
 10
340.262484604119
 20
-185.59508355829
 30
0
 40
64.3857887762735
 50
134.274476143675
 51
136.385431582991
 62
 7 
  0
ARC
  8
Ebene_1
 10
512.331413273525
 20
-349.537557489089
 30
0
 40
302.051206900131
 50
136.385431582991
 51
137.903958622694
 62
 7 
  0
ARC
  8
Ebene_1
 10
383.230819599335
 20
-232.902420658433
 30
0
 40
128.066384485834
 50
137.903958622694
 51
142.269074215529
 62
 7 
  0
ARC
  8
Ebene_1
 10
348.438269457363
 20
-205.981671961774
 30
0
 40
84.0749278633233
 50
142.269074215529
 51
146.212122409773
 62
 7 
  0
ARC
  8
Ebene_1
 10
341.621990424144
 20
-201.420659041042
 30
0
 40
75.8734341748665
 50
146.212122409773
 51
147.482050738488
 62
 7 
  0
ARC
  8
Ebene_1
 10
1067.17907965837
 20
-663.971115684471
 30
0
 40
936.330298101866
 50
147.482050738488
 51
148.655003405625
 62
 7 
  0
ARC
  8
Ebene_1
 10
803.764805266971
 20
-503.52924703888
 30
0
 40
627.900933145096
 50
148.655003405625
 51
149.599218181837
 62
 7 
  0
ARC
  8
Ebene_1
 10
336.469782803947
 20
-229.360314461561
 30
0
 40
86.1138517106043
 50
149.599218181837
 51
151.720419739232
 62
 7 
  0
ARC
  8
Ebene_1
 10
511.899758099516
 20
-323.738991127681
 30
0
 40
285.319802528978
 50
151.720419739232
 51
152.928362610712
 62
 7 
  0
ARC
  8
Ebene_1
 10
-111.601441342811
 20
-5.06667835050175
 30
0
 40
414.89858385971
 50
332.079599157716
 51
332.928362610713
 62
 7 
  0
ARC
  8
Ebene_1
 10
173.176433053528
 20
-155.978650509463
 30
0
 40
92.6054547263009
 50
329.746577741647
 51
332.079599157716
 62
 7 
  0
ARC
  8
Ebene_1
 10
211.565758404401
 20
-178.369716289609
 30
0
 40
48.1633561297442
 50
326.687337815465
 51
329.746577741647
 62
 7 
  0
ARC
  8
Ebene_1
 10
155.641892830938
 20
-141.61690848636
 30
0
 40
115.083066395863
 50
324.087443991461
 51
326.687337815465
 62
 7 
  0
ARC
  8
Ebene_1
 10
-18.9920169242841
 20
-15.1447075578185
 30
0
 40
330.703612828954
 50
323.857690756818
 51
324.087443991461
 62
 7 
  0
ARC
  8
Ebene_1
 10
425.756046089403
 20
-342.964608785361
 30
0
 40
221.801697640317
 50
144.065544655411
 51
144.136633983329
 62
 7 
  0
ARC
  8
Ebene_1
 10
401.383724634008
 20
-325.345728288671
 30
0
 40
191.727871759965
 50
144.136633983329
 51
144.213095730927
 62
 7 
  0
ARC
  8
Ebene_1
 10
174.766260955753
 20
-161.982784886952
 30
0
 40
87.6337686290451
 50
324.074343467903
 51
324.213095730928
 62
 7 
  0
ARC
  8
Ebene_1
 10
242.902171789992
 20
-211.351472074901
 30
0
 40
3.49240175238413
 50
323.379293100063
 51
324.074343467903
 62
 7 
  0
ARC
  8
Ebene_1
 10
241.375604300043
 20
-210.216886771345
 30
0
 40
5.39442491533839
 50
306.972487492528
 51
323.379293100063
 62
 7 
  0
ARC
  8
Ebene_1
 10
242.386452373411
 20
-211.559668520309
 30
0
 40
3.71368797792547
 50
265.939193951094
 51
306.972487492528
 62
 7 
  0
ARC
  8
Ebene_1
 10
242.502122809677
 20
-209.930354763027
 30
0
 40
5.34710249037931
 50
244.153951707543
 51
265.939193951094
 62
 7 
  0
ARC
  8
Ebene_1
 10
243.742137420513
 20
-207.370513723678
 30
0
 40
8.19146927084666
 50
222.886639989813
 51
244.153951707543
 62
 7 
  0
ARC
  8
Ebene_1
 10
246.878536051531
 20
-204.45735481874
 30
0
 40
12.4720639933202
 50
221.509680478198
 51
222.886639989813
 62
 7 
  0
ARC
  8
Ebene_1
 10
246.762403299813
 20
-204.560135383199
 30
0
 40
12.3169812397594
 50
211.222676127265
 51
221.509680478198
 62
 7 
  0
ARC
  8
Ebene_1
 10
252.207880679188
 20
-201.259290708814
 30
0
 40
18.6847751633796
 50
199.205811626517
 51
211.222676127265
 62
 7 
  0
ARC
  8
Ebene_1
 10
293.2087402115
 20
-186.976617485445
 30
0
 40
62.1021131379018
 50
196.184329471432
 51
199.205811626517
 62
 7 
  0
ARC
  8
Ebene_1
 10
279.925852664628
 20
-190.83171382705
 30
0
 40
48.2711019895479
 50
195.738956445339
 51
196.184329471432
 62
 7 
  0
ARC
  8
Ebene_1
 10
261.864709648317
 20
-195.921725056825
 30
0
 40
29.5064250305678
 50
192.910853675053
 51
195.738956445339
 62
 7 
  0
ARC
  8
Ebene_1
 10
270.174894433229
 20
-194.016781798374
 30
0
 40
38.0321496318724
 50
183.821846152568
 51
192.910853675053
 62
 7 
  0
ARC
  8
Ebene_1
 10
274.804037470712
 20
-193.707541592045
 30
0
 40
42.6716102434831
 50
181.183986379281
 51
183.821846152568
 62
 7 
  0
ARC
  8
Ebene_1
 10
280.81208307794
 20
-193.583370895251
 30
0
 40
48.6809388566046
 50
178.714327262073
 51
181.183986379281
 62
 7 
  0
ARC
  8
Ebene_1
 10
263.920470177559
 20
-193.204272607195
 30
0
 40
31.7850724423503
 50
172.179224423497
 51
178.714327262073
 62
 7 
  0
ARC
  8
Ebene_1
 10
276.149437601967
 20
-194.883950451551
 30
0
 40
44.1288547609127
 50
163.321957241048
 51
172.179224423497
 62
 7 
  0
ARC
  8
Ebene_1
 10
320.835539268606
 20
-208.271759315154
 30
0
 40
90.777339284309
 50
159.681403621878
 51
163.321957241048
 62
 7 
  0
ARC
  8
Ebene_1
 10
342.031365291712
 20
-216.120155216002
 30
0
 40
113.379559507514
 50
152.049339466114
 51
159.681403621878
 62
 7 
  0
ARC
  8
Ebene_1
 10
330.305985642454
 20
-209.898606104843
 30
0
 40
100.105818465072
 50
147.020341109541
 51
152.049339466114
 62
 7 
  0
ARC
  8
Ebene_1
 10
329.305554517868
 20
-209.249423379019
 30
0
 40
98.9132159971274
 50
146.164974497604
 51
147.020341109541
 62
 7 
  0
ARC
  8
Ebene_1
 10
1115.38394825712
 20
-736.179218405102
 30
0
 40
1045.26106430129
 50
145.153540143054
 51
146.164974497604
 62
 7 
  0
ARC
  8
Ebene_1
 10
2266.86813960931
 20
-1537.86710338448
 30
0
 40
2448.33601164256
 50
145.00384218383
 51
145.153540143054
 62
 7 
  0
ARC
  8
Ebene_1
 10
-2429.6893849944
 20
1764.42384678273
 30
0
 40
3292.98101644482
 50
324.983820573813
 51
325.055526246257
 62
 7 
  0
ARC
  8
Ebene_1
 10
-1224.83154738924
 20
922.512259972388
 30
0
 40
1823.11791777063
 50
325.055526246257
 51
325.151896004525
 62
 7 
  0
ARC
  8
Ebene_1
 10
2529.69194342733
 20
-1691.62714052514
 30
0
 40
2751.83251347198
 50
145.135630355869
 51
145.151896004524
 62
 7 
  0
ARC
  8
Ebene_1
 10
272.902572148943
 20
-119.354575708967
 30
0
 40
1.35268544402525
 50
144.029954619979
 51
145.135630355868
 62
 7 
  0
ARC
  8
Ebene_1
 10
281.667053308241
 20
-125.715345793202
 30
0
 40
12.1820679774933
 50
143.093068134937
 51
144.029954619978
 62
 7 
  0
ARC
  8
Ebene_1
 10
267.439812541013
 20
-115.030539421322
 30
0
 40
5.61061217624504
 50
323.093068134938
 51
328.580204073243
 62
 7 
  0
ARC
  8
Ebene_1
 10
270.822661676869
 20
-117.097043959944
 30
0
 40
1.64650959380469
 50
328.580204073244
 51
351.150395609619
 62
 7 
  0
ARC
  8
Ebene_1
 10
270.668625178275
 20
-117.073061277096
 30
0
 40
1.80240190270959
 50
351.150395609619
 51
355.584852537643
 62
 7 
  0
ARC
  8
Ebene_1
 10
154.666568747139
 20
-7.52285579138983
 30
0
 40
160.960102914143
 50
317.038012669998
 51
317.041725013258
 62
 7 
  0
ARC
  8
Ebene_1
 10
153.831410524315
 20
-6.74509341311521
 30
0
 40
162.101331889507
 50
317.034313417675
 51
317.038012669998
 62
 7 
  0
ARC
  8
Ebene_1
 10
153.315744704302
 20
-6.26480430508305
 30
0
 40
162.806022506178
 50
316.800840353237
 51
317.034313417675
 62
 7 
  0
ARC
  8
Ebene_1
 10
-216.6283275172
 20
341.125592558235
 30
0
 40
670.288735910961
 50
316.68433185466
 51
316.800840353237
 62
 7 
  0
ARC
  8
Ebene_1
 10
528.262739418229
 20
-361.208926482474
 30
0
 40
353.496631359126
 50
136.684331854659
 51
137.044178598016
 62
 7 
  0
ARC
  8
Ebene_1
 10
335.923761416804
 20
-182.12699790619
 30
0
 40
90.6951481037341
 50
137.044178598016
 51
138.720304591264
 62
 7 
  0
ARC
  8
Ebene_1
 10
810.869096757695
 20
-599.078547699782
 30
0
 40
722.693301928055
 50
138.720304591264
 51
139.177900243904
 62
 7 
  0
ARC
  8
Ebene_1
 10
-281.077986691643
 20
344.20012395164
 30
0
 40
720.263067975758
 50
318.974417890465
 51
319.177900243905
 62
 7 
  0
ARC
  8
Ebene_1
 10
-45.1058687109222
 20
138.887643758898
 30
0
 40
407.475512297463
 50
318.031407945655
 51
318.974417890465
 62
 7 
  0
ARC
  8
Ebene_1
 10
-149.866363074844
 20
233.11048361542
 30
0
 40
548.37513873416
 50
314.904097574076
 51
318.031407945655
 62
 7 
  0
ARC
  8
Ebene_1
 10
-205.435907587974
 20
288.866366260133
 30
0
 40
627.094213467593
 50
313.941320393758
 51
314.904097574076
 62
 7 
  0
ARC
  8
Ebene_1
 10
94.2561195687506
 20
-22.1105468733521
 30
0
 40
195.212341142141
 50
312.564133789676
 51
313.941320393758
 62
 7 
  0
ARC
  8
Ebene_1
 10
-6.66435314888378
 20
87.7776238573036
 30
0
 40
344.411375589689
 50
310.430292502729
 51
312.564133789676
 62
 7 
  0
ARC
  8
Ebene_1
 10
-279.691292085079
 20
408.23976231967
 30
0
 40
765.409821635208
 50
309.487120299805
 51
310.430292502729
 62
 7 
  0
ARC
  8
Ebene_1
 10
5.17228453305467
 20
62.5142976323394
 30
0
 40
317.444025823802
 50
307.848947388466
 51
309.487120299805
 62
 7 
  0
ARC
  8
Ebene_1
 10
61.6708807148195
 20
-10.1949091399978
 30
0
 40
225.364059924739
 50
306.414887571648
 51
307.848947388466
 62
 7 
  0
ARC
  8
Ebene_1
 10
-5.82601993678888
 20
81.3058735399536
 30
0
 40
339.066411829248
 50
306.019913802931
 51
306.414887571648
 62
 7 
  0
ARC
  8
Ebene_1
 10
-5.29987968483121
 20
80.5822326489559
 30
0
 40
338.171716515829
 50
304.649951199126
 51
306.019913802931
 62
 7 
  0
ARC
  8
Ebene_1
 10
-48.7162412532618
 20
143.40059298251
 30
0
 40
414.533531887368
 50
302.661322944585
 51
304.649951199126
 62
 7 
  0
ARC
  8
Ebene_1
 10
101.451107993979
 20
-90.8567802176321
 30
0
 40
136.276906308437
 50
300.191457644395
 51
302.661322944585
 62
 7 
  0
ARC
  8
Ebene_1
 10
2.93369865386391
 20
78.4711410607925
 30
0
 40
332.178986102297
 50
298.675644959191
 51
300.191457644395
 62
 7 
  0
ARC
  8
Ebene_1
 10
-37.3590741222887
 20
144.94660436132
 30
0
 40
409.827415455966
 50
298.469083158625
 51
298.514604220059
 62
 7 
  0
ARC
  8
Ebene_1
 10
156.981734995955
 20
-213.445684034041
 30
0
 40
2.13466046760878
 50
295.106834408962
 51
298.469083158625
 62
 7 
  0
ARC
  8
Ebene_1
 10
155.122136221994
 20
-209.477098127143
 30
0
 40
6.51732879872238
 50
278.650260024298
 51
295.106834408962
 62
 7 
  0
ARC
  8
Ebene_1
 10
152.003083121957
 20
-188.97497379155
 30
0
 40
27.2553517158899
 50
274.814251291861
 51
278.650260024298
 62
 7 
  0
ARC
  8
Ebene_1
 10
167.593639996168
 20
-374.085774847989
 30
0
 40
158.510829628844
 50
94.81425129186
 51
94.9462438215187
 62
 7 
  0
ARC
  8
Ebene_1
 10
157.149968313743
 20
-253.410145407845
 30
0
 40
37.3841281176365
 50
94.9462438215186
 51
95.1324248957291
 62
 7 
  0
ARC
  8
Ebene_1
 10
147.825098062683
 20
-149.590622168505
 30
0
 40
66.8533248963496
 50
275.028313169985
 51
275.13242489573
 62
 7 
  0
ARC
  8
Ebene_1
 10
153.624747820822
 20
-215.505750994974
 30
0
 40
0.683542173968695
 50
259.324153174136
 51
275.02831316999
 62
 7 
  0
ARC
  8
Ebene_1
 10
153.891834883931
 20
-214.088959196523
 30
0
 40
2.12528920428929
 50
222.199655313188
 51
259.324153174137
 62
 7 
  0
ARC
  8
Ebene_1
 10
152.832291798223
 20
-215.049682584621
 30
0
 40
0.695037135977182
 50
205.180002975041
 51
222.199655313188
 62
 7 
  0
ARC
  8
Ebene_1
 10
152.680518333422
 20
-215.121037066142
 30
0
 40
0.527327128372665
 50
187.201753370603
 51
205.180002975039
 62
 7 
  0
ARC
  8
Ebene_1
 10
154.560465275825
 20
-214.883486088732
 30
0
 40
2.42222316064492
 50
153.301198378081
 51
187.201753370603
 62
 7 
  0
ARC
  8
Ebene_1
 10
154.34481261415
 20
-214.775029750815
 30
0
 40
2.18083374968807
 50
146.928240707802
 51
153.301198378081
 62
 7 
  0
ARC
  8
Ebene_1
 10
153.783639456056
 20
-214.409599587429
 30
0
 40
1.51116628170329
 50
138.899674148076
 51
146.928240707803
 62
 7 
  0
ARC
  8
Ebene_1
 10
850.024768751238
 20
-821.786421203986
 30
0
 40
925.447480948067
 50
138.402093140081
 51
138.899674148077
 62
 7 
  0
ARC
  8
Ebene_1
 10
-508.787720825721
 20
384.534992887274
 30
0
 40
891.578313014549
 50
318.402093140081
 51
318.880486411378
 62
 7 
  0
ARC
  8
Ebene_1
 10
-4.47079082525645
 20
-55.7112627859233
 30
0
 40
222.136507090117
 50
318.880486411378
 51
319.969433587105
 62
 7 
  0
ARC
  8
Ebene_1
 10
-1405.89770858329
 20
1121.50016154213
 30
0
 40
2052.38898786572
 50
319.969433587105
 51
320.576876588599
 62
 7 
  0
ARC
  8
Ebene_1
 10
-655.0826881254
 20
504.266121485346
 30
0
 40
1080.43165590614
 50
320.576876588599
 51
321.218845955812
 62
 7 
  0
ARC
  8
Ebene_1
 10
75.9279263022938
 20
-83.0857234878887
 30
0
 40
142.690375914999
 50
321.218845955812
 51
324.400537098391
 62
 7 
  0
ARC
  8
Ebene_1
 10
49.9348385510523
 20
-64.4768689631012
 30
0
 40
174.658017016094
 50
324.400537098391
 51
329.227883996625
 62
 7 
  0
ARC
  8
Ebene_1
 10
29.588223219388
 20
-52.3612688688574
 30
0
 40
198.338653010475
 50
329.227883996625
 51
331.720001845104
 62
 7 
  0
ARC
  8
Ebene_1
 10
109.886788656356
 20
-95.5614392642827
 30
0
 40
107.156887654518
 50
331.720001845104
 51
337.141748778943
 62
 7 
  0
ARC
  8
Ebene_1
 10
136.932631038824
 20
-106.962834026322
 30
0
 40
77.8060888119453
 50
337.141748778943
 51
344.751264223901
 62
 7 
  0
ARC
  8
Ebene_1
 10
152.537927520698
 20
-111.216956246092
 30
0
 40
61.6313296437869
 50
344.751264223901
 51
351.653571355732
 62
 7 
  0
ARC
  8
Ebene_1
 10
178.558240185185
 20
-115.034445743413
 30
0
 40
35.3324723070158
 50
351.653571355732
 51
360.204463212544
 62
 7 
  0
ARC
  8
Ebene_1
 10
187.304118358873
 20
-115.003235452641
 30
0
 40
26.5865384454302
 50
0.204463212543628
 51
13.3764421717617
 62
 7 
  0
ARC
  8
Ebene_1
 10
200.142928346894
 20
-111.95017735781
 30
0
 40
13.3897128559583
 50
13.3764421717616
 51
28.7192553030338
 62
 7 
  0
ARC
  8
Ebene_1
 10
202.442775932935
 20
-110.690042822246
 30
0
 40
10.7672640067459
 50
28.7192553030338
 51
60.0876434102193
 62
 7 
  0
ARC
  8
Ebene_1
 10
200.915409321285
 20
-113.34488967245
 30
0
 40
13.8301157113539
 50
60.0876434102194
 51
76.1551547281001
 62
 7 
  0
ARC
  8
Ebene_1
 10
196.955159612429
 20
-129.413833759391
 30
0
 40
30.3798752813814
 50
76.1551547281001
 51
88.2236309057778
 62
 7 
  0
ARC
  8
Ebene_1
 10
196.385210550168
 20
-147.791327594448
 30
0
 40
48.7662050290812
 50
88.2236309057778
 51
95.3225088025681
 62
 7 
  0
ARC
  8
Ebene_1
 10
200.576411531075
 20
-192.778941170028
 30
0
 40
93.9486301619585
 50
95.3225088025681
 51
97.9287049369403
 62
 7 
  0
ARC
  8
Ebene_1
 10
194.63348490835
 20
-150.107618485336
 30
0
 40
50.8654529752166
 50
97.9287049369403
 51
100.634234817537
 62
 7 
  0
ARC
  8
Ebene_1
 10
196.976754303247
 20
-162.587522193551
 30
0
 40
63.5634413207522
 50
100.634234817537
 51
109.61923103947
 62
 7 
  0
ARC
  8
Ebene_1
 10
200.301580180486
 20
-171.914810151322
 30
0
 40
73.4656010731059
 50
109.61923103947
 51
112.494518622566
 62
 7 
  0
ARC
  8
Ebene_1
 10
193.961987098516
 20
-156.605536177487
 30
0
 40
56.8956188748392
 50
112.494518622566
 51
113.407484893688
 62
 7 
  0
ARC
  8
Ebene_1
 10
194.450889740387
 20
-157.734918714224
 30
0
 40
58.1262815855414
 50
113.407484893688
 51
116.257893744853
 62
 7 
  0
ARC
  8
Ebene_1
 10
194.27455963451
 20
-157.377480783037
 30
0
 40
57.7277164329131
 50
116.257893744853
 51
123.678925755872
 62
 7 
  0
ARC
  8
Ebene_1
 10
194.900447631368
 20
-158.316708452994
 30
0
 40
58.8563813081635
 50
123.678925755872
 51
128.159853045126
 62
 7 
  0
ARC
  8
Ebene_1
 10
191.954447440012
 20
-154.567607440603
 30
0
 40
54.0882920127972
 50
128.159853045126
 51
128.854016176761
 62
 7 
  0
ARC
  8
Ebene_1
 10
305.939225802172
 20
-296.062708469094
 30
0
 40
235.78417340072
 50
128.854016176761
 51
130.10622039738
 62
 7 
  0
ARC
  8
Ebene_1
 10
197.985508870191
 20
-167.891793094605
 30
0
 40
68.2079562714245
 50
130.10622039738
 51
133.967561143564
 62
 7 
  0
ARC
  8
Ebene_1
 10
182.727635682294
 20
-152.073890677646
 30
0
 40
46.2304966573019
 50
133.967561143564
 51
136.558127183845
 62
 7 
  0
ARC
  8
Ebene_1
 10
217.700723965052
 20
-185.194745052304
 30
0
 40
94.3979950202107
 50
136.558127183845
 51
140.003534965813
 62
 7 
  0
ARC
  8
Ebene_1
 10
186.172744115037
 20
-158.742943366935
 30
0
 40
53.2432707977711
 50
140.003534965813
 51
147.576876218089
 62
 7 
  0
ARC
  8
Ebene_1
 10
172.560740891929
 20
-150.096795345106
 30
0
 40
37.1174372577257
 50
147.576876218089
 51
157.821500282468
 62
 7 
  0
ARC
  8
Ebene_1
 10
167.369584817392
 20
-147.980595845645
 30
0
 40
31.5115116685189
 50
157.821500282468
 51
168.281260674513
 62
 7 
  0
ARC
  8
Ebene_1
 10
157.048414037509
 20
-145.839663449303
 30
0
 40
20.9706313545589
 50
168.281260674513
 51
179.338308787269
 62
 7 
  0
ARC
  8
Ebene_1
 10
151.151423544209
 20
-145.771557904607
 30
0
 40
15.0732475919664
 50
179.338308787269
 51
189.818282030529
 62
 7 
  0
ARC
  8
Ebene_1
 10
150.026348042139
 20
-145.966261909968
 30
0
 40
13.931448776474
 50
189.818282030529
 51
197.218507571506
 62
 7 
  0
ARC
  8
Ebene_1
 10
149.778883274544
 20
-146.042952655778
 30
0
 40
13.6723729541865
 50
197.218507571506
 51
207.937873454841
 62
 7 
  0
ARC
  8
Ebene_1
 10
150.60225258017
 20
-145.606303965675
 30
0
 40
14.604359591438
 50
207.937873454841
 51
222.693397624882
 62
 7 
  0
ARC
  8
Ebene_1
 10
146.822248230613
 20
-149.093585187693
 30
0
 40
9.46144570881192
 50
222.693397624882
 51
236.241451178529
 62
 7 
  0
ARC
  8
Ebene_1
 10
146.296053818685
 20
-149.88083647184
 30
0
 40
8.51453222620962
 50
236.241451178529
 51
259.373846958037
 62
 7 
  0
ARC
  8
Ebene_1
 10
146.972706255653
 20
-146.274281598956
 30
0
 40
12.1840140113632
 50
259.373846958037
 51
266.457774206602
 62
 7 
  0
ARC
  8
Ebene_1
 10
147.951151543623
 20
-130.468021246114
 30
0
 40
28.0205294590047
 50
266.457774206602
 51
276.055433379391
 62
 7 
  0
ARC
  8
Ebene_1
 10
148.369042640803
 20
-134.407323457467
 30
0
 40
24.0591237891095
 50
276.055433379391
 51
300.93949733159
 62
 7 
  0
ARC
  8
Ebene_1
 10
145.815228266348
 20
-130.146878399182
 30
0
 40
29.0263523880204
 50
300.93949733159
 51
315.98319477888
 62
 7 
  0
ARC
  8
Ebene_1
 10
133.679568117311
 20
-118.42072680364
 30
0
 40
45.9016858216021
 50
315.98319477888
 51
322.194955662922
 62
 7 
  0
ARC
  8
Ebene_1
 10
135.983739070574
 20
-120.208349940584
 30
0
 40
42.9853867523027
 50
322.194955662922
 51
330.991002370592
 62
 7 
  0
ARC
  8
Ebene_1
 10
144.721220550169
 20
-125.053408881882
 30
0
 40
32.9944819508882
 50
330.991002370592
 51
342.351663646188
 62
 7 
  0
ARC
  8
Ebene_1
 10
146.998184294707
 20
-125.77781910296
 30
0
 40
30.6050606689991
 50
342.351663646188
 51
353.673208783698
 62
 7 
  0
ARC
  8
Ebene_1
 10
142.590518524975
 20
-125.289122041382
 30
0
 40
35.0397356690037
 50
353.673208783698
 51
354.294937824403
 62
 7 
  0
ARC
  8
Ebene_1
 10
237.034753785992
 20
-134.724337453816
 30
0
 40
59.8746302821909
 50
173.910317508519
 51
174.294937824402
 62
 7 
  0
ARC
  8
Ebene_1
 10
501.351762511216
 20
-162.923537509414
 30
0
 40
325.691627453602
 50
173.78004687371
 51
173.910317508519
 62
 7 
  0
ARC
  8
Ebene_1
 10
106.931548562173
 20
-119.936808286097
 30
0
 40
71.0641715726095
 50
353.78004687371
 51
355.511121281287
 62
 7 
  0
ARC
  8
Ebene_1
 10
160.222749497597
 20
-124.120508866454
 30
0
 40
17.6089992533121
 50
355.511121281287
 51
365.415486230882
 62
 7 
  0
ARC
  8
Ebene_1
 10
173.793312292798
 20
-122.834012198771
 30
0
 40
3.97759256674928
 50
5.41548623088239
 51
8.69039429075852
 62
 7 
  0
ARC
  8
Ebene_1
 10
174.263211794477
 20
-122.762188092609
 30
0
 40
3.50223560203381
 50
8.69039429075836
 51
30.8204010912744
 62
 7 
  0
ARC
  8
Ebene_1
 10
175.14641244793
 20
-122.235268515818
 30
0
 40
2.47379618492345
 50
30.8204010912745
 51
86.2027784184299
 62
 7 
  0
ARC
  8
Ebene_1
 10
175.080768868691
 20
-123.224305312964
 30
0
 40
3.46500901050898
 50
86.2027784184299
 51
118.296286510889
 62
 7 
  0
ARC
  8
Ebene_1
 10
175.84162244786
 20
-124.637583183715
 30
0
 40
5.07007988398703
 50
118.296286510889
 51
132.085458391425
 62
 7 
  0
ARC
  8
Ebene_1
 10
182.453454532304
 20
-131.958777231007
 30
0
 40
14.9349775413885
 50
132.085458391425
 51
133.020645541638
 62
 7 
  0
ARC
  8
Ebene_1
 10
181.489953421842
 20
-130.926294929999
 30
0
 40
13.5227615197551
 50
133.020645541638
 51
141.940226485429
 62
 7 
  0
ARC
  8
Ebene_1
 10
186.279531186593
 20
-134.676376485478
 30
0
 40
19.60578435691
 50
141.940226485429
 51
152.739626226386
 62
 7 
  0
ARC
  8
Ebene_1
 10
207.474854180826
 20
-145.597541098912
 30
0
 40
43.4493066081115
 50
152.739626226386
 51
156.635202499607
 62
 7 
  0
ARC
  8
Ebene_1
 10
320.275687094208
 20
-194.328559258967
 30
0
 40
166.326237058333
 50
156.635202499607
 51
157.235828280828
 62
 7 
  0
ARC
  8
Ebene_1
 10
184.083632418777
 20
-137.178877294699
 30
0
 40
18.6293789152682
 50
157.235828280828
 51
160.96331452184
 62
 7 
  0
ARC
  8
Ebene_1
 10
230.17631748779
 20
-153.082880179586
 30
0
 40
67.3887157097089
 50
160.96331452184
 51
163.231658167945
 62
 7 
  0
ARC
  8
Ebene_1
 10
100.884360678014
 20
-114.125274828912
 30
0
 40
67.6450027103946
 50
340.832261967077
 51
343.231658167946
 62
 7 
  0
ARC
  8
Ebene_1
 10
147.976869671116
 20
-130.494894973689
 30
0
 40
17.7885200130596
 50
335.957661782968
 51
340.832261967077
 62
 7 
  0
ARC
  8
Ebene_1
 10
162.76069326161
 20
-137.090171526582
 30
0
 40
1.60028006042752
 50
326.366120172112
 51
335.957661782967
 62
 7 
  0
ARC
  8
Ebene_1
 10
161.171591440348
 20
-136.033019820074
 30
0
 40
3.50889587533463
 50
307.162196612027
 51
326.366120172113
 62
 7 
  0
ARC
  8
Ebene_1
 10
154.442698240101
 20
-127.155874307175
 30
0
 40
14.6480931604851
 50
301.939526488515
 51
307.162196612027
 62
 7 
  0
ARC
  8
Ebene_1
 10
123.146133406605
 20
-76.9530714309503
 30
0
 40
73.8071701225739
 50
301.698346680019
 51
301.939526488515
 62
 7 
  0
ARC
  8
Ebene_1
 10
181.912068797154
 20
-172.109371150462
 30
0
 40
38.0326999535122
 50
121.698346680018
 51
122.166386959283
 62
 7 
  0
ARC
  8
Ebene_1
 10
170.679101548248
 20
-154.248492807685
 30
0
 40
16.9331613711052
 50
122.166386959283
 51
122.661545078945
 62
 7 
  0
ARC
  8
Ebene_1
 10
183.598971309864
 20
-174.40300003712
 30
0
 40
40.8732364820663
 50
122.661545078945
 51
122.980252828016
 62
 7 
  0
ARC
  8
Ebene_1
 10
-153.829272421125
 20
345.583192743693
 30
0
 40
579.000509009759
 50
302.702967022069
 51
302.980252828016
 62
 7 
  0
ARC
  8
Ebene_1
 10
-495.570165660312
 20
877.838710769546
 30
0
 40
1211.52147671035
 50
302.46666226911
 51
302.702967022069
 62
 7 
  0
ARC
  8
Ebene_1
 10
1657.99706367353
 20
-2519.90884407553
 30
0
 40
2811.2293241465
 50
122.429277343399
 51
122.462551510983
 62
 7 
  0
ARC
  8
Ebene_1
 10
1009.67628859116
 20
-1500.77976078023
 30
0
 40
1603.36181658545
 50
122.462551510983
 51
122.492213978188
 62
 7 
  0
ARC
  8
Ebene_1
 10
150.375308425456
 20
-146.807918627758
 30
0
 40
2.55818358534353
 50
215.797715953486
 51
218.514847683306
 62
 7 
  0
ARC
  8
Ebene_1
 10
150.326462151557
 20
-146.843144711572
 30
0
 40
2.49796037175688
 50
187.598564138215
 51
215.797715953486
 62
 7 
  0
ARC
  8
Ebene_1
 10
158.45691575119
 20
-145.758517965739
 30
0
 40
10.7004411497632
 50
178.953532166512
 51
187.598564138215
 62
 7 
  0
ARC
  8
Ebene_1
 10
121.813863996465
 20
-145.089183509774
 30
0
 40
25.9487232406204
 50
358.953532166513
 51
360.154373894029
 62
 7 
  0
ARC
  8
Ebene_1
 10
136.094984731972
 20
-145.050705325646
 30
0
 40
11.6675506685673
 50
0.154373894028757
 51
1.20827845465345
 62
 7 
  0
ARC
  8
Ebene_1
 10
106.693040437833
 20
-145.670838316513
 30
0
 40
41.0760340228986
 50
1.20827845465333
 51
1.4279919034949
 62
 7 
  0
ARC
  8
Ebene_1
 10
166.566669038081
 20
-144.178289214694
 30
0
 40
18.8161950605285
 50
180.94835306613
 51
181.427991903495
 62
 7 
  0
ARC
  8
Ebene_1
 10
174.207051035035
 20
-144.051814952129
 30
0
 40
26.4576237750076
 50
180.319850746927
 51
180.94835306613
 62
 7 
  0
ARC
  8
Ebene_1
 10
174.623891155549
 20
-144.049487939388
 30
0
 40
26.8744703907536
 50
179.696241836668
 51
180.319850746927
 62
 7 
  0
ARC
  8
Ebene_1
 10
174.901481005495
 20
-144.050959617995
 30
0
 40
27.1520641418193
 50
174.105164544783
 51
179.696241836668
 62
 7 
  0
ARC
  8
Ebene_1
 10
187.053084518527
 20
-145.305598673867
 30
0
 40
39.3682659696564
 50
167.128052069629
 51
174.105164544783
 62
 7 
  0
ARC
  8
Ebene_1
 10
206.169030724244
 20
-149.673885791234
 30
0
 40
58.9769714771508
 50
164.631986359667
 51
167.128052069629
 62
 7 
  0
ARC
  8
Ebene_1
 10
186.836620399064
 20
-144.360462518455
 30
0
 40
38.9276683506867
 50
162.627656639889
 51
164.631986359667
 62
 7 
  0
ARC
  8
Ebene_1
 10
185.848964319146
 20
-144.051473345968
 30
0
 40
37.8928066010248
 50
154.851298289697
 51
162.627656639889
 62
 7 
  0
ARC
  8
Ebene_1
 10
183.112607528482
 20
-142.766832735239
 30
0
 40
34.8699023708932
 50
143.150575420824
 51
154.851298289697
 62
 7 
  0
ARC
  8
Ebene_1
 10
182.438021511602
 20
-142.261269754045
 30
0
 40
34.0268957148558
 50
135.563835039944
 51
143.150575420824
 62
 7 
  0
ARC
  8
Ebene_1
 10
175.8270517998
 20
-135.779150383092
 30
0
 40
24.7682353328319
 50
123.986214855848
 51
135.563835039945
 62
 7 
  0
ARC
  8
Ebene_1
 10
173.25929871001
 20
-131.970323481124
 30
0
 40
20.174705285115
 50
113.506913030852
 51
123.986214855848
 62
 7 
  0
ARC
  8
Ebene_1
 10
172.951904939377
 20
-131.263599404652
 30
0
 40
19.4040238655336
 50
98.0298520316249
 51
113.506913030852
 62
 7 
  0
ARC
  8
Ebene_1
 10
176.220138443137
 20
-154.430700697381
 30
0
 40
42.8005178879859
 50
93.7155401678745
 51
98.0298520316249
 62
 7 
  0
ARC
  8
Ebene_1
 10
174.458007541137
 20
-127.295723616368
 30
0
 40
15.6083850826529
 50
82.2197700120505
 51
93.7155401678745
 62
 7 
  0
ARC
  8
Ebene_1
 10
175.303594270167
 20
-121.106908930821
 30
0
 40
9.36207063904977
 50
69.701536078378
 51
82.2197700120505
 62
 7 
  0
ARC
  8
Ebene_1
 10
175.646520216105
 20
-120.179783251111
 30
0
 40
8.37355648620542
 50
44.2588148639803
 51
69.7015360783782
 62
 7 
  0
ARC
  8
Ebene_1
 10
173.266098898296
 20
-122.499400904399
 30
0
 40
11.6972640106006
 50
18.0995532937646
 51
44.2588148639803
 62
 7 
  0
ARC
  8
Ebene_1
 10
169.109701186353
 20
-123.857885215625
 30
0
 40
16.0700344783582
 50
3.65185027819539
 51
18.0995532937646
 62
 7 
  0
ARC
  8
Ebene_1
 10
119.487360104766
 20
-127.024944760537
 30
0
 40
65.7933388795986
 50
357.76726718375
 51
363.651850278195
 62
 7 
  0
ARC
  8
Ebene_1
 10
144.579452151695
 20
-128.003242174094
 30
0
 40
40.6821830097284
 50
347.148865324193
 51
357.76726718375
 62
 7 
  0
ARC
  8
Ebene_1
 10
153.171116503184
 20
-129.963285640611
 30
0
 40
31.8697788701482
 50
338.10611822497
 51
347.148865324193
 62
 7 
  0
ARC
  8
Ebene_1
 10
142.323182413545
 20
-125.603789612012
 30
0
 40
43.5609242219322
 50
332.19150854734
 51
338.10611822497
 62
 7 
  0
ARC
  8
Ebene_1
 10
145.807830883843
 20
-127.441696379608
 30
0
 40
39.6212952739311
 50
322.823493161251
 51
332.19150854734
 62
 7 
  0
ARC
  8
Ebene_1
 10
145.313818744402
 20
-127.067039923006
 30
0
 40
40.2413077370225
 50
319.669527972495
 51
322.823493161251
 62
 7 
  0
ARC
  8
Ebene_1
 10
152.845812177297
 20
-133.461524777937
 30
0
 40
30.3610060395478
 50
318.123762240506
 51
319.669527972495
 62
 7 
  0
ARC
  8
Ebene_1
 10
152.761035032643
 20
-133.385522037807
 30
0
 40
30.4748637611255
 50
314.707515484369
 51
318.123762240506
 62
 7 
  0
ARC
  8
Ebene_1
 10
153.211039134525
 20
-133.840144131717
 30
0
 40
29.8351881089538
 50
299.595510942066
 51
314.707515484369
 62
 7 
  0
ARC
  8
Ebene_1
 10
150.822712307973
 20
-129.635161533953
 30
0
 40
34.671093781931
 50
284.471264439978
 51
299.595510942066
 62
 7 
  0
ARC
  8
Ebene_1
 10
152.585386986817
 20
-136.465047847415
 30
0
 40
27.6174160831514
 50
270.535634307972
 51
284.471264439978
 62
 7 
  0
ARC
  8
Ebene_1
 10
152.610971596254
 20
-139.201704956333
 30
0
 40
24.8806393834496
 50
256.108058816074
 51
270.535634307972
 62
 7 
  0
ARC
  8
Ebene_1
 10
152.327410204746
 20
-140.348214882005
 30
0
 40
23.6995838926204
 50
249.260590697249
 51
256.108058816074
 62
 7 
  0
ARC
  8
Ebene_1
 10
150.601479374823
 20
-144.90627426363
 30
0
 40
18.8257001685144
 50
229.989091551334
 51
249.260590697249
 62
 7 
  0
ARC
  8
Ebene_1
 10
149.103914306687
 20
-146.690312903559
 30
0
 40
16.4964309693751
 50
215.513220967701
 51
229.989091551334
 62
 7 
  0
ARC
  8
Ebene_1
 10
148.801408394351
 20
-146.90619360912
 30
0
 40
16.1247936380536
 50
194.972233761289
 51
215.513220967701
 62
 7 
  0
ARC
  8
Ebene_1
 10
150.897616601399
 20
-146.345604954472
 30
0
 40
18.2946665576074
 50
182.45638651834
 51
194.972233761289
 62
 7 
  0
ARC
  8
Ebene_1
 10
157.366020991428
 20
-146.068121284722
 30
0
 40
24.7690200033136
 50
180.926020698802
 51
182.456386518339
 62
 7 
  0
ARC
  8
Ebene_1
 10
156.728832204627
 20
-146.078420496853
 30
0
 40
24.1317479862012
 50
178.889993221254
 51
180.926020698802
 62
 7 
  0
ARC
  8
Ebene_1
 10
156.65341448681
 20
-146.076959225995
 30
0
 40
24.0563161131409
 50
167.125194658527
 51
178.889993221254
 62
 7 
  0
ARC
  8
Ebene_1
 10
163.079317966474
 20
-147.545714008008
 30
0
 40
30.6479377754977
 50
155.675838330565
 51
167.125194658527
 62
 7 
  0
ARC
  8
Ebene_1
 10
180.786891203326
 20
-155.549981247273
 30
0
 40
50.0805506717618
 50
149.751419059361
 51
155.675838330565
 62
 7 
  0
ARC
  8
Ebene_1
 10
215.103365240992
 20
-175.561618436782
 30
0
 40
89.8056814252581
 50
147.259624037416
 51
149.751419059361
 62
 7 
  0
ARC
  8
Ebene_1
 10
196.398156086392
 20
-163.534464994982
 30
0
 40
67.5674874916236
 50
146.679901804093
 51
147.259624037416
 62
 7 
  0
ARC
  8
Ebene_1
 10
197.810741115002
 20
-164.463069399426
 30
0
 40
69.2579615680311
 50
139.282537133628
 51
146.679901804093
 62
 7 
  0
ARC
  8
Ebene_1
 10
194.954260791163
 20
-162.004593596802
 30
0
 40
65.4891974320619
 50
132.281463409364
 51
139.282537133628
 62
 7 
  0
ARC
  8
Ebene_1
 10
202.864593546432
 20
-170.703587889968
 30
0
 40
77.2469976519847
 50
123.160425309183
 51
132.281463409364
 62
 7 
  0
ARC
  8
Ebene_1
 10
197.886957461711
 20
-163.085483531407
 30
0
 40
68.1468671578732
 50
111.096015630475
 51
123.160425309183
 62
 7 
  0
ARC
  8
Ebene_1
 10
197.500213923573
 20
-162.083006666837
 30
0
 40
67.0723763816041
 50
107.657381813966
 51
111.096015630475
 62
 7 
  0
ARC
  8
Ebene_1
 10
203.606310902472
 20
-181.265187249153
 30
0
 40
87.2029618725503
 50
103.942695295172
 51
107.657381813966
 62
 7 
  0
ARC
  8
Ebene_1
 10
194.707141994905
 20
-145.419879592188
 30
0
 40
50.2694907620803
 50
96.555503892624
 51
103.942695295172
 62
 7 
  0
ARC
  8
Ebene_1
 10
193.25078788261
 20
-132.746786099571
 30
0
 40
37.512991792026
 50
91.9275997505664
 51
96.555503892624
 62
 7 
  0
ARC
  8
Ebene_1
 10
189.052651055163
 20
2.0082570639949
 30
0
 40
97.3076509197668
 50
272.135829842369
 51
272.851275239549
 62
 7 
  0
ARC
  8
Ebene_1
 10
173.216104977082
 20
319.977597086458
 30
0
 40
415.671118337126
 50
272.851275239549
 51
273.131911325345
 62
 7 
  0
ARC
  8
Ebene_1
 10
206.256412687864
 20
-283.865917540141
 30
0
 40
189.075648574634
 50
91.9063298932876
 51
93.131911325345
 62
 7 
  0
ARC
  8
Ebene_1
 10
201.533627540355
 20
-141.972429145495
 30
0
 40
47.1035853074158
 50
88.2378887918017
 51
91.9063298932876
 62
 7 
  0
ARC
  8
Ebene_1
 10
201.867428832949
 20
-131.122163348715
 30
0
 40
36.2481861363249
 50
85.4069778734602
 51
88.2378887918017
 62
 7 
  0
ARC
  8
Ebene_1
 10
201.929494412291
 20
-130.349583762842
 30
0
 40
35.4731175247513
 50
74.2631403467547
 51
85.4069778734602
 62
 7 
  0
ARC
  8
Ebene_1
 10
203.509900067987
 20
-124.740964691636
 30
0
 40
29.6460865549998
 50
57.2519230226163
 51
74.2631403467547
 62
 7 
  0
ARC
  8
Ebene_1
 10
205.432444285574
 20
-121.751814442933
 30
0
 40
26.0920472364355
 50
44.1509472593744
 51
57.2519230226163
 62
 7 
  0
ARC
  8
Ebene_1
 10
205.489344301302
 20
-121.696576297997
 30
0
 40
26.0127448755259
 50
28.3060698787463
 51
44.1509472593743
 62
 7 
  0
ARC
  8
Ebene_1
 10
202.138748728283
 20
-123.501144031684
 30
0
 40
29.8183927046603
 50
13.2146288975838
 51
28.3060698787463
 62
 7 
  0
ARC
  8
Ebene_1
 10
194.724171008853
 20
-125.242214908018
 30
0
 40
37.4346444437959
 50
3.30131490788679
 51
13.2146288975838
 62
 7 
  0
ARC
  8
Ebene_1
 10
195.809519807085
 20
-125.179609099038
 30
0
 40
36.3474915101471
 50
347.01536165618
 51
363.301314907887
 62
 7 
  0
ARC
  8
Ebene_1
 10
190.15874366872
 20
-123.87662032444
 30
0
 40
42.1465475292456
 50
333.788384030296
 51
347.01536165618
 62
 7 
  0
ARC
  8
Ebene_1
 10
118.698559245666
 20
-88.6958531322495
 30
0
 40
121.797312359271
 50
328.775850112892
 51
333.788384030296
 62
 7 
  0
ARC
  8
Ebene_1
 10
83.5285003428665
 20
-67.3758420643854
 30
0
 40
162.924868999074
 50
326.464080268238
 51
328.775850112892
 62
 7 
  0
ARC
  8
Ebene_1
 10
188.330950284216
 20
-136.837595964655
 30
0
 40
37.1930561249626
 50
322.101673665454
 51
326.464080268238
 62
 7 
  0
ARC
  8
Ebene_1
 10
158.160099485471
 20
-113.351644832305
 30
0
 40
75.4274665233362
 50
318.531698358867
 51
322.101673665454
 62
 7 
  0
ARC
  8
Ebene_1
 10
91.896324768606
 20
-54.7917321304067
 30
0
 40
163.859085390014
 50
318.000122977158
 51
318.531698358867
 62
 7 
  0
ARC
  8
Ebene_1
 10
-1.14888550540971
 20
25.3502745557442
 30
0
 40
286.6195934479
 50
316.67304758964
 51
317.719527695337
 62
 7 
  0
ARC
  8
Ebene_1
 10
120.764306797141
 20
-89.6432306052189
 30
0
 40
119.029818441776
 50
314.314427984909
 51
316.67304758964
 62
 7 
  0
ARC
  8
Ebene_1
 10
142.893206390649
 20
-112.30813555149
 30
0
 40
87.3535479314541
 50
312.378932220831
 51
314.314427984909
 62
 7 
  0
ARC
  8
Ebene_1
 10
-106.24000881045
 20
160.729103548521
 30
0
 40
456.970502158116
 50
310.721386820105
 51
312.378932220831
 62
 7 
  0
ARC
  8
Ebene_1
 10
-653.974727407035
 20
797.048867071165
 30
0
 40
1296.5633578957
 50
310.340534496494
 51
310.721386820105
 62
 7 
  0
ARC
  8
Ebene_1
 10
49.6026080985916
 20
-31.3922041561103
 30
0
 40
209.670688156231
 50
309.614086831521
 51
310.340534496494
 62
 7 
  0
ARC
  8
Ebene_1
 10
-324.282363175038
 20
420.330914965793
 30
0
 40
796.052601326738
 50
309.038428422446
 51
309.614086831521
 62
 7 
  0
ARC
  8
Ebene_1
 10
642.281882581479
 20
-775.861862213667
 30
0
 40
741.840495592213
 50
129.121902259756
 51
129.344104368045
 62
 7 
  0
ARC
  8
Ebene_1
 10
173.445013089156
 20
-203.953898041473
 30
0
 40
2.32259203683327
 50
129.344104368045
 51
136.886725748273
 62
 7 
  0
ARC
  8
Ebene_1
 10
176.607163023669
 20
-206.914360052384
 30
0
 40
6.65428079831911
 50
136.886725748273
 51
140.715900274275
 62
 7 
  0
ARC
  8
Ebene_1
 10
161.474936353903
 20
-194.535787094764
 30
0
 40
12.8959967560349
 50
319.358157233823
 51
320.715900274276
 62
 7 
  0
ARC
  8
Ebene_1
 10
167.781106435129
 20
-199.94882214125
 30
0
 40
4.58523689259128
 50
318.107358066859
 51
319.358157233823
 62
 7 
  0
ARC
  8
Ebene_1
 10
171.221983729254
 20
-203.035347229002
 30
0
 40
0.0371297815865619
 50
138.107358066829
 51
144.71888875125
 62
 7 
  0
ARC
  8
Ebene_1
 10
-810.940175767985
 20
-871.485153092531
 30
0
 40
1188.03880287306
 50
34.2390522836269
 51
34.2404743524672
 62
 7 
  0
ARC
  8
Ebene_1
 10
-1730.45238125024
 20
-1497.30161761004
 30
0
 40
2300.31077648924
 50
34.2376024799798
 51
34.2390522836269
 62
 7 
  0
ARC
  8
Ebene_1
 10
1748.17739066706
 20
869.986945153966
 30
0
 40
1907.41072362628
 50
214.238100706122
 51
214.239176073245
 62
 7 
  0
ARC
  8
Ebene_1
 10
1209.97701344542
 20
503.688140473376
 30
0
 40
1256.38502493848
 50
214.239176073245
 51
214.24050107816
 62
 7 
  0
LINE
  8
Ebene_1
 10
334.909830126733
 20
-187.845926816053
 30
0
 11
335.802643602954
 21
-184.909090942935
 31
0
 62
 7 
  0
LINE
  8
Ebene_1
 10
341.716874111376
 20
-171.078680666558
 30
0
 11
342.478649708563
 21
-169.564785990132
 31
0
 62
 7 
  0
LINE
  8
Ebene_1
 10
395.1844677846
 20
-140.653636902021
 30
0
 11
388.391724027815
 21
-148.07611627665
 31
0
 62
 7 
  0
LINE
  8
Ebene_1
 10
371.388398616618
 20
-164.375335872614
 30
0
 11
364.621236388958
 21
-170.29450148296
 31
0
 62
 7 
  0
LINE
  8
Ebene_1
 10
360.439232724404
 20
-173.846433106176
 30
0
 11
356.890200609749
 21
-176.791584499948
 31
0
 62
 7 
  0
LINE
  8
Ebene_1
 10
365.495198100209
 20
-191.68169344762
 30
0
 11
366.141707617541
 21
-191.083692896116
 31
0
 62
 7 
  0
ARC
  8
Ebene_1
 10
362.160728469044
 20
-191.455580993861
 30
0
 40
5.0426998168214
 50
1.11236243183388
 51
8.30520764608592
 62
 7 
  0
ARC
  8
Ebene_1
 10
362.783814707659
 20
-191.443482636476
 30
0
 40
4.41949613342126
 50
335.824282448787
 51
361.112362431834
 62
 7 
  0
ARC
  8
Ebene_1
 10
359.975497927057
 20
-190.182805338896
 30
0
 40
7.49779930056513
 50
323.776256696794
 51
335.824282448787
 62
 7 
  0
ARC
  8
Ebene_1
 10
341.893354303906
 20
-176.93716624423
 30
0
 40
29.9123230080719
 50
321.845884515422
 51
323.776256696794
 62
 7 
  0
ARC
  8
Ebene_1
 10
428.642456900515
 20
-245.089557420024
 30
0
 40
80.4061034867587
 50
141.845884515422
 51
142.316848299708
 62
 7 
  0
ARC
  8
Ebene_1
 10
375.654111146623
 20
-204.160393607057
 30
0
 40
13.451184054631
 50
142.316848299708
 51
143.952578116518
 62
 7 
  0
ARC
  8
Ebene_1
 10
456.15830682957
 20
-262.75197945393
 30
0
 40
113.019750653783
 50
143.952578116518
 51
144.097674232898
 62
 7 
  0
ARC
  8
Ebene_1
 10
313.023998579536
 20
-159.131164999646
 30
0
 40
63.6853805291712
 50
323.327708896638
 51
324.097674232898
 62
 7 
  0
ARC
  8
Ebene_1
 10
274.975847291136
 20
-130.799560364692
 30
0
 40
111.123146472103
 50
315.805693153932
 51
323.327708896638
 62
 7 
  0
ARC
  8
Ebene_1
 10
263.071703718205
 20
-119.225587784061
 30
0
 40
127.726323141106
 50
312.637249377478
 51
315.805693153932
 62
 7 
  0
ARC
  8
Ebene_1
 10
328.970243054656
 20
-190.79626786636
 30
0
 40
30.4381957353402
 50
311.897081467288
 51
312.637249377478
 62
 7 
  0
ARC
  8
Ebene_1
 10
329.80986143212
 20
-191.732133738757
 30
0
 40
29.1808954725173
 50
302.231531545243
 51
311.897081467287
 62
 7 
  0
ARC
  8
Ebene_1
 10
334.033655237567
 20
-198.431225607762
 30
0
 40
21.2614090005111
 50
295.539547784632
 51
302.231531545243
 62
 7 
  0
ARC
  8
Ebene_1
 10
339.466653283449
 20
-209.801538649081
 30
0
 40
8.65976282137492
 50
293.443592006212
 51
295.539547784632
 62
 7 
  0
ARC
  8
Ebene_1
 10
339.4260794446
 20
-209.70797341189
 30
0
 40
8.76174659463986
 50
277.537047590099
 51
293.443592006211
 62
 7 
  0
ARC
  8
Ebene_1
 10
339.533265051125
 20
-210.518080828109
 30
0
 40
7.94457905976241
 50
233.832261109844
 51
277.537047590099
 62
 7 
  0
ARC
  8
Ebene_1
 10
340.118105006436
 20
-209.718053578291
 30
0
 40
8.93557924834879
 50
204.003517683388
 51
233.832261109844
 62
 7 
  0
ARC
  8
Ebene_1
 10
341.634776154395
 20
-209.042676499422
 30
0
 40
10.5958278953029
 50
181.317511716337
 51
204.003517683388
 62
 7 
  0
ARC
  8
Ebene_1
 10
379.38480858835
 20
-208.174464589933
 30
0
 40
48.3558429997013
 50
165.413910665616
 51
181.317511716337
 62
 7 
  0
ARC
  8
Ebene_1
 10
649.256211772476
 20
-278.400737299127
 30
0
 40
327.214774424168
 50
165.134328174989
 51
165.413910665616
 62
 7 
  0
ARC
  8
Ebene_1
 10
441.883734053011
 20
-223.356207541355
 30
0
 40
112.661180253005
 50
163.765605291375
 51
165.134328174989
 62
 7 
  0
ARC
  8
Ebene_1
 10
667.456295714897
 20
-289.037961407971
 30
0
 40
347.601754368461
 50
163.075287399963
 51
163.765605291375
 62
 7 
  0
ARC
  8
Ebene_1
 10
-6.85519332592276
 20
-81.4679813032597
 30
0
 40
357.930798300822
 50
343.202052040133
 51
343.451287426061
 62
 7 
  0
ARC
  8
Ebene_1
 10
341.987474482922
 20
-213.850705742837
 30
0
 40
30.9695459803737
 50
100.677845180896
 51
101.88393548629
 62
 7 
  0
ARC
  8
Ebene_1
 10
-496.614857818717
 20
3771.13967524892
 30
0
 40
4041.30281823332
 50
281.880344875833
 51
281.88393548629
 62
 7 
  0
ARC
  8
Ebene_1
 10
334.024074588613
 20
-177.236944163674
 30
0
 40
6.49935774669764
 50
281.79080967523
 51
281.880344875833
 62
 7 
  0
ARC
  8
Ebene_1
 10
332.268812021961
 20
-168.828238419454
 30
0
 40
15.0893099567376
 50
279.101427289392
 51
281.79080967523
 62
 7 
  0
ARC
  8
Ebene_1
 10
333.900341912158
 20
-179.012595318327
 30
0
 40
4.77509572460948
 50
273.408734645427
 51
279.101427289392
 62
 7 
  0
ARC
  8
Ebene_1
 10
320.840382187322
 20
40.2469239588883
 30
0
 40
224.423221921238
 50
272.777855563773
 51
273.408734645427
 62
 7 
  0
ARC
  8
Ebene_1
 10
340.273235356381
 20
-360.259119477663
 30
0
 40
176.553992657709
 50
92.7778555637727
 51
94.2333674905389
 62
 7 
  0
ARC
  8
Ebene_1
 10
327.346765339758
 20
-185.626527098931
 30
0
 40
1.44363902889906
 50
94.2333674905396
 51
98.4777437119542
 62
 7 
  0
ARC
  8
Ebene_1
 10
327.547242842018
 20
-186.971527119809
 30
0
 40
2.80349794991693
 50
98.4777437119528
 51
127.606251752889
 62
 7 
  0
ARC
  8
Ebene_1
 10
326.432008492979
 20
-185.523692628551
 30
0
 40
0.975938821639275
 50
127.60625175289
 51
145.443516549646
 62
 7 
  0
ARC
  8
Ebene_1
 10
326.296908143738
 20
-185.430644502502
 30
0
 40
0.811895967097095
 50
145.443516549645
 51
150.195238762436
 62
 7 
  0
ARC
  8
Ebene_1
 10
160.280362834116
 20
-90.3337508753933
 30
0
 40
190.512207308124
 50
329.959085384681
 51
330.195238762437
 62
 7 
  0
ARC
  8
Ebene_1
 10
218.922956210353
 20
-124.246926143379
 30
0
 40
122.769626794478
 50
329.664907332547
 51
329.959085384681
 62
 7 
  0
ARC
  8
Ebene_1
 10
213.455690774654
 20
-121.047620518496
 30
0
 40
129.104178698582
 50
324.115965396521
 51
329.664907332547
 62
 7 
  0
ARC
  8
Ebene_1
 10
228.803214695919
 20
-132.150858852062
 30
0
 40
110.161412480162
 50
317.771625950678
 51
324.115965396521
 62
 7 
  0
ARC
  8
Ebene_1
 10
270.762186536557
 20
-170.234811349774
 30
0
 40
53.4962313212573
 50
310.584743668501
 51
317.771625950678
 62
 7 
  0
ARC
  8
Ebene_1
 10
282.805147089953
 20
-184.293148688739
 30
0
 40
34.9848902670061
 50
300.83396067519
 51
310.584743668501
 62
 7 
  0
ARC
  8
Ebene_1
 10
285.811292335578
 20
-189.329215039926
 30
0
 40
29.119834979001
 50
294.394664837467
 51
300.83396067519
 62
 7 
  0
ARC
  8
Ebene_1
 10
288.687803904737
 20
-195.672019456008
 30
0
 40
22.1552469317317
 50
287.766242824553
 51
294.394664837467
 62
 7 
  0
ARC
  8
Ebene_1
 10
290.43317876965
 20
-201.119249984401
 30
0
 40
16.4352247422179
 50
272.71497797656
 51
287.766242824553
 62
 7 
  0
ARC
  8
Ebene_1
 10
290.511923414846
 20
-202.779800651066
 30
0
 40
14.7728080568746
 50
250.801017899544
 51
272.71497797656
 62
 7 
  0
ARC
  8
Ebene_1
 10
291.036502587924
 20
-201.273328286009
 30
0
 40
16.3680015547011
 50
239.967485428707
 51
250.801017899544
 62
 7 
  0
ARC
  8
Ebene_1
 10
286.66074686582
 20
-208.842436544462
 30
0
 40
7.62508225004573
 50
237.799156846993
 51
239.967485428707
 62
 7 
  0
ARC
  8
Ebene_1
 10
286.856961705407
 20
-208.530862835317
 30
0
 40
7.99329202653765
 50
231.596979112028
 51
237.799156846993
 62
 7 
  0
ARC
  8
Ebene_1
 10
286.58512100901
 20
-208.873803290134
 30
0
 40
7.55567859008105
 50
208.17220724487
 51
231.596979112028
 62
 7 
  0
ARC
  8
Ebene_1
 10
288.648967808291
 20
-207.768466959004
 30
0
 40
9.8968817029741
 50
190.469907869084
 51
208.17220724487
 62
 7 
  0
ARC
  8
Ebene_1
 10
294.642690332342
 20
-206.660851911429
 30
0
 40
15.9920864402187
 50
183.025870713679
 51
190.469907869084
 62
 7 
  0
ARC
  8
Ebene_1
 10
310.35335898561
 20
-205.830377179118
 30
0
 40
31.7246894611358
 50
181.602852169742
 51
183.025870713679
 62
 7 
  0
ARC
  8
Ebene_1
 10
310.223508861869
 20
-205.83401069045
 30
0
 40
31.5947885102536
 50
180.17691112846
 51
181.602852169742
 62
 7 
  0
ARC
  8
Ebene_1
 10
310.212166853976
 20
-205.834045711071
 30
0
 40
31.5834464482948
 50
178.175634773965
 51
180.17691112846
 62
 7 
  0
ARC
  8
Ebene_1
 10
310.412344659463
 20
-205.840421763554
 30
0
 40
31.7837257728761
 50
168.505397364205
 51
178.175634773965
 62
 7 
  0
ARC
  8
Ebene_1
 10
318.158840044183
 20
-207.415704137241
 30
0
 40
39.6887688026348
 50
157.024069656163
 51
168.505397364205
 62
 7 
  0
ARC
  8
Ebene_1
 10
339.005555739429
 20
-216.254276263116
 30
0
 40
62.3317790376437
 50
150.799406253277
 51
157.024069656163
 62
 7 
  0
ARC
  8
Ebene_1
 10
362.268681926293
 20
-229.25591441133
 30
0
 40
88.9816502291343
 50
142.834222437269
 51
150.799406253277
 62
 7 
  0
ARC
  8
Ebene_1
 10
349.574492514035
 20
-219.632445380541
 30
0
 40
73.0520048777515
 50
132.12446176352
 51
142.834222437269
 62
 7 
  0
ARC
  8
Ebene_1
 10
332.130461588308
 20
-200.34331550369
 30
0
 40
47.0449914709081
 50
124.487238384424
 51
132.12446176352
 62
 7 
  0
ARC
  8
Ebene_1
 10
323.024633652841
 20
-187.08792971212
 30
0
 40
30.9632827658701
 50
111.748419838195
 51
124.487238384424
 62
 7 
  0
ARC
  8
Ebene_1
 10
320.924255267555
 20
-181.822867822885
 30
0
 40
25.2947321522782
 50
100.117277786043
 51
111.748419838195
 62
 7 
  0
ARC
  8
Ebene_1
 10
321.518507110628
 20
-185.153161518242
 30
0
 40
28.6776290396122
 50
92.8366464203908
 51
100.117277786043
 62
 7 
  0
ARC
  8
Ebene_1
 10
320.847484775585
 20
-171.610645336341
 30
0
 40
15.1184987020429
 50
78.0732931719595
 51
92.8366464203907
 62
 7 
  0
ARC
  8
Ebene_1
 10
321.725384429162
 20
-167.454315553598
 30
0
 40
10.8704656201725
 50
61.9298917074899
 51
78.0732931719596
 62
 7 
  0
ARC
  8
Ebene_1
 10
321.714653306405
 20
-167.474438420654
 30
0
 40
10.8932710312448
 50
55.3209880483056
 51
61.9298917074899
 62
 7 
  0
ARC
  8
Ebene_1
 10
323.810317838147
 20
-164.445544471248
 30
0
 40
7.21006476681346
 50
52.3944742889155
 51
55.3209880483055
 62
 7 
  0
ARC
  8
Ebene_1
 10
323.791721120659
 20
-164.469687984036
 30
0
 40
7.24054011933022
 50
46.5226106599621
 51
52.3944742889155
 62
 7 
  0
ARC
  8
Ebene_1
 10
324.026445427997
 20
-164.22214460283
 30
0
 40
6.89940491734458
 50
26.0627500187692
 51
46.5226106599619
 62
 7 
  0
ARC
  8
Ebene_1
 10
321.819818940424
 20
-165.301381425171
 30
0
 40
9.35581542341912
 50
10.7826253862674
 51
26.0627500187691
 62
 7 
  0
ARC
  8
Ebene_1
 10
314.960496364009
 20
-166.607711569782
 30
0
 40
16.3384227196972
 50
2.92672127853174
 51
10.7826253862675
 62
 7 
  0
ARC
  8
Ebene_1
 10
317.776354846602
 20
-166.46374968744
 30
0
 40
13.5188865845217
 50
355.60462746068
 51
362.926721278531
 62
 7 
  0
ARC
  8
Ebene_1
 10
311.076263319544
 20
-165.948750070873
 30
0
 40
20.2387415737324
 50
344.723665936617
 51
355.60462746068
 62
 7 
  0
ARC
  8
Ebene_1
 10
273.48139298502
 20
-155.680646142835
 30
0
 40
59.2106318761888
 50
341.888521213846
 51
344.723665936617
 62
 7 
  0
ARC
  8
Ebene_1
 10
130.594616419999
 20
-108.946362124549
 30
0
 40
209.546004359993
 50
341.607750243705
 51
341.888521213846
 62
 7 
  0
ARC
  8
Ebene_1
 10
458.124999914904
 20
-217.852014468167
 30
0
 40
135.615687061157
 50
161.607750243704
 51
162.173506836251
 62
 7 
  0
ARC
  8
Ebene_1
 10
387.903342163669
 20
-195.270484250343
 30
0
 40
61.8525070571048
 50
162.173506836251
 51
162.989258704234
 62
 7 
  0
ARC
  8
Ebene_1
 10
311.722523129544
 20
-171.964053017422
 30
0
 40
17.81371492891
 50
340.318428013567
 51
342.989258704234
 62
 7 
  0
ARC
  8
Ebene_1
 10
324.061887526538
 20
-176.377708131466
 30
0
 40
4.70874391835306
 50
335.098489501
 51
340.318428013567
 62
 7 
  0
ARC
  8
Ebene_1
 10
334.969614518207
 20
-181.441255952615
 30
0
 40
7.31697953854765
 50
155.098489500999
 51
156.024834711509
 62
 7 
  0
ARC
  8
Ebene_1
 10
330.545565197783
 20
-179.473839561552
 30
0
 40
2.47518858422387
 50
156.024834711509
 51
157.61757104558
 62
 7 
  0
ARC
  8
Ebene_1
 10
330.14477414396
 20
-179.30878918409
 30
0
 40
2.04174297526589
 50
157.61757104558
 51
175.43063765695
 62
 7 
  0
ARC
  8
Ebene_1
 10
328.793291164721
 20
-179.200778768231
 30
0
 40
0.685950773965753
 50
175.430637656951
 51
198.965717824946
 62
 7 
  0
ARC
  8
Ebene_1
 10
328.708809043732
 20
-179.229811765055
 30
0
 40
0.596619124079334
 50
198.965717824945
 51
206.816478961514
 62
 7 
  0
ARC
  8
Ebene_1
 10
328.692638843221
 20
-179.23798575938
 30
0
 40
0.578500361213629
 50
206.816478961514
 51
245.231897156245
 62
 7 
  0
ARC
  8
Ebene_1
 10
329.116267014192
 20
-178.319828333703
 30
0
 40
1.5896748691819
 50
245.231897156244
 51
272.713093266971
 62
 7 
  0
ARC
  8
Ebene_1
 10
321.962268557741
 20
-27.352843259254
 30
0
 40
152.726071135548
 50
272.713093266971
 51
275.014377246563
 62
 7 
  0
ARC
  8
Ebene_1
 10
334.565776530632
 20
-170.996445106467
 30
0
 40
8.53060392224281
 50
275.014377246563
 51
277.863661252526
 62
 7 
  0
ARC
  8
Ebene_1
 10
330.734036423076
 20
-143.25334795405
 30
0
 40
36.5370616036474
 50
277.863661252526
 51
279.908137595137
 62
 7 
  0
ARC
  8
Ebene_1
 10
420.18034973057
 20
-655.328192907285
 30
0
 40
483.291073262274
 50
99.8334182166241
 51
99.908137595136
 62
 7 
  0
ARC
  8
Ebene_1
 10
344.361061025459
 20
-217.902607246978
 30
0
 40
39.343207482956
 50
99.5715377516551
 51
99.8334182166241
 62
 7 
  0
ARC
  8
Ebene_1
 10
346.175388102686
 20
-228.662055066236
 30
0
 40
50.2545547929117
 50
99.3149508429301
 51
99.5715377516551
 62
 7 
  0
ARC
  8
Ebene_1
 10
344.508918940694
 20
-218.502158825544
 30
0
 40
39.9588949748386
 50
99.0272006866689
 51
99.3149508429301
 62
 7 
  0
ARC
  8
Ebene_1
 10
338.236647703974
 20
-179.021912615988
 30
0
 40
0.0164877904848325
 50
279.027200686745
 51
336.89707004116
 62
 7 
  0
ARC
  8
Ebene_1
 10
138.871942274354
 20
-93.9736094168615
 30
0
 40
216.764035984438
 50
336.8970700411
 51
337.572271623062
 62
 7 
  0
ARC
  8
Ebene_1
 10
484.733357265991
 20
-236.723252231416
 30
0
 40
157.39846735295
 50
156.09054096881
 51
157.572271623061
 62
 7 
  0
ARC
  8
Ebene_1
 10
379.673547450014
 20
-190.146400848191
 30
0
 40
42.4768996498228
 50
153.327110658206
 51
156.09054096881
 62
 7 
  0
ARC
  8
Ebene_1
 10
1096.6991730411
 20
-549.210146733231
 30
0
 40
844.380955345257
 50
152.645083772521
 51
153.281089202897
 62
 7 
  0
ARC
  8
Ebene_1
 10
572.497489337948
 20
-278.012889255968
 30
0
 40
254.181533403477
 50
150.748493924137
 51
152.645083772521
 62
 7 
  0
ARC
  8
Ebene_1
 10
464.674414297873
 20
-217.625342687159
 30
0
 40
130.599692942599
 50
148.135552665371
 51
150.748493924137
 62
 7 
  0
ARC
  8
Ebene_1
 10
494.130504596163
 20
-235.934794539663
 30
0
 40
165.282502557741
 50
144.811543671564
 51
148.135552665371
 62
 7 
  0
ARC
  8
Ebene_1
 10
841.105144652829
 20
-480.593799311073
 30
0
 40
589.840424940765
 50
143.745053820516
 51
144.811543671564
 62
 7 
  0
ARC
  8
Ebene_1
 10
552.384009948403
 20
-268.856377678863
 30
0
 40
231.800442055519
 50
141.223346752683
 51
143.745053820516
 62
 7 
  0
ARC
  8
Ebene_1
 10
491.472155173153
 20
-219.922840914746
 30
0
 40
153.66757398832
 50
140.036010534657
 51
141.223346752683
 62
 7 
  0
ARC
  8
Ebene_1
 10
485.497127435363
 20
-214.915593366603
 30
0
 40
145.871838970007
 50
135.127294315044
 51
140.036010534657
 62
 7 
  0
ARC
  8
Ebene_1
 10
460.28553949439
 20
-189.815782691206
 30
0
 40
110.296220037286
 50
131.240233439816
 51
135.127294315044
 62
 7 
  0
ARC
  8
Ebene_1
 10
425.758144536191
 20
-150.431293733604
 30
0
 40
57.9198993088222
 50
125.324850401101
 51
131.240233439816
 62
 7 
  0
ARC
  8
Ebene_1
 10
415.169927614854
 20
-135.490763112822
 30
0
 40
39.6078870544626
 50
115.723314602278
 51
125.324850401101
 62
 7 
  0
ARC
  8
Ebene_1
 10
411.387882587034
 20
-127.640430513248
 30
0
 40
30.8940138331915
 50
107.399077159135
 51
115.723314602278
 62
 7 
  0
ARC
  8
Ebene_1
 10
411.145326157419
 20
-126.86638831547
 30
0
 40
30.0828572851139
 50
104.441436045437
 51
107.399077159135
 62
 7 
  0
ARC
  8
Ebene_1
 10
412.261973012139
 20
-131.202419990354
 30
0
 40
34.5603645027238
 50
99.2556106335171
 51
104.441436045437
 62
 7 
  0
ARC
  8
Ebene_1
 10
409.430374330241
 20
-113.826477079423
 30
0
 40
16.95521346278
 50
87.2960490893612
 51
99.2556106335169
 62
 7 
  0
ARC
  8
Ebene_1
 10
409.668923930758
 20
-108.775447167572
 30
0
 40
11.8985535886806
 50
75.4526261656125
 51
87.2960490893612
 62
 7 
  0
ARC
  8
Ebene_1
 10
409.770854739042
 20
-108.382650072416
 30
0
 40
11.4927464329529
 50
68.1461419126856
 51
75.4526261656126
 62
 7 
  0
ARC
  8
Ebene_1
 10
410.460022965054
 20
-106.664292837648
 30
0
 40
9.64134036457533
 50
60.4356421747139
 51
68.146141912686
 62
 7 
  0
ARC
  8
Ebene_1
 10
413.072245641805
 20
-102.059281637709
 30
0
 40
4.34701930663986
 50
44.1925562807071
 51
60.435642174714
 62
 7 
  0
ARC
  8
Ebene_1
 10
413.423646046601
 20
-101.717648490485
 30
0
 40
3.85692191655002
 50
17.8147525806469
 51
44.192556280707
 62
 7 
  0
ARC
  8
Ebene_1
 10
412.025548009406
 20
-102.166925787522
 30
0
 40
5.32543416070741
 50
4.54617183694391
 51
17.8147525806469
 62
 7 
  0
ARC
  8
Ebene_1
 10
400.258661319125
 20
-103.102541546996
 30
0
 40
17.1294588654978
 50
2.83222870391463
 51
4.54617183694381
 62
 7 
  0
ARC
  8
Ebene_1
 10
400.73823734806
 20
-103.078815953306
 30
0
 40
16.6492963187231
 50
347.379626513724
 51
362.832228703915
 62
 7 
  0
ARC
  8
Ebene_1
 10
396.337412545824
 20
-102.093471880987
 30
0
 40
21.159081444517
 50
333.445150014459
 51
347.379626513724
 62
 7 
  0
ARC
  8
Ebene_1
 10
384.1503523165
 20
-96.0026538218985
 30
0
 40
34.7834163516633
 50
327.127609441263
 51
333.445150014459
 62
 7 
  0
ARC
  8
Ebene_1
 10
-118.803406513948
 20
229.029038414453
 30
0
 40
633.622363381416
 50
327.034803419496
 51
327.127609441263
 62
 7 
  0
ARC
  8
Ebene_1
 10
-24.016379129841
 20
167.555449628034
 30
0
 40
520.646336373041
 50
326.188492245063
 51
327.034803419496
 62
 7 
  0
ARC
  8
Ebene_1
 10
-190.060914842269
 20
278.760879845619
 30
0
 40
720.489864038647
 50
324.923984783866
 51
326.188492245063
 62
 7 
  0
ARC
  8
Ebene_1
 10
371.716558479513
 20
-115.711717210368
 30
0
 40
34.0479077452534
 50
322.169854416886
 51
324.923984783866
 62
 7 
  0
ARC
  8
Ebene_1
 10
348.262162859939
 20
-97.4988498357839
 30
0
 40
63.7433149976167
 50
318.606821012829
 51
322.169854416886
 62
 7 
  0
ARC
  8
Ebene_1
 10
308.242620410789
 20
-62.2253436101759
 30
0
 40
117.08920536686
 50
317.947088613101
 51
318.606821012829
 62
 7 
  0
ARC
  8
Ebene_1
 10
217.465668580363
 20
9.92141678611063
 30
0
 40
232.763693227152
 50
315.807931429912
 51
317.250883424438
 62
 7 
  0
ARC
  8
Ebene_1
 10
301.956253721317
 20
-72.2193335493738
 30
0
 40
114.925830707768
 50
313.257375197931
 51
315.807931429912
 62
 7 
  0
ARC
  8
Ebene_1
 10
150.379228610185
 20
88.8702356902848
 30
0
 40
336.116797655697
 50
311.607750584636
 51
313.257375197931
 62
 7 
  0
ARC
  8
Ebene_1
 10
-37.1829475872864
 20
300.069048237641
 30
0
 40
618.578314258127
 50
311.338062387393
 51
311.607750584636
 62
 7 
  0
ARC
  8
Ebene_1
 10
241.162130698076
 20
-28.4256393421913
 30
0
 40
188.066277740346
 50
310.39556670139
 51
311.030898928996
 62
 7 
  0
ARC
  8
Ebene_1
 10
137.802899270346
 20
93.0400874201471
 30
0
 40
347.556257046991
 50
309.834813101348
 51
310.39556670139
 62
 7 
  0
ARC
  8
Ebene_1
 10
752.943994720656
 20
-654.39029895596
 30
0
 40
620.450755402618
 50
129.667579785574
 51
129.993255871788
 62
 7 
  0
ARC
  8
Ebene_1
 10
359.034889596899
 20
-184.835473588633
 30
0
 40
7.5509943281501
 50
129.993255871788
 51
132.296434164163
 62
 7 
  0
ARC
  8
Ebene_1
 10
362.083093588339
 20
-188.18582489251
 30
0
 40
12.0804977703414
 50
132.296434164162
 51
149.918619993861
 62
 7 
  0
ARC
  8
Ebene_1
 10
368.108259789022
 20
-191.675876044905
 30
0
 40
19.0434773618803
 50
149.918619993861
 51
159.154544078629
 62
 7 
  0
ARC
  8
Ebene_1
 10
393.89617206413
 20
-201.495203191246
 30
0
 40
46.6376000171767
 50
159.154544078629
 51
162.321659381673
 62
 7 
  0
ARC
  8
Ebene_1
 10
490.797857561773
 20
-232.38011825599
 30
0
 40
148.342145789922
 50
162.321659381673
 51
164.731847321101
 62
 7 
  0
ARC
  8
Ebene_1
 10
410.946781398499
 20
-210.583034718419
 30
0
 40
65.5695222047246
 50
164.731847321101
 51
170.723148267048
 62
 7 
  0
ARC
  8
Ebene_1
 10
348.577535386942
 20
-200.395551018214
 30
0
 40
2.37373379922975
 50
170.723148267047
 51
178.559821994741
 62
 7 
  0
ARC
  8
Ebene_1
 10
351.083823160051
 20
-200.458561957631
 30
0
 40
4.88081353073438
 50
178.559821994741
 51
193.067037042495
 62
 7 
  0
ARC
  8
Ebene_1
 10
352.942948952472
 20
-200.027057180867
 30
0
 40
6.78935881036909
 50
193.067037042495
 51
200.573659193051
 62
 7 
  0
ARC
  8
Ebene_1
 10
376.784333202099
 20
-191.078177069568
 30
0
 40
32.2549053033222
 50
200.573659193051
 51
203.92328619041
 62
 7 
  0
ARC
  8
Ebene_1
 10
291.442358572484
 20
-228.938038014356
 30
0
 40
61.107944398476
 50
23.1792599684358
 51
23.92328619041
 62
 7 
  0
ARC
  8
Ebene_1
 10
332.258576662631
 20
-211.461670707967
 30
0
 40
16.7076395187756
 50
21.6942871036041
 51
23.1792599684358
 62
 7 
  0
ARC
  8
Ebene_1
 10
354.192600563383
 20
-202.735595735332
 30
0
 40
6.89841455442289
 50
201.694287103604
 51
202.077306049574
 62
 7 
  0
ARC
  8
Ebene_1
 10
347.848651030082
 20
-205.308679937439
 30
0
 40
0.052506434078014
 50
202.077306049541
 51
230.791161333302
 62
 7 
  0
ARC
  8
Ebene_1
 10
348.215893672329
 20
-204.858537765417
 30
0
 40
0.633449747420498
 50
230.791161333291
 51
260.087148428081
 62
 7 
  0
ARC
  8
Ebene_1
 10
348.732324217206
 20
-201.903437877766
 30
0
 40
3.63333572086646
 50
260.087148428082
 51
281.833194711168
 62
 7 
  0
ARC
  8
Ebene_1
 10
349.198811595153
 20
-204.129942148174
 30
0
 40
1.35848809081927
 50
281.833194711166
 51
291.094498512583
 62
 7 
  0
ARC
  8
Ebene_1
 10
345.272359296499
 20
-193.951393337214
 30
0
 40
12.2681115284412
 50
291.094498512582
 51
308.895278566625
 62
 7 
  0
ARC
  8
Ebene_1
 10
335.178103873355
 20
-181.439335848349
 30
0
 40
28.3443540979073
 50
308.895278566625
 51
314.90222656829
 62
 7 
  0
ARC
  8
Ebene_1
 10
275.938621065455
 20
-121.997326639425
 30
0
 40
112.264964094149
 50
314.90222656829
 51
315.52986951201
 62
 7 
  0
ARC
  8
Ebene_1
 10
1721.30381390819
 20
-1540.87335433783
 30
0
 40
1913.14603682851
 50
135.503632137595
 51
135.529869512009
 62
 7 
  0
ARC
  8
Ebene_1
 10
394.726684013007
 20
-237.414934968191
 30
0
 40
53.3582175903737
 50
134.76953093125
 51
135.503632137595
 62
 7 
  0
ARC
  8
Ebene_1
 10
479.303194538018
 20
-322.674605718599
 30
0
 40
173.451504617814
 50
132.806707473108
 51
134.76953093125
 62
 7 
  0
ARC
  8
Ebene_1
 10
886.048100259449
 20
-761.816014328213
 30
0
 40
772.021964201288
 50
132.551289769109
 51
132.806707473108
 62
 7 
  0
ARC
  8
Ebene_1
 10
3.42070002749997
 20
199.673373108405
 30
0
 40
533.157322254581
 50
312.55128976911
 51
312.774431436838
 62
 7 
  0
ARC
  8
Ebene_1
 10
366.47384121771
 20
-191.4958775315
 30
0
 40
0.52934761925141
 50
111.173455146896
 51
128.861464369353
 62
 7 
  0
ARC
  8
Ebene_1
 10
367.73377675073
 20
-194.748654247475
 30
0
 40
4.01761279141937
 50
105.478254829021
 51
111.173455146895
 62
 7 
  0
ARC
  8
Ebene_1
 10
363.018850240826
 20
-177.722087831236
 30
0
 40
13.6497156970756
 50
285.478254829022
 51
286.536104119815
 62
 7 
  0
ARC
  8
Ebene_1
 10
365.440624363674
 20
-185.878982020339
 30
0
 40
5.14090187173448
 50
286.536104119815
 51
289.427316656479
 62
 7 
  0
LINE
  8
Ebene_1
 10
382.715244539161
 20
-126.713799267902
 30
0
 11
381.440352525474
 21
-128.511082205206
 31
0
 62
 7 
  0
LINE
  8
Ebene_1
 10
361.653239711075
 20
-159.883889133321
 30
0
 11
359.538782457805
 21
-163.748241077275
 31
0
 62
 7 
  0
ARC
  8
Ebene_1
 10
303.89750490847
 20
-97.1186365309106
 30
0
 40
91.9424293921553
 50
303.982234545008
 51
307.6492746811
 62
 7 
  0
ARC
  8
Ebene_1
 10
286.43597926642
 20
-74.4846766106613
 30
0
 40
120.529157421425
 50
307.6492746811
 51
312.687908792765
 62
 7 
  0
ARC
  8
Ebene_1
 10
214.996328361455
 20
2.96652007088007
 30
0
 40
225.896664693951
 50
312.687908792765
 51
315.118685855298
 62
 7 
  0
ARC
  8
Ebene_1
 10
-134.962954559164
 20
351.478945450215
 30
0
 40
719.791805737169
 50
315.118685855298
 51
316.090613798078
 62
 7 
  0
ARC
  8
Ebene_1
 10
233.038766968318
 20
-2.77315715394564
 30
0
 40
208.988693719771
 50
316.090613798078
 51
317.458846603705
 62
 7 
  0
ARC
  8
Ebene_1
 10
165.886444255235
 20
58.8494004289313
 30
0
 40
300.130199351492
 50
317.458846603705
 51
318.818042894326
 62
 7 
  0
ARC
  8
Ebene_1
 10
317.095246750463
 20
-73.4398131202273
 30
0
 40
99.2209213838091
 50
318.818042894326
 51
321.35957935799
 62
 7 
  0
ARC
  8
Ebene_1
 10
29.5741113490153
 20
156.417581577659
 30
0
 40
467.328005260006
 50
321.35957935799
 51
322.565921663052
 62
 7 
  0
ARC
  8
Ebene_1
 10
249.308548781533
 20
-11.7892657048599
 30
0
 40
190.602931465618
 50
322.565921663052
 51
325.298024234253
 62
 7 
  0
ARC
  8
Ebene_1
 10
357.056194141669
 20
-86.4027696211179
 30
0
 40
59.5429068688127
 50
325.298024234253
 51
331.555684617404
 62
 7 
  0
ARC
  8
Ebene_1
 10
376.816251495866
 20
-97.1067526154521
 30
0
 40
37.0699204499108
 50
331.555684617404
 51
340.302049819782
 62
 7 
  0
ARC
  8
Ebene_1
 10
383.714031578314
 20
-99.5762370388644
 30
0
 40
29.743412183124
 50
340.302049819782
 51
345.648733436333
 62
 7 
  0
ARC
  8
Ebene_1
 10
407.293676979573
 20
-105.609087595387
 30
0
 40
5.40424697380641
 50
345.648733436333
 51
349.530155312484
 62
 7 
  0
ARC
  8
Ebene_1
 10
407.87746707345
 20
-105.716968916172
 30
0
 40
4.81057260760687
 50
349.530155312484
 51
369.595913123744
 62
 7 
  0
ARC
  8
Ebene_1
 10
409.478038397867
 20
-105.446369972777
 30
0
 40
3.18728817390026
 50
9.59591312374378
 51
32.3101497935922
 62
 7 
  0
ARC
  8
Ebene_1
 10
409.708330855332
 20
-105.300728018735
 30
0
 40
2.91480662453907
 50
32.3101497935927
 51
73.2181157265512
 62
 7 
  0
ARC
  8
Ebene_1
 10
409.335477682813
 20
-106.537089957148
 30
0
 40
4.20616650118625
 50
73.2181157265513
 51
103.554195252272
 62
 7 
  0
ARC
  8
Ebene_1
 10
412.27830358405
 20
-118.743964586039
 30
0
 40
16.7627588928532
 50
103.554195252273
 51
119.607623145701
 62
 7 
  0
ARC
  8
Ebene_1
 10
416.58875936507
 20
-126.329388902835
 30
0
 40
25.4873615259799
 50
119.607623145701
 51
130.498138383853
 62
 7 
  0
ARC
  8
Ebene_1
 10
442.364619100531
 20
-156.511028766131
 30
0
 40
65.1777423497996
 50
130.498138383853
 51
133.654642796612
 62
 7 
  0
ARC
  8
Ebene_1
 10
469.369456469148
 20
-184.814801519787
 30
0
 40
104.297619565815
 50
133.654642796612
 51
144.725934562869
 62
 7 
  0
ARC
  8
Ebene_1
 10
647.610539961405
 20
-310.895436101763
 30
0
 40
322.623546246746
 50
144.725934562869
 51
144.820590093221
 62
 7 
  0
ARC
  8
Ebene_1
 10
25.79139814096
 20
127.415142411383
 30
0
 40
438.149224277307
 50
324.739961093035
 51
324.820590093222
 62
 7 
  0
ARC
  8
Ebene_1
 10
-674.877628544106
 20
622.783158497803
 30
0
 40
1296.24394883701
 50
324.675488753514
 51
324.739961093035
 62
 7 
  0
ARC
  8
Ebene_1
 10
1130.92505447977
 20
-660.37572242569
 30
0
 40
919.025197685238
 50
144.638947907251
 51
145.218651292665
 62
 7 
  0
ARC
  8
Ebene_1
 10
567.099733177958
 20
-268.779053331163
 30
0
 40
232.550912524442
 50
145.218651292665
 51
146.960395353254
 62
 7 
  0
ARC
  8
Ebene_1
 10
521.410264708528
 20
-239.063044323419
 30
0
 40
178.047988562811
 50
146.960395353254
 51
149.453069169224
 62
 7 
  0
ARC
  8
Ebene_1
 10
691.622511370801
 20
-339.513606344959
 30
0
 40
375.690403859381
 50
149.453069169224
 51
151.060910949742
 62
 7 
  0
ARC
  8
Ebene_1
 10
1076.1269052293
 20
-552.113824735743
 30
0
 40
815.056403632118
 50
151.060910949742
 51
151.234206430023
 62
 7 
  0
ARC
  8
Ebene_1
 10
-3510.95894624316
 20
1951.19146154097
 30
0
 40
4410.63743846514
 50
331.336702953694
 51
331.346670604226
 62
 7 
  0
ARC
  8
Ebene_1
 10
-2951.25755799214
 20
1645.22974409214
 30
0
 40
3772.76737602738
 50
331.325925566919
 51
331.336702953694
 62
 7 
  0
ARC
  8
Ebene_1
 10
378.870106782312
 20
-176.003886917443
 30
0
 40
22.8409022880421
 50
151.325925566918
 51
155.747654977492
 62
 7 
  0
ARC
  8
Ebene_1
 10
420.218855074957
 20
-194.632175653712
 30
0
 40
68.1921109445973
 50
155.747654977492
 51
158.492184985214
 62
 7 
  0
ARC
  8
Ebene_1
 10
668.652916711087
 20
-292.532100892283
 30
0
 40
335.219971556073
 50
158.492184985214
 51
158.698449501911
 62
 7 
  0
ARC
  8
Ebene_1
 10
216.867643095809
 20
-116.374298725391
 30
0
 40
149.693943195712
 50
338.004534113836
 51
338.698449501911
 62
 7 
  0
ARC
  8
Ebene_1
 10
288.888805637673
 20
-145.466107653492
 30
0
 40
72.0191004176871
 50
337.214090825962
 51
338.004534113836
 62
 7 
  0
ARC
  8
Ebene_1
 10
298.789846760139
 20
-166.516157452124
 30
0
 40
12.9346267728425
 50
321.500164524563
 51
322.524879350674
 62
 7 
  0
ARC
  8
Ebene_1
 10
286.967584086092
 20
-157.112360531601
 30
0
 40
28.0408271970592
 50
320.804209071612
 51
321.500164524563
 62
 7 
  0
ARC
  8
Ebene_1
 10
686.187376686817
 20
-482.659245972419
 30
0
 40
487.087523240367
 50
140.804209071611
 51
140.841984666668
 62
 7 
  0
ARC
  8
Ebene_1
 10
315.12402582665
 20
-180.479858462719
 30
0
 40
8.54766848706251
 50
140.841984666668
 51
141.127146515766
 62
 7 
  0
ARC
  8
Ebene_1
 10
315.481455662095
 20
-180.767988479522
 30
0
 40
9.00677086545889
 50
141.127146515766
 51
144.772424416017
 62
 7 
  0
ARC
  8
Ebene_1
 10
310.835811820539
 20
-177.487497612502
 30
0
 40
3.31962509352811
 50
144.772424416016
 51
150.077584762568
 62
 7 
  0
ARC
  8
Ebene_1
 10
175.754872069923
 20
-99.7421761691742
 30
0
 40
152.536703909294
 50
329.913350179878
 51
330.077584762569
 62
 7 
  0
ARC
  8
Ebene_1
 10
191.355732478386
 20
-108.780822728796
 30
0
 40
134.506618576326
 50
329.402590743816
 51
329.913350179878
 62
 7 
  0
ARC
  8
Ebene_1
 10
-267.664618143067
 20
162.655041821518
 30
0
 40
667.77682292757
 50
329.214503275969
 51
329.402590743816
 62
 7 
  0
ARC
  8
Ebene_1
 10
497.404815606426
 20
-293.155432084846
 30
0
 40
222.781668458882
 50
149.214503275968
 51
150.42531333411
 62
 7 
  0
ARC
  8
Ebene_1
 10
354.751760993923
 20
-212.200560355676
 30
0
 40
58.7585443362018
 50
150.42531333411
 51
153.366324276418
 62
 7 
  0
ARC
  8
Ebene_1
 10
347.008922109384
 20
-208.317541728847
 30
0
 40
50.0965937678702
 50
153.366324276418
 51
155.808307557127
 62
 7 
  0
ARC
  8
Ebene_1
 10
391.914253567016
 20
-228.49097230705
 30
0
 40
99.3252042968435
 50
155.808307557127
 51
159.96172776594
 62
 7 
  0
ARC
  8
Ebene_1
 10
534.726043855087
 20
-280.578271659322
 30
0
 40
251.339329295467
 50
159.96172776594
 51
161.189904580353
 62
 7 
  0
ARC
  8
Ebene_1
 10
302.465736578601
 20
-201.464744202676
 30
0
 40
5.9747015212072
 50
161.189904580353
 51
173.11170380301
 62
 7 
  0
ARC
  8
Ebene_1
 10
302.168263991119
 20
-201.42880771719
 30
0
 40
5.67506612394567
 50
173.11170380301
 51
178.408897341728
 62
 7 
  0
ARC
  8
Ebene_1
 10
301.465418681835
 20
-201.409284698129
 30
0
 40
4.97194972031381
 50
178.408897341727
 51
184.068550726066
 62
 7 
  0
ARC
  8
Ebene_1
 10
300.711128890046
 20
-201.462936727037
 30
0
 40
4.21575422297023
 50
184.068550726066
 51
202.122093777555
 62
 7 
  0
ARC
  8
Ebene_1
 10
299.300806790188
 20
-202.036242747778
 30
0
 40
2.69335867030755
 50
202.122093777554
 51
227.244504995476
 62
 7 
  0
ARC
  8
Ebene_1
 10
298.872048374681
 20
-202.499981754926
 30
0
 40
2.06178314385133
 50
227.244504995476
 51
269.436883244273
 62
 7 
  0
ARC
  8
Ebene_1
 10
298.994242549485
 20
-190.067417816846
 30
0
 40
14.4949475636922
 50
269.436883244274
 51
282.040400217847
 62
 7 
  0
ARC
  8
Ebene_1
 10
299.903327218912
 20
-194.329545097618
 30
0
 40
10.1369475758894
 50
282.040400217847
 51
289.741047114766
 62
 7 
  0
ARC
  8
Ebene_1
 10
297.935599302655
 20
-188.846275045643
 30
0
 40
15.9625980644876
 50
289.741047114766
 51
290.77396398969
 62
 7 
  0
ARC
  8
Ebene_1
 10
298.110627598914
 20
-189.307671770405
 30
0
 40
15.4691187416048
 50
290.77396398969
 51
302.625832305109
 62
 7 
  0
ARC
  8
Ebene_1
 10
295.082268742707
 20
-184.577059390645
 30
0
 40
21.086026329371
 50
302.625832305109
 51
315.416587841435
 62
 7 
  0
ARC
  8
Ebene_1
 10
280.737986645785
 20
-170.439864901894
 30
0
 40
41.2260039085256
 50
315.416587841435
 51
322.313925664598
 62
 7 
  0
ARC
  8
Ebene_1
 10
257.770348863727
 20
-152.697372325522
 30
0
 40
70.248554246331
 50
322.313925664598
 51
329.257510038887
 62
 7 
  0
ARC
  8
Ebene_1
 10
164.932898566825
 20
-97.481367933412
 30
0
 40
178.265216473319
 50
329.257510038887
 51
331.370644489831
 62
 7 
  0
ARC
  8
Ebene_1
 10
321.343833700778
 20
-183.37922518786
 30
0
 40
0.487204296393629
 50
83.0287896281266
 51
83.6586902176442
 62
 7 
  0
ARC
  8
Ebene_1
 10
323.552470498296
 20
-163.505027429847
 30
0
 40
19.5093407308847
 50
253.294249020828
 51
263.658690217646
 62
 7 
  0
ARC
  8
Ebene_1
 10
322.073355200974
 20
-168.433378166978
 30
0
 40
14.3638161656966
 50
241.578601075897
 51
253.294249020828
 62
 7 
  0
ARC
  8
Ebene_1
 10
321.629319389552
 20
-169.253872632984
 30
0
 40
13.4308751329556
 50
220.584267027814
 51
241.578601075897
 62
 7 
  0
ARC
  8
Ebene_1
 10
324.430101116428
 20
-166.854646101204
 30
0
 40
17.1187832435787
 50
208.224462959345
 51
220.584267027814
 62
 7 
  0
ARC
  8
Ebene_1
 10
327.034102479591
 20
-165.456961041578
 30
0
 40
20.0741760474637
 50
206.410059582504
 51
208.224462959345
 62
 7 
  0
LINE
  8
Ebene_1
 10
327.163449692568
 20
-167.815967899198
 30
0
 11
326.674301873712
 21
-167.683536109772
 31
0
 62
 7 
  0
LINE
  8
Ebene_1
 10
326.674376379595
 20
-167.327079229078
 30
0
 11
326.674497005555
 21
-167.164865358609
 31
0
 62
 7 
  0
ARC
  8
Ebene_1
 10
327.510530487573
 20
-167.674435835535
 30
0
 40
0.836327258458435
 50
179.996536963171
 51
180.619049603753
 62
 7 
  0
ARC
  8
Ebene_1
 10
658.861101461242
 20
-167.694463126228
 30
0
 40
332.186898837367
 50
179.96593770713
 51
179.996536963172
 62
 7 
  0
ARC
  8
Ebene_1
 10
1354.02844712048
 20
-168.107739578919
 30
0
 40
1027.35436734286
 50
179.956462396029
 51
179.96593770713
 62
 7 
  0
ARC
  8
Ebene_1
 10
172.691268903592
 20
-167.059642732561
 30
0
 40
153.98326405328
 50
359.960847609719
 51
360.250260215579
 62
 7 
  0
ARC
  8
Ebene_1
 10
318.762964324114
 20
-166.421617265893
 30
0
 40
7.91017522607087
 50
0.250260215578611
 51
2.18555873310654
 62
 7 
  0
ARC
  8
Ebene_1
 10
319.934482878195
 20
-166.376907774119
 30
0
 40
6.73780384241671
 50
2.18555873310622
 51
14.1514858875189
 62
 7 
  0
ARC
  8
Ebene_1
 10
323.208854271622
 20
-165.551313836203
 30
0
 40
3.36095421999987
 50
14.151485887519
 51
30.834048023013
 62
 7 
  0
ARC
  8
Ebene_1
 10
323.744214320858
 20
-165.231743852555
 30
0
 40
2.73746776724694
 50
30.8340480230129
 51
65.9106537184915
 62
 7 
  0
ARC
  8
Ebene_1
 10
322.802609274043
 20
-167.337778819307
 30
0
 40
5.04441452549025
 50
65.9106537184916
 51
82.9449830340614
 62
 7 
  0
ARC
  8
Ebene_1
 10
322.313291573723
 20
-171.29156156485
 30
0
 40
9.02836103753015
 50
82.9449830340615
 51
89.8428896929493
 62
 7 
  0
ARC
  8
Ebene_1
 10
322.319234605858
 20
-169.124232050847
 30
0
 40
6.86102337535191
 50
89.8428896929493
 51
111.965735843031
 62
 7 
  0
ARC
  8
Ebene_1
 10
323.770860218891
 20
-172.723326853382
 30
0
 40
10.74183518708
 50
111.965735843031
 51
126.268777574095
 62
 7 
  0
ARC
  8
Ebene_1
 10
344.55900065874
 20
-201.055296673835
 30
0
 40
45.8822292778399
 50
126.268777574095
 51
129.229896177381
 62
 7 
  0
ARC
  8
Ebene_1
 10
322.344656558491
 20
-173.846818197666
 30
0
 40
10.7570476442541
 50
129.229896177381
 51
129.915774286837
 62
 7 
  0
ARC
  8
Ebene_1
 10
322.562255878914
 20
-174.106918513496
 30
0
 40
11.0961665593019
 50
129.915774286838
 51
141.526148782035
 62
 7 
  0
ARC
  8
Ebene_1
 10
319.089193275165
 20
-171.346906769747
 30
0
 40
6.6599712665776
 50
141.526148782035
 51
158.321710123822
 62
 7 
  0
ARC
  8
Ebene_1
 10
318.022543701163
 20
-170.9229034528
 30
0
 40
5.51213847104389
 50
158.321710123822
 51
174.952479381561
 62
 7 
  0
ARC
  8
Ebene_1
 10
318.175829618869
 20
-170.93644234932
 30
0
 40
5.66602113506439
 50
174.952479381561
 51
180.565381726096
 62
 7 
  0
ARC
  8
Ebene_1
 10
318.377525165227
 20
-170.934451998921
 30
0
 40
5.86772650166426
 50
180.565381726097
 51
189.789497626568
 62
 7 
  0
ARC
  8
Ebene_1
 10
320.001872211819
 20
-170.654185163456
 30
0
 40
7.5160750166439
 50
189.789497626568
 51
200.263773184439
 62
 7 
  0
ARC
  8
Ebene_1
 10
316.997228374399
 20
-171.763477451479
 30
0
 40
4.31319912613363
 50
200.263773184438
 51
209.389521154965
 62
 7 
  0
ARC
  8
Ebene_1
 10
320.227867900713
 20
-169.94388400064
 30
0
 40
8.02102221729073
 50
209.389521154965
 51
224.211716628967
 62
 7 
  0
ARC
  8
Ebene_1
 10
324.070072183308
 20
-166.205974566389
 30
0
 40
13.3814793515145
 50
224.211716628967
 51
247.75062390833
 62
 7 
  0
ARC
  8
Ebene_1
 10
321.969033357678
 20
-171.341757105212
 30
0
 40
7.83254914535044
 50
247.750623908331
 51
263.436209985532
 62
 7 
  0
ARC
  8
Ebene_1
 10
321.517303667459
 20
-175.267671862075
 30
0
 40
3.88073103324266
 50
263.436209985532
 51
274.487632560825
 62
 7 
  0
ARC
  8
Ebene_1
 10
321.65100939875
 20
-176.971265508244
 30
0
 40
2.17189852715956
 50
274.487632560825
 51
283.365372621535
 62
 7 
  0
ARC
  8
Ebene_1
 10
321.177747529324
 20
-174.979380987894
 30
0
 40
4.21923356067537
 50
283.365372621535
 51
311.668023586191
 62
 7 
  0
ARC
  8
Ebene_1
 10
322.783764592931
 20
-176.78396170525
 30
0
 40
1.80349301706391
 50
311.668023586191
 51
329.211116169775
 62
 7 
  0
ARC
  8
Ebene_1
 10
323.43550490475
 20
-177.172305544901
 30
0
 40
1.04482551951045
 50
329.211116169775
 51
340.792093664171
 62
 7 
  0
ARC
  8
Ebene_1
 10
274.523925543307
 20
-160.131923270905
 30
0
 40
52.8397791701765
 50
340.792093664171
 51
341.091432196881
 62
 7 
  0
ARC
  8
Ebene_1
 10
279.711392289899
 20
-161.9088568029
 30
0
 40
47.3564130485202
 50
341.091432196881
 51
343.437628252282
 62
 7 
  0
ARC
  8
Ebene_1
 10
211.111050692158
 20
-141.507253408668
 30
0
 40
118.926185217937
 50
343.437628252282
 51
345.296885475722
 62
 7 
  0
ARC
  8
Ebene_1
 10
-287.20032856314
 20
-10.7487580486099
 30
0
 40
634.107720993575
 50
345.296885475722
 51
345.407054527392
 62
 7 
  0
ARC
  8
Ebene_1
 10
881.048338029219
 20
-314.901147412502
 30
0
 40
573.08473381659
 50
165.2307429654
 51
165.407054527392
 62
 7 
  0
ARC
  8
Ebene_1
 10
452.353016625086
 20
-201.88100360718
 30
0
 40
129.741490381474
 50
164.777931792726
 51
165.2307429654
 62
 7 
  0
LINE
  8
Ebene_1
 10
409.428448916027
 20
-175.438877778961
 30
0
 11
408.627151644818
 21
-176.515431774179
 31
0
 62
 7 
  0
LINE
  8
Ebene_1
 10
385.412393899395
 20
-191.461313881754
 30
0
 11
357.210285971767
 21
-246.548945561286
 31
0
 62
 7 
  0
LINE
  8
Ebene_1
 10
357.208621846262
 20
-246.55034560164
 30
0
 11
341.802500022291
 21
-248.494401894987
 31
0
 62
 7 
  0
LINE
  8
Ebene_1
 10
342.805007725614
 20
-246.460991542729
 30
0
 11
344.072958873947
 21
-243.89899044528
 31
0
 62
 7 
  0
LINE
  8
Ebene_1
 10
345.725315531059
 20
-240.570787187934
 30
0
 11
364.559120488872
 21
-203.322736640051
 31
0
 62
 7 
  0
LINE
  8
Ebene_1
 10
364.559120488872
 20
-203.322736640051
 30
0
 11
367.856710512514
 21
-196.99586134989
 31
0
 62
 7 
  0
LINE
  8
Ebene_1
 10
401.625249509058
 20
-171.479685642588
 30
0
 11
397.062412230966
 21
-175.29537963837
 31
0
 62
 7 
  0
ARC
  8
Ebene_1
 10
392.345875405687
 20
-160.841243581035
 30
0
 40
19.6827546603798
 50
266.416619510547
 51
271.996458435562
 62
 7 
  0
ARC
  8
Ebene_1
 10
392.390455714175
 20
-162.120123039041
 30
0
 40
18.4030984284114
 50
271.996458435562
 51
290.730320869226
 62
 7 
  0
ARC
  8
Ebene_1
 10
389.92004111072
 20
-155.592809237255
 30
0
 40
25.3822655549353
 50
290.730320869226
 51
302.274050332472
 62
 7 
  0
ARC
  8
Ebene_1
 10
376.750636286762
 20
-134.739966682621
 30
0
 40
50.0454824178185
 50
302.274050332472
 51
307.486035973673
 62
 7 
  0
ARC
  8
Ebene_1
 10
271.718222592611
 20
2.21003616138051
 30
0
 40
222.634912005472
 50
307.486035973673
 51
308.332675756709
 62
 7 
  0
ARC
  8
Ebene_1
 10
593.293437913559
 20
-404.497723122993
 30
0
 40
295.845387109962
 50
127.670859610884
 51
128.332675756708
 62
 7 
  0
ARC
  8
Ebene_1
 10
419.957601585629
 20
-173.735003724315
 30
0
 40
8.20358468913605
 50
155.449096525462
 51
157.719527925206
 62
 7 
  0
ARC
  8
Ebene_1
 10
446.131863332258
 20
-184.459430821918
 30
0
 40
36.4897175911938
 50
157.719527925206
 51
158.778292439552
 62
 7 
  0
ARC
  8
Ebene_1
 10
397.303757699782
 20
-165.498971078544
 30
0
 40
15.8904593208437
 50
334.069132939926
 51
338.778292439552
 62
 7 
  0
ARC
  8
Ebene_1
 10
408.205963183668
 20
-170.800057726356
 30
0
 40
3.76776968279367
 50
324.048996487805
 51
334.069132939926
 62
 7 
  0
ARC
  8
Ebene_1
 10
408.413795926343
 20
-170.950785676671
 30
0
 40
3.51103370180537
 50
323.223617837327
 51
324.048996487805
 62
 7 
  0
ARC
  8
Ebene_1
 10
408.093942342173
 20
-170.711710195119
 30
0
 40
3.91036238996309
 50
322.441518634727
 51
323.223617837327
 62
 7 
  0
ARC
  8
Ebene_1
 10
496.563694140218
 20
-238.74051931074
 30
0
 40
107.690783898492
 50
142.441518634726
 51
142.997695468388
 62
 7 
  0
ARC
  8
Ebene_1
 10
661.339496765935
 20
-362.918384026819
 30
0
 40
314.01869576791
 50
142.997695468388
 51
143.342307880117
 62
 7 
  0
ARC
  8
Ebene_1
 10
301.054722975998
 20
-96.296218883008
 30
0
 40
134.189975507067
 50
321.3404155765
 51
323.287266490781
 62
 7 
  0
ARC
  8
Ebene_1
 10
372.914573692414
 20
-153.783639066432
 30
0
 40
42.1647527454186
 50
314.689017361331
 51
321.3404155765
 62
 7 
  0
ARC
  8
Ebene_1
 10
384.801231056204
 20
-165.800035615859
 30
0
 40
25.2624922659073
 50
299.706496673145
 51
314.689017361331
 62
 7 
  0
ARC
  8
Ebene_1
 10
386.422988412807
 20
-168.642529984135
 30
0
 40
21.9898983165492
 50
279.96438571713
 51
299.706496673145
 62
 7 
  0
ARC
  8
Ebene_1
 10
386.324846987089
 20
-168.08391206152
 30
0
 40
22.5570717670111
 50
276.285889572682
 51
279.96438571713
 62
 7 
  0
ARC
  8
Ebene_1
 10
391.889176700708
 20
-218.599035369909
 30
0
 40
28.2635878904907
 50
96.2858895726818
 51
96.6878506874928
 62
 7 
  0
ARC
  8
Ebene_1
 10
389.887013334688
 20
-201.524185314305
 30
0
 40
11.0717537077861
 50
96.6878506874928
 51
98.9647847188356
 62
 7 
  0
ARC
  8
Ebene_1
 10
395.462452478571
 20
-236.866698715073
 30
0
 40
46.8513397189544
 50
98.9647847188357
 51
100.56495988716
 62
 7 
  0
ARC
  8
Ebene_1
 10
328.882436402954
 20
120.107735262914
 30
0
 40
316.279001969169
 50
280.440577961195
 51
280.56495988716
 62
 7 
  0
ARC
  8
Ebene_1
 10
378.183687319866
 20
-147.44630662974
 30
0
 40
44.2205915587048
 50
280.107933184982
 51
280.440577961195
 62
 7 
  0
ARC
  8
Ebene_1
 10
377.28328266399
 20
-142.395514455736
 30
0
 40
49.3510135812398
 50
279.86978464405
 51
280.107933184982
 62
 7 
  0
ARC
  8
Ebene_1
 10
378.575712841539
 20
-149.8239329164
 30
0
 40
41.8110018709988
 50
279.715100977445
 51
279.86978464405
 62
 7 
  0
ARC
  8
Ebene_1
 10
669.850479832938
 20
-337.079482817752
 30
0
 40
319.546046531341
 50
152.804062226859
 51
152.889808899107
 62
 7 
  0
ARC
  8
Ebene_1
 10
341.776635763008
 20
-248.289435976098
 30
0
 40
0.206591354645444
 50
275.561826100257
 51
277.1920321943
 62
 7 
  0
ARC
  8
Ebene_1
 10
-878.744703953696
 20
357.662498132422
 30
0
 40
1362.77216312832
 50
333.589624709134
 51
333.622551497263
 62
 7 
  0
ARC
  8
Ebene_1
 10
-1748.9737761005
 20
789.221121240502
 30
0
 40
2334.13279810816
 50
333.622551497263
 51
333.659054657416
 62
 7 
  0
ARC
  8
Ebene_1
 10
2117.3848790289
 20
-1121.8031067981
 30
0
 40
1978.72453961456
 50
153.596930936068
 51
153.661613044456
 62
 7 
  0
ARC
  8
Ebene_1
 10
1125.14937842487
 20
-629.186878739551
 30
0
 40
870.933026375018
 50
153.499435454847
 51
153.596930936068
 62
 7 
  0
ARC
  8
Ebene_1
 10
-406.394546898364
 20
207.069838190131
 30
0
 40
873.346494323468
 50
332.440876333231
 51
332.994136255135
 62
 7 
  0
ARC
  8
Ebene_1
 10
109.221533570712
 20
-55.7161491337128
 30
0
 40
294.626857908684
 50
332.994136255135
 51
333.997970957977
 62
 7 
  0
ARC
  8
Ebene_1
 10
352.366322495705
 20
-174.31644553158
 30
0
 40
24.0988211231385
 50
333.997970957977
 51
336.603836191873
 62
 7 
  0
ARC
  8
Ebene_1
 10
309.347863277469
 20
-155.704115430858
 30
0
 40
70.9710588048327
 50
336.603836191873
 51
339.80207354112
 62
 7 
  0
ARC
  8
Ebene_1
 10
16.7543814416287
 20
-48.0626977088567
 30
0
 40
382.736387893914
 50
339.80207354112
 51
339.967151223666
 62
 7 
  0
ARC
  8
Ebene_1
 10
525.091922221182
 20
-233.412548441568
 30
0
 40
158.338119482328
 50
158.705589455992
 51
159.967151223666
 62
 7 
  0
ARC
  8
Ebene_1
 10
412.113941554945
 20
-189.376970811065
 30
0
 40
37.0815476494054
 50
155.591571060671
 51
158.705589455992
 62
 7 
  0
ARC
  8
Ebene_1
 10
408.800570371118
 20
-187.873371203843
 30
0
 40
33.4429709523089
 50
154.734518937696
 51
155.591571060671
 62
 7 
  0
ARC
  8
Ebene_1
 10
1122.57752886671
 20
-524.748227934824
 30
0
 40
822.722525721553
 50
154.067709967236
 51
154.734518937696
 62
 7 
  0
ARC
  8
Ebene_1
 10
568.937243164794
 20
-255.529263051123
 30
0
 40
207.095676887659
 50
151.635183168247
 51
154.067709967236
 62
 7 
  0
ARC
  8
Ebene_1
 10
510.726272339495
 20
-224.100888614174
 30
0
 40
140.942371269778
 50
148.074223268522
 51
151.635183168247
 62
 7 
  0
ARC
  8
Ebene_1
 10
589.093049438705
 20
-272.928840961675
 30
0
 40
233.276117448339
 50
145.614355248842
 51
148.074223268522
 62
 7 
  0
ARC
  8
Ebene_1
 10
760.802973679404
 20
-390.437899592524
 30
0
 40
441.345040988244
 50
144.891239286135
 51
145.614355248842
 62
 7 
  0
ARC
  8
Ebene_1
 10
517.750000482397
 20
-219.561882672561
 30
0
 40
144.236708997476
 50
142.785464049145
 51
144.891239286135
 62
 7 
  0
ARC
  8
Ebene_1
 10
604.96991390944
 20
-285.800283453221
 30
0
 40
253.757661496075
 50
140.602671796886
 51
142.785464049145
 62
 7 
  0
ARC
  8
Ebene_1
 10
621.081329359873
 20
-299.033091137598
 30
0
 40
274.606759966468
 50
138.864515460917
 51
140.602671796886
 62
 7 
  0
ARC
  8
Ebene_1
 10
509.924155199405
 20
-201.943210934384
 30
0
 40
127.018270560232
 50
135.920186599256
 51
138.864515460917
 62
 7 
  0
ARC
  8
Ebene_1
 10
495.990027478667
 20
-188.449618123472
 30
0
 40
107.621441894583
 50
134.331773800907
 51
135.920186599256
 62
 7 
  0
ARC
  8
Ebene_1
 10
496.220910541809
 20
-188.685950448705
 30
0
 40
107.95183553374
 50
130.897989001135
 51
134.331773800907
 62
 7 
  0
ARC
  8
Ebene_1
 10
463.303095458071
 20
-150.681890067927
 30
0
 40
57.6736975877801
 50
122.936448608757
 51
130.897989001135
 62
 7 
  0
ARC
  8
Ebene_1
 10
454.135604984058
 20
-136.530854447276
 30
0
 40
40.8126569695955
 50
115.964954092636
 51
122.936448608757
 62
 7 
  0
ARC
  8
Ebene_1
 10
452.933882862338
 20
-134.063129131445
 30
0
 40
38.0678793297454
 50
112.940730115072
 51
115.964954092636
 62
 7 
  0
ARC
  8
Ebene_1
 10
451.720653355192
 20
-131.196698938302
 30
0
 40
34.9552682250343
 50
106.847759039178
 51
112.940730115072
 62
 7 
  0
ARC
  8
Ebene_1
 10
447.643199653147
 20
-117.732093376077
 30
0
 40
20.8868201358296
 50
95.8077475124467
 51
106.847759039178
 62
 7 
  0
ARC
  8
Ebene_1
 10
447.118372772509
 20
-112.572208874093
 30
0
 40
15.7003134763864
 50
85.5858119435297
 51
95.8077475124466
 62
 7 
  0
ARC
  8
Ebene_1
 10
447.187294371151
 20
-111.679383135722
 30
0
 40
14.8048314911647
 50
71.8173267936407
 51
85.5858119435296
 62
 7 
  0
ARC
  8
Ebene_1
 10
447.464033121237
 20
-110.836818779827
 30
0
 40
13.9179836859437
 50
65.8151762901964
 51
71.8173267936405
 62
 7 
  0
ARC
  8
Ebene_1
 10
451.638752795585
 20
-101.541061744444
 30
0
 40
3.72782258710702
 50
48.6530374947136
 51
65.8151762901966
 62
 7 
  0
ARC
  8
Ebene_1
 10
451.801898350883
 20
-101.355663752382
 30
0
 40
3.48086330367315
 50
21.6332801688492
 51
48.6530374947134
 62
 7 
  0
ARC
  8
Ebene_1
 10
449.600405228669
 20
-102.228776068141
 30
0
 40
5.84917432275088
 50
4.76638440117281
 51
21.6332801688492
 62
 7 
  0
ARC
  8
Ebene_1
 10
440.630323576792
 20
-102.976715247854
 30
0
 40
14.8503841224325
 50
346.74313024719
 51
364.766384401173
 62
 7 
  0
ARC
  8
Ebene_1
 10
431.400270388415
 20
-100.802158146193
 30
0
 40
24.3331358564306
 50
337.287219431979
 51
346.74313024719
 62
 7 
  0
ARC
  8
Ebene_1
 10
388.725532763817
 20
-82.9397428203129
 30
0
 40
70.5954219283764
 50
329.21481646764
 51
337.287219431979
 62
 7 
  0
ARC
  8
Ebene_1
 10
374.38315480296
 20
-74.3949957206451
 30
0
 40
87.2902267660907
 50
319.675799032051
 51
329.21481646764
 62
 7 
  0
ARC
  8
Ebene_1
 10
193.622986854504
 20
79.0320844632632
 30
0
 40
324.385370644057
 50
318.946249329843
 51
319.675799032051
 62
 7 
  0
ARC
  8
Ebene_1
 10
-280.398450555251
 20
491.873998432667
 30
0
 40
952.982832501747
 50
318.308432468236
 51
318.946249329843
 62
 7 
  0
ARC
  8
Ebene_1
 10
-273.722374150833
 20
485.927593613608
 30
0
 40
944.042489866828
 50
317.914051034574
 51
318.308432468236
 62
 7 
  0
ARC
  8
Ebene_1
 10
-130.278392895695
 20
356.379894547057
 30
0
 40
750.758289550915
 50
317.028805457557
 51
317.914051034574
 62
 7 
  0
ARC
  8
Ebene_1
 10
298.937129665026
 20
-43.466810329953
 30
0
 40
164.155057196988
 50
314.536612221833
 51
317.028805457557
 62
 7 
  0
ARC
  8
Ebene_1
 10
334.931684704023
 20
-80.0483476520611
 30
0
 40
112.83433170227
 50
311.646765564937
 51
314.536612221833
 62
 7 
  0
ARC
  8
Ebene_1
 10
209.704998531145
 20
60.7661977800287
 30
0
 40
301.276522135003
 50
310.039299771289
 51
311.646765564937
 62
 7 
  0
ARC
  8
Ebene_1
 10
-155.030768668209
 20
494.836357877854
 30
0
 40
868.241321537799
 50
309.876171980319
 51
310.039299771289
 62
 7 
  0
ARC
  8
Ebene_1
 10
679.440345380662
 20
-510.798291627867
 30
0
 40
438.519670121337
 50
130.085832930534
 51
130.380543219167
 62
 7 
  0
ARC
  8
Ebene_1
 10
454.956028830436
 20
-246.848561678543
 30
0
 40
92.0190664893339
 50
130.380543219167
 51
131.530542017313
 62
 7 
  0
ARC
  8
Ebene_1
 10
643.732642814625
 20
-459.992657533103
 30
0
 40
376.741765944423
 50
131.530542017313
 51
131.866920802728
 62
 7 
  0
ARC
  8
Ebene_1
 10
136.524529522313
 20
105.957018775381
 30
0
 40
383.231329831489
 50
311.702494992984
 51
311.866920802728
 62
 7 
  0
ARC
  8
Ebene_1
 10
274.38864769739
 20
-48.7647099621536
 30
0
 40
175.998783102645
 50
311.54640135863
 51
311.702494992984
 62
 7 
  0
LINE
  8
Ebene_1
 10
417.225624672621
 20
-152.540473697886
 30
0
 11
418.999126824351
 21
-150.642325107995
 31
0
 62
 7 
  0
LINE
  8
Ebene_1
 10
431.816689944824
 20
-136.505299915266
 30
0
 11
432.775274488389
 21
-135.296694768685
 31
0
 62
 7 
  0
ARC
  8
Ebene_1
 10
402.146111062619
 20
-188.289727293018
 30
0
 40
17.2876129382271
 50
117.685498607401
 51
118.573056995721
 62
 7 
  0
ARC
  8
Ebene_1
 10
406.303757706592
 20
-196.213749477708
 30
0
 40
26.2361409288861
 50
116.965033438751
 51
117.685498607401
 62
 7 
  0
ARC
  8
Ebene_1
 10
391.904050059847
 20
-167.910043465943
 30
0
 40
5.51998217063872
 50
296.965033438752
 51
301.995816273865
 62
 7 
  0
ARC
  8
Ebene_1
 10
394.701322898292
 20
-172.387343232541
 30
0
 40
0.240687849170836
 50
301.995816273862
 51
309.985898285723
 62
 7 
  0
ARC
  8
Ebene_1
 10
-106.42427519066
 20
425.12948758739
 30
0
 40
780.082484736914
 50
309.98589828572
 51
310.007233939668
 62
 7 
  0
ARC
  8
Ebene_1
 10
675.949379699137
 20
-507.028088825251
 30
0
 40
436.891747993225
 50
129.741618352292
 51
130.007233939668
 62
 7 
  0
ARC
  8
Ebene_1
 10
1504.39909408051
 20
-1503.42705063342
 30
0
 40
1732.70802368626
 50
129.621265576314
 51
129.741618352292
 62
 7 
  0
ARC
  8
Ebene_1
 10
-76.6237731372736
 20
406.257716321418
 30
0
 40
746.511453448607
 50
309.621265576315
 51
310.285107348971
 62
 7 
  0
ARC
  8
Ebene_1
 10
286.841968715481
 20
-22.5522772911142
 30
0
 40
184.385705841763
 50
310.285107348971
 51
312.088570143275
 62
 7 
  0
ARC
  8
Ebene_1
 10
364.947043053468
 20
-109.027548776706
 30
0
 40
67.8594203270805
 50
312.088570143275
 51
315.543893523702
 62
 7 
  0
ARC
  8
Ebene_1
 10
253.311854115531
 20
0.508061799072465
 30
0
 40
224.257839095997
 50
315.543893523702
 51
316.963288482738
 62
 7 
  0
ARC
  8
Ebene_1
 10
604.041133451446
 20
-324.272923601633
 30
0
 40
253.748160485629
 50
136.450976830316
 51
136.8222887396
 62
 7 
  0
ARC
  8
Ebene_1
 10
487.97528171023
 20
-213.941651714084
 30
0
 40
93.6098718200567
 50
136.239038801468
 51
136.450976830316
 62
 7 
  0
ARC
  8
Ebene_1
 10
1234.71930661828
 20
-929.067366268123
 30
0
 40
1127.54963135748
 50
136.202067869128
 51
136.239038801468
 62
 7 
  0
ARC
  8
Ebene_1
 10
35.2877375383918
 20
221.063059418874
 30
0
 40
534.207295812195
 50
316.202067869128
 51
316.716307757683
 62
 7 
  0
ARC
  8
Ebene_1
 10
283.140222687815
 20
-12.3681523240199
 30
0
 40
193.735586252501
 50
316.716307757683
 51
317.635700629387
 62
 7 
  0
ARC
  8
Ebene_1
 10
256.126013480053
 20
12.2683607966455
 30
0
 40
230.296840031132
 50
317.635700629387
 51
318.879078109133
 62
 7 
  0
ARC
  8
Ebene_1
 10
388.933010923459
 20
-103.671994812641
 30
0
 40
54.0020169967029
 50
318.879078109133
 51
321.530689123739
 62
 7 
  0
ARC
  8
Ebene_1
 10
228.210599415418
 20
24.0318877063462
 30
0
 40
259.282252702393
 50
321.530689123739
 51
321.637994272459
 62
 7 
  0
ARC
  8
Ebene_1
 10
882.301917777182
 20
-493.688651553905
 30
0
 40
574.905981168211
 50
141.589599720377
 51
141.637994272459
 62
 7 
  0
ARC
  8
Ebene_1
 10
-253.36777856776
 20
408.931669919382
 30
0
 40
875.772117727128
 50
321.579589652493
 51
322.120919834579
 62
 7 
  0
ARC
  8
Ebene_1
 10
261.23330993573
 20
8.62732544421259
 30
0
 40
223.80751094646
 50
322.120919834579
 51
324.234104826339
 62
 7 
  0
ARC
  8
Ebene_1
 10
384.028308926331
 20
-79.8241558978229
 30
0
 40
72.4725304274073
 50
324.234104826339
 51
329.304337186502
 62
 7 
  0
ARC
  8
Ebene_1
 10
406.789765677873
 20
-93.3365895867305
 30
0
 40
46.0023627352779
 50
329.304337186502
 51
337.833565399553
 62
 7 
  0
ARC
  8
Ebene_1
 10
416.80653441232
 20
-97.4175134643161
 30
0
 40
35.1861898643389
 50
337.833565399553
 51
344.266046501608
 62
 7 
  0
ARC
  8
Ebene_1
 10
446.934383943977
 20
-105.905337653732
 30
0
 40
3.8855432756078
 50
344.266046501608
 51
345.811937196307
 62
 7 
  0
ARC
  8
Ebene_1
 10
446.520850566091
 20
-105.800789290907
 30
0
 40
4.31208778066664
 50
345.811937196307
 51
358.548346608973
 62
 7 
  0
ARC
  8
Ebene_1
 10
447.435408427931
 20
-105.823965608272
 30
0
 40
3.39723630401061
 50
358.548346608973
 51
392.740685255868
 62
 7 
  0
ARC
  8
Ebene_1
 10
445.960032833099
 20
-106.772620022278
 30
0
 40
5.15128258134653
 50
32.7406852558678
 51
49.9319835755289
 62
 7 
  0
ARC
  8
Ebene_1
 10
448.591875399758
 20
-103.643663150613
 30
0
 40
1.06264388363575
 50
49.9319835755258
 51
65.0214598682726
 62
 7 
  0
ARC
  8
Ebene_1
 10
447.840243705588
 20
-105.257119993591
 30
0
 40
2.84258578938233
 50
65.0214598682724
 51
86.2616156937886
 62
 7 
  0
ARC
  8
Ebene_1
 10
447.604910067105
 20
-108.858805542259
 30
0
 40
6.45195148336328
 50
86.2616156937886
 51
100.910107823459
 62
 7 
  0
ARC
  8
Ebene_1
 10
447.547745083448
 20
-108.562233767923
 30
0
 40
6.14992060300583
 50
100.910107823459
 51
103.240915882047
 62
 7 
  0
ARC
  8
Ebene_1
 10
449.721223311063
 20
-117.799229910725
 30
0
 40
15.6391832375876
 50
103.240915882047
 51
120.41613364253
 62
 7 
  0
ARC
  8
Ebene_1
 10
453.792082549422
 20
-124.73336716128
 30
0
 40
23.6799639427222
 50
120.41613364253
 51
129.907050725244
 62
 7 
  0
ARC
  8
Ebene_1
 10
471.34750768293
 20
-145.724170358826
 30
0
 40
51.0442978556155
 50
129.907050725244
 51
133.544486060644
 62
 7 
  0
ARC
  8
Ebene_1
 10
501.977836823484
 20
-177.951652145171
 30
0
 40
95.505827806213
 50
133.544486060644
 51
134.145827215062
 62
 7 
  0
ARC
  8
Ebene_1
 10
500.129130244783
 20
-176.046985656509
 30
0
 40
92.8514972979373
 50
134.145827215062
 51
138.608003523961
 62
 7 
  0
ARC
  8
Ebene_1
 10
592.626793753483
 20
-257.571684875573
 30
0
 40
216.148270724201
 50
138.608003523961
 51
140.879255390768
 62
 7 
  0
ARC
  8
Ebene_1
 10
484.16510698143
 20
-169.362038425443
 30
0
 40
76.3452692389116
 50
140.879255390768
 51
143.918370274194
 62
 7 
  0
ARC
  8
Ebene_1
 10
473.552040918704
 20
-161.628068534029
 30
0
 40
63.2131916602081
 50
143.918370274194
 51
145.420870358853
 62
 7 
  0
ARC
  8
Ebene_1
 10
1115.62655478271
 20
-604.220510492821
 30
0
 40
843.051476840374
 50
145.420870358853
 51
146.889396604851
 62
 7 
  0
ARC
  8
Ebene_1
 10
1477.15754351268
 20
-839.994947718469
 30
0
 40
1274.66964265496
 50
146.889396604851
 51
147.080301044116
 62
 7 
  0
ARC
  8
Ebene_1
 10
527.558074287562
 20
-225.208275415109
 30
0
 40
143.430585516958
 50
147.080301044116
 51
150.04195750672
 62
 7 
  0
ARC
  8
Ebene_1
 10
553.080390441776
 20
-239.918682169007
 30
0
 40
172.888770945473
 50
150.04195750672
 51
154.547037534462
 62
 7 
  0
ARC
  8
Ebene_1
 10
574.685662984838
 20
-250.202104723583
 30
0
 40
196.816507593471
 50
154.547037534462
 51
155.993391126101
 62
 7 
  0
ARC
  8
Ebene_1
 10
400.235656184963
 20
-172.507845290307
 30
0
 40
5.84739275716657
 50
155.993391126102
 51
160.131943146063
 62
 7 
  0
ARC
  8
Ebene_1
 10
429.577718881398
 20
-183.111025219223
 30
0
 40
37.0464963963183
 50
160.131943146063
 51
162.517069645171
 62
 7 
  0
ARC
  8
Ebene_1
 10
301.678478658753
 20
-142.826437718725
 30
0
 40
97.0469920347579
 50
342.126841513448
 51
342.517069645171
 62
 7 
  0
ARC
  8
Ebene_1
 10
359.272474349918
 20
-161.398999977901
 30
0
 40
36.5324614776688
 50
341.306911098466
 51
342.126841513448
 62
 7 
  0
LINE
  8
Ebene_1
 10
424.093984389991
 20
-165.18794567701
 30
0
 11
424.811976804015
 21
-163.449420277481
 31
0
 62
 7 
  0
LINE
  8
Ebene_1
 10
425.29555402083
 20
-162.340876814205
 30
0
 11
442.157288441024
 21
-162.340876814205
 31
0
 62
 7 
  0
LINE
  8
Ebene_1
 10
439.272740630179
 20
-167.85193154067
 30
0
 11
433.368729750491
 21
-179.753981694939
 31
0
 62
 7 
  0
LINE
  8
Ebene_1
 10
435.027537025438
 20
-195.503066717462
 30
0
 11
435.961636886932
 21
-194.226650080498
 31
0
 62
 7 
  0
ARC
  8
Ebene_1
 10
437.133683062761
 20
-189.402102977603
 30
0
 40
5.93459622587052
 50
17.4266216909777
 51
27.2952755882524
 62
 7 
  0
ARC
  8
Ebene_1
 10
438.054867122078
 20
-189.112951273877
 30
0
 40
4.96909698769948
 50
351.422407173884
 51
377.426621690978
 62
 7 
  0
ARC
  8
Ebene_1
 10
434.228574534391
 20
-188.535809444021
 30
0
 40
8.83867159718346
 50
339.214726177925
 51
351.422407173884
 62
 7 
  0
ARC
  8
Ebene_1
 10
402.459187943021
 20
-176.477094268397
 30
0
 40
42.8196447450901
 50
337.350173067063
 51
339.214726177925
 62
 7 
  0
ARC
  8
Ebene_1
 10
418.898900163834
 20
-183.337065984148
 30
0
 40
25.0060726764658
 50
334.616591468026
 51
337.350173067063
 62
 7 
  0
ARC
  8
Ebene_1
 10
409.883149532691
 20
-179.059271777854
 30
0
 40
34.9852150601765
 50
321.148423492775
 51
334.616591468026
 62
 7 
  0
ARC
  8
Ebene_1
 10
392.882819512702
 20
-165.365441058497
 30
0
 40
56.8148330265751
 50
314.634762093978
 51
321.148423492775
 62
 7 
  0
ARC
  8
Ebene_1
 10
362.892841105566
 20
-134.990655975468
 30
0
 40
99.5000339011248
 50
310.397812232578
 51
314.634762093978
 62
 7 
  0
ARC
  8
Ebene_1
 10
397.946457895266
 20
-176.181702914215
 30
0
 40
45.4125270446508
 50
302.69258149728
 51
310.397812232578
 62
 7 
  0
ARC
  8
Ebene_1
 10
406.056535307856
 20
-188.818045351419
 30
0
 40
30.3975176930558
 50
293.039605523537
 51
302.69258149728
 62
 7 
  0
ARC
  8
Ebene_1
 10
413.650604298712
 20
-206.674223022774
 30
0
 40
10.9935757000256
 50
290.296721300357
 51
293.039605523537
 62
 7 
  0
ARC
  8
Ebene_1
 10
412.978102844163
 20
-204.855895588086
 30
0
 40
12.9322796140124
 50
271.881937203975
 51
290.296721300358
 62
 7 
  0
ARC
  8
Ebene_1
 10
413.12643585264
 20
-209.370285735002
 30
0
 40
8.41545317502114
 50
254.804407965718
 51
271.881937203975
 62
 7 
  0
ARC
  8
Ebene_1
 10
412.436980322204
 20
-211.908675477249
 30
0
 40
5.78509741733445
 50
239.139328224297
 51
254.804407965718
 62
 7 
  0
ARC
  8
Ebene_1
 10
412.126033161432
 20
-212.429040567851
 30
0
 40
5.17890605785364
 50
212.34361033469
 51
239.139328224297
 62
 7 
  0
ARC
  8
Ebene_1
 10
419.33332637008
 20
-207.865097091497
 30
0
 40
13.7097123181542
 50
191.615964961258
 51
212.34361033469
 62
 7 
  0
ARC
  8
Ebene_1
 10
417.904636078973
 20
-208.158779980508
 30
0
 40
12.2511494682223
 50
187.86136540366
 51
191.615964961258
 62
 7 
  0
ARC
  8
Ebene_1
 10
425.353242861552
 20
-207.130319210537
 30
0
 40
19.7704230073916
 50
182.397155832969
 51
187.86136540366
 62
 7 
  0
ARC
  8
Ebene_1
 10
425.063622738303
 20
-207.142443488225
 30
0
 40
19.480549217786
 50
172.524644452109
 51
182.397155832969
 62
 7 
  0
ARC
  8
Ebene_1
 10
425.484271757696
 20
-207.197638924227
 30
0
 40
19.9048040158402
 50
159.691282352343
 51
172.524644452109
 62
 7 
  0
ARC
  8
Ebene_1
 10
429.178068581066
 20
-208.564654815587
 30
0
 40
23.843441777753
 50
152.082375410441
 51
159.691282352343
 62
 7 
  0
ARC
  8
Ebene_1
 10
589.864019029622
 20
-293.706781318526
 30
0
 40
205.692710066076
 50
151.910552621022
 51
152.082375410441
 62
 7 
  0
ARC
  8
Ebene_1
 10
561.422891298414
 20
-278.52736439474
 30
0
 40
173.454340926663
 50
151.022256157306
 51
151.910552621022
 62
 7 
  0
ARC
  8
Ebene_1
 10
975.682695242111
 20
-507.945009293921
 30
0
 40
646.998046358967
 50
150.554935873539
 51
151.022256157306
 62
 7 
  0
ARC
  8
Ebene_1
 10
-13.0057392279909
 20
50.1772620511981
 30
0
 40
488.34564179294
 50
330.55493587354
 51
331.316381081822
 62
 7 
  0
ARC
  8
Ebene_1
 10
299.852278438379
 20
-120.991259514692
 30
0
 40
131.724271158505
 50
331.316381081822
 51
332.63736832426
 62
 7 
  0
ARC
  8
Ebene_1
 10
357.976602027223
 20
-151.07196911039
 30
0
 40
66.2774524241964
 50
332.63736832426
 51
334.86298272211
 62
 7 
  0
ARC
  8
Ebene_1
 10
251.957083505079
 20
-101.32524573315
 30
0
 40
183.387976265733
 50
334.86298272211
 51
336.518870260449
 62
 7 
  0
ARC
  8
Ebene_1
 10
-235.175310176615
 20
110.295206076633
 30
0
 40
714.501132380542
 50
336.518870260449
 51
336.672404119459
 62
 7 
  0
ARC
  8
Ebene_1
 10
779.799176264682
 20
-327.401507498448
 30
0
 40
390.827606593163
 50
156.391717210074
 51
156.672404119458
 62
 7 
  0
ARC
  8
Ebene_1
 10
660.160613054385
 20
-275.112106788169
 30
0
 40
260.261273897233
 50
156.272177482307
 51
156.391717210074
 62
 7 
  0
ARC
  8
Ebene_1
 10
293.082769270365
 20
-113.763554791954
 30
0
 40
140.711915516225
 50
336.272177482308
 51
337.140966222075
 62
 7 
  0
ARC
  8
Ebene_1
 10
-3.78164716732846
 20
11.3868289306232
 30
0
 40
462.878177394778
 50
337.140966222075
 51
337.575147194669
 62
 7 
  0
ARC
  8
Ebene_1
 10
831.625134120295
 20
-331.943374733332
 30
0
 40
440.326194603286
 50
157.345534870044
 51
157.501631654903
 62
 7 
  0
ARC
  8
Ebene_1
 10
425.29555402083
 20
-163.023291483194
 30
0
 40
0.682414668988913
 50
90
 51
91.8746842274027
 62
 7 
  0
ARC
  8
Ebene_1
 10
442.157288441024
 20
-162.347883308568
 30
0
 40
0.0070064943628683
 50
79.1102865538155
 51
90
 62
 7 
  0
ARC
  8
Ebene_1
 10
-35.008455526252
 20
88.8789105375018
 30
0
 40
539.258742765156
 50
332.000073729818
 51
332.233988659548
 62
 7 
  0
ARC
  8
Ebene_1
 10
725.479712207558
 20
-315.478565627091
 30
0
 40
322.04679059297
 50
152.000073729817
 51
152.459720370549
 62
 7 
  0
ARC
  8
Ebene_1
 10
512.208422638176
 20
-204.265927178968
 30
0
 40
81.5205053242284
 50
152.459720370549
 51
153.468798078264
 62
 7 
  0
ARC
  8
Ebene_1
 10
1164.54536592552
 20
-540.496235319608
 30
0
 40
815.324626660102
 50
153.739547700188
 51
154.546141730968
 62
 7 
  0
ARC
  8
Ebene_1
 10
492.154106041911
 20
-220.446487307522
 30
0
 40
70.6489606346406
 50
154.546141730968
 51
157.218866375501
 62
 7 
  0
ARC
  8
Ebene_1
 10
606.889892924685
 20
-268.632521048195
 30
0
 40
195.092500600628
 50
157.218866375501
 51
158.75933473694
 62
 7 
  0
ARC
  8
Ebene_1
 10
1213.29349953247
 20
-504.336256703032
 30
0
 40
845.693442122066
 50
158.75933473694
 51
158.893485310363
 62
 7 
  0
ARC
  8
Ebene_1
 10
89.7329574155939
 20
-70.6435457371317
 30
0
 40
358.66433667414
 50
338.577171791677
 51
338.893485310364
 62
 7 
  0
ARC
  8
Ebene_1
 10
444.139906472457
 20
-209.697027849518
 30
0
 40
22.0457320492572
 50
158.577171791677
 51
158.897011514012
 62
 7 
  0
ARC
  8
Ebene_1
 10
424.490166856506
 20
-202.113646829795
 30
0
 40
0.983445025646432
 50
158.897011514011
 51
163.263996224363
 62
 7 
  0
ARC
  8
Ebene_1
 10
426.834779969477
 20
-202.818670706863
 30
0
 40
3.43176471815954
 50
163.263996224363
 51
183.180218600316
 62
 7 
  0
ARC
  8
Ebene_1
 10
424.490250101963
 20
-202.948938311767
 30
0
 40
1.08361865188716
 50
183.180218600316
 51
205.344798964888
 62
 7 
  0
ARC
  8
Ebene_1
 10
423.669627500865
 20
-203.337630134015
 30
0
 40
0.17559729414524
 50
205.3447989649
 51
240.812696458542
 62
 7 
  0
ARC
  8
Ebene_1
 10
425.051091200279
 20
-200.864505178537
 30
0
 40
3.00840314668943
 50
240.812696458536
 51
274.31871334154
 62
 7 
  0
ARC
  8
Ebene_1
 10
425.169055786394
 20
-202.426560202557
 30
0
 40
1.44190018095886
 50
274.318713341539
 51
290.638307185635
 62
 7 
  0
ARC
  8
Ebene_1
 10
419.681917819642
 20
-187.857848884944
 30
0
 40
17.009688479947
 50
290.638307185635
 51
291.208640078988
 62
 7 
  0
ARC
  8
Ebene_1
 10
420.792573726834
 20
-190.720010524868
 30
0
 40
13.9395865602653
 50
291.208640078988
 51
305.980416625393
 62
 7 
  0
ARC
  8
Ebene_1
 10
417.622394959562
 20
-186.353496054314
 30
0
 40
19.3355556148478
 50
305.980416625393
 51
318.715743378879
 62
 7 
  0
ARC
  8
Ebene_1
 10
396.576903164725
 20
-167.874823152095
 30
0
 40
47.3422347666827
 50
318.715743378879
 51
323.209757283105
 62
 7 
  0
ARC
  8
Ebene_1
 10
340.928226824776
 20
-126.259072968497
 30
0
 40
116.830693101373
 50
323.209757283105
 51
323.652105271865
 62
 7 
  0
ARC
  8
Ebene_1
 10
501.527265806533
 20
-242.199098322863
 30
0
 40
81.241661024312
 50
143.172652008573
 51
143.808159920832
 62
 7 
  0
ARC
  8
Ebene_1
 10
500.680913019248
 20
-241.565315261355
 30
0
 40
80.1843086660129
 50
141.576403026107
 51
143.172652008573
 62
 7 
  0
ARC
  8
Ebene_1
 10
669.655354644585
 20
-375.606152837005
 30
0
 40
295.867660041534
 50
140.869583422558
 51
141.576403026107
 62
 7 
  0
ARC
  8
Ebene_1
 10
-2496.69063273932
 20
2200.40570515442
 30
0
 40
3785.99270066835
 50
320.869583422559
 51
320.883648156065
 62
 7 
  0
ARC
  8
Ebene_1
 10
149.162670272021
 20
48.9249435981916
 30
0
 40
375.800745894745
 50
320.883648156065
 51
320.928290047287
 62
 7 
  0
ARC
  8
Ebene_1
 10
453.235805416783
 20
-197.939395071817
 30
0
 40
15.8655319793469
 50
140.513710208822
 51
140.928290047287
 62
 7 
  0
ARC
  8
Ebene_1
 10
442.081761821321
 20
-188.749192923635
 30
0
 40
1.41310989673706
 50
132.299164065779
 51
140.513710208821
 62
 7 
  0
ARC
  8
Ebene_1
 10
447.573588384561
 20
-194.784808411518
 30
0
 40
9.57330678886384
 50
126.664540916972
 51
132.299164065779
 62
 7 
  0
ARC
  8
Ebene_1
 10
427.291433844298
 20
-167.539036567271
 30
0
 40
24.3928215772578
 50
306.664540916972
 51
307.653290375412
 62
 7 
  0
ARC
  8
Ebene_1
 10
436.251587508067
 20
-179.151674299563
 30
0
 40
9.72524819991323
 50
307.653290375412
 51
309.27045349055
 62
 7 
  0
LINE
  8
Ebene_1
 10
438.245953425913
 20
-137.868714483667
 30
0
 11
439.346935541804
 21
-137.322157405528
 31
0
 62
 7 
  0
ARC
  8
Ebene_1
 10
440.40463142763
 20
-162.481762198443
 30
0
 40
11.0694423268329
 50
83.0627702148035
 51
85.2987580795403
 62
 7 
  0
ARC
  8
Ebene_1
 10
438.683150102417
 20
-183.414988908449
 30
0
 40
32.073334310119
 50
85.2987580795403
 51
86.8350751936786
 62
 7 
  0
ARC
  8
Ebene_1
 10
441.79539984953
 20
-127.130121910642
 30
0
 40
24.2975123346602
 50
263.276274327592
 51
266.835075193679
 62
 7 
  0
ARC
  8
Ebene_1
 10
439.610170135654
 20
-145.665852733229
 30
0
 40
5.63341455229131
 50
250.185586406649
 51
263.276274327591
 62
 7 
  0
ARC
  8
Ebene_1
 10
438.820333994356
 20
-147.857976576318
 30
0
 40
3.30333985959572
 50
238.775377364579
 51
250.18558640665
 62
 7 
  0
ARC
  8
Ebene_1
 10
439.717820500129
 20
-146.377486454986
 30
0
 40
5.03462060731035
 50
212.71187669489
 51
238.775377364579
 62
 7 
  0
ARC
  8
Ebene_1
 10
437.658543448289
 20
-147.70012169966
 30
0
 40
2.58717582413558
 50
198.945974240082
 51
212.71187669489
 62
 7 
  0
ARC
  8
Ebene_1
 10
436.943660397919
 20
-147.945521915597
 30
0
 40
1.83134578921493
 50
188.830227656086
 51
198.945974240082
 62
 7 
  0
ARC
  8
Ebene_1
 10
451.336368738515
 20
-145.709637142136
 30
0
 40
16.3966893861797
 50
187.925814499142
 51
188.830227656086
 62
 7 
  0
ARC
  8
Ebene_1
 10
450.613324620452
 20
-145.810299863958
 30
0
 40
15.6666717287021
 50
180.279382777605
 51
187.925814499142
 62
 7 
  0
ARC
  8
Ebene_1
 10
484.455689059302
 20
-145.645278132949
 30
0
 40
49.5094385036517
 50
175.302817966442
 51
180.279382777605
 62
 7 
  0
ARC
  8
Ebene_1
 10
439.254259182803
 20
-141.93128227378
 30
0
 40
4.15568421448585
 50
168.459617192147
 51
175.302817966442
 62
 7 
  0
ARC
  8
Ebene_1
 10
438.578899385078
 20
-141.793382993396
 30
0
 40
3.46638959829247
 50
138.520405250364
 51
168.459617192147
 62
 7 
  0
ARC
  8
Ebene_1
 10
440.177572055476
 20
-143.206754413108
 30
0
 40
5.6002530140569
 50
122.523974654406
 51
138.520405250364
 62
 7 
  0
ARC
  8
Ebene_1
 10
443.989693910545
 20
-149.185065337159
 30
0
 40
12.6905615082287
 50
116.910581263256
 51
122.523974654407
 62
 7 
  0
ARC
  8
Ebene_1
 10
458.901467807458
 20
-176.729157082626
 30
0
 40
43.9919464865929
 50
113.528145655868
 51
116.391516267656
 62
 7 
  0
ARC
  8
Ebene_1
 10
446.31799036825
 20
-147.827973165904
 30
0
 40
12.4701708981016
 50
101.937294255345
 51
113.528145655869
 62
 7 
  0
ARC
  8
Ebene_1
 10
445.418299077433
 20
-143.572362279932
 30
0
 40
8.12049637791307
 50
81.0291909800261
 51
101.937294255345
 62
 7 
  0
ARC
  8
Ebene_1
 10
445.852378349741
 20
-140.822627329065
 30
0
 40
5.33670990717451
 50
54.4490865927553
 51
81.0291909800265
 62
 7 
  0
ARC
  8
Ebene_1
 10
446.445001541982
 20
-139.993359949845
 30
0
 40
4.31745202311329
 50
7.34583414151917
 51
54.4490865927552
 62
 7 
  0
ARC
  8
Ebene_1
 10
439.077264919024
 20
-140.94317998481
 30
0
 40
11.746159921806
 50
2.92639702857448
 51
7.34583414151908
 62
 7 
  0
ARC
  8
Ebene_1
 10
417.262893762623
 20
-142.058324591623
 30
0
 40
33.5890154229378
 50
356.053956412257
 51
362.926397028574
 62
 7 
  0
ARC
  8
Ebene_1
 10
430.686188078926
 20
-142.984270845372
 30
0
 40
20.1338228651582
 50
349.80283063262
 51
356.053956412257
 62
 7 
  0
ARC
  8
Ebene_1
 10
437.82677435355
 20
-144.268700913661
 30
0
 40
12.8786362413929
 50
344.523087952735
 51
349.80283063262
 62
 7 
  0
ARC
  8
Ebene_1
 10
445.212021882669
 20
-146.313606831957
 30
0
 40
5.21550885885182
 50
328.990326080178
 51
344.523087952735
 62
 7 
  0
ARC
  8
Ebene_1
 10
446.67536209295
 20
-147.1932066452
 30
0
 40
3.50815406195631
 50
297.73996938249
 51
328.990326080177
 62
 7 
  0
ARC
  8
Ebene_1
 10
445.152676468435
 20
-144.297827307426
 30
0
 40
6.77951356844821
 50
282.318391228777
 51
297.73996938249
 62
 7 
  0
ARC
  8
Ebene_1
 10
439.837838116534
 20
-119.959314282694
 30
0
 40
31.6915733580739
 50
278.292908210197
 51
282.318391228778
 62
 7 
  0
ARC
  8
Ebene_1
 10
443.644435220902
 20
-146.075218086239
 30
0
 40
5.29970694072891
 50
270.531215223878
 51
278.292908210197
 62
 7 
  0
ARC
  8
Ebene_1
 10
443.465573357893
 20
-126.784098848383
 30
0
 40
24.5916553393539
 50
267.66213881948
 51
270.531215223878
 62
 7 
  0
ARC
  8
Ebene_1
 10
441.645167966897
 20
-171.373425166133
 30
0
 40
20.0348154740362
 50
87.6621388194793
 51
89.6687584543625
 62
 7 
  0
ARC
  8
Ebene_1
 10
252.429471172642
 20
-128.425945181439
 30
0
 40
190.712294056748
 50
353.091267521829
 51
353.099369575706
 62
 7 
  0
ARC
  8
Ebene_1
 10
-404.785992889377
 20
-48.7924999195741
 30
0
 40
852.734689302204
 50
353.087712248639
 51
353.091267521829
 62
 7 
  0
ARC
  8
Ebene_1
 10
1169.09369320268
 20
-239.59535824639
 30
0
 40
732.668413078676
 50
173.087712248639
 51
173.091336685025
 62
 7 
  0
ARC
  8
Ebene_1
 10
640.878645904181
 20
-175.593274990077
 30
0
 40
200.590032711925
 50
173.091336685025
 51
173.09952121367
 62
 7 
  0
LINE
  8
Ebene_1
 10
359.122903694221
 20
-164.50918586988
 30
0
 11
360.675466446627
 21
-161.66854395516
 31
0
 62
 7 
  0
LINE
  8
Ebene_1
 10
380.903496694464
 20
-129.267700750749
 30
0
 11
384.563743884186
 21
-124.102410764655
 31
0
 62
 7 
  0
ARC
  8
Ebene_1
 10
288.754675283902
 20
-145.409763256276
 30
0
 40
72.1645845848688
 50
337.214090825962
 51
338.22233406639
 62
 7 
  0
ARC
  8
Ebene_1
 10
121.603720456646
 20
-78.6297187606561
 30
0
 40
252.16185134884
 50
338.22233406639
 51
338.635166510403
 62
 7 
  0
ARC
  8
Ebene_1
 10
477.00674962701
 20
-217.659065285231
 30
0
 40
129.466858706524
 50
157.223960769676
 51
158.635166510403
 62
 7 
  0
ARC
  8
Ebene_1
 10
383.808701049595
 20
-178.52806691345
 30
0
 40
28.3871313018136
 50
152.897291826882
 51
157.223960769676
 62
 7 
  0
ARC
  8
Ebene_1
 10
378.79468373064
 20
-175.96196555862
 30
0
 40
22.7546144720081
 50
151.455201553447
 51
152.897291826882
 62
 7 
  0
ARC
  8
Ebene_1
 10
449.585701893596
 20
-214.470050176181
 30
0
 40
103.341467205324
 50
151.272087094331
 51
151.455201553447
 62
 7 
  0
ARC
  8
Ebene_1
 10
98.1115955265557
 20
-21.8209861070744
 30
0
 40
297.467351726111
 50
331.272087094331
 51
331.335701839547
 62
 7 
  0
ARC
  8
Ebene_1
 10
952.325342044292
 20
-485.304683858468
 30
0
 40
674.381143231515
 50
150.425495015197
 51
151.321068000338
 62
 7 
  0
ARC
  8
Ebene_1
 10
557.587039792094
 20
-261.29439083674
 30
0
 40
220.510083739254
 50
148.477257464364
 51
150.425495015197
 62
 7 
  0
ARC
  8
Ebene_1
 10
522.422927695833
 20
-239.726591304622
 30
0
 40
179.258601872828
 50
146.036470377376
 51
148.477257464364
 62
 7 
  0
ARC
  8
Ebene_1
 10
737.592005457805
 20
-384.660779035326
 30
0
 40
438.688073595099
 50
144.741910279011
 51
146.036470377376
 62
 7 
  0
ARC
  8
Ebene_1
 10
1703.85543475162
 20
-1067.75284633826
 30
0
 40
1622.02225598097
 50
144.648599073958
 51
144.741910279011
 62
 7 
  0
ARC
  8
Ebene_1
 10
468.93240169718
 20
-184.481924902177
 30
0
 40
103.748523597444
 50
132.492128801943
 51
144.41010892936
 62
 7 
  0
ARC
  8
Ebene_1
 10
421.325429132487
 20
-132.513699678989
 30
0
 40
33.2707237621519
 50
125.239185351783
 51
132.492128801943
 62
 7 
  0
ARC
  8
Ebene_1
 10
413.747995413573
 20
-121.787584013581
 30
0
 40
20.1380523266729
 50
113.856967602429
 51
125.239185351783
 62
 7 
  0
ARC
  8
Ebene_1
 10
412.159917058494
 20
-118.196602576673
 30
0
 40
16.2115856526664
 50
105.473664736772
 51
113.856967602429
 62
 7 
  0
ARC
  8
Ebene_1
 10
409.868316081001
 20
-109.918583127377
 30
0
 40
7.62222938790605
 50
97.6136371195644
 51
105.473664736772
 62
 7 
  0
ARC
  8
Ebene_1
 10
409.378190470283
 20
-106.251919863246
 30
0
 40
3.92295343080188
 50
71.2780712395036
 51
97.6136371195642
 62
 7 
  0
ARC
  8
Ebene_1
 10
409.695227194414
 20
-105.316454302506
 30
0
 40
2.93522467259986
 50
19.0720110545557
 51
71.2780712395034
 62
 7 
  0
ARC
  8
Ebene_1
 10
408.592863474888
 20
-105.697578991643
 30
0
 40
4.10161302936497
 50
355.954710489004
 51
379.072011054556
 62
 7 
  0
ARC
  8
Ebene_1
 10
407.196279231325
 20
-105.598810916841
 30
0
 40
5.50168541391093
 50
345.177997604881
 51
355.954710489004
 62
 7 
  0
ARC
  8
Ebene_1
 10
379.787320423014
 20
-98.3457902967431
 30
0
 40
33.8540632872262
 50
334.026116823201
 51
345.177997604881
 62
 7 
  0
ARC
  8
Ebene_1
 10
365.866786093117
 20
-91.5641450744024
 30
0
 40
49.3386358661368
 50
327.312683796936
 51
334.026116823201
 62
 7 
  0
ARC
  8
Ebene_1
 10
327.211887488927
 20
-66.7602235316784
 30
0
 40
95.2672294653078
 50
323.99725932218
 51
327.312683796936
 62
 7 
  0
ARC
  8
Ebene_1
 10
162.841930339495
 20
52.6735538331509
 30
0
 40
298.446731356954
 50
321.770586553001
 51
323.99725932218
 62
 7 
  0
ARC
  8
Ebene_1
 10
-56.1381483919013
 20
225.175986496045
 30
0
 40
577.210725007183
 50
321.322804612787
 51
321.770586553001
 62
 7 
  0
ARC
  8
Ebene_1
 10
336.061313618551
 20
-88.7788198977463
 30
0
 40
74.8283622006739
 50
320.067351733379
 51
321.322804612787
 62
 7 
  0
ARC
  8
Ebene_1
 10
264.569729755
 20
-28.9333271220408
 30
0
 40
168.062098417164
 50
317.874490617805
 51
320.067351733379
 62
 7 
  0
ARC
  8
Ebene_1
 10
47.9643952737909
 20
166.959854834306
 30
0
 40
460.110056230088
 50
317.495715736578
 51
317.874490617805
 62
 7 
  0
ARC
  8
Ebene_1
 10
221.840703123941
 20
7.6076534864032
 30
0
 40
224.258207591959
 50
316.046546825667
 51
317.495715736578
 62
 7 
  0
ARC
  8
Ebene_1
 10
-114.934156522294
 20
332.299033399686
 30
0
 40
692.063507134123
 50
315.00553721781
 51
316.046546825667
 62
 7 
  0
ARC
  8
Ebene_1
 10
228.58772584262
 20
-11.1564576290559
 30
0
 40
206.297145617263
 50
312.268836838516
 51
315.00553721781
 62
 7 
  0
ARC
  8
Ebene_1
 10
288.942719302877
 20
-77.5582473305327
 30
0
 40
116.564638067619
 50
307.397492521219
 51
312.268836838516
 62
 7 
  0
ARC
  8
Ebene_1
 10
303.905668407216
 20
-97.1307475140525
 30
0
 40
91.9278239608215
 50
303.982234545007
 51
307.397492521219
 62
 7 
  0
LINE
  8
Ebene_1
 10
307.150459204043
 20
-177.218577635546
 30
0
 11
307.967376701391
 21
-175.816573110502
 31
0
 62
 7 
  0
ARC
  8
Ebene_1
 10
325.204151335245
 20
-166.365757174473
 30
0
 40
18.030984523926
 50
206.410059582504
 51
218.457896717081
 62
 7 
  0
ARC
  8
Ebene_1
 10
321.737341820132
 20
-169.119224970979
 30
0
 40
13.6037559189774
 50
218.457896717081
 51
230.136057299802
 62
 7 
  0
ARC
  8
Ebene_1
 10
321.611326248816
 20
-169.270130787511
 30
0
 40
13.4071535546041
 50
230.136057299802
 51
247.629111616912
 62
 7 
  0
ARC
  8
Ebene_1
 10
323.10294755338
 20
-165.64596074248
 30
0
 40
17.3262787926549
 50
247.629111616912
 51
260.62059458352
 62
 7 
  0
ARC
  8
Ebene_1
 10
323.749684202961
 20
-161.730607769998
 30
0
 40
21.2946861801387
 50
260.62059458352
 51
263.660175453384
 62
 7 
  0
ARC
  8
Ebene_1
 10
321.394512923812
 20
-182.928387054197
 30
0
 40
0.0335270205900903
 50
76.1262269650896
 51
83.660175453381
 62
 7 
  0
ARC
  8
Ebene_1
 10
156.115810025482
 20
-92.6685330093248
 30
0
 40
188.310336198639
 50
329.650881065679
 51
331.370534194236
 62
 7 
  0
ARC
  8
Ebene_1
 10
250.590056505861
 20
-147.983527332142
 30
0
 40
78.8337092640787
 50
324.311716785016
 51
329.650881065679
 62
 7 
  0
ARC
  8
Ebene_1
 10
274.730981936501
 20
-165.323057318001
 30
0
 40
49.110930444154
 50
317.135713246735
 51
324.311716785016
 62
 7 
  0
ARC
  8
Ebene_1
 10
293.381795379481
 20
-182.632811246037
 30
0
 40
23.6652938214636
 50
306.734453760761
 51
317.135713246735
 62
 7 
  0
ARC
  8
Ebene_1
 10
297.711530646256
 20
-188.434312779034
 30
0
 40
16.4262312082705
 50
290.290680048258
 51
306.734453760761
 62
 7 
  0
ARC
  8
Ebene_1
 10
300.011497749939
 20
-194.655041381095
 30
0
 40
9.79393801371663
 50
282.494574972438
 51
290.290680048258
 62
 7 
  0
ARC
  8
Ebene_1
 10
298.996010401415
 20
-190.07242059915
 30
0
 40
14.4877240959881
 50
269.39861769172
 51
282.494574972438
 62
 7 
  0
ARC
  8
Ebene_1
 10
298.865497559064
 20
-202.506375385681
 30
0
 40
2.05308436515909
 50
224.072166560669
 51
269.398617691719
 62
 7 
  0
ARC
  8
Ebene_1
 10
299.494932453161
 20
-201.897003175932
 30
0
 40
2.92916813736481
 50
187.851779382725
 51
224.072166560669
 62
 7 
  0
ARC
  8
Ebene_1
 10
303.02247394555
 20
-201.410541964187
 30
0
 40
6.49009406906553
 50
160.996546265241
 51
187.851779382725
 62
 7 
  0
ARC
  8
Ebene_1
 10
532.073326738691
 20
-280.294519689895
 30
0
 40
248.744041626366
 50
159.529062973697
 51
160.996546265241
 62
 7 
  0
ARC
  8
Ebene_1
 10
381.027712968478
 20
-223.908189597091
 30
0
 40
87.5168861575824
 50
155.27846060779
 51
159.529062973697
 62
 7 
  0
ARC
  8
Ebene_1
 10
344.748602283514
 20
-207.20513639851
 30
0
 40
47.5773586410178
 50
151.538543167784
 51
155.27846060779
 62
 7 
  0
ARC
  8
Ebene_1
 10
415.876570693187
 20
-245.76254103014
 30
0
 40
128.483856167574
 50
149.367141074127
 51
151.538543167784
 62
 7 
  0
ARC
  8
Ebene_1
 10
704.712596243386
 20
-416.803347853674
 30
0
 40
464.164071930256
 50
149.146253758378
 51
149.367141074127
 62
 7 
  0
ARC
  8
Ebene_1
 10
52.4207266599182
 20
-27.1295697968259
 30
0
 40
295.658497114514
 50
329.146253758378
 51
329.493032389518
 62
 7 
  0
ARC
  8
Ebene_1
 10
310.992837309943
 20
-177.579061829396
 30
0
 40
3.50139663250606
 50
143.036795614551
 51
149.776967207688
 62
 7 
  0
ARC
  8
Ebene_1
 10
323.229910760875
 20
-186.788042826435
 30
0
 40
18.8164642995895
 50
140.665139893958
 51
143.036795614551
 62
 7 
  0
ARC
  8
Ebene_1
 10
289.668143212868
 20
-159.283937867827
 30
0
 40
24.5755629694901
 50
320.665139893959
 51
321.566714495303
 62
 7 
  0
ARC
  8
Ebene_1
 10
298.559890332198
 20
-166.339864271901
 30
0
 40
13.2243839887052
 50
321.566714495303
 51
322.524879350675
 62
 7 
  0
LINE
  8
Ebene_1
 10
327.163449690408
 20
-167.815967909065
 30
0
 11
326.13534948187
 21
-171.721014905866
 31
0
 62
 7 
  0
LINE
  8
Ebene_1
 10
326.674920914759
 20
-167.683703702051
 30
0
 11
327.163449692568
 21
-167.815967899198
 31
0
 62
 7 
  0
ARC
  8
Ebene_1
 10
207.035915027934
 20
-140.383548803054
 30
0
 40
123.153205678911
 50
343.518823041144
 51
345.258457461161
 62
 7 
  0
ARC
  8
Ebene_1
 10
279.389123822418
 20
-161.789692780621
 30
0
 40
47.6998437733831
 50
340.73946132375
 51
343.518823041144
 62
 7 
  0
ARC
  8
Ebene_1
 10
323.703379727702
 20
-177.274069256638
 30
0
 40
0.758186460395176
 50
329.474967159729
 51
340.739461323749
 62
 7 
  0
ARC
  8
Ebene_1
 10
322.418080086132
 20
-176.516213314124
 30
0
 40
2.2502792183101
 50
307.910786555419
 51
329.474967159731
 62
 7 
  0
ARC
  8
Ebene_1
 10
321.129073337831
 20
-174.861054176578
 30
0
 40
4.34815675710196
 50
284.935525146453
 51
307.910786555419
 62
 7 
  0
ARC
  8
Ebene_1
 10
321.618249135047
 20
-176.694935275331
 30
0
 40
2.45015442703342
 50
269.426800896018
 51
284.935525146453
 62
 7 
  0
ARC
  8
Ebene_1
 10
321.657847679727
 20
-172.73687990261
 30
0
 40
6.40840787751742
 50
250.908803887198
 51
269.426800896018
 62
 7 
  0
ARC
  8
Ebene_1
 10
323.726967124414
 20
-166.758648777245
 30
0
 40
12.7345838681666
 50
236.850336113477
 51
250.908803887198
 62
 7 
  0
ARC
  8
Ebene_1
 10
324.066972616128
 20
-166.238068320697
 30
0
 40
13.356361759487
 50
224.120997997887
 51
236.850336113478
 62
 7 
  0
ARC
  8
Ebene_1
 10
320.313506836516
 20
-169.878098044192
 30
0
 40
8.12775565970834
 50
209.593542264243
 51
224.120997997887
 62
 7 
  0
ARC
  8
Ebene_1
 10
316.995026814739
 20
-171.762762380164
 30
0
 40
4.31143946287394
 50
200.16882361434
 51
209.593542264243
 62
 7 
  0
ARC
  8
Ebene_1
 10
319.82436821445
 20
-170.723515028074
 30
0
 40
7.32560731071302
 50
186.44957983084
 51
200.16882361434
 62
 7 
  0
ARC
  8
Ebene_1
 10
318.036033550694
 20
-170.925676025277
 30
0
 40
5.525882348842
 50
167.561195570411
 51
186.44957983084
 62
 7 
  0
ARC
  8
Ebene_1
 10
318.09305774878
 20
-170.938254101817
 30
0
 40
5.58427727307984
 50
152.510338554938
 51
167.561195570411
 62
 7 
  0
ARC
  8
Ebene_1
 10
320.265945817662
 20
-172.068889752179
 30
0
 40
8.03372201296706
 50
133.224505152212
 51
152.510338554938
 62
 7 
  0
ARC
  8
Ebene_1
 10
328.870506126521
 20
-181.223966006388
 30
0
 40
20.5977133902794
 50
128.949286834647
 51
133.224505152212
 62
 7 
  0
ARC
  8
Ebene_1
 10
337.310811722294
 20
-191.66575911403
 30
0
 40
34.0241724116604
 50
125.52619060641
 51
128.949286834647
 62
 7 
  0
ARC
  8
Ebene_1
 10
323.754043848661
 20
-172.678236594414
 30
0
 40
10.6936780617226
 50
111.966780440803
 51
125.52619060641
 62
 7 
  0
ARC
  8
Ebene_1
 10
322.318062980186
 20
-169.118117770596
 30
0
 40
6.85486482136692
 50
89.9546969370595
 51
111.966780440804
 62
 7 
  0
ARC
  8
Ebene_1
 10
322.316895852148
 20
-170.594209947799
 30
0
 40
8.3309574599869
 50
78.9574207136814
 51
89.9546969370597
 62
 7 
  0
ARC
  8
Ebene_1
 10
323.153235322902
 20
-166.308622417245
 30
0
 40
3.96452594301776
 50
60.7500072101626
 51
78.9574207136812
 62
 7 
  0
ARC
  8
Ebene_1
 10
323.769807282575
 20
-165.207653638168
 30
0
 40
2.70266492295362
 50
23.8950922999278
 51
60.7500072101627
 62
 7 
  0
ARC
  8
Ebene_1
 10
321.863402194864
 20
-166.052260736099
 30
0
 40
4.78778878218255
 50
2.61951377073962
 51
23.8950922999276
 62
 7 
  0
ARC
  8
Ebene_1
 10
299.536487629572
 20
-167.073739882435
 30
0
 40
27.1380579897837
 50
359.962921614564
 51
362.61951377074
 62
 7 
  0
ARC
  8
Ebene_1
 10
-2160.91174317791
 20
-165.481485420432
 30
0
 40
2487.58680400298
 50
359.957004835849
 51
359.962921614564
 62
 7 
  0
ARC
  8
Ebene_1
 10
1047.02942368459
 20
-167.888747946897
 30
0
 40
720.355266073093
 50
179.957004835849
 51
179.983614849516
 62
 7 
  0
LINE
  8
Ebene_1
 10
433.685301197001
 20
-134.148856676476
 30
0
 11
431.08199031172
 21
-137.43116171754
 31
0
 62
 7 
  0
LINE
  8
Ebene_1
 10
402.282103960302
 20
-166.400174286125
 30
0
 11
398.299099296935
 21
-169.702468242932
 31
0
 62
 7 
  0
ARC
  8
Ebene_1
 10
359.430124629273
 20
-161.452340459673
 30
0
 40
36.3660318601832
 50
341.306911098468
 51
342.124271500907
 62
 7 
  0
ARC
  8
Ebene_1
 10
300.819427744355
 20
-142.549016145794
 30
0
 40
97.9497103752851
 50
342.124271500907
 51
342.55481030876
 62
 7 
  0
ARC
  8
Ebene_1
 10
425.911546814644
 20
-181.858887387834
 30
0
 40
33.173530244222
 50
160.027148813829
 51
162.55481030876
 62
 7 
  0
ARC
  8
Ebene_1
 10
400.579789330552
 20
-172.652472545618
 30
0
 40
6.22068231529515
 50
155.99820064063
 51
160.027148813828
 62
 7 
  0
ARC
  8
Ebene_1
 10
563.770166404911
 20
-245.315650535573
 30
0
 40
184.857287201505
 50
151.285562820344
 51
155.99820064063
 62
 7 
  0
ARC
  8
Ebene_1
 10
530.803082768966
 20
-227.255901128047
 30
0
 40
147.267619044921
 50
147.742050108068
 51
151.285562820344
 62
 7 
  0
ARC
  8
Ebene_1
 10
527.557802682156
 20
-225.20765228036
 30
0
 40
143.43002003201
 50
147.085483046948
 51
147.742050108068
 62
 7 
  0
ARC
  8
Ebene_1
 10
1261.25816478584
 20
-700.123443932305
 30
0
 40
1017.42157062702
 50
146.151597779049
 51
147.085483046948
 62
 7 
  0
ARC
  8
Ebene_1
 10
915.420964585362
 20
-468.182292070618
 30
0
 40
601.008233941665
 50
145.247793312441
 51
146.151597779049
 62
 7 
  0
ARC
  8
Ebene_1
 10
473.223686507221
 20
-161.39389738678
 30
0
 40
62.8098022713345
 50
142.409736056379
 51
145.247793312441
 62
 7 
  0
ARC
  8
Ebene_1
 10
523.262673408264
 20
-199.915561045649
 30
0
 40
125.958981055621
 50
139.722026723459
 51
142.409736056379
 62
 7 
  0
ARC
  8
Ebene_1
 10
713.175078117731
 20
-360.847514666838
 30
0
 40
374.888318737753
 50
139.113816210545
 51
139.722026723459
 62
 7 
  0
ARC
  8
Ebene_1
 10
501.052758464854
 20
-177.190910539932
 30
0
 40
94.3074449520573
 50
132.500523678936
 51
139.113816210545
 62
 7 
  0
ARC
  8
Ebene_1
 10
457.384864692958
 20
-129.536641290279
 30
0
 40
29.6714308098471
 50
124.274248028403
 51
132.500523678936
 62
 7 
  0
ARC
  8
Ebene_1
 10
450.449950532432
 20
-119.360615599574
 30
0
 40
17.3570273215839
 50
110.766107109558
 51
124.274248028403
 62
 7 
  0
ARC
  8
Ebene_1
 10
449.197226479235
 20
-116.056910529953
 30
0
 40
13.8237873438162
 50
102.386261360401
 51
110.766107109558
 62
 7 
  0
ARC
  8
Ebene_1
 10
447.573190681016
 20
-108.661917699188
 30
0
 40
6.25256477140642
 50
99.7863617655401
 51
102.386261360401
 62
 7 
  0
ARC
  8
Ebene_1
 10
447.567880700084
 20
-108.631132500659
 30
0
 40
6.22132498354011
 50
83.8107410432201
 51
99.7863617655403
 62
 7 
  0
ARC
  8
Ebene_1
 10
447.97551970266
 20
-104.87218863919
 30
0
 40
2.44034250406429
 50
64.8610886026158
 51
83.8107410432199
 62
 7 
  0
ARC
  8
Ebene_1
 10
448.483397012725
 20
-103.789900686824
 30
0
 40
1.24481476540043
 50
49.3529438885912
 51
64.8610886026155
 62
 7 
  0
ARC
  8
Ebene_1
 10
445.829487352495
 20
-106.881128560898
 30
0
 40
5.31899275048145
 50
33.2368491520392
 51
49.3529438885913
 62
 7 
  0
ARC
  8
Ebene_1
 10
447.444362021995
 20
-105.822900234745
 30
0
 40
3.38827594357597
 50
350.486461955891
 51
393.23684915204
 62
 7 
  0
ARC
  8
Ebene_1
 10
442.833235944
 20
-105.050142278207
 30
0
 40
8.06370518232654
 50
343.172507738456
 51
350.486461955891
 62
 7 
  0
ARC
  8
Ebene_1
 10
411.861207315344
 20
-95.6829171730655
 30
0
 40
40.4212616961409
 50
332.114688130694
 51
343.172507738456
 62
 7 
  0
ARC
  8
Ebene_1
 10
395.142824587026
 20
-86.8364757964962
 30
0
 40
59.3359080338232
 50
325.558100102756
 51
332.114688130694
 62
 7 
  0
ARC
  8
Ebene_1
 10
334.06719632295
 20
-44.9514833693679
 30
0
 40
133.393891792985
 50
323.006530414003
 51
325.558100102756
 62
 7 
  0
ARC
  8
Ebene_1
 10
126.203639692828
 20
111.647799887063
 30
0
 40
393.644912331525
 50
321.756765837121
 51
323.006530414003
 62
 7 
  0
ARC
  8
Ebene_1
 10
-402.856224418452
 20
528.623675255628
 30
0
 40
1067.27182721307
 50
321.61102755596
 51
321.756765837121
 62
 7 
  0
ARC
  8
Ebene_1
 10
385.674669098823
 20
-101.063500588535
 30
0
 40
58.1758678123947
 50
318.690790030077
 51
321.308042014546
 62
 7 
  0
ARC
  8
Ebene_1
 10
240.034736434329
 20
26.9257916659705
 30
0
 40
252.063074503109
 50
317.635263474067
 51
318.690790030077
 62
 7 
  0
ARC
  8
Ebene_1
 10
284.579796180358
 20
-13.6991904726888
 30
0
 40
191.775003365083
 50
316.750740288872
 51
317.635263474067
 62
 7 
  0
ARC
  8
Ebene_1
 10
63.1135390354821
 20
194.630067677088
 30
0
 40
495.828259974836
 50
316.179103288325
 51
316.750740288872
 62
 7 
  0
ARC
  8
Ebene_1
 10
820.090824779736
 20
-531.815206909905
 30
0
 40
553.332046223653
 50
136.179103288325
 51
136.235782107915
 62
 7 
  0
ARC
  8
Ebene_1
 10
539.782167312266
 20
-263.344710070175
 30
0
 40
165.196308208476
 50
136.235782107915
 51
136.744708389874
 62
 7 
  0
ARC
  8
Ebene_1
 10
839.991114107615
 20
-545.805353906797
 30
0
 40
577.397020304624
 50
136.744708389874
 51
137.032027656307
 62
 7 
  0
ARC
  8
Ebene_1
 10
224.675492439326
 20
27.3430298120848
 30
0
 40
263.502726412308
 50
315.947929634917
 51
317.032027656307
 62
 7 
  0
ARC
  8
Ebene_1
 10
356.153499973113
 20
-99.8549245085653
 30
0
 40
80.566163504799
 50
313.635945196376
 51
315.947929634917
 62
 7 
  0
ARC
  8
Ebene_1
 10
366.305163496819
 20
-110.501838484864
 30
0
 40
65.855179529645
 50
311.718203502462
 51
313.635945196376
 62
 7 
  0
ARC
  8
Ebene_1
 10
225.84850337707
 20
47.0424574169161
 30
0
 40
276.919810728674
 50
309.993295981556
 51
311.718203502462
 62
 7 
  0
ARC
  8
Ebene_1
 10
52.9081752236906
 20
253.193696561861
 30
0
 40
546.004723911846
 50
309.78238395055
 51
309.993295981556
 62
 7 
  0
ARC
  8
Ebene_1
 10
996.948164477754
 20
-892.111973129231
 30
0
 40
938.219694949928
 50
129.647992834113
 51
129.821376201236
 62
 7 
  0
ARC
  8
Ebene_1
 10
662.875203148113
 20
-491.44920192611
 30
0
 40
416.55371012849
 50
129.821376201236
 51
130.036201276387
 62
 7 
  0
ARC
  8
Ebene_1
 10
387.408380070583
 20
-163.581554759463
 30
0
 40
11.6742252926117
 50
309.618952545226
 51
310.036201276388
 62
 7 
  0
ARC
  8
Ebene_1
 10
394.517452645726
 20
-172.169161985993
 30
0
 40
0.52586618663574
 50
300.12237104172
 51
309.618952545228
 62
 7 
  0
ARC
  8
Ebene_1
 10
390.206739429025
 20
-164.739478901353
 30
0
 40
9.11553667943252
 50
297.040303077644
 51
300.122371041722
 62
 7 
  0
ARC
  8
Ebene_1
 10
404.432667129928
 20
-192.610949485341
 30
0
 40
22.1765692175097
 50
117.040303077644
 51
117.766806027705
 62
 7 
  0
ARC
  8
Ebene_1
 10
402.489952864023
 20
-188.921083996315
 30
0
 40
18.0065277253831
 50
117.766806027705
 51
118.573056995718
 62
 7 
  0
ENDSEC
  0
EOF
