  0
SECTION
  2
HEADER
  9
$ACADVER
  1
AC1021
  9
$ACADMAINTVER
 70
    25
  9
$DWGCODEPAGE
  3
ANSI_1252
  9
$INSBASE
 10
0.0
 20
0.0
 30
0.0
  9
$EXTMIN
 10
0.0
 20
0.0
 30
0.0
  9
$EXTMAX
 10
594.0
 20
420.0
 30
0.0
  9
$LIMMIN
 10
0.0
 20
0.0
  9
$LIMMAX
 10
594.0
 20
420.0
  9
$ORTHOMODE
 70
     0
  9
$REGENMODE
 70
     1
  9
$FILLMODE
 70
     1
  9
$QTEXTMODE
 70
     0
  9
$MIRRTEXT
 70
     1
  9
$LTSCALE
 40
1.0
  9
$ATTMODE
 70
     1
  9
$TEXTSIZE
 40
2.5
  9
$TRACEWID
 40
1.0
  9
$TEXTSTYLE
  7
Standard
  9
$CLAYER
  8
0
  9
$CELTYPE
  6
ByLayer
  9
$CECOLOR
 62
   256
  9
$CELTSCALE
 40
1.0
  9
$DISPSILH
 70
     0
  9
$DIMSCALE
 40
1.0
  9
$DIMASZ
 40
2.5
  9
$DIMEXO
 40
0.625
  9
$DIMDLI
 40
3.75
  9
$DIMRND
 40
0.0
  9
$DIMDLE
 40
0.0
  9
$DIMEXE
 40
1.25
  9
$DIMTP
 40
0.0
  9
$DIMTM
 40
0.0
  9
$DIMTXT
 40
2.5
  9
$DIMCEN
 40
2.5
  9
$DIMTSZ
 40
0.0
  9
$DIMTOL
 70
     0
  9
$DIMLIM
 70
     0
  9
$DIMTIH
 70
     0
  9
$DIMTOH
 70
     0
  9
$DIMSE1
 70
     0
  9
$DIMSE2
 70
     0
  9
$DIMTAD
 70
     1
  9
$DIMZIN
 70
     8
  9
$DIMBLK
  1

  9
$DIMASO
 70
     1
  9
$DIMSHO
 70
     1
  9
$DIMPOST
  1

  9
$DIMAPOST
  1

  9
$DIMALT
 70
     0
  9
$DIMALTD
 70
     3
  9
$DIMALTF
 40
0.0393700787
  9
$DIMLFAC
 40
1.0
  9
$DIMTOFL
 70
     1
  9
$DIMTVP
 40
0.0
  9
$DIMTIX
 70
     0
  9
$DIMSOXD
 70
     0
  9
$DIMSAH
 70
     0
  9
$DIMBLK1
  1

  9
$DIMBLK2
  1

  9
$DIMSTYLE
  2
ISO-25
  9
$DIMCLRD
 70
     0
  9
$DIMCLRE
 70
     0
  9
$DIMCLRT
 70
     0
  9
$DIMTFAC
 40
1.0
  9
$DIMGAP
 40
0.625
  9
$DIMJUST
 70
     0
  9
$DIMSD1
 70
     0
  9
$DIMSD2
 70
     0
  9
$DIMTOLJ
 70
     0
  9
$DIMTZIN
 70
     8
  9
$DIMALTZ
 70
     0
  9
$DIMALTTZ
 70
     0
  9
$DIMUPT
 70
     0
  9
$DIMDEC
 70
     2
  9
$DIMTDEC
 70
     2
  9
$DIMALTU
 70
     2
  9
$DIMALTTD
 70
     3
  9
$DIMTXSTY
  7
Standard
  9
$DIMAUNIT
 70
     0
  9
$DIMADEC
 70
     0
  9
$DIMALTRND
 40
0.0
  9
$DIMAZIN
 70
     0
  9
$DIMDSEP
 70
    44
  9
$DIMATFIT
 70
     3
  9
$DIMFRAC
 70
     0
  9
$DIMLDRBLK
  1

  9
$DIMLUNIT
 70
     2
  9
$DIMLWD
 70
    -2
  9
$DIMLWE
 70
    -2
  9
$DIMTMOVE
 70
     0
  9
$DIMFXL
 40
1.0
  9
$DIMFXLON
 70
     0
  9
$DIMJOGANG
 40
0.7853981634
  9
$DIMTFILL
 70
     0
  9
$DIMTFILLCLR
 70
     0
  9
$DIMARCSYM
 70
     0
  9
$DIMLTYPE
  6

  9
$DIMLTEX1
  6

  9
$DIMLTEX2
  6

  9
$LUNITS
 70
     2
  9
$LUPREC
 70
     4
  9
$SKETCHINC
 40
1.0
  9
$FILLETRAD
 40
10.0
  9
$AUNITS
 70
     0
  9
$AUPREC
 70
     0
  9
$MENU
  1
.
  9
$ELEVATION
 40
0.0
  9
$PELEVATION
 40
0.0
  9
$THICKNESS
 40
0.0
  9
$LIMCHECK
 70
     0
  9
$CHAMFERA
 40
0.0
  9
$CHAMFERB
 40
0.0
  9
$CHAMFERC
 40
0.0
  9
$CHAMFERD
 40
0.0
  9
$SKPOLY
 70
     0
  9
$TDCREATE
 40
2457459.478582002
  9
$TDUCREATE
 40
2457459.436915336
  9
$TDUPDATE
 40
2457459.478585799
  9
$TDUUPDATE
 40
2457459.436919132
  9
$TDINDWG
 40
0.0000000116
  9
$TDUSRTIMER
 40
0.0000000116
  9
$USRTIMER
 70
     1
  9
$ANGBASE
 50
0.0
  9
$ANGDIR
 70
     0
  9
$PDMODE
 70
     0
  9
$PDSIZE
 40
0.0
  9
$PLINEWID
 40
0.0
  9
$SPLFRAME
 70
     0
  9
$SPLINETYPE
 70
     6
  9
$SPLINESEGS
 70
     8
  9
$HANDSEED
  5
245
  9
$SURFTAB1
 70
     6
  9
$SURFTAB2
 70
     6
  9
$SURFTYPE
 70
     6
  9
$SURFU
 70
     6
  9
$SURFV
 70
     6
  9
$UCSBASE
  2

  9
$UCSNAME
  2

  9
$UCSORG
 10
0.0
 20
0.0
 30
0.0
  9
$UCSXDIR
 10
1.0
 20
0.0
 30
0.0
  9
$UCSYDIR
 10
0.0
 20
1.0
 30
0.0
  9
$UCSORTHOREF
  2

  9
$UCSORTHOVIEW
 70
     0
  9
$UCSORGTOP
 10
0.0
 20
0.0
 30
0.0
  9
$UCSORGBOTTOM
 10
0.0
 20
0.0
 30
0.0
  9
$UCSORGLEFT
 10
0.0
 20
0.0
 30
0.0
  9
$UCSORGRIGHT
 10
0.0
 20
0.0
 30
0.0
  9
$UCSORGFRONT
 10
0.0
 20
0.0
 30
0.0
  9
$UCSORGBACK
 10
0.0
 20
0.0
 30
0.0
  9
$PUCSBASE
  2

  9
$PUCSNAME
  2

  9
$PUCSORG
 10
0.0
 20
0.0
 30
0.0
  9
$PUCSXDIR
 10
1.0
 20
0.0
 30
0.0
  9
$PUCSYDIR
 10
0.0
 20
1.0
 30
0.0
  9
$PUCSORTHOREF
  2

  9
$PUCSORTHOVIEW
 70
     0
  9
$PUCSORGTOP
 10
0.0
 20
0.0
 30
0.0
  9
$PUCSORGBOTTOM
 10
0.0
 20
0.0
 30
0.0
  9
$PUCSORGLEFT
 10
0.0
 20
0.0
 30
0.0
  9
$PUCSORGRIGHT
 10
0.0
 20
0.0
 30
0.0
  9
$PUCSORGFRONT
 10
0.0
 20
0.0
 30
0.0
  9
$PUCSORGBACK
 10
0.0
 20
0.0
 30
0.0
  9
$USERI1
 70
     0
  9
$USERI2
 70
     0
  9
$USERI3
 70
     0
  9
$USERI4
 70
     0
  9
$USERI5
 70
     0
  9
$USERR1
 40
0.0
  9
$USERR2
 40
0.0
  9
$USERR3
 40
0.0
  9
$USERR4
 40
0.0
  9
$USERR5
 40
0.0
  9
$WORLDVIEW
 70
     1
  9
$SHADEDGE
 70
     3
  9
$SHADEDIF
 70
    70
  9
$TILEMODE
 70
     1
  9
$MAXACTVP
 70
    64
  9
$PINSBASE
 10
0.0
 20
0.0
 30
0.0
  9
$PLIMCHECK
 70
     0
  9
$PEXTMIN
 10
0.0
 20
0.0
 30
0.0
  9
$PEXTMAX
 10
594.0
 20
420.0
 30
0.0
  9
$PLIMMIN
 10
0.0
 20
0.0
  9
$PLIMMAX
 10
594.0
 20
420.0
  9
$UNITMODE
 70
     0
  9
$VISRETAIN
 70
     1
  9
$PLINEGEN
 70
     0
  9
$PSLTSCALE
 70
     1
  9
$TREEDEPTH
 70
  3020
  9
$CMLSTYLE
  2
Standard
  9
$CMLJUST
 70
     0
  9
$CMLSCALE
 40
20.0
  9
$PROXYGRAPHICS
 70
     1
  9
$MEASUREMENT
 70
     1
  9
$CELWEIGHT
370
    -1
  9
$ENDCAPS
280
     0
  9
$JOINSTYLE
280
     0
  9
$LWDISPLAY
290
     0
  9
$INSUNITS
 70
     4
  9
$HYPERLINKBASE
  1

  9
$STYLESHEET
  1

  9
$XEDIT
290
     1
  9
$CEPSNTYPE
380
     0
  9
$PSTYLEMODE
290
     1
  9
$FINGERPRINTGUID
  2
{DAEFD197-17D7-457A-9894-8D94271A2A36}
  9
$VERSIONGUID
  2
{FAEB1C32-E019-11D5-929B-00C0DF256EC4}
  9
$EXTNAMES
290
     1
  9
$PSVPSCALE
 40
0.0
  9
$OLESTARTUP
290
     0
  9
$SORTENTS
280
   127
  9
$INDEXCTL
280
     0
  9
$HIDETEXT
280
     1
  9
$XCLIPFRAME
290
     0
  9
$HALOGAP
280
     0
  9
$OBSCOLOR
 70
   257
  9
$OBSLTYPE
280
     0
  9
$INTERSECTIONDISPLAY
280
     0
  9
$INTERSECTIONCOLOR
 70
   257
  9
$DIMASSOC
280
     2
  9
$PROJECTNAME
  1

  9
$CAMERADISPLAY
290
     0
  9
$LENSLENGTH
 40
50.0
  9
$CAMERAHEIGHT
 40
0.0
  9
$STEPSPERSEC
 40
2.0
  9
$STEPSIZE
 40
6.0
  9
$3DDWFPREC
 40
2.0
  9
$PSOLWIDTH
 40
5.0
  9
$PSOLHEIGHT
 40
80.0
  9
$LOFTANG1
 40
1.5707963268
  9
$LOFTANG2
 40
1.5707963268
  9
$LOFTMAG1
 40
0.0
  9
$LOFTMAG2
 40
0.0
  9
$LOFTPARAM
 70
     7
  9
$LOFTNORMALS
280
     1
  9
$LATITUDE
 40
37.795
  9
$LONGITUDE
 40
-122.394
  9
$NORTHDIRECTION
 40
0.0
  9
$TIMEZONE
 70
 -8000
  9
$LIGHTGLYPHDISPLAY
280
     1
  9
$TILEMODELIGHTSYNCH
280
     1
  9
$CMATERIAL
347
44
  9
$SOLIDHIST
280
     0
  9
$SHOWHIST
280
     1
  9
$DWFFRAME
280
     2
  9
$DGNFRAME
280
     2
  9
$REALWORLDSCALE
290
     1
  9
$INTERFERECOLOR
 62
   256
  9
$CSHADOW
280
     0
  9
$SHADOWPLANELOCATION
 40
0.0
  0
ENDSEC
  0
SECTION
  2
CLASSES
  0
CLASS
  1
ACDBDICTIONARYWDFLT
  2
AcDbDictionaryWithDefault
  3
ObjectDBX Classes
 90
        0
 91
        4
280
     0
281
     0
  0
CLASS
  1
VISUALSTYLE
  2
AcDbVisualStyle
  3
ObjectDBX Classes
 90
     4095
 91
        4
280
     0
281
     0
  0
CLASS
  1
MATERIAL
  2
AcDbMaterial
  3
ObjectDBX Classes
 90
     1153
 91
        4
280
     0
281
     0
  0
CLASS
  1
SCALE
  2
AcDbScale
  3
ObjectDBX Classes
 90
     1153
 91
        4
280
     0
281
     0
  0
CLASS
  1
TABLESTYLE
  2
AcDbTableStyle
  3
ObjectDBX Classes
 90
     4095
 91
        4
280
     0
281
     0
  0
CLASS
  1
MLEADERSTYLE
  2
AcDbMLeaderStyle
  3
ACDB_MLEADERSTYLE_CLASS
 90
     4095
 91
        4
280
     0
281
     0
  0
CLASS
  1
SUN
  2
AcDbSun
  3
SCENEOE
 90
     1153
 91
        4
280
     0
281
     0
  0
CLASS
  1
DICTIONARYVAR
  2
AcDbDictionaryVar
  3
ObjectDBX Classes
 90
        0
 91
        4
280
     0
281
     0
  0
CLASS
  1
CELLSTYLEMAP
  2
AcDbCellStyleMap
  3
ObjectDBX Classes
 90
     1152
 91
        4
280
     0
281
     0
  0
ENDSEC
  0
SECTION
  2
TABLES
  0
TABLE
  2
VPORT
  5
8
330
0
100
AcDbSymbolTable
 70
     1
  0
VPORT
  5
29
330
8
100
AcDbSymbolTableRecord
100
AcDbViewportTableRecord
  2
*Active
 70
     0
 10
0.0
 20
0.0
 11
1.0
 21
1.0
 12
344.1869158879
 22
148.5
 13
0.0
 23
0.0
 14
10.0
 24
10.0
 15
10.0
 25
10.0
 16
0.0
 26
0.0
 36
1.0
 17
0.0
 27
0.0
 37
0.0
 40
297.0
 41
1.9729729729
 42
50.0
 43
0.0
 44
0.0
 50
0.0
 51
0.0
 71
     0
 72
   100
 73
     1
 74
     3
 75
     0
 76
     0
 77
     0
 78
     0
281
     0
 65
     1
110
0.0
120
0.0
130
0.0
111
1.0
121
0.0
131
0.0
112
0.0
122
1.0
132
0.0
 79
     0
146
0.0
348
2F
 60
     3
 61
     5
292
     1
282
     1
141
0.0
142
0.0
 63
   250
361
6D
  0
ENDTAB
  0
TABLE
  2
LTYPE
  5
5
330
0
100
AcDbSymbolTable
 70
     1
  0
LTYPE
  5
14
330
5
100
AcDbSymbolTableRecord
100
AcDbLinetypeTableRecord
  2
ByBlock
 70
     0
  3

 72
    65
 73
     0
 40
0.0
  0
LTYPE
  5
15
330
5
100
AcDbSymbolTableRecord
100
AcDbLinetypeTableRecord
  2
ByLayer
 70
     0
  3

 72
    65
 73
     0
 40
0.0
  0
LTYPE
  5
16
330
5
100
AcDbSymbolTableRecord
100
AcDbLinetypeTableRecord
  2
Continuous
 70
     0
  3
Solid line
 72
    65
 73
     0
 40
0.0
  0
ENDTAB
  0
TABLE
  2
LAYER
  5
2
330
0
100
AcDbSymbolTable
 70
     2
  0
LAYER
  5
10
330
2
100
AcDbSymbolTableRecord
100
AcDbLayerTableRecord
  2
0
 70
     0
 62
     7
  6
Continuous
370
    -3
390
F
347
46
  0
LAYER
  5
6E
330
2
100
AcDbSymbolTableRecord
100
AcDbLayerTableRecord
  2
BY_11
 70
     0
 62
     7
  6
Continuous
370
    -3
390
F
347
46
  0
ENDTAB
  0
TABLE
  2
STYLE
  5
3
330
0
100
AcDbSymbolTable
 70
     1
  0
STYLE
  5
11
330
3
100
AcDbSymbolTableRecord
100
AcDbTextStyleTableRecord
  2
Standard
 70
     0
 40
0.0
 41
1.0
 50
0.0
 71
     0
 42
2.5
  3
txt
  4

  0
ENDTAB
  0
TABLE
  2
VIEW
  5
6
330
0
100
AcDbSymbolTable
 70
     0
  0
ENDTAB
  0
TABLE
  2
UCS
  5
7
330
0
100
AcDbSymbolTable
 70
     0
  0
ENDTAB
  0
TABLE
  2
APPID
  5
9
330
0
100
AcDbSymbolTable
 70
     2
  0
APPID
  5
12
330
9
100
AcDbSymbolTableRecord
100
AcDbRegAppTableRecord
  2
ACAD
 70
     0
  0
APPID
  5
23D
330
9
100
AcDbSymbolTableRecord
100
AcDbRegAppTableRecord
  2
ACAD_MLEADERVER
 70
     0
  0
ENDTAB
  0
TABLE
  2
DIMSTYLE
  5
A
330
0
100
AcDbSymbolTable
 70
     1
100
AcDbDimStyleTable
  0
DIMSTYLE
105
27
330
A
100
AcDbSymbolTableRecord
100
AcDbDimStyleTableRecord
  2
ISO-25
 70
     0
 41
2.5
 42
0.625
 43
3.75
 44
1.25
 73
     0
 74
     0
 77
     1
 78
     8
140
2.5
141
2.5
143
0.0393700787
147
0.625
171
     3
172
     1
178
     0
271
     2
272
     2
274
     3
278
    44
283
     0
284
     8
340
11
  0
ENDTAB
  0
TABLE
  2
BLOCK_RECORD
  5
1
330
0
100
AcDbSymbolTable
 70
     1
  0
BLOCK_RECORD
  5
1F
330
1
100
AcDbSymbolTableRecord
100
AcDbBlockTableRecord
  2
*Model_Space
340
22
 70
     0
280
     1
281
     0
  0
BLOCK_RECORD
  5
1B
330
1
100
AcDbSymbolTableRecord
100
AcDbBlockTableRecord
  2
*Paper_Space
340
1E
 70
     0
280
     1
281
     0
  0
ENDTAB
  0
ENDSEC
  0
SECTION
  2
BLOCKS
  0
BLOCK
  5
20
330
1F
100
AcDbEntity
  8
0
100
AcDbBlockBegin
  2
*Model_Space
 70
     0
 10
0.0
 20
0.0
 30
0.0
  3
*Model_Space
  1

  0
ENDBLK
  5
21
330
1F
100
AcDbEntity
  8
0
100
AcDbBlockEnd
  0
BLOCK
  5
1C
330
1B
100
AcDbEntity
 67
     1
  8
0
100
AcDbBlockBegin
  2
*Paper_Space
 70
     0
 10
0.0
 20
0.0
 30
0.0
  3
*Paper_Space
  1

  0
ENDBLK
  5
1D
330
1B
100
AcDbEntity
 67
     1
  8
0
100
AcDbBlockEnd
  0
ENDSEC
  0
SECTION
  2
ENTITIES
  0
ARC
  5
6F
330
1F
100
AcDbEntity
  8
BY_11
  6
Continuous
 62
     7
370
    30
100
AcDbCircle
 10
290.0
 20
5.0
 30
0.0
 40
3.5
100
AcDbArc
 50
180.0
 51
0.0
  0
LINE
  5
70
330
1F
100
AcDbEntity
  8
BY_11
  6
Continuous
 62
     7
370
    30
100
AcDbLine
 10
286.5
 20
5.0
 30
0.0
 11
286.5
 21
11.0
 31
0.0
  0
ARC
  5
71
330
1F
100
AcDbEntity
  8
BY_11
  6
Continuous
 62
     7
370
    30
100
AcDbCircle
 10
290.0
 20
11.0
 30
0.0
 40
3.5
100
AcDbArc
 50
0.0
 51
180.0
  0
LINE
  5
72
330
1F
100
AcDbEntity
  8
BY_11
  6
Continuous
 62
     7
370
    30
100
AcDbLine
 10
293.5
 20
11.0
 30
0.0
 11
293.5
 21
5.0
 31
0.0
  0
LINE
  5
73
330
1F
100
AcDbEntity
  8
BY_11
  6
Continuous
 62
     7
370
    30
100
AcDbLine
 10
13.5
 20
5.0
 30
0.0
 11
13.5
 21
11.0
 31
0.0
  0
ARC
  5
74
330
1F
100
AcDbEntity
  8
BY_11
  6
Continuous
 62
     7
370
    30
100
AcDbCircle
 10
10.0
 20
11.0
 30
0.0
 40
3.5
100
AcDbArc
 50
0.0
 51
180.0
  0
LINE
  5
75
330
1F
100
AcDbEntity
  8
BY_11
  6
Continuous
 62
     7
370
    30
100
AcDbLine
 10
6.5
 20
11.0
 30
0.0
 11
6.5
 21
5.0
 31
0.0
  0
ARC
  5
76
330
1F
100
AcDbEntity
  8
BY_11
  6
Continuous
 62
     7
370
    30
100
AcDbCircle
 10
10.0
 20
5.0
 30
0.0
 40
3.5
100
AcDbArc
 50
180.0
 51
0.0
  0
LINE
  5
77
330
1F
100
AcDbEntity
  8
BY_11
  6
Continuous
 62
     7
370
    30
100
AcDbLine
 10
300.0
 20
0.0
 30
0.0
 11
300.0
 21
28.1783182293
 31
0.0
  0
ARC
  5
78
330
1F
100
AcDbEntity
  8
BY_11
  6
Continuous
 62
     7
370
    30
100
AcDbCircle
 10
290.0
 20
28.1783182293
 30
0.0
 40
10.0
100
AcDbArc
 50
0.0
 51
90.0
  0
LINE
  5
79
330
1F
100
AcDbEntity
  8
BY_11
  6
Continuous
 62
     7
370
    30
100
AcDbLine
 10
290.0
 20
38.1783182293
 30
0.0
 11
10.0
 21
38.1783182293
 31
0.0
  0
ARC
  5
7A
330
1F
100
AcDbEntity
  8
BY_11
  6
Continuous
 62
     7
370
    30
100
AcDbCircle
 10
10.0
 20
28.1783182293
 30
0.0
 40
10.0
100
AcDbArc
 50
90.0
 51
180.0
  0
LINE
  5
7B
330
1F
100
AcDbEntity
  8
BY_11
  6
Continuous
 62
     7
370
    30
100
AcDbLine
 10
0.0
 20
28.1783182293
 30
0.0
 11
0.0
 21
0.0
 31
0.0
  0
LINE
  5
7C
330
1F
100
AcDbEntity
  8
BY_11
  6
Continuous
 62
     7
370
    30
100
AcDbLine
 10
0.0
 20
0.0
 30
0.0
 11
300.0
 21
0.0
 31
0.0
  0
LINE
  5
7D
330
1F
100
AcDbEntity
  8
BY_11
  6
Continuous
 62
     7
370
    30
100
AcDbLine
 10
137.285944037
 20
14.635
 30
0.0
 11
137.285944037
 21
4.635
 31
0.0
  0
LINE
  5
7E
330
1F
100
AcDbEntity
  8
BY_11
  6
Continuous
 62
     7
370
    30
100
AcDbLine
 10
138.714515465
 20
4.635
 30
0.0
 11
135.857372608
 21
4.635
 31
0.0
  0
LINE
  5
7F
330
1F
100
AcDbEntity
  8
BY_11
  6
Continuous
 62
     7
370
    30
100
AcDbLine
 10
135.857372608
 20
14.635
 30
0.0
 11
138.714515465
 21
14.635
 31
0.0
  0
LINE
  5
80
330
1F
100
AcDbEntity
  8
BY_11
  6
Continuous
 62
     7
370
    30
100
AcDbLine
 10
-1.822498324
 20
-53.9810975259
 30
0.0
 11
1.0346445331
 21
-49.6953832402
 31
0.0
  0
LINE
  5
81
330
1F
100
AcDbEntity
  8
BY_11
  6
Continuous
 62
     7
370
    30
100
AcDbLine
 10
1.0346445331
 20
-49.6953832402
 30
0.0
 11
1.0346445331
 21
-59.6953832402
 31
0.0
  0
ARC
  5
82
330
1F
100
AcDbEntity
  8
BY_11
  6
Continuous
 62
     7
370
    30
100
AcDbCircle
 10
6.7489302488
 20
-51.8382403844
 30
0.0
 40
2.14285714422
100
AcDbArc
 50
90.0000000365
 51
179.999999964
  0
LINE
  5
83
330
1F
100
AcDbEntity
  8
BY_11
  6
Continuous
 62
     7
370
    30
100
AcDbLine
 10
6.7489302474
 20
-49.6953832402
 30
0.0
 11
8.8917873903
 21
-49.6953832402
 31
0.0
  0
ARC
  5
84
330
1F
100
AcDbEntity
  8
BY_11
  6
Continuous
 62
     7
370
    30
100
AcDbCircle
 10
8.8917873889
 20
-51.8382403844
 30
0.0
 40
2.14285714422
100
AcDbArc
 50
0.0000000365
 51
89.9999999635
  0
LINE
  5
85
330
1F
100
AcDbEntity
  8
BY_11
  6
Continuous
 62
     7
370
    30
100
AcDbLine
 10
11.0346445331
 20
-51.8382403831
 30
0.0
 11
11.0346445331
 21
-52.5525260974
 31
0.0
  0
ARC
  5
86
330
1F
100
AcDbEntity
  8
BY_11
  6
Continuous
 62
     7
370
    30
100
AcDbCircle
 10
8.8915934402
 20
-52.5521026534
 30
0.0
 40
2.14305113472
100
AcDbArc
 50
310.769340808
 51
359.988678967
  0
LINE
  5
87
330
1F
100
AcDbEntity
  8
BY_11
  6
Continuous
 62
     7
370
    30
100
AcDbLine
 10
10.2910389188
 20
-54.1751308474
 30
0.0
 11
4.6060731046
 21
-59.6953832402
 31
0.0
  0
LINE
  5
88
330
1F
100
AcDbEntity
  8
BY_11
  6
Continuous
 62
     7
370
    30
100
AcDbLine
 10
4.6060731046
 20
-59.6953832402
 30
0.0
 11
11.0346445331
 21
-59.6953832402
 31
0.0
  0
ARC
  5
89
330
1F
100
AcDbEntity
  8
BY_11
  6
Continuous
 62
     7
370
    30
100
AcDbCircle
 10
14.6060731059
 20
-51.8382403844
 30
0.0
 40
2.14285714422
100
AcDbArc
 50
90.0000000365
 51
179.999999964
  0
LINE
  5
8A
330
1F
100
AcDbEntity
  8
BY_11
  6
Continuous
 62
     7
370
    30
100
AcDbLine
 10
14.6060731045
 20
-49.6953832402
 30
0.0
 11
16.7489302474
 21
-49.6953832402
 31
0.0
  0
ARC
  5
8B
330
1F
100
AcDbEntity
  8
BY_11
  6
Continuous
 62
     7
370
    30
100
AcDbCircle
 10
16.748930246
 20
-51.8382403844
 30
0.0
 40
2.14285714422
100
AcDbArc
 50
0.0000000365
 51
89.9999999635
  0
LINE
  5
8C
330
1F
100
AcDbEntity
  8
BY_11
  6
Continuous
 62
     7
370
    30
100
AcDbLine
 10
18.8917873903
 20
-51.8382403831
 30
0.0
 11
18.8917873903
 21
-52.5525260974
 31
0.0
  0
ARC
  5
8D
330
1F
100
AcDbEntity
  8
BY_11
  6
Continuous
 62
     7
370
    30
100
AcDbCircle
 10
16.748930246
 20
-52.552526096
 30
0.0
 40
2.14285714422
100
AcDbArc
 50
270.000000036
 51
359.999999964
  0
LINE
  5
8E
330
1F
100
AcDbEntity
  8
BY_11
  6
Continuous
 62
     7
370
    30
100
AcDbLine
 10
16.7489302474
 20
-54.6953832402
 30
0.0
 11
15.3203588188
 21
-54.6953832402
 31
0.0
  0
LINE
  5
8F
330
1F
100
AcDbEntity
  8
BY_11
  6
Continuous
 62
     7
370
    30
100
AcDbLine
 10
15.3203588188
 20
-54.6953832402
 30
0.0
 11
16.7489302474
 21
-54.6953832402
 31
0.0
  0
ARC
  5
90
330
1F
100
AcDbEntity
  8
BY_11
  6
Continuous
 62
     7
370
    30
100
AcDbCircle
 10
16.748930246
 20
-56.8382403844
 30
0.0
 40
2.14285714422
100
AcDbArc
 50
0.0000000365
 51
89.9999999635
  0
LINE
  5
91
330
1F
100
AcDbEntity
  8
BY_11
  6
Continuous
 62
     7
370
    30
100
AcDbLine
 10
18.8917873903
 20
-56.8382403831
 30
0.0
 11
18.8917873903
 21
-57.5525260974
 31
0.0
  0
ARC
  5
92
330
1F
100
AcDbEntity
  8
BY_11
  6
Continuous
 62
     7
370
    30
100
AcDbCircle
 10
16.748930246
 20
-57.552526096
 30
0.0
 40
2.14285714422
100
AcDbArc
 50
270.000000036
 51
359.999999964
  0
LINE
  5
93
330
1F
100
AcDbEntity
  8
BY_11
  6
Continuous
 62
     7
370
    30
100
AcDbLine
 10
16.7489302474
 20
-59.6953832402
 30
0.0
 11
14.6060731045
 21
-59.6953832402
 31
0.0
  0
ARC
  5
94
330
1F
100
AcDbEntity
  8
BY_11
  6
Continuous
 62
     7
370
    30
100
AcDbCircle
 10
14.6060731059
 20
-57.552526096
 30
0.0
 40
2.14285714422
100
AcDbArc
 50
180.000000036
 51
269.999999964
  0
LINE
  5
95
330
1F
100
AcDbEntity
  8
BY_11
  6
Continuous
 62
     7
370
    30
100
AcDbLine
 10
34.6060731045
 20
-49.6953832402
 30
0.0
 11
28.177501676
 21
-49.6953832402
 31
0.0
  0
LINE
  5
96
330
1F
100
AcDbEntity
  8
BY_11
  6
Continuous
 62
     7
370
    30
100
AcDbLine
 10
28.177501676
 20
-49.6953832402
 30
0.0
 11
28.177501676
 21
-53.2668118117
 31
0.0
  0
LINE
  5
97
330
1F
100
AcDbEntity
  8
BY_11
  6
Continuous
 62
     7
370
    30
100
AcDbLine
 10
28.177501676
 20
-53.2668118117
 30
0.0
 11
31.7489302474
 21
-53.2668118117
 31
0.0
  0
ARC
  5
98
330
1F
100
AcDbEntity
  8
BY_11
  6
Continuous
 62
     7
370
    30
100
AcDbCircle
 10
31.7489302456
 20
-56.1239546706
 30
0.0
 40
2.85714285896
100
AcDbArc
 50
0.0000000365
 51
89.9999999635
  0
LINE
  5
99
330
1F
100
AcDbEntity
  8
BY_11
  6
Continuous
 62
     7
370
    30
100
AcDbLine
 10
34.6060731045
 20
-56.1239546688
 30
0.0
 11
34.6060731045
 21
-56.8382403831
 31
0.0
  0
ARC
  5
9A
330
1F
100
AcDbEntity
  8
BY_11
  6
Continuous
 62
     7
370
    30
100
AcDbCircle
 10
31.7489302456
 20
-56.8382403813
 30
0.0
 40
2.85714285896
100
AcDbArc
 50
270.000000036
 51
359.999999964
  0
LINE
  5
9B
330
1F
100
AcDbEntity
  8
BY_11
  6
Continuous
 62
     7
370
    30
100
AcDbLine
 10
31.7489302474
 20
-59.6953832402
 30
0.0
 11
30.3203588188
 21
-59.6953832402
 31
0.0
  0
ARC
  5
9C
330
1F
100
AcDbEntity
  8
BY_11
  6
Continuous
 62
     7
370
    30
100
AcDbCircle
 10
30.1111493786
 20
-56.7515829895
 30
0.0
 40
2.95122491623
100
AcDbArc
 50
229.065051219
 51
274.065051135
  0
ARC
  5
9D
330
1F
100
AcDbEntity
  8
BY_11
  6
Continuous
 62
     7
370
    30
100
AcDbCircle
 10
40.1724254019
 20
-52.4667396647
 30
0.0
 40
2.7747792704
100
AcDbArc
 50
47.8461759838
 51
92.8461759001
  0
LINE
  5
9E
330
1F
100
AcDbEntity
  8
BY_11
  6
Continuous
 62
     7
370
    30
100
AcDbLine
 10
40.0346445331
 20
-49.6953832402
 30
0.0
 11
38.8917873903
 21
-49.6953832402
 31
0.0
  0
ARC
  5
9F
330
1F
100
AcDbEntity
  8
BY_11
  6
Continuous
 62
     7
370
    30
100
AcDbCircle
 10
38.8917873921
 20
-52.5525260992
 30
0.0
 40
2.85714285896
100
AcDbArc
 50
90.0000000365
 51
179.999999964
  0
LINE
  5
A0
330
1F
100
AcDbEntity
  8
BY_11
  6
Continuous
 62
     7
370
    30
100
AcDbLine
 10
36.0346445331
 20
-52.5525260974
 30
0.0
 11
36.0346445331
 21
-56.8382403831
 31
0.0
  0
ARC
  5
A1
330
1F
100
AcDbEntity
  8
BY_11
  6
Continuous
 62
     7
370
    30
100
AcDbCircle
 10
38.8917873921
 20
-56.8382403813
 30
0.0
 40
2.85714285896
100
AcDbArc
 50
180.000000036
 51
256.9971218076
  0
ARC
  5
A2
330
1F
100
AcDbEntity
  8
BY_11
  6
Continuous
 62
     7
370
    30
100
AcDbCircle
 10
39.6060731027
 20
-56.8382403813
 30
0.0
 40
2.85714285896
100
AcDbArc
 50
283.0028781924
 51
359.999999964
  0
LINE
  5
A3
330
1F
100
AcDbEntity
  8
BY_11
  6
Continuous
 62
     7
370
    30
100
AcDbLine
 10
42.4632159617
 20
-56.8382403831
 30
0.0
 11
42.4632159617
 21
-56.1239546688
 31
0.0
  0
ARC
  5
A4
330
1F
100
AcDbEntity
  8
BY_11
  6
Continuous
 62
     7
370
    30
100
AcDbCircle
 10
39.6060731027
 20
-56.1239546706
 30
0.0
 40
2.85714285896
100
AcDbArc
 50
0.0000000365
 51
76.9971218076
  0
ARC
  5
A5
330
1F
100
AcDbEntity
  8
BY_11
  6
Continuous
 62
     7
370
    30
100
AcDbCircle
 10
38.8917873921
 20
-56.1239546706
 30
0.0
 40
2.85714285896
100
AcDbArc
 50
103.0028781924
 51
179.999999964
  0
LINE
  5
A6
330
1F
100
AcDbEntity
  8
BY_11
  6
Continuous
 62
     7
370
    30
100
AcDbLine
 10
43.8917873903
 20
-49.6953832402
 30
0.0
 11
50.3203588188
 21
-49.6953832402
 31
0.0
  0
LINE
  5
A7
330
1F
100
AcDbEntity
  8
BY_11
  6
Continuous
 62
     7
370
    30
100
AcDbLine
 10
50.3203588188
 20
-49.6953832402
 30
0.0
 11
46.0346445331
 21
-59.6953832402
 31
0.0
  0
ARC
  5
A8
330
1F
100
AcDbEntity
  8
BY_11
  6
Continuous
 62
     7
370
    30
100
AcDbCircle
 10
53.8917873916
 20
-52.552526096
 30
0.0
 40
2.14285714422
100
AcDbArc
 50
180.000000036
 51
269.999999964
  0
LINE
  5
A9
330
1F
100
AcDbEntity
  8
BY_11
  6
Continuous
 62
     7
370
    30
100
AcDbLine
 10
51.7489302474
 20
-52.5525260974
 30
0.0
 11
51.7489302474
 21
-51.8382403831
 31
0.0
  0
ARC
  5
AA
330
1F
100
AcDbEntity
  8
BY_11
  6
Continuous
 62
     7
370
    30
100
AcDbCircle
 10
53.8917873916
 20
-51.8382403844
 30
0.0
 40
2.14285714422
100
AcDbArc
 50
90.0000000365
 51
179.999999964
  0
LINE
  5
AB
330
1F
100
AcDbEntity
  8
BY_11
  6
Continuous
 62
     7
370
    30
100
AcDbLine
 10
53.8917873903
 20
-49.6953832402
 30
0.0
 11
53.9632159617
 21
-49.6953832402
 31
0.0
  0
ARC
  5
AC
330
1F
100
AcDbEntity
  8
BY_11
  6
Continuous
 62
     7
370
    30
100
AcDbCircle
 10
56.0346445318
 20
-51.8382403844
 30
0.0
 40
2.14285714422
100
AcDbArc
 50
0.0000000365
 51
89.9999999635
  0
LINE
  5
AD
330
1F
100
AcDbEntity
  8
BY_11
  6
Continuous
 62
     7
370
    30
100
AcDbLine
 10
58.177501676
 20
-51.8382403831
 30
0.0
 11
58.177501676
 21
-52.5525260974
 31
0.0
  0
ARC
  5
AE
330
1F
100
AcDbEntity
  8
BY_11
  6
Continuous
 62
     7
370
    30
100
AcDbCircle
 10
56.0346445318
 20
-52.552526096
 30
0.0
 40
2.14285714422
100
AcDbArc
 50
270.000000036
 51
359.999999964
  0
LINE
  5
AF
330
1F
100
AcDbEntity
  8
BY_11
  6
Continuous
 62
     7
370
    30
100
AcDbLine
 10
53.9632159617
 20
-54.6953832402
 30
0.0
 11
53.8917873903
 21
-54.6953832402
 31
0.0
  0
ARC
  5
B0
330
1F
100
AcDbEntity
  8
BY_11
  6
Continuous
 62
     7
370
    30
100
AcDbCircle
 10
53.8917873916
 20
-56.8382403844
 30
0.0
 40
2.14285714422
100
AcDbArc
 50
90.0000000365
 51
179.999999964
  0
LINE
  5
B1
330
1F
100
AcDbEntity
  8
BY_11
  6
Continuous
 62
     7
370
    30
100
AcDbLine
 10
51.7489302474
 20
-56.8382403831
 30
0.0
 11
51.7489302474
 21
-57.5525260974
 31
0.0
  0
ARC
  5
B2
330
1F
100
AcDbEntity
  8
BY_11
  6
Continuous
 62
     7
370
    30
100
AcDbCircle
 10
53.8917873916
 20
-57.552526096
 30
0.0
 40
2.14285714422
100
AcDbArc
 50
180.000000036
 51
269.999999964
  0
LINE
  5
B3
330
1F
100
AcDbEntity
  8
BY_11
  6
Continuous
 62
     7
370
    30
100
AcDbLine
 10
53.8917873903
 20
-59.6953832402
 30
0.0
 11
53.9632159617
 21
-59.6953832402
 31
0.0
  0
ARC
  5
B4
330
1F
100
AcDbEntity
  8
BY_11
  6
Continuous
 62
     7
370
    30
100
AcDbCircle
 10
56.0346445318
 20
-57.552526096
 30
0.0
 40
2.14285714422
100
AcDbArc
 50
270.000000036
 51
359.999999964
  0
LINE
  5
B5
330
1F
100
AcDbEntity
  8
BY_11
  6
Continuous
 62
     7
370
    30
100
AcDbLine
 10
58.177501676
 20
-57.5525260974
 30
0.0
 11
58.177501676
 21
-56.8382403831
 31
0.0
  0
ARC
  5
B6
330
1F
100
AcDbEntity
  8
BY_11
  6
Continuous
 62
     7
370
    30
100
AcDbCircle
 10
56.0346445318
 20
-56.8382403844
 30
0.0
 40
2.14285714422
100
AcDbArc
 50
0.0000000365
 51
89.9999999635
  0
ARC
  5
B7
330
1F
100
AcDbEntity
  8
BY_11
  6
Continuous
 62
     7
370
    30
100
AcDbCircle
 10
61.9682922357
 20
-56.7515829895
 30
0.0
 40
2.95122491623
100
AcDbArc
 50
229.065051219
 51
274.065051135
  0
LINE
  5
B8
330
1F
100
AcDbEntity
  8
BY_11
  6
Continuous
 62
     7
370
    30
100
AcDbLine
 10
62.177501676
 20
-59.6953832402
 30
0.0
 11
63.177501676
 21
-59.6953832402
 31
0.0
  0
ARC
  5
B9
330
1F
100
AcDbEntity
  8
BY_11
  6
Continuous
 62
     7
370
    30
100
AcDbCircle
 10
63.1775016742
 20
-56.8382403813
 30
0.0
 40
2.85714285896
100
AcDbArc
 50
270.000000036
 51
359.999999964
  0
LINE
  5
BA
330
1F
100
AcDbEntity
  8
BY_11
  6
Continuous
 62
     7
370
    30
100
AcDbLine
 10
66.0346445331
 20
-56.8382403831
 30
0.0
 11
66.0346445331
 21
-52.5525260974
 31
0.0
  0
ARC
  5
BB
330
1F
100
AcDbEntity
  8
BY_11
  6
Continuous
 62
     7
370
    30
100
AcDbCircle
 10
63.1775016742
 20
-52.5525260992
 30
0.0
 40
2.85714285896
100
AcDbArc
 50
0.0000000365
 51
76.9971218086
  0
ARC
  5
BC
330
1F
100
AcDbEntity
  8
BY_11
  6
Continuous
 62
     7
370
    30
100
AcDbCircle
 10
62.4632159635
 20
-52.5525260992
 30
0.0
 40
2.85714285896
100
AcDbArc
 50
103.0028781914
 51
179.999999964
  0
LINE
  5
BD
330
1F
100
AcDbEntity
  8
BY_11
  6
Continuous
 62
     7
370
    30
100
AcDbLine
 10
59.6060731045
 20
-52.5525260974
 30
0.0
 11
59.6060731045
 21
-53.2668118117
 31
0.0
  0
ARC
  5
BE
330
1F
100
AcDbEntity
  8
BY_11
  6
Continuous
 62
     7
370
    30
100
AcDbCircle
 10
62.4632159635
 20
-53.2668118098
 30
0.0
 40
2.85714285896
100
AcDbArc
 50
180.000000036
 51
256.9971218086
  0
ARC
  5
BF
330
1F
100
AcDbEntity
  8
BY_11
  6
Continuous
 62
     7
370
    30
100
AcDbCircle
 10
63.1775016742
 20
-53.2668118098
 30
0.0
 40
2.85714285896
100
AcDbArc
 50
283.0028781914
 51
359.999999964
  0
LINE
  5
C0
330
1F
100
AcDbEntity
  8
BY_11
  6
Continuous
 62
     7
370
    30
100
AcDbLine
 10
110.777456983
 20
-56.4212035116
 30
0.0
 11
110.777456983
 21
-52.1354892259
 31
0.0
  0
ARC
  5
C1
330
1F
100
AcDbEntity
  8
BY_11
  6
Continuous
 62
     7
370
    30
100
AcDbCircle
 10
113.634599842
 20
-52.1354892277
 30
0.0
 40
2.85714285896
100
AcDbArc
 50
103.0028781574
 51
179.999999964
  0
ARC
  5
C2
330
1F
100
AcDbEntity
  8
BY_11
  6
Continuous
 62
     7
370
    30
100
AcDbCircle
 10
114.348885553
 20
-52.1354892277
 30
0.0
 40
2.85714285896
100
AcDbArc
 50
0.0000000365
 51
76.9971217808
  0
LINE
  5
C3
330
1F
100
AcDbEntity
  8
BY_11
  6
Continuous
 62
     7
370
    30
100
AcDbLine
 10
117.206028412
 20
-52.1354892259
 30
0.0
 11
117.206028412
 21
-56.4212035116
 31
0.0
  0
ARC
  5
C4
330
1F
100
AcDbEntity
  8
BY_11
  6
Continuous
 62
     7
370
    30
100
AcDbCircle
 10
114.348885553
 20
-56.4212035098
 30
0.0
 40
2.85714285896
100
AcDbArc
 50
283.0028782192
 51
359.999999964
  0
ARC
  5
C5
330
1F
100
AcDbEntity
  8
BY_11
  6
Continuous
 62
     7
370
    30
100
AcDbCircle
 10
113.991742699
 20
-56.0640606522
 30
0.0
 40
3.23406612282
100
AcDbArc
 50
186.340191782
 51
251.9884761786
  0
LINE
  5
C6
330
1F
100
AcDbEntity
  8
BY_11
  6
Continuous
 62
     7
370
    30
100
AcDbLine
 10
-6.8269407821
 20
-88.4709273743
 30
0.0
 11
-3.2555122107
 21
-78.4709273743
 31
0.0
  0
LINE
  5
C7
330
1F
100
AcDbEntity
  8
BY_11
  6
Continuous
 62
     7
370
    30
100
AcDbLine
 10
-3.2555122107
 20
-78.4709273743
 30
0.0
 11
0.3159163607
 21
-88.4709273743
 31
0.0
  0
LINE
  5
C8
330
1F
100
AcDbEntity
  8
BY_11
  6
Continuous
 62
     7
370
    30
100
AcDbLine
 10
-1.7555122107
 20
-85.6137845172
 30
0.0
 11
-0.7045122107
 21
-85.6137845172
 31
0.0
  0
LINE
  5
C9
330
1F
100
AcDbEntity
  8
BY_11
  6
Continuous
 62
     7
370
    30
100
AcDbLine
 10
1.7444877893
 20
-88.4709273743
 30
0.0
 11
1.7444877893
 21
-78.4709273743
 31
0.0
  0
LINE
  5
CA
330
1F
100
AcDbEntity
  8
BY_11
  6
Continuous
 62
     7
370
    30
100
AcDbLine
 10
4.7444877893
 20
-78.4709273743
 30
0.0
 11
6.3873449322
 21
-78.4709273743
 31
0.0
  0
ARC
  5
CB
330
1F
100
AcDbEntity
  8
BY_11
  6
Continuous
 62
     7
370
    30
100
AcDbCircle
 10
6.3873449322
 20
-80.9709273743
 30
0.0
 40
2.5
100
AcDbArc
 50
270.0
 51
90.0
  0
LINE
  5
CC
330
1F
100
AcDbEntity
  8
BY_11
  6
Continuous
 62
     7
370
    30
100
AcDbLine
 10
6.3873449322
 20
-83.4709273743
 30
0.0
 11
4.7444877893
 21
-83.4709273743
 31
0.0
  0
LINE
  5
CD
330
1F
100
AcDbEntity
  8
BY_11
  6
Continuous
 62
     7
370
    30
100
AcDbLine
 10
4.7444877893
 20
-83.4709273743
 30
0.0
 11
6.3873449322
 21
-83.4709273743
 31
0.0
  0
ARC
  5
CE
330
1F
100
AcDbEntity
  8
BY_11
  6
Continuous
 62
     7
370
    30
100
AcDbCircle
 10
6.3873449322
 20
-85.9709273743
 30
0.0
 40
2.5
100
AcDbArc
 50
270.0
 51
90.0
  0
LINE
  5
CF
330
1F
100
AcDbEntity
  8
BY_11
  6
Continuous
 62
     7
370
    30
100
AcDbLine
 10
6.3873449322
 20
-88.4709273743
 30
0.0
 11
4.7444877893
 21
-88.4709273743
 31
0.0
  0
LINE
  5
D0
330
1F
100
AcDbEntity
  8
BY_11
  6
Continuous
 62
     7
370
    30
100
AcDbLine
 10
17.4587735036
 20
-88.4709273743
 30
0.0
 11
13.8873449322
 21
-88.4709273743
 31
0.0
  0
ARC
  5
D1
330
1F
100
AcDbEntity
  8
BY_11
  6
Continuous
 62
     7
370
    30
100
AcDbCircle
 10
13.8873449344
 20
-84.8994988006
 30
0.0
 40
3.5714285737
100
AcDbArc
 50
180.000000036
 51
269.999999964
  0
LINE
  5
D2
330
1F
100
AcDbEntity
  8
BY_11
  6
Continuous
 62
     7
370
    30
100
AcDbLine
 10
10.3159163607
 20
-84.8994988029
 30
0.0
 11
10.3159163607
 21
-82.0423559457
 31
0.0
  0
ARC
  5
D3
330
1F
100
AcDbEntity
  8
BY_11
  6
Continuous
 62
     7
370
    30
100
AcDbCircle
 10
13.8873449344
 20
-82.042355948
 30
0.0
 40
3.5714285737
100
AcDbArc
 50
90.0000000365
 51
179.999999964
  0
LINE
  5
D4
330
1F
100
AcDbEntity
  8
BY_11
  6
Continuous
 62
     7
370
    30
100
AcDbLine
 10
13.8873449322
 20
-78.4709273743
 30
0.0
 11
17.4587735036
 21
-78.4709273743
 31
0.0
  0
LINE
  5
D5
330
1F
100
AcDbEntity
  8
BY_11
  6
Continuous
 62
     7
370
    30
100
AcDbLine
 10
18.8873449322
 20
-88.4709273743
 30
0.0
 11
18.8873449322
 21
-78.4709273743
 31
0.0
  0
LINE
  5
D6
330
1F
100
AcDbEntity
  8
BY_11
  6
Continuous
 62
     7
370
    30
100
AcDbLine
 10
21.8873449322
 20
-78.4709273743
 30
0.0
 11
22.4587735036
 21
-78.4709273743
 31
0.0
  0
ARC
  5
D7
330
1F
100
AcDbEntity
  8
BY_11
  6
Continuous
 62
     7
370
    30
100
AcDbCircle
 10
22.4587735013
 20
-82.042355948
 30
0.0
 40
3.5714285737
100
AcDbArc
 50
0.0000000365
 51
89.9999999635
  0
LINE
  5
D8
330
1F
100
AcDbEntity
  8
BY_11
  6
Continuous
 62
     7
370
    30
100
AcDbLine
 10
26.030202075
 20
-82.0423559457
 30
0.0
 11
26.030202075
 21
-84.8994988029
 31
0.0
  0
ARC
  5
D9
330
1F
100
AcDbEntity
  8
BY_11
  6
Continuous
 62
     7
370
    30
100
AcDbCircle
 10
22.4587735013
 20
-84.8994988006
 30
0.0
 40
3.5714285737
100
AcDbArc
 50
270.000000036
 51
359.999999964
  0
LINE
  5
DA
330
1F
100
AcDbEntity
  8
BY_11
  6
Continuous
 62
     7
370
    30
100
AcDbLine
 10
22.4587735036
 20
-88.4709273743
 30
0.0
 11
21.8873449322
 21
-88.4709273743
 31
0.0
  0
LINE
  5
DB
330
1F
100
AcDbEntity
  8
BY_11
  6
Continuous
 62
     7
370
    30
100
AcDbLine
 10
34.6016306464
 20
-78.4709273743
 30
0.0
 11
27.4587735036
 21
-78.4709273743
 31
0.0
  0
LINE
  5
DC
330
1F
100
AcDbEntity
  8
BY_11
  6
Continuous
 62
     7
370
    30
100
AcDbLine
 10
27.4587735036
 20
-78.4709273743
 30
0.0
 11
27.4587735036
 21
-88.4709273743
 31
0.0
  0
LINE
  5
DD
330
1F
100
AcDbEntity
  8
BY_11
  6
Continuous
 62
     7
370
    30
100
AcDbLine
 10
27.4587735036
 20
-88.4709273743
 30
0.0
 11
34.6016306464
 21
-88.4709273743
 31
0.0
  0
LINE
  5
DE
330
1F
100
AcDbEntity
  8
BY_11
  6
Continuous
 62
     7
370
    30
100
AcDbLine
 10
27.4587735036
 20
-83.4709273743
 30
0.0
 11
31.7444877893
 21
-83.4709273743
 31
0.0
  0
LINE
  5
DF
330
1F
100
AcDbEntity
  8
BY_11
  6
Continuous
 62
     7
370
    30
100
AcDbLine
 10
43.1730592179
 20
-78.4709273743
 30
0.0
 11
36.030202075
 21
-78.4709273743
 31
0.0
  0
LINE
  5
E0
330
1F
100
AcDbEntity
  8
BY_11
  6
Continuous
 62
     7
370
    30
100
AcDbLine
 10
36.030202075
 20
-78.4709273743
 30
0.0
 11
36.030202075
 21
-88.4709273743
 31
0.0
  0
LINE
  5
E1
330
1F
100
AcDbEntity
  8
BY_11
  6
Continuous
 62
     7
370
    30
100
AcDbLine
 10
36.030202075
 20
-83.4709273743
 30
0.0
 11
40.3159163607
 21
-83.4709273743
 31
0.0
  0
LINE
  5
E2
330
1F
100
AcDbEntity
  8
BY_11
  6
Continuous
 62
     7
370
    30
100
AcDbLine
 10
51.3159163607
 20
-78.4709273743
 30
0.0
 11
47.4587735036
 21
-78.4709273743
 31
0.0
  0
ARC
  5
E3
330
1F
100
AcDbEntity
  8
BY_11
  6
Continuous
 62
     7
370
    30
100
AcDbCircle
 10
47.4587735054
 20
-81.3280702333
 30
0.0
 40
2.85714285896
100
AcDbArc
 50
90.0000000365
 51
179.999999964
  0
LINE
  5
E4
330
1F
100
AcDbEntity
  8
BY_11
  6
Continuous
 62
     7
370
    30
100
AcDbLine
 10
44.6016306464
 20
-81.3280702314
 30
0.0
 11
44.6016306464
 21
-85.6137845172
 31
0.0
  0
ARC
  5
E5
330
1F
100
AcDbEntity
  8
BY_11
  6
Continuous
 62
     7
370
    30
100
AcDbCircle
 10
47.4587735054
 20
-85.6137845153
 30
0.0
 40
2.85714285896
100
AcDbArc
 50
180.000000036
 51
269.999999964
  0
LINE
  5
E6
330
1F
100
AcDbEntity
  8
BY_11
  6
Continuous
 62
     7
370
    30
100
AcDbLine
 10
47.4587735036
 20
-88.4709273743
 30
0.0
 11
48.8873449322
 21
-88.4709273743
 31
0.0
  0
ARC
  5
E7
330
1F
100
AcDbEntity
  8
BY_11
  6
Continuous
 62
     7
370
    30
100
AcDbCircle
 10
48.8873449303
 20
-85.6137845153
 30
0.0
 40
2.85714285896
100
AcDbArc
 50
270.000000036
 51
359.999999964
  0
LINE
  5
E8
330
1F
100
AcDbEntity
  8
BY_11
  6
Continuous
 62
     7
370
    30
100
AcDbLine
 10
51.7444877893
 20
-85.6137845172
 30
0.0
 11
51.7444877893
 21
-83.4709273743
 31
0.0
  0
LINE
  5
E9
330
1F
100
AcDbEntity
  8
BY_11
  6
Continuous
 62
     7
370
    30
100
AcDbLine
 10
51.7444877893
 20
-83.4709273743
 30
0.0
 11
48.8873449322
 21
-83.4709273743
 31
0.0
  0
LINE
  5
EA
330
1F
100
AcDbEntity
  8
BY_11
  6
Continuous
 62
     7
370
    30
100
AcDbLine
 10
53.1730592179
 20
-88.4709273743
 30
0.0
 11
53.1730592179
 21
-78.4709273743
 31
0.0
  0
LINE
  5
EB
330
1F
100
AcDbEntity
  8
BY_11
  6
Continuous
 62
     7
370
    30
100
AcDbLine
 10
60.3159163607
 20
-78.4709273743
 30
0.0
 11
60.3159163607
 21
-88.4709273743
 31
0.0
  0
LINE
  5
EC
330
1F
100
AcDbEntity
  8
BY_11
  6
Continuous
 62
     7
370
    30
100
AcDbLine
 10
60.3159163607
 20
-83.4709273743
 30
0.0
 11
53.1730592179
 21
-83.4709273743
 31
0.0
  0
LINE
  5
ED
330
1F
100
AcDbEntity
  8
BY_11
  6
Continuous
 62
     7
370
    30
100
AcDbLine
 10
63.1730592179
 20
-88.4709273743
 30
0.0
 11
63.1730592179
 21
-78.4709273743
 31
0.0
  0
LINE
  5
EE
330
1F
100
AcDbEntity
  8
BY_11
  6
Continuous
 62
     7
370
    30
100
AcDbLine
 10
61.7444877893
 20
-88.4709273743
 30
0.0
 11
64.6016306464
 21
-88.4709273743
 31
0.0
  0
LINE
  5
EF
330
1F
100
AcDbEntity
  8
BY_11
  6
Continuous
 62
     7
370
    30
100
AcDbLine
 10
61.7444877893
 20
-78.4709273743
 30
0.0
 11
64.6016306464
 21
-78.4709273743
 31
0.0
  0
LINE
  5
F0
330
1F
100
AcDbEntity
  8
BY_11
  6
Continuous
 62
     7
370
    30
100
AcDbLine
 10
68.1730592179
 20
-78.4709273743
 30
0.0
 11
68.1730592179
 21
-87.0423559457
 31
0.0
  0
ARC
  5
F1
330
1F
100
AcDbEntity
  8
BY_11
  6
Continuous
 62
     7
370
    30
100
AcDbCircle
 10
66.7444877884
 20
-87.0423559448
 30
0.0
 40
1.42857142948
100
AcDbArc
 50
270.000000036
 51
359.999999964
  0
LINE
  5
F2
330
1F
100
AcDbEntity
  8
BY_11
  6
Continuous
 62
     7
370
    30
100
AcDbLine
 10
66.7444877893
 20
-88.4709273743
 30
0.0
 11
66.030202075
 21
-88.4709273743
 31
0.0
  0
LINE
  5
F3
330
1F
100
AcDbEntity
  8
BY_11
  6
Continuous
 62
     7
370
    30
100
AcDbLine
 10
69.6016306464
 20
-78.4709273743
 30
0.0
 11
69.6016306464
 21
-88.4709273743
 31
0.0
  0
LINE
  5
F4
330
1F
100
AcDbEntity
  8
BY_11
  6
Continuous
 62
     7
370
    30
100
AcDbLine
 10
69.6016306464
 20
-85.6137845172
 30
0.0
 11
76.7444877893
 21
-78.4709273743
 31
0.0
  0
LINE
  5
F5
330
1F
100
AcDbEntity
  8
BY_11
  6
Continuous
 62
     7
370
    30
100
AcDbLine
 10
71.7444877893
 20
-83.4709273743
 30
0.0
 11
76.7444877893
 21
-88.4709273743
 31
0.0
  0
LINE
  5
F6
330
1F
100
AcDbEntity
  8
BY_11
  6
Continuous
 62
     7
370
    30
100
AcDbLine
 10
78.1730592179
 20
-78.4709273743
 30
0.0
 11
78.1730592179
 21
-88.4709273743
 31
0.0
  0
LINE
  5
F7
330
1F
100
AcDbEntity
  8
BY_11
  6
Continuous
 62
     7
370
    30
100
AcDbLine
 10
78.1730592179
 20
-88.4709273743
 30
0.0
 11
85.3159163607
 21
-88.4709273743
 31
0.0
  0
LINE
  5
F8
330
1F
100
AcDbEntity
  8
BY_11
  6
Continuous
 62
     7
370
    30
100
AcDbLine
 10
86.7444877893
 20
-88.4709273743
 30
0.0
 11
86.7444877893
 21
-78.4709273743
 31
0.0
  0
LINE
  5
F9
330
1F
100
AcDbEntity
  8
BY_11
  6
Continuous
 62
     7
370
    30
100
AcDbLine
 10
86.7444877893
 20
-78.4709273743
 30
0.0
 11
90.3159163607
 21
-85.6137845172
 31
0.0
  0
LINE
  5
FA
330
1F
100
AcDbEntity
  8
BY_11
  6
Continuous
 62
     7
370
    30
100
AcDbLine
 10
90.3159163607
 20
-85.6137845172
 30
0.0
 11
93.8873449322
 21
-78.4709273743
 31
0.0
  0
LINE
  5
FB
330
1F
100
AcDbEntity
  8
BY_11
  6
Continuous
 62
     7
370
    30
100
AcDbLine
 10
93.8873449322
 20
-78.4709273743
 30
0.0
 11
93.8873449322
 21
-88.4709273743
 31
0.0
  0
LINE
  5
FC
330
1F
100
AcDbEntity
  8
BY_11
  6
Continuous
 62
     7
370
    30
100
AcDbLine
 10
95.3159163607
 20
-88.4709273743
 30
0.0
 11
95.3159163607
 21
-78.4709273743
 31
0.0
  0
LINE
  5
FD
330
1F
100
AcDbEntity
  8
BY_11
  6
Continuous
 62
     7
370
    30
100
AcDbLine
 10
95.3159163607
 20
-78.4709273743
 30
0.0
 11
102.458773504
 21
-88.4709273743
 31
0.0
  0
LINE
  5
FE
330
1F
100
AcDbEntity
  8
BY_11
  6
Continuous
 62
     7
370
    30
100
AcDbLine
 10
102.458773504
 20
-88.4709273743
 30
0.0
 11
102.458773504
 21
-78.4709273743
 31
0.0
  0
LINE
  5
FF
330
1F
100
AcDbEntity
  8
BY_11
  6
Continuous
 62
     7
370
    30
100
AcDbLine
 10
103.887344932
 20
-85.6137845172
 30
0.0
 11
103.887344932
 21
-81.3280702314
 31
0.0
  0
ARC
  5
100
330
1F
100
AcDbEntity
  8
BY_11
  6
Continuous
 62
     7
370
    30
100
AcDbCircle
 10
106.744487791
 20
-81.3280702333
 30
0.0
 40
2.85714285896
100
AcDbArc
 50
105.9620141897
 51
179.999999964
  0
ARC
  5
101
330
1F
100
AcDbEntity
  8
BY_11
  6
Continuous
 62
     7
370
    30
100
AcDbCircle
 10
108.173059216
 20
-81.3280702333
 30
0.0
 40
2.85714285896
100
AcDbArc
 50
0.0000000365
 51
74.0379858103
  0
LINE
  5
102
330
1F
100
AcDbEntity
  8
BY_11
  6
Continuous
 62
     7
370
    30
100
AcDbLine
 10
111.030202075
 20
-81.3280702314
 30
0.0
 11
111.030202075
 21
-85.6137845172
 31
0.0
  0
ARC
  5
103
330
1F
100
AcDbEntity
  8
BY_11
  6
Continuous
 62
     7
370
    30
100
AcDbCircle
 10
108.173059216
 20
-85.6137845153
 30
0.0
 40
2.85714285896
100
AcDbArc
 50
285.9620141897
 51
359.999999964
  0
ARC
  5
104
330
1F
100
AcDbEntity
  8
BY_11
  6
Continuous
 62
     7
370
    30
100
AcDbCircle
 10
106.744487791
 20
-85.6137845153
 30
0.0
 40
2.85714285896
100
AcDbArc
 50
180.000000036
 51
254.0379858103
  0
LINE
  5
105
330
1F
100
AcDbEntity
  8
BY_11
  6
Continuous
 62
     7
370
    30
100
AcDbLine
 10
112.458773504
 20
-88.4709273743
 30
0.0
 11
112.458773504
 21
-78.4709273743
 31
0.0
  0
LINE
  5
106
330
1F
100
AcDbEntity
  8
BY_11
  6
Continuous
 62
     7
370
    30
100
AcDbLine
 10
115.458773504
 20
-78.4709273743
 30
0.0
 11
117.101630646
 21
-78.4709273743
 31
0.0
  0
ARC
  5
107
330
1F
100
AcDbEntity
  8
BY_11
  6
Continuous
 62
     7
370
    30
100
AcDbCircle
 10
117.101630646
 20
-80.9709273743
 30
0.0
 40
2.5
100
AcDbArc
 50
270.0
 51
90.0
  0
LINE
  5
108
330
1F
100
AcDbEntity
  8
BY_11
  6
Continuous
 62
     7
370
    30
100
AcDbLine
 10
117.101630646
 20
-83.4709273743
 30
0.0
 11
115.458773504
 21
-83.4709273743
 31
0.0
  0
LINE
  5
109
330
1F
100
AcDbEntity
  8
BY_11
  6
Continuous
 62
     7
370
    30
100
AcDbLine
 10
121.030202075
 20
-85.6137845172
 30
0.0
 11
121.030202075
 21
-81.3280702314
 31
0.0
  0
ARC
  5
10A
330
1F
100
AcDbEntity
  8
BY_11
  6
Continuous
 62
     7
370
    30
100
AcDbCircle
 10
123.887344934
 20
-81.3280702333
 30
0.0
 40
2.85714285896
100
AcDbArc
 50
105.9620141897
 51
179.999999964
  0
ARC
  5
10B
330
1F
100
AcDbEntity
  8
BY_11
  6
Continuous
 62
     7
370
    30
100
AcDbCircle
 10
125.315916359
 20
-81.3280702333
 30
0.0
 40
2.85714285896
100
AcDbArc
 50
0.0000000365
 51
74.0379858103
  0
LINE
  5
10C
330
1F
100
AcDbEntity
  8
BY_11
  6
Continuous
 62
     7
370
    30
100
AcDbLine
 10
128.173059218
 20
-81.3280702314
 30
0.0
 11
128.173059218
 21
-85.6137845172
 31
0.0
  0
ARC
  5
10D
330
1F
100
AcDbEntity
  8
BY_11
  6
Continuous
 62
     7
370
    30
100
AcDbCircle
 10
125.315916359
 20
-85.6137845153
 30
0.0
 40
2.85714285896
100
AcDbArc
 50
285.9620141897
 51
359.999999964
  0
ARC
  5
10E
330
1F
100
AcDbEntity
  8
BY_11
  6
Continuous
 62
     7
370
    30
100
AcDbCircle
 10
123.887344934
 20
-85.6137845153
 30
0.0
 40
2.85714285896
100
AcDbArc
 50
180.000000036
 51
254.0379858103
  0
LINE
  5
10F
330
1F
100
AcDbEntity
  8
BY_11
  6
Continuous
 62
     7
370
    30
100
AcDbLine
 10
126.030202075
 20
-86.3280702314
 30
0.0
 11
128.173059218
 21
-88.4709273743
 31
0.0
  0
LINE
  5
110
330
1F
100
AcDbEntity
  8
BY_11
  6
Continuous
 62
     7
370
    30
100
AcDbLine
 10
129.601630646
 20
-88.4709273743
 30
0.0
 11
129.601630646
 21
-78.4709273743
 31
0.0
  0
LINE
  5
111
330
1F
100
AcDbEntity
  8
BY_11
  6
Continuous
 62
     7
370
    30
100
AcDbLine
 10
132.601630646
 20
-78.4709273743
 30
0.0
 11
134.244487789
 21
-78.4709273743
 31
0.0
  0
ARC
  5
112
330
1F
100
AcDbEntity
  8
BY_11
  6
Continuous
 62
     7
370
    30
100
AcDbCircle
 10
134.244487789
 20
-80.9709273743
 30
0.0
 40
2.5
100
AcDbArc
 50
270.0
 51
90.0
  0
LINE
  5
113
330
1F
100
AcDbEntity
  8
BY_11
  6
Continuous
 62
     7
370
    30
100
AcDbLine
 10
134.244487789
 20
-83.4709273743
 30
0.0
 11
132.601630646
 21
-83.4709273743
 31
0.0
  0
LINE
  5
114
330
1F
100
AcDbEntity
  8
BY_11
  6
Continuous
 62
     7
370
    30
100
AcDbLine
 10
133.887344932
 20
-83.4709273743
 30
0.0
 11
136.030202075
 21
-88.4709273743
 31
0.0
  0
ARC
  5
115
330
1F
100
AcDbEntity
  8
BY_11
  6
Continuous
 62
     7
370
    30
100
AcDbCircle
 10
143.382268658
 20
-81.414727625
 30
0.0
 40
2.95122491623
100
AcDbArc
 50
49.0650512189
 51
94.0650511352
  0
LINE
  5
116
330
1F
100
AcDbEntity
  8
BY_11
  6
Continuous
 62
     7
370
    30
100
AcDbLine
 10
143.173059218
 20
-78.4709273743
 30
0.0
 11
140.315916361
 21
-78.4709273743
 31
0.0
  0
ARC
  5
117
330
1F
100
AcDbEntity
  8
BY_11
  6
Continuous
 62
     7
370
    30
100
AcDbCircle
 10
140.315916362
 20
-80.6137845185
 30
0.0
 40
2.14285714422
100
AcDbArc
 50
90.0000000365
 51
179.999999964
  0
LINE
  5
118
330
1F
100
AcDbEntity
  8
BY_11
  6
Continuous
 62
     7
370
    30
100
AcDbLine
 10
138.173059218
 20
-80.6137845172
 30
0.0
 11
138.173059218
 21
-81.3280702314
 31
0.0
  0
ARC
  5
119
330
1F
100
AcDbEntity
  8
BY_11
  6
Continuous
 62
     7
370
    30
100
AcDbCircle
 10
140.315916362
 20
-81.3280702301
 30
0.0
 40
2.14285714422
100
AcDbArc
 50
180.000000036
 51
269.999999964
  0
LINE
  5
11A
330
1F
100
AcDbEntity
  8
BY_11
  6
Continuous
 62
     7
370
    30
100
AcDbLine
 10
140.315916361
 20
-83.4709273743
 30
0.0
 11
143.173059218
 21
-83.4709273743
 31
0.0
  0
ARC
  5
11B
330
1F
100
AcDbEntity
  8
BY_11
  6
Continuous
 62
     7
370
    30
100
AcDbCircle
 10
143.173059217
 20
-85.6137845185
 30
0.0
 40
2.14285714422
100
AcDbArc
 50
0.0000000365
 51
89.9999999635
  0
LINE
  5
11C
330
1F
100
AcDbEntity
  8
BY_11
  6
Continuous
 62
     7
370
    30
100
AcDbLine
 10
145.315916361
 20
-85.6137845172
 30
0.0
 11
145.315916361
 21
-86.3280702314
 31
0.0
  0
ARC
  5
11D
330
1F
100
AcDbEntity
  8
BY_11
  6
Continuous
 62
     7
370
    30
100
AcDbCircle
 10
143.173059217
 20
-86.3280702301
 30
0.0
 40
2.14285714422
100
AcDbArc
 50
270.000000036
 51
359.999999964
  0
LINE
  5
11E
330
1F
100
AcDbEntity
  8
BY_11
  6
Continuous
 62
     7
370
    30
100
AcDbLine
 10
143.173059218
 20
-88.4709273743
 30
0.0
 11
140.315916361
 21
-88.4709273743
 31
0.0
  0
ARC
  5
11F
330
1F
100
AcDbEntity
  8
BY_11
  6
Continuous
 62
     7
370
    30
100
AcDbCircle
 10
140.106706921
 20
-85.5271271236
 30
0.0
 40
2.95122491623
100
AcDbArc
 50
229.065051219
 51
274.065051135
  0
LINE
  5
120
330
1F
100
AcDbEntity
  8
BY_11
  6
Continuous
 62
     7
370
    30
100
AcDbLine
 10
146.744487789
 20
-78.4709273743
 30
0.0
 11
153.887344932
 21
-78.4709273743
 31
0.0
  0
LINE
  5
121
330
1F
100
AcDbEntity
  8
BY_11
  6
Continuous
 62
     7
370
    30
100
AcDbLine
 10
150.315916361
 20
-78.4709273743
 30
0.0
 11
150.315916361
 21
-88.4709273743
 31
0.0
  0
LINE
  5
122
330
1F
100
AcDbEntity
  8
BY_11
  6
Continuous
 62
     7
370
    30
100
AcDbLine
 10
155.315916361
 20
-78.4709273743
 30
0.0
 11
155.315916361
 21
-85.6137845172
 31
0.0
  0
ARC
  5
123
330
1F
100
AcDbEntity
  8
BY_11
  6
Continuous
 62
     7
370
    30
100
AcDbCircle
 10
158.17305922
 20
-85.6137845153
 30
0.0
 40
2.85714285896
100
AcDbArc
 50
180.000000036
 51
269.999999964
  0
LINE
  5
124
330
1F
100
AcDbEntity
  8
BY_11
  6
Continuous
 62
     7
370
    30
100
AcDbLine
 10
158.173059218
 20
-88.4709273743
 30
0.0
 11
159.601630646
 21
-88.4709273743
 31
0.0
  0
ARC
  5
125
330
1F
100
AcDbEntity
  8
BY_11
  6
Continuous
 62
     7
370
    30
100
AcDbCircle
 10
159.601630645
 20
-85.6137845153
 30
0.0
 40
2.85714285896
100
AcDbArc
 50
270.000000036
 51
359.999999964
  0
LINE
  5
126
330
1F
100
AcDbEntity
  8
BY_11
  6
Continuous
 62
     7
370
    30
100
AcDbLine
 10
162.458773504
 20
-85.6137845172
 30
0.0
 11
162.458773504
 21
-78.4709273743
 31
0.0
  0
LINE
  5
127
330
1F
100
AcDbEntity
  8
BY_11
  6
Continuous
 62
     7
370
    30
100
AcDbLine
 10
163.887344932
 20
-78.4709273743
 30
0.0
 11
167.458773504
 21
-88.4709273743
 31
0.0
  0
LINE
  5
128
330
1F
100
AcDbEntity
  8
BY_11
  6
Continuous
 62
     7
370
    30
100
AcDbLine
 10
167.458773504
 20
-88.4709273743
 30
0.0
 11
171.030202075
 21
-78.4709273743
 31
0.0
  0
LINE
  5
129
330
1F
100
AcDbEntity
  8
BY_11
  6
Continuous
 62
     7
370
    30
100
AcDbLine
 10
172.458773504
 20
-78.4709273743
 30
0.0
 11
174.601630646
 21
-88.4709273743
 31
0.0
  0
LINE
  5
12A
330
1F
100
AcDbEntity
  8
BY_11
  6
Continuous
 62
     7
370
    30
100
AcDbLine
 10
174.601630646
 20
-88.4709273743
 30
0.0
 11
176.744487789
 21
-81.3280702314
 31
0.0
  0
LINE
  5
12B
330
1F
100
AcDbEntity
  8
BY_11
  6
Continuous
 62
     7
370
    30
100
AcDbLine
 10
176.744487789
 20
-81.3280702314
 30
0.0
 11
178.887344932
 21
-88.4709273743
 31
0.0
  0
LINE
  5
12C
330
1F
100
AcDbEntity
  8
BY_11
  6
Continuous
 62
     7
370
    30
100
AcDbLine
 10
178.887344932
 20
-88.4709273743
 30
0.0
 11
181.030202075
 21
-78.4709273743
 31
0.0
  0
LINE
  5
12D
330
1F
100
AcDbEntity
  8
BY_11
  6
Continuous
 62
     7
370
    30
100
AcDbLine
 10
182.458773504
 20
-78.4709273743
 30
0.0
 11
189.601630646
 21
-88.4709273743
 31
0.0
  0
LINE
  5
12E
330
1F
100
AcDbEntity
  8
BY_11
  6
Continuous
 62
     7
370
    30
100
AcDbLine
 10
182.458773504
 20
-88.4709273743
 30
0.0
 11
189.601630646
 21
-78.4709273743
 31
0.0
  0
LINE
  5
12F
330
1F
100
AcDbEntity
  8
BY_11
  6
Continuous
 62
     7
370
    30
100
AcDbLine
 10
191.030202075
 20
-78.4709273743
 30
0.0
 11
194.601630646
 21
-83.4709273743
 31
0.0
  0
LINE
  5
130
330
1F
100
AcDbEntity
  8
BY_11
  6
Continuous
 62
     7
370
    30
100
AcDbLine
 10
194.601630646
 20
-83.4709273743
 30
0.0
 11
198.173059218
 21
-78.4709273743
 31
0.0
  0
LINE
  5
131
330
1F
100
AcDbEntity
  8
BY_11
  6
Continuous
 62
     7
370
    30
100
AcDbLine
 10
194.601630646
 20
-83.4709273743
 30
0.0
 11
194.601630646
 21
-88.4709273743
 31
0.0
  0
LINE
  5
132
330
1F
100
AcDbEntity
  8
BY_11
  6
Continuous
 62
     7
370
    30
100
AcDbLine
 10
199.601630646
 20
-78.4709273743
 30
0.0
 11
206.744487789
 21
-78.4709273743
 31
0.0
  0
LINE
  5
133
330
1F
100
AcDbEntity
  8
BY_11
  6
Continuous
 62
     7
370
    30
100
AcDbLine
 10
206.744487789
 20
-78.4709273743
 30
0.0
 11
199.601630646
 21
-88.4709273743
 31
0.0
  0
LINE
  5
134
330
1F
100
AcDbEntity
  8
BY_11
  6
Continuous
 62
     7
370
    30
100
AcDbLine
 10
199.601630646
 20
-88.4709273743
 30
0.0
 11
206.744487789
 21
-88.4709273743
 31
0.0
  0
LINE
  5
135
330
1F
100
AcDbEntity
  8
BY_11
  6
Continuous
 62
     7
370
    30
100
AcDbLine
 10
219.601630646
 20
-85.6137845172
 30
0.0
 11
219.601630646
 21
-84.1852130886
 31
0.0
  0
ARC
  5
136
330
1F
100
AcDbEntity
  8
BY_11
  6
Continuous
 62
     7
370
    30
100
AcDbCircle
 10
222.458773504
 20
-84.1852130886
 30
0.0
 40
2.85714285714
100
AcDbArc
 50
0.0
 51
69.5126848853
  0
LINE
  5
137
330
1F
100
AcDbEntity
  8
BY_11
  6
Continuous
 62
     7
370
    30
100
AcDbLine
 10
225.315916361
 20
-84.1852130886
 30
0.0
 11
225.315916361
 21
-85.6137845172
 31
0.0
  0
ARC
  5
138
330
1F
100
AcDbEntity
  8
BY_11
  6
Continuous
 62
     7
370
    30
100
AcDbCircle
 10
222.458773504
 20
-85.6137845172
 30
0.0
 40
2.85714285714
100
AcDbArc
 50
180.0
 51
249.5126848853
  0
LINE
  5
139
330
1F
100
AcDbEntity
  8
BY_11
  6
Continuous
 62
     7
370
    30
100
AcDbLine
 10
56.0346445331
 20
-54.6953832402
 30
0.0
 11
55.9632159617
 21
-54.6953832402
 31
0.0
  0
LINE
  5
13A
330
1F
100
AcDbEntity
  8
BY_11
  6
Continuous
 62
     7
370
    30
100
AcDbLine
 10
55.9632159617
 20
-59.6953832402
 30
0.0
 11
56.0346445331
 21
-59.6953832402
 31
0.0
  0
LINE
  5
13B
330
1F
100
AcDbEntity
  8
BY_11
  6
Continuous
 62
     7
370
    30
100
AcDbLine
 10
55.9632159617
 20
-49.6953832402
 30
0.0
 11
56.0346445331
 21
-49.6953832402
 31
0.0
  0
ARC
  5
13C
330
1F
100
AcDbEntity
  8
BY_11
  6
Continuous
 62
     7
370
    30
100
AcDbCircle
 10
222.458773504
 20
-84.1852130886
 30
0.0
 40
2.85714285714
100
AcDbArc
 50
110.4873151147
 51
180.0
  0
ARC
  5
13D
330
1F
100
AcDbEntity
  8
BY_11
  6
Continuous
 62
     7
370
    30
100
AcDbCircle
 10
222.458773504
 20
-85.6137845172
 30
0.0
 40
2.85714285714
100
AcDbArc
 50
290.4873151147
 51
0.0
  0
LINE
  5
13E
330
1F
100
AcDbEntity
  8
BY_11
  6
Continuous
 62
     7
370
    30
100
AcDbLine
 10
25.7317078852
 20
-59.6953832402
 30
0.0
 11
25.7317078852
 21
-49.6953832402
 31
0.0
  0
LINE
  5
13F
330
1F
100
AcDbEntity
  8
BY_11
  6
Continuous
 62
     7
370
    30
100
AcDbLine
 10
25.7317078852
 20
-49.6953832402
 30
0.0
 11
24.2317078852
 21
-51.8382403831
 31
0.0
  0
LINE
  5
140
330
1F
100
AcDbEntity
  8
BY_11
  6
Continuous
 62
     7
370
    30
100
AcDbLine
 10
24.2317078852
 20
-56.8382403831
 30
0.0
 11
27.1602793138
 21
-56.8382403831
 31
0.0
  0
LINE
  5
141
330
1F
100
AcDbEntity
  8
BY_11
  6
Continuous
 62
     7
370
    30
100
AcDbLine
 10
22.2317078852
 20
-54.6953832403
 30
0.0
 11
20.7317078852
 21
-56.8382403831
 31
0.0
  0
LINE
  5
142
330
1F
100
AcDbEntity
  8
BY_11
  6
Continuous
 62
     7
370
    30
100
AcDbLine
 10
20.7317078852
 20
-56.8382403831
 30
0.0
 11
22.2317078852
 21
-56.8382403831
 31
0.0
  0
LINE
  5
143
330
1F
100
AcDbEntity
  8
BY_11
  6
Continuous
 62
     7
370
    30
100
AcDbLine
 10
-7.3185674857
 20
-128.6505170287
 30
0.0
 11
-5.3185674857
 21
-125.6505170287
 31
0.0
  0
LINE
  5
144
330
1F
100
AcDbEntity
  8
BY_11
  6
Continuous
 62
     7
370
    30
100
AcDbLine
 10
-5.3185674857
 20
-125.6505170287
 30
0.0
 11
-5.3185674857
 21
-132.6505170287
 31
0.0
  0
ARC
  5
145
330
1F
100
AcDbEntity
  8
BY_11
  6
Continuous
 62
     7
370
    30
100
AcDbCircle
 10
-1.3185674848
 20
-127.1505170297
 30
0.0
 40
1.500000000954
100
AcDbArc
 50
90.0000000365
 51
179.999999964
  0
LINE
  5
146
330
1F
100
AcDbEntity
  8
BY_11
  6
Continuous
 62
     7
370
    30
100
AcDbLine
 10
-1.3185674857
 20
-125.6505170287
 30
0.0
 11
0.1814325143
 21
-125.6505170287
 31
0.0
  0
ARC
  5
147
330
1F
100
AcDbEntity
  8
BY_11
  6
Continuous
 62
     7
370
    30
100
AcDbCircle
 10
0.1814325133
 20
-127.1505170297
 30
0.0
 40
1.500000000954
100
AcDbArc
 50
0.0000000365
 51
89.9999999635
  0
LINE
  5
148
330
1F
100
AcDbEntity
  8
BY_11
  6
Continuous
 62
     7
370
    30
100
AcDbLine
 10
1.6814325143
 20
-127.1505170288
 30
0.0
 11
1.6814325143
 21
-127.6505170288
 31
0.0
  0
ARC
  5
149
330
1F
100
AcDbEntity
  8
BY_11
  6
Continuous
 62
     7
370
    30
100
AcDbCircle
 10
0.1812967493
 20
-127.650220618
 30
0.0
 40
1.500135794304
100
AcDbArc
 50
310.769340808
 51
359.988678967
  0
LINE
  5
14A
330
1F
100
AcDbEntity
  8
BY_11
  6
Continuous
 62
     7
370
    30
100
AcDbLine
 10
1.1609085842
 20
-128.7863403538
 30
0.0
 11
-2.8185674857
 21
-132.6505170287
 31
0.0
  0
LINE
  5
14B
330
1F
100
AcDbEntity
  8
BY_11
  6
Continuous
 62
     7
370
    30
100
AcDbLine
 10
-2.8185674857
 20
-132.6505170287
 30
0.0
 11
1.6814325143
 21
-132.6505170287
 31
0.0
  0
ARC
  5
14C
330
1F
100
AcDbEntity
  8
BY_11
  6
Continuous
 62
     7
370
    30
100
AcDbCircle
 10
4.1814325152
 20
-127.1505170297
 30
0.0
 40
1.500000000954
100
AcDbArc
 50
90.0000000365
 51
179.999999964
  0
LINE
  5
14D
330
1F
100
AcDbEntity
  8
BY_11
  6
Continuous
 62
     7
370
    30
100
AcDbLine
 10
4.1814325142
 20
-125.6505170287
 30
0.0
 11
5.6814325143
 21
-125.6505170287
 31
0.0
  0
ARC
  5
14E
330
1F
100
AcDbEntity
  8
BY_11
  6
Continuous
 62
     7
370
    30
100
AcDbCircle
 10
5.6814325133
 20
-127.1505170297
 30
0.0
 40
1.500000000954
100
AcDbArc
 50
0.0000000365
 51
89.9999999635
  0
LINE
  5
14F
330
1F
100
AcDbEntity
  8
BY_11
  6
Continuous
 62
     7
370
    30
100
AcDbLine
 10
7.1814325143
 20
-127.1505170288
 30
0.0
 11
7.1814325143
 21
-127.6505170288
 31
0.0
  0
ARC
  5
150
330
1F
100
AcDbEntity
  8
BY_11
  6
Continuous
 62
     7
370
    30
100
AcDbCircle
 10
5.6814325133
 20
-127.6505170278
 30
0.0
 40
1.500000000954
100
AcDbArc
 50
270.000000036
 51
359.999999964
  0
LINE
  5
151
330
1F
100
AcDbEntity
  8
BY_11
  6
Continuous
 62
     7
370
    30
100
AcDbLine
 10
5.6814325143
 20
-129.1505170287
 30
0.0
 11
4.6814325142
 21
-129.1505170287
 31
0.0
  0
LINE
  5
152
330
1F
100
AcDbEntity
  8
BY_11
  6
Continuous
 62
     7
370
    30
100
AcDbLine
 10
4.6814325142
 20
-129.1505170287
 30
0.0
 11
5.6814325143
 21
-129.1505170287
 31
0.0
  0
ARC
  5
153
330
1F
100
AcDbEntity
  8
BY_11
  6
Continuous
 62
     7
370
    30
100
AcDbCircle
 10
5.6814325133
 20
-130.6505170297
 30
0.0
 40
1.500000000954
100
AcDbArc
 50
0.0000000365
 51
89.9999999635
  0
LINE
  5
154
330
1F
100
AcDbEntity
  8
BY_11
  6
Continuous
 62
     7
370
    30
100
AcDbLine
 10
7.1814325143
 20
-130.6505170288
 30
0.0
 11
7.1814325143
 21
-131.1505170288
 31
0.0
  0
ARC
  5
155
330
1F
100
AcDbEntity
  8
BY_11
  6
Continuous
 62
     7
370
    30
100
AcDbCircle
 10
5.6814325133
 20
-131.1505170278
 30
0.0
 40
1.500000000954
100
AcDbArc
 50
270.000000036
 51
359.999999964
  0
LINE
  5
156
330
1F
100
AcDbEntity
  8
BY_11
  6
Continuous
 62
     7
370
    30
100
AcDbLine
 10
5.6814325143
 20
-132.6505170287
 30
0.0
 11
4.1814325142
 21
-132.6505170287
 31
0.0
  0
ARC
  5
157
330
1F
100
AcDbEntity
  8
BY_11
  6
Continuous
 62
     7
370
    30
100
AcDbCircle
 10
4.1814325152
 20
-131.1505170278
 30
0.0
 40
1.500000000954
100
AcDbArc
 50
180.000000036
 51
269.999999964
  0
LINE
  5
158
330
1F
100
AcDbEntity
  8
BY_11
  6
Continuous
 62
     7
370
    30
100
AcDbLine
 10
18.1814325142
 20
-125.6505170287
 30
0.0
 11
13.6814325143
 21
-125.6505170287
 31
0.0
  0
LINE
  5
159
330
1F
100
AcDbEntity
  8
BY_11
  6
Continuous
 62
     7
370
    30
100
AcDbLine
 10
13.6814325143
 20
-125.6505170287
 30
0.0
 11
13.6814325143
 21
-128.1505170288
 31
0.0
  0
LINE
  5
15A
330
1F
100
AcDbEntity
  8
BY_11
  6
Continuous
 62
     7
370
    30
100
AcDbLine
 10
13.6814325143
 20
-128.1505170288
 30
0.0
 11
16.1814325143
 21
-128.1505170288
 31
0.0
  0
ARC
  5
15B
330
1F
100
AcDbEntity
  8
BY_11
  6
Continuous
 62
     7
370
    30
100
AcDbCircle
 10
16.181432513
 20
-130.15051703
 30
0.0
 40
2.000000001272
100
AcDbArc
 50
0.0000000365
 51
89.9999999635
  0
LINE
  5
15C
330
1F
100
AcDbEntity
  8
BY_11
  6
Continuous
 62
     7
370
    30
100
AcDbLine
 10
18.1814325142
 20
-130.1505170288
 30
0.0
 11
18.1814325142
 21
-130.6505170288
 31
0.0
  0
ARC
  5
15D
330
1F
100
AcDbEntity
  8
BY_11
  6
Continuous
 62
     7
370
    30
100
AcDbCircle
 10
16.181432513
 20
-130.6505170275
 30
0.0
 40
2.000000001272
100
AcDbArc
 50
270.000000036
 51
359.999999964
  0
LINE
  5
15E
330
1F
100
AcDbEntity
  8
BY_11
  6
Continuous
 62
     7
370
    30
100
AcDbLine
 10
16.1814325143
 20
-132.6505170287
 30
0.0
 11
15.1814325142
 21
-132.6505170287
 31
0.0
  0
ARC
  5
15F
330
1F
100
AcDbEntity
  8
BY_11
  6
Continuous
 62
     7
370
    30
100
AcDbCircle
 10
15.0349859061
 20
-130.5898568533
 30
0.0
 40
2.065857441361
100
AcDbArc
 50
229.065051219
 51
274.065051135
  0
ARC
  5
160
330
1F
100
AcDbEntity
  8
BY_11
  6
Continuous
 62
     7
370
    30
100
AcDbCircle
 10
22.0778791224
 20
-127.5904665259
 30
0.0
 40
1.94234548928
100
AcDbArc
 50
47.8461759838
 51
92.8461759001
  0
LINE
  5
161
330
1F
100
AcDbEntity
  8
BY_11
  6
Continuous
 62
     7
370
    30
100
AcDbLine
 10
21.9814325143
 20
-125.6505170287
 30
0.0
 11
21.1814325143
 21
-125.6505170287
 31
0.0
  0
ARC
  5
162
330
1F
100
AcDbEntity
  8
BY_11
  6
Continuous
 62
     7
370
    30
100
AcDbCircle
 10
21.1814325156
 20
-127.65051703
 30
0.0
 40
2.000000001272
100
AcDbArc
 50
90.0000000365
 51
179.999999964
  0
LINE
  5
163
330
1F
100
AcDbEntity
  8
BY_11
  6
Continuous
 62
     7
370
    30
100
AcDbLine
 10
19.1814325143
 20
-127.6505170288
 30
0.0
 11
19.1814325143
 21
-130.6505170288
 31
0.0
  0
ARC
  5
164
330
1F
100
AcDbEntity
  8
BY_11
  6
Continuous
 62
     7
370
    30
100
AcDbCircle
 10
21.1814325156
 20
-130.6505170275
 30
0.0
 40
2.000000001272
100
AcDbArc
 50
180.000000036
 51
256.9971218076
  0
ARC
  5
165
330
1F
100
AcDbEntity
  8
BY_11
  6
Continuous
 62
     7
370
    30
100
AcDbCircle
 10
21.681432513
 20
-130.6505170275
 30
0.0
 40
2.000000001272
100
AcDbArc
 50
283.0028781924
 51
359.999999964
  0
LINE
  5
166
330
1F
100
AcDbEntity
  8
BY_11
  6
Continuous
 62
     7
370
    30
100
AcDbLine
 10
23.6814325143
 20
-130.6505170288
 30
0.0
 11
23.6814325143
 21
-130.1505170288
 31
0.0
  0
ARC
  5
167
330
1F
100
AcDbEntity
  8
BY_11
  6
Continuous
 62
     7
370
    30
100
AcDbCircle
 10
21.681432513
 20
-130.15051703
 30
0.0
 40
2.000000001272
100
AcDbArc
 50
0.0000000365
 51
76.9971218076
  0
ARC
  5
168
330
1F
100
AcDbEntity
  8
BY_11
  6
Continuous
 62
     7
370
    30
100
AcDbCircle
 10
21.1814325156
 20
-130.15051703
 30
0.0
 40
2.000000001272
100
AcDbArc
 50
103.0028781924
 51
179.999999964
  0
LINE
  5
169
330
1F
100
AcDbEntity
  8
BY_11
  6
Continuous
 62
     7
370
    30
100
AcDbLine
 10
24.6814325143
 20
-125.6505170287
 30
0.0
 11
29.1814325142
 21
-125.6505170287
 31
0.0
  0
LINE
  5
16A
330
1F
100
AcDbEntity
  8
BY_11
  6
Continuous
 62
     7
370
    30
100
AcDbLine
 10
29.1814325142
 20
-125.6505170287
 30
0.0
 11
26.1814325143
 21
-132.6505170287
 31
0.0
  0
ARC
  5
16B
330
1F
100
AcDbEntity
  8
BY_11
  6
Continuous
 62
     7
370
    30
100
AcDbCircle
 10
31.6814325152
 20
-127.6505170278
 30
0.0
 40
1.500000000954
100
AcDbArc
 50
180.000000036
 51
269.999999964
  0
LINE
  5
16C
330
1F
100
AcDbEntity
  8
BY_11
  6
Continuous
 62
     7
370
    30
100
AcDbLine
 10
30.1814325143
 20
-127.6505170288
 30
0.0
 11
30.1814325143
 21
-127.1505170288
 31
0.0
  0
ARC
  5
16D
330
1F
100
AcDbEntity
  8
BY_11
  6
Continuous
 62
     7
370
    30
100
AcDbCircle
 10
31.6814325152
 20
-127.1505170297
 30
0.0
 40
1.500000000954
100
AcDbArc
 50
90.0000000365
 51
179.999999964
  0
LINE
  5
16E
330
1F
100
AcDbEntity
  8
BY_11
  6
Continuous
 62
     7
370
    30
100
AcDbLine
 10
31.6814325143
 20
-125.6505170287
 30
0.0
 11
31.7314325143
 21
-125.6505170287
 31
0.0
  0
ARC
  5
16F
330
1F
100
AcDbEntity
  8
BY_11
  6
Continuous
 62
     7
370
    30
100
AcDbCircle
 10
33.1814325133
 20
-127.1505170297
 30
0.0
 40
1.500000000954
100
AcDbArc
 50
0.0000000365
 51
89.9999999635
  0
LINE
  5
170
330
1F
100
AcDbEntity
  8
BY_11
  6
Continuous
 62
     7
370
    30
100
AcDbLine
 10
34.6814325143
 20
-127.1505170288
 30
0.0
 11
34.6814325143
 21
-127.6505170288
 31
0.0
  0
ARC
  5
171
330
1F
100
AcDbEntity
  8
BY_11
  6
Continuous
 62
     7
370
    30
100
AcDbCircle
 10
33.1814325133
 20
-127.6505170278
 30
0.0
 40
1.500000000954
100
AcDbArc
 50
270.000000036
 51
359.999999964
  0
LINE
  5
172
330
1F
100
AcDbEntity
  8
BY_11
  6
Continuous
 62
     7
370
    30
100
AcDbLine
 10
31.7314325143
 20
-129.1505170287
 30
0.0
 11
31.6814325143
 21
-129.1505170287
 31
0.0
  0
ARC
  5
173
330
1F
100
AcDbEntity
  8
BY_11
  6
Continuous
 62
     7
370
    30
100
AcDbCircle
 10
31.6814325152
 20
-130.6505170297
 30
0.0
 40
1.500000000954
100
AcDbArc
 50
90.0000000365
 51
179.999999964
  0
LINE
  5
174
330
1F
100
AcDbEntity
  8
BY_11
  6
Continuous
 62
     7
370
    30
100
AcDbLine
 10
30.1814325143
 20
-130.6505170288
 30
0.0
 11
30.1814325143
 21
-131.1505170288
 31
0.0
  0
ARC
  5
175
330
1F
100
AcDbEntity
  8
BY_11
  6
Continuous
 62
     7
370
    30
100
AcDbCircle
 10
31.6814325152
 20
-131.1505170278
 30
0.0
 40
1.500000000954
100
AcDbArc
 50
180.000000036
 51
269.999999964
  0
LINE
  5
176
330
1F
100
AcDbEntity
  8
BY_11
  6
Continuous
 62
     7
370
    30
100
AcDbLine
 10
31.6814325143
 20
-132.6505170287
 30
0.0
 11
31.7314325143
 21
-132.6505170287
 31
0.0
  0
ARC
  5
177
330
1F
100
AcDbEntity
  8
BY_11
  6
Continuous
 62
     7
370
    30
100
AcDbCircle
 10
33.1814325133
 20
-131.1505170278
 30
0.0
 40
1.500000000954
100
AcDbArc
 50
270.000000036
 51
359.999999964
  0
LINE
  5
178
330
1F
100
AcDbEntity
  8
BY_11
  6
Continuous
 62
     7
370
    30
100
AcDbLine
 10
34.6814325143
 20
-131.1505170288
 30
0.0
 11
34.6814325143
 21
-130.6505170288
 31
0.0
  0
ARC
  5
179
330
1F
100
AcDbEntity
  8
BY_11
  6
Continuous
 62
     7
370
    30
100
AcDbCircle
 10
33.1814325133
 20
-130.6505170297
 30
0.0
 40
1.500000000954
100
AcDbArc
 50
0.0000000365
 51
89.9999999635
  0
ARC
  5
17A
330
1F
100
AcDbEntity
  8
BY_11
  6
Continuous
 62
     7
370
    30
100
AcDbCircle
 10
37.3349859061
 20
-130.5898568533
 30
0.0
 40
2.065857441361
100
AcDbArc
 50
229.065051219
 51
274.065051135
  0
LINE
  5
17B
330
1F
100
AcDbEntity
  8
BY_11
  6
Continuous
 62
     7
370
    30
100
AcDbLine
 10
37.4814325143
 20
-132.6505170287
 30
0.0
 11
38.1814325143
 21
-132.6505170287
 31
0.0
  0
ARC
  5
17C
330
1F
100
AcDbEntity
  8
BY_11
  6
Continuous
 62
     7
370
    30
100
AcDbCircle
 10
38.181432513
 20
-130.6505170275
 30
0.0
 40
2.000000001272
100
AcDbArc
 50
270.000000036
 51
359.999999964
  0
LINE
  5
17D
330
1F
100
AcDbEntity
  8
BY_11
  6
Continuous
 62
     7
370
    30
100
AcDbLine
 10
40.1814325143
 20
-130.6505170288
 30
0.0
 11
40.1814325143
 21
-127.6505170288
 31
0.0
  0
ARC
  5
17E
330
1F
100
AcDbEntity
  8
BY_11
  6
Continuous
 62
     7
370
    30
100
AcDbCircle
 10
38.181432513
 20
-127.65051703
 30
0.0
 40
2.000000001272
100
AcDbArc
 50
0.0000000365
 51
76.9971218086
  0
ARC
  5
17F
330
1F
100
AcDbEntity
  8
BY_11
  6
Continuous
 62
     7
370
    30
100
AcDbCircle
 10
37.6814325155
 20
-127.65051703
 30
0.0
 40
2.000000001272
100
AcDbArc
 50
103.0028781914
 51
179.999999964
  0
LINE
  5
180
330
1F
100
AcDbEntity
  8
BY_11
  6
Continuous
 62
     7
370
    30
100
AcDbLine
 10
35.6814325142
 20
-127.6505170288
 30
0.0
 11
35.6814325142
 21
-128.1505170288
 31
0.0
  0
ARC
  5
181
330
1F
100
AcDbEntity
  8
BY_11
  6
Continuous
 62
     7
370
    30
100
AcDbCircle
 10
37.6814325155
 20
-128.1505170275
 30
0.0
 40
2.000000001272
100
AcDbArc
 50
180.000000036
 51
256.9971218086
  0
ARC
  5
182
330
1F
100
AcDbEntity
  8
BY_11
  6
Continuous
 62
     7
370
    30
100
AcDbCircle
 10
38.181432513
 20
-128.1505170275
 30
0.0
 40
2.000000001272
100
AcDbArc
 50
283.0028781914
 51
359.999999964
  0
LINE
  5
183
330
1F
100
AcDbEntity
  8
BY_11
  6
Continuous
 62
     7
370
    30
100
AcDbLine
 10
71.5014012292
 20
-130.3585912187
 30
0.0
 11
71.5014012292
 21
-127.3585912187
 31
0.0
  0
ARC
  5
184
330
1F
100
AcDbEntity
  8
BY_11
  6
Continuous
 62
     7
370
    30
100
AcDbCircle
 10
73.5014012305
 20
-127.35859122
 30
0.0
 40
2.000000001272
100
AcDbArc
 50
103.0028781574
 51
179.999999964
  0
ARC
  5
185
330
1F
100
AcDbEntity
  8
BY_11
  6
Continuous
 62
     7
370
    30
100
AcDbCircle
 10
74.0014012282
 20
-127.35859122
 30
0.0
 40
2.000000001272
100
AcDbArc
 50
0.0000000365
 51
76.9971217808
  0
LINE
  5
186
330
1F
100
AcDbEntity
  8
BY_11
  6
Continuous
 62
     7
370
    30
100
AcDbLine
 10
76.0014012295
 20
-127.3585912187
 30
0.0
 11
76.0014012295
 21
-130.3585912187
 31
0.0
  0
ARC
  5
187
330
1F
100
AcDbEntity
  8
BY_11
  6
Continuous
 62
     7
370
    30
100
AcDbCircle
 10
74.0014012282
 20
-130.3585912175
 30
0.0
 40
2.000000001272
100
AcDbArc
 50
283.0028782192
 51
359.999999964
  0
ARC
  5
188
330
1F
100
AcDbEntity
  8
BY_11
  6
Continuous
 62
     7
370
    30
100
AcDbCircle
 10
73.7514012304
 20
-130.1085912171
 30
0.0
 40
2.263846285974
100
AcDbArc
 50
186.340191782
 51
251.9884761786
  0
LINE
  5
189
330
1F
100
AcDbEntity
  8
BY_11
  6
Continuous
 62
     7
370
    30
100
AcDbLine
 10
-10.8216772064
 20
-152.7933979226
 30
0.0
 11
-8.3216772064
 21
-145.7933979226
 31
0.0
  0
LINE
  5
18A
330
1F
100
AcDbEntity
  8
BY_11
  6
Continuous
 62
     7
370
    30
100
AcDbLine
 10
-8.3216772064
 20
-145.7933979226
 30
0.0
 11
-5.8216772064
 21
-152.7933979226
 31
0.0
  0
LINE
  5
18B
330
1F
100
AcDbEntity
  8
BY_11
  6
Continuous
 62
     7
370
    30
100
AcDbLine
 10
-7.2716772064
 20
-150.7933979226
 30
0.0
 11
-6.5359772064
 21
-150.7933979226
 31
0.0
  0
LINE
  5
18C
330
1F
100
AcDbEntity
  8
BY_11
  6
Continuous
 62
     7
370
    30
100
AcDbLine
 10
-4.8216772064
 20
-152.7933979226
 30
0.0
 11
-4.8216772064
 21
-145.7933979226
 31
0.0
  0
LINE
  5
18D
330
1F
100
AcDbEntity
  8
BY_11
  6
Continuous
 62
     7
370
    30
100
AcDbLine
 10
-2.7216772064
 20
-145.7933979226
 30
0.0
 11
-1.5716772064
 21
-145.7933979226
 31
0.0
  0
ARC
  5
18E
330
1F
100
AcDbEntity
  8
BY_11
  6
Continuous
 62
     7
370
    30
100
AcDbCircle
 10
-1.5716772064
 20
-147.5433979226
 30
0.0
 40
1.75
100
AcDbArc
 50
270.0
 51
90.0
  0
LINE
  5
18F
330
1F
100
AcDbEntity
  8
BY_11
  6
Continuous
 62
     7
370
    30
100
AcDbLine
 10
-1.5716772064
 20
-149.2933979226
 30
0.0
 11
-2.7216772064
 21
-149.2933979226
 31
0.0
  0
LINE
  5
190
330
1F
100
AcDbEntity
  8
BY_11
  6
Continuous
 62
     7
370
    30
100
AcDbLine
 10
-2.7216772064
 20
-149.2933979226
 30
0.0
 11
-1.5716772064
 21
-149.2933979226
 31
0.0
  0
ARC
  5
191
330
1F
100
AcDbEntity
  8
BY_11
  6
Continuous
 62
     7
370
    30
100
AcDbCircle
 10
-1.5716772064
 20
-151.0433979226
 30
0.0
 40
1.75
100
AcDbArc
 50
270.0
 51
90.0
  0
LINE
  5
192
330
1F
100
AcDbEntity
  8
BY_11
  6
Continuous
 62
     7
370
    30
100
AcDbLine
 10
-1.5716772064
 20
-152.7933979226
 30
0.0
 11
-2.7216772064
 21
-152.7933979226
 31
0.0
  0
LINE
  5
193
330
1F
100
AcDbEntity
  8
BY_11
  6
Continuous
 62
     7
370
    30
100
AcDbLine
 10
6.1783227936
 20
-152.7933979226
 30
0.0
 11
3.6783227936
 21
-152.7933979226
 31
0.0
  0
ARC
  5
194
330
1F
100
AcDbEntity
  8
BY_11
  6
Continuous
 62
     7
370
    30
100
AcDbCircle
 10
3.6783227952
 20
-150.293397921
 30
0.0
 40
2.50000000159
100
AcDbArc
 50
180.000000036
 51
269.999999964
  0
LINE
  5
195
330
1F
100
AcDbEntity
  8
BY_11
  6
Continuous
 62
     7
370
    30
100
AcDbLine
 10
1.1783227936
 20
-150.2933979226
 30
0.0
 11
1.1783227936
 21
-148.2933979226
 31
0.0
  0
ARC
  5
196
330
1F
100
AcDbEntity
  8
BY_11
  6
Continuous
 62
     7
370
    30
100
AcDbCircle
 10
3.6783227952
 20
-148.2933979242
 30
0.0
 40
2.50000000159
100
AcDbArc
 50
90.0000000365
 51
179.999999964
  0
LINE
  5
197
330
1F
100
AcDbEntity
  8
BY_11
  6
Continuous
 62
     7
370
    30
100
AcDbLine
 10
3.6783227936
 20
-145.7933979226
 30
0.0
 11
6.1783227936
 21
-145.7933979226
 31
0.0
  0
LINE
  5
198
330
1F
100
AcDbEntity
  8
BY_11
  6
Continuous
 62
     7
370
    30
100
AcDbLine
 10
7.1783227936
 20
-152.7933979226
 30
0.0
 11
7.1783227936
 21
-145.7933979226
 31
0.0
  0
LINE
  5
199
330
1F
100
AcDbEntity
  8
BY_11
  6
Continuous
 62
     7
370
    30
100
AcDbLine
 10
9.2783227936
 20
-145.7933979226
 30
0.0
 11
9.6783227936
 21
-145.7933979226
 31
0.0
  0
ARC
  5
19A
330
1F
100
AcDbEntity
  8
BY_11
  6
Continuous
 62
     7
370
    30
100
AcDbCircle
 10
9.678322792
 20
-148.2933979242
 30
0.0
 40
2.50000000159
100
AcDbArc
 50
0.0000000365
 51
89.9999999635
  0
LINE
  5
19B
330
1F
100
AcDbEntity
  8
BY_11
  6
Continuous
 62
     7
370
    30
100
AcDbLine
 10
12.1783227936
 20
-148.2933979226
 30
0.0
 11
12.1783227936
 21
-150.2933979226
 31
0.0
  0
ARC
  5
19C
330
1F
100
AcDbEntity
  8
BY_11
  6
Continuous
 62
     7
370
    30
100
AcDbCircle
 10
9.678322792
 20
-150.293397921
 30
0.0
 40
2.50000000159
100
AcDbArc
 50
270.000000036
 51
359.999999964
  0
LINE
  5
19D
330
1F
100
AcDbEntity
  8
BY_11
  6
Continuous
 62
     7
370
    30
100
AcDbLine
 10
9.6783227936
 20
-152.7933979226
 30
0.0
 11
9.2783227936
 21
-152.7933979226
 31
0.0
  0
LINE
  5
19E
330
1F
100
AcDbEntity
  8
BY_11
  6
Continuous
 62
     7
370
    30
100
AcDbLine
 10
18.1783227936
 20
-145.7933979226
 30
0.0
 11
13.1783227936
 21
-145.7933979226
 31
0.0
  0
LINE
  5
19F
330
1F
100
AcDbEntity
  8
BY_11
  6
Continuous
 62
     7
370
    30
100
AcDbLine
 10
13.1783227936
 20
-145.7933979226
 30
0.0
 11
13.1783227936
 21
-152.7933979226
 31
0.0
  0
LINE
  5
1A0
330
1F
100
AcDbEntity
  8
BY_11
  6
Continuous
 62
     7
370
    30
100
AcDbLine
 10
13.1783227936
 20
-152.7933979226
 30
0.0
 11
18.1783227936
 21
-152.7933979226
 31
0.0
  0
LINE
  5
1A1
330
1F
100
AcDbEntity
  8
BY_11
  6
Continuous
 62
     7
370
    30
100
AcDbLine
 10
13.1783227936
 20
-149.2933979226
 30
0.0
 11
16.1783227936
 21
-149.2933979226
 31
0.0
  0
LINE
  5
1A2
330
1F
100
AcDbEntity
  8
BY_11
  6
Continuous
 62
     7
370
    30
100
AcDbLine
 10
24.1783227936
 20
-145.7933979226
 30
0.0
 11
19.1783227936
 21
-145.7933979226
 31
0.0
  0
LINE
  5
1A3
330
1F
100
AcDbEntity
  8
BY_11
  6
Continuous
 62
     7
370
    30
100
AcDbLine
 10
19.1783227936
 20
-145.7933979226
 30
0.0
 11
19.1783227936
 21
-152.7933979226
 31
0.0
  0
LINE
  5
1A4
330
1F
100
AcDbEntity
  8
BY_11
  6
Continuous
 62
     7
370
    30
100
AcDbLine
 10
19.1783227936
 20
-149.2933979226
 30
0.0
 11
22.1783227936
 21
-149.2933979226
 31
0.0
  0
LINE
  5
1A5
330
1F
100
AcDbEntity
  8
BY_11
  6
Continuous
 62
     7
370
    30
100
AcDbLine
 10
29.8783227936
 20
-145.7933979226
 30
0.0
 11
27.1783227936
 21
-145.7933979226
 31
0.0
  0
ARC
  5
1A6
330
1F
100
AcDbEntity
  8
BY_11
  6
Continuous
 62
     7
370
    30
100
AcDbCircle
 10
27.1783227949
 20
-147.7933979239
 30
0.0
 40
2.000000001272
100
AcDbArc
 50
90.0000000365
 51
179.999999964
  0
LINE
  5
1A7
330
1F
100
AcDbEntity
  8
BY_11
  6
Continuous
 62
     7
370
    30
100
AcDbLine
 10
25.1783227936
 20
-147.7933979226
 30
0.0
 11
25.1783227936
 21
-150.7933979226
 31
0.0
  0
ARC
  5
1A8
330
1F
100
AcDbEntity
  8
BY_11
  6
Continuous
 62
     7
370
    30
100
AcDbCircle
 10
27.1783227949
 20
-150.7933979213
 30
0.0
 40
2.000000001272
100
AcDbArc
 50
180.000000036
 51
269.999999964
  0
LINE
  5
1A9
330
1F
100
AcDbEntity
  8
BY_11
  6
Continuous
 62
     7
370
    30
100
AcDbLine
 10
27.1783227936
 20
-152.7933979226
 30
0.0
 11
28.1783227936
 21
-152.7933979226
 31
0.0
  0
ARC
  5
1AA
330
1F
100
AcDbEntity
  8
BY_11
  6
Continuous
 62
     7
370
    30
100
AcDbCircle
 10
28.1783227923
 20
-150.7933979213
 30
0.0
 40
2.000000001272
100
AcDbArc
 50
270.000000036
 51
359.999999964
  0
LINE
  5
1AB
330
1F
100
AcDbEntity
  8
BY_11
  6
Continuous
 62
     7
370
    30
100
AcDbLine
 10
30.1783227936
 20
-150.7933979226
 30
0.0
 11
30.1783227936
 21
-149.2933979226
 31
0.0
  0
LINE
  5
1AC
330
1F
100
AcDbEntity
  8
BY_11
  6
Continuous
 62
     7
370
    30
100
AcDbLine
 10
30.1783227936
 20
-149.2933979226
 30
0.0
 11
28.1783227936
 21
-149.2933979226
 31
0.0
  0
LINE
  5
1AD
330
1F
100
AcDbEntity
  8
BY_11
  6
Continuous
 62
     7
370
    30
100
AcDbLine
 10
31.1783227936
 20
-152.7933979226
 30
0.0
 11
31.1783227936
 21
-145.7933979226
 31
0.0
  0
LINE
  5
1AE
330
1F
100
AcDbEntity
  8
BY_11
  6
Continuous
 62
     7
370
    30
100
AcDbLine
 10
36.1783227936
 20
-145.7933979226
 30
0.0
 11
36.1783227936
 21
-152.7933979226
 31
0.0
  0
LINE
  5
1AF
330
1F
100
AcDbEntity
  8
BY_11
  6
Continuous
 62
     7
370
    30
100
AcDbLine
 10
36.1783227936
 20
-149.2933979226
 30
0.0
 11
31.1783227936
 21
-149.2933979226
 31
0.0
  0
LINE
  5
1B0
330
1F
100
AcDbEntity
  8
BY_11
  6
Continuous
 62
     7
370
    30
100
AcDbLine
 10
38.1783227936
 20
-152.7933979226
 30
0.0
 11
38.1783227936
 21
-145.7933979226
 31
0.0
  0
LINE
  5
1B1
330
1F
100
AcDbEntity
  8
BY_11
  6
Continuous
 62
     7
370
    30
100
AcDbLine
 10
37.1783227936
 20
-152.7933979226
 30
0.0
 11
39.1783227936
 21
-152.7933979226
 31
0.0
  0
LINE
  5
1B2
330
1F
100
AcDbEntity
  8
BY_11
  6
Continuous
 62
     7
370
    30
100
AcDbLine
 10
37.1783227936
 20
-145.7933979226
 30
0.0
 11
39.1783227936
 21
-145.7933979226
 31
0.0
  0
LINE
  5
1B3
330
1F
100
AcDbEntity
  8
BY_11
  6
Continuous
 62
     7
370
    30
100
AcDbLine
 10
41.6783227936
 20
-145.7933979226
 30
0.0
 11
41.6783227936
 21
-151.7933979226
 31
0.0
  0
ARC
  5
1B4
330
1F
100
AcDbEntity
  8
BY_11
  6
Continuous
 62
     7
370
    30
100
AcDbCircle
 10
40.678322793
 20
-151.793397922
 30
0.0
 40
1.000000000636
100
AcDbArc
 50
270.000000036
 51
359.999999964
  0
LINE
  5
1B5
330
1F
100
AcDbEntity
  8
BY_11
  6
Continuous
 62
     7
370
    30
100
AcDbLine
 10
40.6783227936
 20
-152.7933979226
 30
0.0
 11
40.1783227936
 21
-152.7933979226
 31
0.0
  0
LINE
  5
1B6
330
1F
100
AcDbEntity
  8
BY_11
  6
Continuous
 62
     7
370
    30
100
AcDbLine
 10
42.6783227936
 20
-145.7933979226
 30
0.0
 11
42.6783227936
 21
-152.7933979226
 31
0.0
  0
LINE
  5
1B7
330
1F
100
AcDbEntity
  8
BY_11
  6
Continuous
 62
     7
370
    30
100
AcDbLine
 10
42.6783227936
 20
-150.7933979226
 30
0.0
 11
47.6783227936
 21
-145.7933979226
 31
0.0
  0
LINE
  5
1B8
330
1F
100
AcDbEntity
  8
BY_11
  6
Continuous
 62
     7
370
    30
100
AcDbLine
 10
44.1783227936
 20
-149.2933979226
 30
0.0
 11
47.6783227936
 21
-152.7933979226
 31
0.0
  0
LINE
  5
1B9
330
1F
100
AcDbEntity
  8
BY_11
  6
Continuous
 62
     7
370
    30
100
AcDbLine
 10
48.6783227936
 20
-145.7933979226
 30
0.0
 11
48.6783227936
 21
-152.7933979226
 31
0.0
  0
LINE
  5
1BA
330
1F
100
AcDbEntity
  8
BY_11
  6
Continuous
 62
     7
370
    30
100
AcDbLine
 10
48.6783227936
 20
-152.7933979226
 30
0.0
 11
53.6783227936
 21
-152.7933979226
 31
0.0
  0
LINE
  5
1BB
330
1F
100
AcDbEntity
  8
BY_11
  6
Continuous
 62
     7
370
    30
100
AcDbLine
 10
54.6783227936
 20
-152.7933979226
 30
0.0
 11
54.6783227936
 21
-145.7933979226
 31
0.0
  0
LINE
  5
1BC
330
1F
100
AcDbEntity
  8
BY_11
  6
Continuous
 62
     7
370
    30
100
AcDbLine
 10
54.6783227936
 20
-145.7933979226
 30
0.0
 11
57.1783227936
 21
-150.7933979226
 31
0.0
  0
LINE
  5
1BD
330
1F
100
AcDbEntity
  8
BY_11
  6
Continuous
 62
     7
370
    30
100
AcDbLine
 10
57.1783227936
 20
-150.7933979226
 30
0.0
 11
59.6783227936
 21
-145.7933979226
 31
0.0
  0
LINE
  5
1BE
330
1F
100
AcDbEntity
  8
BY_11
  6
Continuous
 62
     7
370
    30
100
AcDbLine
 10
59.6783227936
 20
-145.7933979226
 30
0.0
 11
59.6783227936
 21
-152.7933979226
 31
0.0
  0
LINE
  5
1BF
330
1F
100
AcDbEntity
  8
BY_11
  6
Continuous
 62
     7
370
    30
100
AcDbLine
 10
60.6783227936
 20
-152.7933979226
 30
0.0
 11
60.6783227936
 21
-145.7933979226
 31
0.0
  0
LINE
  5
1C0
330
1F
100
AcDbEntity
  8
BY_11
  6
Continuous
 62
     7
370
    30
100
AcDbLine
 10
60.6783227936
 20
-145.7933979226
 30
0.0
 11
65.6783227939
 21
-152.7933979226
 31
0.0
  0
LINE
  5
1C1
330
1F
100
AcDbEntity
  8
BY_11
  6
Continuous
 62
     7
370
    30
100
AcDbLine
 10
65.6783227939
 20
-152.7933979226
 30
0.0
 11
65.6783227939
 21
-145.7933979226
 31
0.0
  0
LINE
  5
1C2
330
1F
100
AcDbEntity
  8
BY_11
  6
Continuous
 62
     7
370
    30
100
AcDbLine
 10
66.6783227935
 20
-150.7933979226
 30
0.0
 11
66.6783227935
 21
-147.7933979226
 31
0.0
  0
ARC
  5
1C3
330
1F
100
AcDbEntity
  8
BY_11
  6
Continuous
 62
     7
370
    30
100
AcDbCircle
 10
68.6783227948
 20
-147.7933979239
 30
0.0
 40
2.000000001272
100
AcDbArc
 50
105.9620141897
 51
179.999999964
  0
ARC
  5
1C4
330
1F
100
AcDbEntity
  8
BY_11
  6
Continuous
 62
     7
370
    30
100
AcDbCircle
 10
69.6783227923
 20
-147.7933979239
 30
0.0
 40
2.000000001272
100
AcDbArc
 50
0.0000000365
 51
74.0379858103
  0
LINE
  5
1C5
330
1F
100
AcDbEntity
  8
BY_11
  6
Continuous
 62
     7
370
    30
100
AcDbLine
 10
71.6783227936
 20
-147.7933979226
 30
0.0
 11
71.6783227936
 21
-150.7933979226
 31
0.0
  0
ARC
  5
1C6
330
1F
100
AcDbEntity
  8
BY_11
  6
Continuous
 62
     7
370
    30
100
AcDbCircle
 10
69.6783227923
 20
-150.7933979213
 30
0.0
 40
2.000000001272
100
AcDbArc
 50
285.9620141897
 51
359.999999964
  0
ARC
  5
1C7
330
1F
100
AcDbEntity
  8
BY_11
  6
Continuous
 62
     7
370
    30
100
AcDbCircle
 10
68.6783227948
 20
-150.7933979213
 30
0.0
 40
2.000000001272
100
AcDbArc
 50
180.000000036
 51
254.0379858103
  0
LINE
  5
1C8
330
1F
100
AcDbEntity
  8
BY_11
  6
Continuous
 62
     7
370
    30
100
AcDbLine
 10
72.6783227939
 20
-152.7933979226
 30
0.0
 11
72.6783227939
 21
-145.7933979226
 31
0.0
  0
LINE
  5
1C9
330
1F
100
AcDbEntity
  8
BY_11
  6
Continuous
 62
     7
370
    30
100
AcDbLine
 10
74.7783227939
 20
-145.7933979226
 30
0.0
 11
75.9283227933
 21
-145.7933979226
 31
0.0
  0
ARC
  5
1CA
330
1F
100
AcDbEntity
  8
BY_11
  6
Continuous
 62
     7
370
    30
100
AcDbCircle
 10
75.9283227933
 20
-147.5433979226
 30
0.0
 40
1.75
100
AcDbArc
 50
270.0
 51
90.0
  0
LINE
  5
1CB
330
1F
100
AcDbEntity
  8
BY_11
  6
Continuous
 62
     7
370
    30
100
AcDbLine
 10
75.9283227933
 20
-149.2933979226
 30
0.0
 11
74.7783227939
 21
-149.2933979226
 31
0.0
  0
LINE
  5
1CC
330
1F
100
AcDbEntity
  8
BY_11
  6
Continuous
 62
     7
370
    30
100
AcDbLine
 10
78.6783227936
 20
-150.7933979226
 30
0.0
 11
78.6783227936
 21
-147.7933979226
 31
0.0
  0
ARC
  5
1CD
330
1F
100
AcDbEntity
  8
BY_11
  6
Continuous
 62
     7
370
    30
100
AcDbCircle
 10
80.6783227949
 20
-147.7933979239
 30
0.0
 40
2.000000001272
100
AcDbArc
 50
105.9620141897
 51
179.999999964
  0
ARC
  5
1CE
330
1F
100
AcDbEntity
  8
BY_11
  6
Continuous
 62
     7
370
    30
100
AcDbCircle
 10
81.6783227924
 20
-147.7933979239
 30
0.0
 40
2.000000001272
100
AcDbArc
 50
0.0000000365
 51
74.0379858103
  0
LINE
  5
1CF
330
1F
100
AcDbEntity
  8
BY_11
  6
Continuous
 62
     7
370
    30
100
AcDbLine
 10
83.6783227937
 20
-147.7933979226
 30
0.0
 11
83.6783227937
 21
-150.7933979226
 31
0.0
  0
ARC
  5
1D0
330
1F
100
AcDbEntity
  8
BY_11
  6
Continuous
 62
     7
370
    30
100
AcDbCircle
 10
81.6783227924
 20
-150.7933979213
 30
0.0
 40
2.000000001272
100
AcDbArc
 50
285.9620141897
 51
359.999999964
  0
ARC
  5
1D1
330
1F
100
AcDbEntity
  8
BY_11
  6
Continuous
 62
     7
370
    30
100
AcDbCircle
 10
80.6783227949
 20
-150.7933979213
 30
0.0
 40
2.000000001272
100
AcDbArc
 50
180.000000036
 51
254.0379858103
  0
LINE
  5
1D2
330
1F
100
AcDbEntity
  8
BY_11
  6
Continuous
 62
     7
370
    30
100
AcDbLine
 10
82.1783227936
 20
-151.2933979226
 30
0.0
 11
83.6783227937
 21
-152.7933979226
 31
0.0
  0
LINE
  5
1D3
330
1F
100
AcDbEntity
  8
BY_11
  6
Continuous
 62
     7
370
    30
100
AcDbLine
 10
84.6783227933
 20
-152.7933979226
 30
0.0
 11
84.6783227933
 21
-145.7933979226
 31
0.0
  0
LINE
  5
1D4
330
1F
100
AcDbEntity
  8
BY_11
  6
Continuous
 62
     7
370
    30
100
AcDbLine
 10
86.7783227933
 20
-145.7933979226
 30
0.0
 11
87.9283227934
 21
-145.7933979226
 31
0.0
  0
ARC
  5
1D5
330
1F
100
AcDbEntity
  8
BY_11
  6
Continuous
 62
     7
370
    30
100
AcDbCircle
 10
87.9283227934
 20
-147.5433979226
 30
0.0
 40
1.75
100
AcDbArc
 50
270.0
 51
90.0
  0
LINE
  5
1D6
330
1F
100
AcDbEntity
  8
BY_11
  6
Continuous
 62
     7
370
    30
100
AcDbLine
 10
87.9283227934
 20
-149.2933979226
 30
0.0
 11
86.7783227933
 21
-149.2933979226
 31
0.0
  0
LINE
  5
1D7
330
1F
100
AcDbEntity
  8
BY_11
  6
Continuous
 62
     7
370
    30
100
AcDbLine
 10
87.6783227935
 20
-149.2933979226
 30
0.0
 11
89.1783227936
 21
-152.7933979226
 31
0.0
  0
ARC
  5
1D8
330
1F
100
AcDbEntity
  8
BY_11
  6
Continuous
 62
     7
370
    30
100
AcDbCircle
 10
94.3247694017
 20
-147.8540580981
 30
0.0
 40
2.065857441361
100
AcDbArc
 50
49.0650512189
 51
94.0650511352
  0
LINE
  5
1D9
330
1F
100
AcDbEntity
  8
BY_11
  6
Continuous
 62
     7
370
    30
100
AcDbLine
 10
94.1783227937
 20
-145.7933979226
 30
0.0
 11
92.1783227938
 21
-145.7933979226
 31
0.0
  0
ARC
  5
1DA
330
1F
100
AcDbEntity
  8
BY_11
  6
Continuous
 62
     7
370
    30
100
AcDbCircle
 10
92.1783227945
 20
-147.2933979236
 30
0.0
 40
1.500000000954
100
AcDbArc
 50
90.0000000365
 51
179.999999964
  0
LINE
  5
1DB
330
1F
100
AcDbEntity
  8
BY_11
  6
Continuous
 62
     7
370
    30
100
AcDbLine
 10
90.6783227937
 20
-147.2933979226
 30
0.0
 11
90.6783227937
 21
-147.7933979226
 31
0.0
  0
ARC
  5
1DC
330
1F
100
AcDbEntity
  8
BY_11
  6
Continuous
 62
     7
370
    30
100
AcDbCircle
 10
92.1783227945
 20
-147.7933979217
 30
0.0
 40
1.500000000954
100
AcDbArc
 50
180.000000036
 51
269.999999964
  0
LINE
  5
1DD
330
1F
100
AcDbEntity
  8
BY_11
  6
Continuous
 62
     7
370
    30
100
AcDbLine
 10
92.1783227938
 20
-149.2933979226
 30
0.0
 11
94.1783227937
 21
-149.2933979226
 31
0.0
  0
ARC
  5
1DE
330
1F
100
AcDbEntity
  8
BY_11
  6
Continuous
 62
     7
370
    30
100
AcDbCircle
 10
94.178322793
 20
-150.7933979236
 30
0.0
 40
1.500000000954
100
AcDbArc
 50
0.0000000365
 51
89.9999999635
  0
LINE
  5
1DF
330
1F
100
AcDbEntity
  8
BY_11
  6
Continuous
 62
     7
370
    30
100
AcDbLine
 10
95.6783227938
 20
-150.7933979226
 30
0.0
 11
95.6783227938
 21
-151.2933979226
 31
0.0
  0
ARC
  5
1E0
330
1F
100
AcDbEntity
  8
BY_11
  6
Continuous
 62
     7
370
    30
100
AcDbCircle
 10
94.178322793
 20
-151.2933979217
 30
0.0
 40
1.500000000954
100
AcDbArc
 50
270.000000036
 51
359.999999964
  0
LINE
  5
1E1
330
1F
100
AcDbEntity
  8
BY_11
  6
Continuous
 62
     7
370
    30
100
AcDbLine
 10
94.1783227937
 20
-152.7933979226
 30
0.0
 11
92.1783227938
 21
-152.7933979226
 31
0.0
  0
ARC
  5
1E2
330
1F
100
AcDbEntity
  8
BY_11
  6
Continuous
 62
     7
370
    30
100
AcDbCircle
 10
92.0318761858
 20
-150.7327377471
 30
0.0
 40
2.065857441361
100
AcDbArc
 50
229.065051219
 51
274.065051135
  0
LINE
  5
1E3
330
1F
100
AcDbEntity
  8
BY_11
  6
Continuous
 62
     7
370
    30
100
AcDbLine
 10
96.6783227934
 20
-145.7933979226
 30
0.0
 11
101.6783227935
 21
-145.7933979226
 31
0.0
  0
LINE
  5
1E4
330
1F
100
AcDbEntity
  8
BY_11
  6
Continuous
 62
     7
370
    30
100
AcDbLine
 10
99.1783227938
 20
-145.7933979226
 30
0.0
 11
99.1783227938
 21
-152.7933979226
 31
0.0
  0
LINE
  5
1E5
330
1F
100
AcDbEntity
  8
BY_11
  6
Continuous
 62
     7
370
    30
100
AcDbLine
 10
102.6783227938
 20
-145.7933979226
 30
0.0
 11
102.6783227938
 21
-150.7933979226
 31
0.0
  0
ARC
  5
1E6
330
1F
100
AcDbEntity
  8
BY_11
  6
Continuous
 62
     7
370
    30
100
AcDbCircle
 10
104.6783227951
 20
-150.7933979213
 30
0.0
 40
2.000000001272
100
AcDbArc
 50
180.000000036
 51
269.999999964
  0
LINE
  5
1E7
330
1F
100
AcDbEntity
  8
BY_11
  6
Continuous
 62
     7
370
    30
100
AcDbLine
 10
104.6783227937
 20
-152.7933979226
 30
0.0
 11
105.6783227933
 21
-152.7933979226
 31
0.0
  0
ARC
  5
1E8
330
1F
100
AcDbEntity
  8
BY_11
  6
Continuous
 62
     7
370
    30
100
AcDbCircle
 10
105.6783227926
 20
-150.7933979213
 30
0.0
 40
2.000000001272
100
AcDbArc
 50
270.000000036
 51
359.999999964
  0
LINE
  5
1E9
330
1F
100
AcDbEntity
  8
BY_11
  6
Continuous
 62
     7
370
    30
100
AcDbLine
 10
107.6783227939
 20
-150.7933979226
 30
0.0
 11
107.6783227939
 21
-145.7933979226
 31
0.0
  0
LINE
  5
1EA
330
1F
100
AcDbEntity
  8
BY_11
  6
Continuous
 62
     7
370
    30
100
AcDbLine
 10
108.6783227935
 20
-145.7933979226
 30
0.0
 11
111.1783227939
 21
-152.7933979226
 31
0.0
  0
LINE
  5
1EB
330
1F
100
AcDbEntity
  8
BY_11
  6
Continuous
 62
     7
370
    30
100
AcDbLine
 10
111.1783227939
 20
-152.7933979226
 30
0.0
 11
113.6783227936
 21
-145.7933979226
 31
0.0
  0
LINE
  5
1EC
330
1F
100
AcDbEntity
  8
BY_11
  6
Continuous
 62
     7
370
    30
100
AcDbLine
 10
114.6783227939
 20
-145.7933979226
 30
0.0
 11
116.1783227933
 21
-152.7933979226
 31
0.0
  0
LINE
  5
1ED
330
1F
100
AcDbEntity
  8
BY_11
  6
Continuous
 62
     7
370
    30
100
AcDbLine
 10
116.1783227933
 20
-152.7933979226
 30
0.0
 11
117.6783227934
 21
-147.7933979226
 31
0.0
  0
LINE
  5
1EE
330
1F
100
AcDbEntity
  8
BY_11
  6
Continuous
 62
     7
370
    30
100
AcDbLine
 10
117.6783227934
 20
-147.7933979226
 30
0.0
 11
119.1783227935
 21
-152.7933979226
 31
0.0
  0
LINE
  5
1EF
330
1F
100
AcDbEntity
  8
BY_11
  6
Continuous
 62
     7
370
    30
100
AcDbLine
 10
119.1783227935
 20
-152.7933979226
 30
0.0
 11
120.6783227936
 21
-145.7933979226
 31
0.0
  0
LINE
  5
1F0
330
1F
100
AcDbEntity
  8
BY_11
  6
Continuous
 62
     7
370
    30
100
AcDbLine
 10
121.6783227939
 20
-145.7933979226
 30
0.0
 11
126.6783227933
 21
-152.7933979226
 31
0.0
  0
LINE
  5
1F1
330
1F
100
AcDbEntity
  8
BY_11
  6
Continuous
 62
     7
370
    30
100
AcDbLine
 10
121.6783227939
 20
-152.7933979226
 30
0.0
 11
126.6783227933
 21
-145.7933979226
 31
0.0
  0
LINE
  5
1F2
330
1F
100
AcDbEntity
  8
BY_11
  6
Continuous
 62
     7
370
    30
100
AcDbLine
 10
127.6783227936
 20
-145.7933979226
 30
0.0
 11
130.1783227933
 21
-149.2933979226
 31
0.0
  0
LINE
  5
1F3
330
1F
100
AcDbEntity
  8
BY_11
  6
Continuous
 62
     7
370
    30
100
AcDbLine
 10
130.1783227933
 20
-149.2933979226
 30
0.0
 11
132.6783227937
 21
-145.7933979226
 31
0.0
  0
LINE
  5
1F4
330
1F
100
AcDbEntity
  8
BY_11
  6
Continuous
 62
     7
370
    30
100
AcDbLine
 10
130.1783227933
 20
-149.2933979226
 30
0.0
 11
130.1783227933
 21
-152.7933979226
 31
0.0
  0
LINE
  5
1F5
330
1F
100
AcDbEntity
  8
BY_11
  6
Continuous
 62
     7
370
    30
100
AcDbLine
 10
133.6783227933
 20
-145.7933979226
 30
0.0
 11
138.6783227934
 21
-145.7933979226
 31
0.0
  0
LINE
  5
1F6
330
1F
100
AcDbEntity
  8
BY_11
  6
Continuous
 62
     7
370
    30
100
AcDbLine
 10
138.6783227934
 20
-145.7933979226
 30
0.0
 11
133.6783227933
 21
-152.7933979226
 31
0.0
  0
LINE
  5
1F7
330
1F
100
AcDbEntity
  8
BY_11
  6
Continuous
 62
     7
370
    30
100
AcDbLine
 10
133.6783227933
 20
-152.7933979226
 30
0.0
 11
138.6783227934
 21
-152.7933979226
 31
0.0
  0
LINE
  5
1F8
330
1F
100
AcDbEntity
  8
BY_11
  6
Continuous
 62
     7
370
    30
100
AcDbLine
 10
147.6783227933
 20
-150.7933979226
 30
0.0
 11
147.6783227933
 21
-149.7933979226
 31
0.0
  0
ARC
  5
1F9
330
1F
100
AcDbEntity
  8
BY_11
  6
Continuous
 62
     7
370
    30
100
AcDbCircle
 10
149.6783227939
 20
-149.7933979226
 30
0.0
 40
1.999999999998
100
AcDbArc
 50
0.0
 51
69.5126848853
  0
LINE
  5
1FA
330
1F
100
AcDbEntity
  8
BY_11
  6
Continuous
 62
     7
370
    30
100
AcDbLine
 10
151.6783227938
 20
-149.7933979226
 30
0.0
 11
151.6783227938
 21
-150.7933979226
 31
0.0
  0
ARC
  5
1FB
330
1F
100
AcDbEntity
  8
BY_11
  6
Continuous
 62
     7
370
    30
100
AcDbCircle
 10
149.6783227939
 20
-150.7933979226
 30
0.0
 40
1.999999999998
100
AcDbArc
 50
180.0
 51
249.5126848853
  0
LINE
  5
1FC
330
1F
100
AcDbEntity
  8
BY_11
  6
Continuous
 62
     7
370
    30
100
AcDbLine
 10
33.1814325143
 20
-129.1505170287
 30
0.0
 11
33.1314325143
 21
-129.1505170287
 31
0.0
  0
LINE
  5
1FD
330
1F
100
AcDbEntity
  8
BY_11
  6
Continuous
 62
     7
370
    30
100
AcDbLine
 10
33.1314325143
 20
-132.6505170287
 30
0.0
 11
33.1814325143
 21
-132.6505170287
 31
0.0
  0
LINE
  5
1FE
330
1F
100
AcDbEntity
  8
BY_11
  6
Continuous
 62
     7
370
    30
100
AcDbLine
 10
33.1314325143
 20
-125.6505170287
 30
0.0
 11
33.1814325143
 21
-125.6505170287
 31
0.0
  0
ARC
  5
1FF
330
1F
100
AcDbEntity
  8
BY_11
  6
Continuous
 62
     7
370
    30
100
AcDbCircle
 10
149.6783227939
 20
-149.7933979226
 30
0.0
 40
1.999999999998
100
AcDbArc
 50
110.4873151147
 51
180.0
  0
ARC
  5
200
330
1F
100
AcDbEntity
  8
BY_11
  6
Continuous
 62
     7
370
    30
100
AcDbCircle
 10
149.6783227939
 20
-150.7933979226
 30
0.0
 40
1.999999999998
100
AcDbArc
 50
290.4873151147
 51
0.0
  0
LINE
  5
201
330
1F
100
AcDbEntity
  8
BY_11
  6
Continuous
 62
     7
370
    30
100
AcDbLine
 10
11.9693768607
 20
-132.6505170288
 30
0.0
 11
11.9693768607
 21
-125.6505170288
 31
0.0
  0
LINE
  5
202
330
1F
100
AcDbEntity
  8
BY_11
  6
Continuous
 62
     7
370
    30
100
AcDbLine
 10
11.9693768607
 20
-125.6505170288
 30
0.0
 11
10.9193768607
 21
-127.1505170288
 31
0.0
  0
LINE
  5
203
330
1F
100
AcDbEntity
  8
BY_11
  6
Continuous
 62
     7
370
    30
100
AcDbLine
 10
10.9193768607
 20
-130.6505170288
 30
0.0
 11
12.9693768607
 21
-130.6505170288
 31
0.0
  0
LINE
  5
204
330
1F
100
AcDbEntity
  8
BY_11
  6
Continuous
 62
     7
370
    30
100
AcDbLine
 10
9.5193768607
 20
-129.1505170288
 30
0.0
 11
8.4693768607
 21
-130.6505170288
 31
0.0
  0
LINE
  5
205
330
1F
100
AcDbEntity
  8
BY_11
  6
Continuous
 62
     7
370
    30
100
AcDbLine
 10
8.4693768607
 20
-130.6505170288
 30
0.0
 11
9.5193768607
 21
-130.6505170288
 31
0.0
  0
LINE
  5
206
330
1F
100
AcDbEntity
  8
BY_11
  6
Continuous
 62
     7
370
    30
100
AcDbLine
 10
-5.8065122107
 20
-85.6137845172
 30
0.0
 11
-4.7555122107
 21
-85.6137845172
 31
0.0
  0
LINE
  5
207
330
1F
100
AcDbEntity
  8
BY_11
  6
Continuous
 62
     7
370
    30
100
AcDbLine
 10
-10.1073772064
 20
-150.7933979226
 30
0.0
 11
-9.3716772064
 21
-150.7933979226
 31
0.0
  0
ENDSEC
  0
SECTION
  2
OBJECTS
  0
DICTIONARY
  5
C
330
0
100
AcDbDictionary
281
     1
  3
ACAD_DETAILVIEWSTYLE
350
243
  3
ACAD_GROUP
350
D
  3
ACAD_LAYOUT
350
1A
  3
ACAD_MATERIAL
350
43
  3
ACAD_MLEADERSTYLE
350
6B
  3
ACAD_MLINESTYLE
350
17
  3
ACAD_PLOTSETTINGS
350
19
  3
ACAD_PLOTSTYLENAME
350
E
  3
ACAD_SCALELIST
350
47
  3
ACAD_SECTIONVIEWSTYLE
350
244
  3
ACAD_TABLESTYLE
350
69
  3
ACAD_VISUALSTYLE
350
2A
  3
ACDB_RECOMPOSE_DATA
350
240
  3
AcDbVariableDictionary
350
208
  0
SUN
  5
6D
330
29
100
AcDbSun
 90
        1
290
     0
 63
     7
421
 16777215
 40
1.0
291
     1
 91
  2455826
 92
 54000000
292
     0
 70
     2
 71
   256
280
     1
  0
DICTIONARY
  5
243
102
{ACAD_REACTORS
330
C
102
}
330
C
100
AcDbDictionary
281
     1
  0
DICTIONARY
  5
D
102
{ACAD_REACTORS
330
C
102
}
330
C
100
AcDbDictionary
281
     1
  0
DICTIONARY
  5
1A
102
{ACAD_REACTORS
330
C
102
}
330
C
100
AcDbDictionary
281
     1
  3
Layout1
350
1E
  3
Model
350
22
  0
DICTIONARY
  5
43
102
{ACAD_REACTORS
330
C
102
}
330
C
100
AcDbDictionary
281
     1
  3
ByBlock
350
45
  3
ByLayer
350
44
  3
Global
350
46
  0
DICTIONARY
  5
6B
102
{ACAD_REACTORS
330
C
102
}
330
C
100
AcDbDictionary
281
     1
  3
Standard
350
6C
  0
DICTIONARY
  5
17
102
{ACAD_REACTORS
330
C
102
}
330
C
100
AcDbDictionary
281
     1
  3
Standard
350
18
  0
DICTIONARY
  5
19
102
{ACAD_REACTORS
330
C
102
}
330
C
100
AcDbDictionary
281
     1
  0
ACDBDICTIONARYWDFLT
  5
E
102
{ACAD_REACTORS
330
C
102
}
330
C
100
AcDbDictionary
281
     1
  3
Normal
350
F
100
AcDbDictionaryWithDefault
340
F
  0
DICTIONARY
  5
47
102
{ACAD_REACTORS
330
C
102
}
330
C
100
AcDbDictionary
281
     1
  3
A0
350
48
  3
A1
350
49
  3
A2
350
4A
  3
A3
350
4B
  3
A4
350
4C
  3
A5
350
4D
  3
A6
350
4E
  3
A7
350
4F
  3
A8
350
50
  3
A9
350
51
  3
B0
350
52
  3
B1
350
53
  3
B2
350
54
  3
B3
350
55
  3
B4
350
56
  3
B5
350
57
  3
B6
350
58
  3
B7
350
59
  3
B8
350
5A
  3
B9
350
5B
  3
C0
350
5C
  3
C1
350
5D
  3
C2
350
5E
  3
C3
350
5F
  3
C4
350
60
  3
C5
350
61
  3
C6
350
62
  3
C7
350
63
  3
C8
350
64
  3
C9
350
65
  3
D0
350
66
  3
D1
350
67
  3
D2
350
68
  0
DICTIONARY
  5
244
102
{ACAD_REACTORS
330
C
102
}
330
C
100
AcDbDictionary
281
     1
  0
DICTIONARY
  5
69
102
{ACAD_REACTORS
330
C
102
}
330
C
100
AcDbDictionary
281
     1
  3
Standard
350
6A
  0
DICTIONARY
  5
2A
102
{ACAD_REACTORS
330
C
102
}
330
C
100
AcDbDictionary
281
     1
  3
2dWireframe
350
2F
  3
Basic
350
32
  3
Brighten
350
36
  3
ColorChange
350
3A
  3
Conceptual
350
34
  3
Dim
350
35
  3
EdgeColorOff
350
3D
  3
Facepattern
350
39
  3
Flat
350
2B
  3
FlatWithEdges
350
2C
  3
Gouraud
350
2D
  3
GouraudWithEdges
350
2E
  3
Hidden
350
31
  3
JitterOff
350
3B
  3
Linepattern
350
38
  3
OverhangOff
350
3C
  3
Realistic
350
33
  3
Shaded
350
42
  3
Shaded with edges
350
41
  3
Shades of Gray
350
3E
  3
Sketchy
350
3F
  3
Thicken
350
37
  3
Wireframe
350
30
  3
X-Ray
350
40
  0
XRECORD
  5
240
102
{ACAD_REACTORS
330
C
102
}
330
C
100
AcDbXrecord
280
     1
 90
        1
330
6A
  0
DICTIONARY
  5
208
102
{ACAD_REACTORS
330
C
102
}
330
C
100
AcDbDictionary
281
     1
  3
CANNOSCALE
350
209
  3
CMLEADERSTYLE
350
242
  3
CTABLESTYLE
350
241
  3
XCLIPFRAME
350
20A
  0
LAYOUT
  5
1E
102
{ACAD_REACTORS
330
1A
102
}
330
1A
100
AcDbPlotSettings
  1

  2
none_device
  4

  6

 40
0.0
 41
0.0
 42
0.0
 43
0.0
 44
0.0
 45
0.0
 46
0.0
 47
0.0
 48
0.0
 49
0.0
140
0.0
141
0.0
142
1.0
143
1.0
 70
   688
 72
     1
 73
     0
 74
     5
  7

 75
    16
 76
     0
 77
     2
 78
   300
147
1.0
148
0.0
149
0.0
100
AcDbLayout
  1
Layout1
 70
     1
 71
     1
 10
0.0
 20
0.0
 11
594.0
 21
420.0
 12
0.0
 22
0.0
 32
0.0
 14
0.0
 24
0.0
 34
0.0
 15
594.0
 25
420.0
 35
0.0
146
0.0
 13
0.0
 23
0.0
 33
0.0
 16
1.0
 26
0.0
 36
0.0
 17
0.0
 27
1.0
 37
0.0
 76
     0
330
1B
  0
LAYOUT
  5
22
102
{ACAD_REACTORS
330
1A
102
}
330
1A
100
AcDbPlotSettings
  1

  2
none_device
  4
Letter_(8.50_x_11.00_Inches)
  6

 40
6.35
 41
6.35
 42
6.35000508
 43
6.35000508
 44
215.9
 45
279.4
 46
0.0
 47
0.0
 48
0.0
 49
0.0
140
0.0
141
0.0
142
1.0
143
1.0
 70
  1712
 72
     1
 73
     0
 74
     0
  7

 75
     0
 76
     0
 77
     2
 78
   300
147
1.0
148
0.0
149
0.0
100
AcDbLayout
  1
Model
 70
     1
 71
     0
 10
0.0
 20
0.0
 11
594.0
 21
420.0
 12
0.0
 22
0.0
 32
0.0
 14
0.0
 24
0.0
 34
0.0
 15
594.0
 25
420.0
 35
0.0
146
0.0
 13
0.0
 23
0.0
 33
0.0
 16
1.0
 26
0.0
 36
0.0
 17
0.0
 27
1.0
 37
0.0
 76
     0
330
1F
331
29
  0
MATERIAL
  5
45
102
{ACAD_REACTORS
330
43
102
}
330
43
100
AcDbMaterial
  1
ByBlock
 72
     1
 94
      127
  0
MATERIAL
  5
44
102
{ACAD_REACTORS
330
43
102
}
330
43
100
AcDbMaterial
  1
ByLayer
 72
     1
 94
      127
  0
MATERIAL
  5
46
102
{ACAD_REACTORS
330
43
102
}
330
43
100
AcDbMaterial
  1
Global
 72
     1
 94
      127
  0
MLEADERSTYLE
  5
6C
102
{ACAD_REACTORS
330
6B
102
}
102
{ACAD_XDICTIONARY
360
23E
102
}
330
6B
100
AcDbMLeaderStyle
170
     2
171
     1
172
     0
 90
        2
 40
0.0
 41
0.0
173
     1
 91
-1056964608
340
14
 92
       -2
290
     1
 42
2.0
291
     1
 43
8.0
  3
Standard
341
0
 44
4.0
300

342
11
174
     1
178
     6
175
     1
176
     0
 93
-1056964608
 45
4.0
292
     0
297
     0
 46
4.0
343
0
 94
-1056964608
 47
1.0
 49
1.0
140
1.0
293
     1
141
0.0
294
     1
177
     0
142
1.0
295
     0
296
     0
143
3.75
1001
ACAD_MLEADERVER
1070
     2
  0
MLINESTYLE
  5
18
102
{ACAD_REACTORS
330
17
102
}
330
17
100
AcDbMlineStyle
  2
Standard
 70
     0
  3

 62
   256
 51
90.0
 52
90.0
 71
     2
 49
0.5
 62
   256
  6
BYLAYER
 49
-0.5
 62
   256
  6
BYLAYER
  0
ACDBPLACEHOLDER
  5
F
102
{ACAD_REACTORS
330
E
102
}
330
E
  0
SCALE
  5
48
102
{ACAD_REACTORS
330
47
102
}
330
47
100
AcDbScale
 70
     0
300
1:1
140
1.0
141
1.0
290
     1
  0
SCALE
  5
49
102
{ACAD_REACTORS
330
47
102
}
330
47
100
AcDbScale
 70
     0
300
1:2
140
1.0
141
2.0
290
     0
  0
SCALE
  5
4A
102
{ACAD_REACTORS
330
47
102
}
330
47
100
AcDbScale
 70
     0
300
1:4
140
1.0
141
4.0
290
     0
  0
SCALE
  5
4B
102
{ACAD_REACTORS
330
47
102
}
330
47
100
AcDbScale
 70
     0
300
1:5
140
1.0
141
5.0
290
     0
  0
SCALE
  5
4C
102
{ACAD_REACTORS
330
47
102
}
330
47
100
AcDbScale
 70
     0
300
1:8
140
1.0
141
8.0
290
     0
  0
SCALE
  5
4D
102
{ACAD_REACTORS
330
47
102
}
330
47
100
AcDbScale
 70
     0
300
1:10
140
1.0
141
10.0
290
     0
  0
SCALE
  5
4E
102
{ACAD_REACTORS
330
47
102
}
330
47
100
AcDbScale
 70
     0
300
1:16
140
1.0
141
16.0
290
     0
  0
SCALE
  5
4F
102
{ACAD_REACTORS
330
47
102
}
330
47
100
AcDbScale
 70
     0
300
1:20
140
1.0
141
20.0
290
     0
  0
SCALE
  5
50
102
{ACAD_REACTORS
330
47
102
}
330
47
100
AcDbScale
 70
     0
300
1:30
140
1.0
141
30.0
290
     0
  0
SCALE
  5
51
102
{ACAD_REACTORS
330
47
102
}
330
47
100
AcDbScale
 70
     0
300
1:40
140
1.0
141
40.0
290
     0
  0
SCALE
  5
52
102
{ACAD_REACTORS
330
47
102
}
330
47
100
AcDbScale
 70
     0
300
1:50
140
1.0
141
50.0
290
     0
  0
SCALE
  5
53
102
{ACAD_REACTORS
330
47
102
}
330
47
100
AcDbScale
 70
     0
300
1:100
140
1.0
141
100.0
290
     0
  0
SCALE
  5
54
102
{ACAD_REACTORS
330
47
102
}
330
47
100
AcDbScale
 70
     0
300
2:1
140
2.0
141
1.0
290
     0
  0
SCALE
  5
55
102
{ACAD_REACTORS
330
47
102
}
330
47
100
AcDbScale
 70
     0
300
4:1
140
4.0
141
1.0
290
     0
  0
SCALE
  5
56
102
{ACAD_REACTORS
330
47
102
}
330
47
100
AcDbScale
 70
     0
300
8:1
140
8.0
141
1.0
290
     0
  0
SCALE
  5
57
102
{ACAD_REACTORS
330
47
102
}
330
47
100
AcDbScale
 70
     0
300
10:1
140
10.0
141
1.0
290
     0
  0
SCALE
  5
58
102
{ACAD_REACTORS
330
47
102
}
330
47
100
AcDbScale
 70
     0
300
100:1
140
100.0
141
1.0
290
     0
  0
SCALE
  5
59
102
{ACAD_REACTORS
330
47
102
}
330
47
100
AcDbScale
 70
     0
300
1/128" = 1'-0"
140
0.0078125
141
12.0
290
     0
  0
SCALE
  5
5A
102
{ACAD_REACTORS
330
47
102
}
330
47
100
AcDbScale
 70
     0
300
1/64" = 1'-0"
140
0.015625
141
12.0
290
     0
  0
SCALE
  5
5B
102
{ACAD_REACTORS
330
47
102
}
330
47
100
AcDbScale
 70
     0
300
1/32" = 1'-0"
140
0.03125
141
12.0
290
     0
  0
SCALE
  5
5C
102
{ACAD_REACTORS
330
47
102
}
330
47
100
AcDbScale
 70
     0
300
1/16" = 1'-0"
140
0.0625
141
12.0
290
     0
  0
SCALE
  5
5D
102
{ACAD_REACTORS
330
47
102
}
330
47
100
AcDbScale
 70
     0
300
3/32" = 1'-0"
140
0.09375
141
12.0
290
     0
  0
SCALE
  5
5E
102
{ACAD_REACTORS
330
47
102
}
330
47
100
AcDbScale
 70
     0
300
1/8" = 1'-0"
140
0.125
141
12.0
290
     0
  0
SCALE
  5
5F
102
{ACAD_REACTORS
330
47
102
}
330
47
100
AcDbScale
 70
     0
300
3/16" = 1'-0"
140
0.1875
141
12.0
290
     0
  0
SCALE
  5
60
102
{ACAD_REACTORS
330
47
102
}
330
47
100
AcDbScale
 70
     0
300
1/4" = 1'-0"
140
0.25
141
12.0
290
     0
  0
SCALE
  5
61
102
{ACAD_REACTORS
330
47
102
}
330
47
100
AcDbScale
 70
     0
300
3/8" = 1'-0"
140
0.375
141
12.0
290
     0
  0
SCALE
  5
62
102
{ACAD_REACTORS
330
47
102
}
330
47
100
AcDbScale
 70
     0
300
1/2" = 1'-0"
140
0.5
141
12.0
290
     0
  0
SCALE
  5
63
102
{ACAD_REACTORS
330
47
102
}
330
47
100
AcDbScale
 70
     0
300
3/4" = 1'-0"
140
0.75
141
12.0
290
     0
  0
SCALE
  5
64
102
{ACAD_REACTORS
330
47
102
}
330
47
100
AcDbScale
 70
     0
300
1" = 1'-0"
140
1.0
141
12.0
290
     0
  0
SCALE
  5
65
102
{ACAD_REACTORS
330
47
102
}
330
47
100
AcDbScale
 70
     0
300
1-1/2" = 1'-0"
140
1.5
141
12.0
290
     0
  0
SCALE
  5
66
102
{ACAD_REACTORS
330
47
102
}
330
47
100
AcDbScale
 70
     0
300
3" = 1'-0"
140
3.0
141
12.0
290
     0
  0
SCALE
  5
67
102
{ACAD_REACTORS
330
47
102
}
330
47
100
AcDbScale
 70
     0
300
6" = 1'-0"
140
6.0
141
12.0
290
     0
  0
SCALE
  5
68
102
{ACAD_REACTORS
330
47
102
}
330
47
100
AcDbScale
 70
     0
300
1'-0" = 1'-0"
140
12.0
141
12.0
290
     0
  0
TABLESTYLE
  5
6A
102
{ACAD_REACTORS
330
69
102
}
102
{ACAD_XDICTIONARY
360
23B
102
}
330
69
100
AcDbTableStyle
  3
Standard
 70
     0
 71
     0
 40
0.06
 41
0.06
280
     0
281
     0
  7
Standard
140
4.5
170
     2
 62
     0
 63
   257
283
     0
 90
        4
 91
        0
  1

274
    -2
284
     1
 64
     0
275
    -2
285
     1
 65
     0
276
    -2
286
     1
 66
     0
277
    -2
287
     1
 67
     0
278
    -2
288
     1
 68
     0
279
    -2
289
     1
 69
     0
  7
Standard
140
6.0
170
     5
 62
     0
 63
   257
283
     0
 90
        4
 91
        0
  1

274
    -2
284
     1
 64
     0
275
    -2
285
     1
 65
     0
276
    -2
286
     1
 66
     0
277
    -2
287
     1
 67
     0
278
    -2
288
     1
 68
     0
279
    -2
289
     1
 69
     0
  7
Standard
140
4.5
170
     5
 62
     0
 63
   257
283
     0
 90
        4
 91
        0
  1

274
    -2
284
     1
 64
     0
275
    -2
285
     1
 65
     0
276
    -2
286
     1
 66
     0
277
    -2
287
     1
 67
     0
278
    -2
288
     1
 68
     0
279
    -2
289
     1
 69
     0
  0
VISUALSTYLE
  5
2F
102
{ACAD_REACTORS
330
2A
102
}
102
{ACAD_XDICTIONARY
360
213
102
}
330
2A
100
AcDbVisualStyle
  2
2dWireframe
 70
     4
 71
     0
 72
     2
 73
     0
 90
        0
 40
0.6
 41
30.0
 62
     5
 63
     7
421
 16777215
 74
     1
 91
        4
 64
     7
 65
   257
 75
     1
175
     1
 42
1.0
 92
        0
 66
   257
 43
1.0
 76
     1
 77
     6
 78
     2
 67
     7
 79
     5
170
     0
171
     0
290
     0
174
     0
 93
        1
 44
0.0
173
     0
291
     0
 45
0.0
  0
VISUALSTYLE
  5
32
102
{ACAD_REACTORS
330
2A
102
}
102
{ACAD_XDICTIONARY
360
219
102
}
330
2A
100
AcDbVisualStyle
  2
Basic
 70
     7
 71
     1
 72
     0
 73
     1
 90
        0
 40
0.6
 41
30.0
 62
     5
 63
     7
421
 16777215
 74
     0
 91
        4
 64
     7
 65
   257
 75
     1
175
     1
 42
1.0
 92
        8
 66
     7
 43
1.0
 76
     1
 77
     6
 78
     2
 67
     7
 79
     5
170
     0
171
     0
290
     0
174
     0
 93
        1
 44
0.0
173
     0
291
     1
 45
0.0
  0
VISUALSTYLE
  5
36
102
{ACAD_REACTORS
330
2A
102
}
102
{ACAD_XDICTIONARY
360
221
102
}
330
2A
100
AcDbVisualStyle
  2
Brighten
 70
    12
 71
     2
 72
     2
 73
     0
 90
        0
 40
0.6
 41
30.0
 62
     5
 63
     7
421
 16777215
 74
     1
 91
        4
 64
     7
 65
   257
 75
     1
175
     1
 42
1.0
 92
        8
 66
     7
 43
1.0
 76
     1
 77
     6
 78
     2
 67
     7
 79
     5
170
     0
171
     0
290
     0
174
     0
 93
        1
 44
50.0
173
     0
291
     1
 45
0.0
  0
VISUALSTYLE
  5
3A
102
{ACAD_REACTORS
330
2A
102
}
102
{ACAD_XDICTIONARY
360
229
102
}
330
2A
100
AcDbVisualStyle
  2
ColorChange
 70
    16
 71
     2
 72
     2
 73
     3
 90
        0
 40
0.6
 41
30.0
 62
     5
 63
     8
421
  8421504
 74
     1
 91
        4
 64
     7
 65
   257
 75
     1
175
     1
 42
1.0
 92
        8
 66
     8
424
  8421504
 43
1.0
 76
     1
 77
     6
 78
     2
 67
     7
 79
     5
170
     0
171
     0
290
     0
174
     0
 93
        1
 44
0.0
173
     0
291
     1
 45
0.0
  0
VISUALSTYLE
  5
34
102
{ACAD_REACTORS
330
2A
102
}
102
{ACAD_XDICTIONARY
360
21D
102
}
330
2A
100
AcDbVisualStyle
  2
Conceptual
 70
     9
 71
     3
 72
     2
 73
     0
 90
        0
 40
0.6
 41
30.0
 62
     5
 63
     7
421
 16777215
 74
     2
 91
        2
 64
     7
 65
   257
 75
     1
175
     1
 42
179.0
 92
        8
 66
     7
 43
1.0
 76
     1
 77
     6
 78
     2
 67
     7
 79
     3
170
     0
171
     0
290
     0
174
     0
 93
        1
 44
0.0
173
     0
291
     0
 45
0.0
  0
VISUALSTYLE
  5
35
102
{ACAD_REACTORS
330
2A
102
}
102
{ACAD_XDICTIONARY
360
21F
102
}
330
2A
100
AcDbVisualStyle
  2
Dim
 70
    11
 71
     2
 72
     2
 73
     0
 90
        0
 40
0.6
 41
30.0
 62
     5
 63
     7
421
 16777215
 74
     1
 91
        4
 64
     7
 65
   257
 75
     1
175
     1
 42
1.0
 92
        8
 66
     7
 43
1.0
 76
     1
 77
     6
 78
     2
 67
     7
 79
     5
170
     0
171
     0
290
     0
174
     0
 93
        1
 44
-50.0
173
     0
291
     1
 45
0.0
  0
VISUALSTYLE
  5
3D
102
{ACAD_REACTORS
330
2A
102
}
102
{ACAD_XDICTIONARY
360
22F
102
}
330
2A
100
AcDbVisualStyle
  2
EdgeColorOff
 70
    22
 71
     2
 72
     2
 73
     0
 90
        0
 40
0.6
 41
30.0
 62
     5
 63
     7
421
 16777215
 74
     1
 91
        4
 64
     7
 65
   257
 75
     1
175
     1
 42
1.0
 92
        8
 66
     7
 43
1.0
 76
     1
 77
     6
 78
     2
 67
     7
 79
     5
170
     0
171
     0
290
     0
174
     0
 93
        1
 44
0.0
173
     0
291
     1
 45
0.0
  0
VISUALSTYLE
  5
39
102
{ACAD_REACTORS
330
2A
102
}
102
{ACAD_XDICTIONARY
360
227
102
}
330
2A
100
AcDbVisualStyle
  2
Facepattern
 70
    15
 71
     2
 72
     2
 73
     0
 90
        0
 40
0.6
 41
30.0
 62
     5
 63
     7
421
 16777215
 74
     1
 91
        4
 64
     7
 65
   257
 75
     1
175
     1
 42
1.0
 92
        8
 66
     7
 43
1.0
 76
     1
 77
     6
 78
     2
 67
     7
 79
     5
170
     0
171
     0
290
     0
174
     0
 93
        1
 44
0.0
173
     0
291
     1
 45
0.0
  0
VISUALSTYLE
  5
2B
102
{ACAD_REACTORS
330
2A
102
}
102
{ACAD_XDICTIONARY
360
20B
102
}
330
2A
100
AcDbVisualStyle
  2
Flat
 70
     0
 71
     2
 72
     1
 73
     1
 90
        2
 40
0.6
 41
30.0
 62
     5
 63
     7
421
 16777215
 74
     0
 91
        0
 64
     7
 65
   257
 75
     1
175
     1
 42
1.0
 92
        8
 66
     7
 43
1.0
 76
     1
 77
     6
 78
     2
 67
     7
 79
     5
170
     0
171
     0
290
     0
174
     0
 93
       13
 44
0.0
173
     0
291
     1
 45
0.0
  0
VISUALSTYLE
  5
2C
102
{ACAD_REACTORS
330
2A
102
}
102
{ACAD_XDICTIONARY
360
20D
102
}
330
2A
100
AcDbVisualStyle
  2
FlatWithEdges
 70
     1
 71
     2
 72
     1
 73
     1
 90
        2
 40
0.6
 41
30.0
 62
     5
 63
     7
421
 16777215
 74
     1
 91
        0
 64
     7
 65
   257
 75
     1
175
     1
 42
1.0
 92
        0
 66
   257
 43
1.0
 76
     1
 77
     6
 78
     2
 67
     7
 79
     5
170
     0
171
     0
290
     0
174
     0
 93
       13
 44
0.0
173
     0
291
     1
 45
0.0
  0
VISUALSTYLE
  5
2D
102
{ACAD_REACTORS
330
2A
102
}
102
{ACAD_XDICTIONARY
360
20F
102
}
330
2A
100
AcDbVisualStyle
  2
Gouraud
 70
     2
 71
     2
 72
     2
 73
     1
 90
        2
 40
0.6
 41
30.0
 62
     5
 63
     7
421
 16777215
 74
     0
 91
        0
 64
     7
 65
   257
 75
     1
175
     1
 42
1.0
 92
        0
 66
     7
 43
1.0
 76
     1
 77
     6
 78
     2
 67
     7
 79
     5
170
     0
171
     0
290
     0
174
     0
 93
       13
 44
0.0
173
     0
291
     1
 45
0.0
  0
VISUALSTYLE
  5
2E
102
{ACAD_REACTORS
330
2A
102
}
102
{ACAD_XDICTIONARY
360
211
102
}
330
2A
100
AcDbVisualStyle
  2
GouraudWithEdges
 70
     3
 71
     2
 72
     2
 73
     1
 90
        2
 40
0.6
 41
30.0
 62
     5
 63
     7
421
 16777215
 74
     1
 91
        0
 64
     7
 65
   257
 75
     1
175
     1
 42
1.0
 92
        0
 66
   257
 43
1.0
 76
     1
 77
     6
 78
     2
 67
     7
 79
     5
170
     0
171
     0
290
     0
174
     0
 93
       13
 44
0.0
173
     0
291
     1
 45
0.0
  0
VISUALSTYLE
  5
31
102
{ACAD_REACTORS
330
2A
102
}
102
{ACAD_XDICTIONARY
360
217
102
}
330
2A
100
AcDbVisualStyle
  2
Hidden
 70
     6
 71
     1
 72
     2
 73
     2
 90
        0
 40
0.6
 41
30.0
 62
     5
 63
     7
421
 16777215
 74
     2
 91
        2
 64
     7
 65
   257
 75
     2
175
     1
 42
40.0
 92
        0
 66
   257
 43
1.0
 76
     1
 77
     6
 78
     2
 67
     7
 79
     3
170
     0
171
     0
290
     0
174
     0
 93
        1
 44
0.0
173
     0
291
     0
 45
0.0
  0
VISUALSTYLE
  5
3B
102
{ACAD_REACTORS
330
2A
102
}
102
{ACAD_XDICTIONARY
360
22B
102
}
330
2A
100
AcDbVisualStyle
  2
JitterOff
 70
    20
 71
     2
 72
     2
 73
     0
 90
        0
 40
0.6
 41
30.0
 62
     5
 63
     7
421
 16777215
 74
     1
 91
        4
 64
     7
 65
   257
 75
     1
175
     1
 42
1.0
 92
       10
 66
     7
 43
1.0
 76
     1
 77
     6
 78
     2
 67
     7
 79
     5
170
     0
171
     0
290
     0
174
     0
 93
        1
 44
0.0
173
     0
291
     1
 45
0.0
  0
VISUALSTYLE
  5
38
102
{ACAD_REACTORS
330
2A
102
}
102
{ACAD_XDICTIONARY
360
225
102
}
330
2A
100
AcDbVisualStyle
  2
Linepattern
 70
    14
 71
     2
 72
     2
 73
     0
 90
        0
 40
0.6
 41
30.0
 62
     5
 63
     7
421
 16777215
 74
     1
 91
        4
 64
     7
 65
   257
 75
     7
175
     7
 42
1.0
 92
        8
 66
     7
 43
1.0
 76
     1
 77
     6
 78
     2
 67
     7
 79
     5
170
     0
171
     0
290
     0
174
     0
 93
        1
 44
0.0
173
     0
291
     1
 45
0.0
  0
VISUALSTYLE
  5
3C
102
{ACAD_REACTORS
330
2A
102
}
102
{ACAD_XDICTIONARY
360
22D
102
}
330
2A
100
AcDbVisualStyle
  2
OverhangOff
 70
    21
 71
     2
 72
     2
 73
     0
 90
        0
 40
0.6
 41
30.0
 62
     5
 63
     7
421
 16777215
 74
     1
 91
        4
 64
     7
 65
   257
 75
     1
175
     1
 42
1.0
 92
        9
 66
     7
 43
1.0
 76
     1
 77
     6
 78
     2
 67
     7
 79
     5
170
     0
171
     0
290
     0
174
     0
 93
        1
 44
0.0
173
     0
291
     1
 45
0.0
  0
VISUALSTYLE
  5
33
102
{ACAD_REACTORS
330
2A
102
}
102
{ACAD_XDICTIONARY
360
21B
102
}
330
2A
100
AcDbVisualStyle
  2
Realistic
 70
     8
 71
     2
 72
     3
 73
     0
 90
        2
 40
0.6
 41
30.0
 62
     5
 63
     7
421
 16777215
 74
     0
 91
        0
 64
     7
 65
   257
 75
     1
175
     1
 42
1.0
 92
        8
 66
   257
 43
1.0
 76
     1
 77
     6
 78
     2
 67
     7
 79
     3
170
     0
171
     0
290
     0
174
     0
 93
       13
 44
0.0
173
     0
291
     0
 45
0.0
  0
VISUALSTYLE
  5
42
102
{ACAD_REACTORS
330
2A
102
}
102
{ACAD_XDICTIONARY
360
239
102
}
330
2A
100
AcDbVisualStyle
  2
Shaded
 70
    27
 71
     2
 72
     2
 73
     1
 90
        2
 40
0.6
 41
30.0
 62
     5
 63
     7
421
 16777215
 74
     0
 91
        4
 64
     7
 65
   257
 75
     1
175
     1
 42
1.0
 92
        8
 66
   257
 43
1.0
 76
     1
 77
     6
 78
     2
 67
     8
425
  7895160
 79
     3
170
     0
171
     0
290
     0
174
     0
 93
        5
 44
0.0
173
     0
291
     0
 45
0.0
  0
VISUALSTYLE
  5
41
102
{ACAD_REACTORS
330
2A
102
}
102
{ACAD_XDICTIONARY
360
237
102
}
330
2A
100
AcDbVisualStyle
  2
Shaded with edges
 70
    26
 71
     2
 72
     2
 73
     1
 90
        2
 40
0.6
 41
30.0
 62
     5
 63
     7
421
 16777215
 74
     1
 91
       10
 64
     7
 65
   257
 75
     2
175
     1
 42
1.0
 92
        8
 66
   257
 43
1.0
 76
     1
 77
     6
 78
     2
 67
     7
 79
     3
170
     0
171
     0
290
     0
174
     0
 93
        5
 44
0.0
173
     0
291
     0
 45
0.0
  0
VISUALSTYLE
  5
3E
102
{ACAD_REACTORS
330
2A
102
}
102
{ACAD_XDICTIONARY
360
231
102
}
330
2A
100
AcDbVisualStyle
  2
Shades of Gray
 70
    23
 71
     2
 72
     2
 73
     3
 90
        0
 40
0.6
 41
30.0
 62
     5
 63
     7
421
 16777215
 74
     2
 91
        2
 64
     7
 65
     7
 75
     1
175
     1
 42
40.0
 92
        8
 66
     7
 43
1.0
 76
     1
 77
     6
 78
     2
 67
     7
 79
     3
170
     0
171
     0
290
     0
174
     0
 93
        1
 44
0.0
173
     0
291
     0
 45
0.0
  0
VISUALSTYLE
  5
3F
102
{ACAD_REACTORS
330
2A
102
}
102
{ACAD_XDICTIONARY
360
233
102
}
330
2A
100
AcDbVisualStyle
  2
Sketchy
 70
    24
 71
     1
 72
     2
 73
     2
 90
        0
 40
0.6
 41
30.0
 62
     5
 63
     7
421
 16777215
 74
     2
 91
        2
 64
     7
 65
     7
 75
     1
175
     1
 42
40.0
 92
       11
 66
     7
 43
1.0
 76
     1
 77
     6
 78
     2
 67
     7
 79
     6
170
     0
171
     0
290
     0
174
     0
 93
        1
 44
0.0
173
     0
291
     0
 45
0.0
  0
VISUALSTYLE
  5
37
102
{ACAD_REACTORS
330
2A
102
}
102
{ACAD_XDICTIONARY
360
223
102
}
330
2A
100
AcDbVisualStyle
  2
Thicken
 70
    13
 71
     2
 72
     2
 73
     0
 90
        0
 40
0.6
 41
30.0
 62
     5
 63
     7
421
 16777215
 74
     1
 91
        4
 64
     7
 65
   257
 75
     1
175
     1
 42
1.0
 92
       12
 66
     7
 43
1.0
 76
     1
 77
     6
 78
     2
 67
     7
 79
     5
170
     0
171
     0
290
     0
174
     0
 93
        1
 44
0.0
173
     0
291
     1
 45
0.0
  0
VISUALSTYLE
  5
30
102
{ACAD_REACTORS
330
2A
102
}
102
{ACAD_XDICTIONARY
360
215
102
}
330
2A
100
AcDbVisualStyle
  2
Wireframe
 70
     5
 71
     0
 72
     2
 73
     0
 90
        0
 40
0.6
 41
30.0
 62
     5
 63
     7
421
 16777215
 74
     1
 91
        4
 64
     7
 65
   257
 75
     1
175
     1
 42
1.0
 92
        0
 66
   257
 43
1.0
 76
     1
 77
     6
 78
     2
 67
     7
 79
     3
170
     0
171
     0
290
     0
174
     0
 93
        1
 44
0.0
173
     0
291
     0
 45
0.0
  0
VISUALSTYLE
  5
40
102
{ACAD_REACTORS
330
2A
102
}
102
{ACAD_XDICTIONARY
360
235
102
}
330
2A
100
AcDbVisualStyle
  2
X-Ray
 70
    25
 71
     2
 72
     2
 73
     1
 90
        1
 40
0.5
 41
30.0
 62
     5
 63
     7
421
 16777215
 74
     1
 91
        0
 64
     7
 65
   257
 75
     1
175
     1
 42
1.0
 92
        8
 66
     7
 43
1.0
 76
     1
 77
     6
 78
     2
 67
     7
 79
     3
170
     0
171
     0
290
     0
174
     0
 93
       13
 44
0.0
173
     0
291
     0
 45
0.0
  0
DICTIONARYVAR
  5
209
102
{ACAD_REACTORS
330
208
102
}
330
208
100
DictionaryVariables
280
     0
  1
1:1
  0
DICTIONARYVAR
  5
242
102
{ACAD_REACTORS
330
208
102
}
330
208
100
DictionaryVariables
280
     0
  1
Standard
  0
DICTIONARYVAR
  5
241
102
{ACAD_REACTORS
330
208
102
}
330
208
100
DictionaryVariables
280
     0
  1
Standard
  0
DICTIONARYVAR
  5
20A
102
{ACAD_REACTORS
330
208
102
}
330
208
100
DictionaryVariables
280
     0
  1
2
  0
DICTIONARY
  5
23E
330
6C
100
AcDbDictionary
280
     1
281
     1
  3
ACAD_XREC_ROUNDTRIP
360
23F
  0
DICTIONARY
  5
23B
330
6A
100
AcDbDictionary
280
     1
281
     1
  3
ACAD_ROUNDTRIP_2008_TABLESTYLE_CELLSTYLEMAP
360
23C
  0
DICTIONARY
  5
213
330
2F
100
AcDbDictionary
280
     1
281
     1
  3
ACAD_XREC_ROUNDTRIP
360
214
  0
DICTIONARY
  5
219
330
32
100
AcDbDictionary
280
     1
281
     1
  3
ACAD_XREC_ROUNDTRIP
360
21A
  0
DICTIONARY
  5
221
330
36
100
AcDbDictionary
280
     1
281
     1
  3
ACAD_XREC_ROUNDTRIP
360
222
  0
DICTIONARY
  5
229
330
3A
100
AcDbDictionary
280
     1
281
     1
  3
ACAD_XREC_ROUNDTRIP
360
22A
  0
DICTIONARY
  5
21D
330
34
100
AcDbDictionary
280
     1
281
     1
  3
ACAD_XREC_ROUNDTRIP
360
21E
  0
DICTIONARY
  5
21F
330
35
100
AcDbDictionary
280
     1
281
     1
  3
ACAD_XREC_ROUNDTRIP
360
220
  0
DICTIONARY
  5
22F
330
3D
100
AcDbDictionary
280
     1
281
     1
  3
ACAD_XREC_ROUNDTRIP
360
230
  0
DICTIONARY
  5
227
330
39
100
AcDbDictionary
280
     1
281
     1
  3
ACAD_XREC_ROUNDTRIP
360
228
  0
DICTIONARY
  5
20B
330
2B
100
AcDbDictionary
280
     1
281
     1
  3
ACAD_XREC_ROUNDTRIP
360
20C
  0
DICTIONARY
  5
20D
330
2C
100
AcDbDictionary
280
     1
281
     1
  3
ACAD_XREC_ROUNDTRIP
360
20E
  0
DICTIONARY
  5
20F
330
2D
100
AcDbDictionary
280
     1
281
     1
  3
ACAD_XREC_ROUNDTRIP
360
210
  0
DICTIONARY
  5
211
330
2E
100
AcDbDictionary
280
     1
281
     1
  3
ACAD_XREC_ROUNDTRIP
360
212
  0
DICTIONARY
  5
217
330
31
100
AcDbDictionary
280
     1
281
     1
  3
ACAD_XREC_ROUNDTRIP
360
218
  0
DICTIONARY
  5
22B
330
3B
100
AcDbDictionary
280
     1
281
     1
  3
ACAD_XREC_ROUNDTRIP
360
22C
  0
DICTIONARY
  5
225
330
38
100
AcDbDictionary
280
     1
281
     1
  3
ACAD_XREC_ROUNDTRIP
360
226
  0
DICTIONARY
  5
22D
330
3C
100
AcDbDictionary
280
     1
281
     1
  3
ACAD_XREC_ROUNDTRIP
360
22E
  0
DICTIONARY
  5
21B
330
33
100
AcDbDictionary
280
     1
281
     1
  3
ACAD_XREC_ROUNDTRIP
360
21C
  0
DICTIONARY
  5
239
330
42
100
AcDbDictionary
280
     1
281
     1
  3
ACAD_XREC_ROUNDTRIP
360
23A
  0
DICTIONARY
  5
237
330
41
100
AcDbDictionary
280
     1
281
     1
  3
ACAD_XREC_ROUNDTRIP
360
238
  0
DICTIONARY
  5
231
330
3E
100
AcDbDictionary
280
     1
281
     1
  3
ACAD_XREC_ROUNDTRIP
360
232
  0
DICTIONARY
  5
233
330
3F
100
AcDbDictionary
280
     1
281
     1
  3
ACAD_XREC_ROUNDTRIP
360
234
  0
DICTIONARY
  5
223
330
37
100
AcDbDictionary
280
     1
281
     1
  3
ACAD_XREC_ROUNDTRIP
360
224
  0
DICTIONARY
  5
215
330
30
100
AcDbDictionary
280
     1
281
     1
  3
ACAD_XREC_ROUNDTRIP
360
216
  0
DICTIONARY
  5
235
330
40
100
AcDbDictionary
280
     1
281
     1
  3
ACAD_XREC_ROUNDTRIP
360
236
  0
XRECORD
  5
23F
102
{ACAD_REACTORS
330
23E
102
}
330
23E
100
AcDbXrecord
280
     1
102
ACAD_ROUNDTRIP_2010_MLEADER_STYLE
  0
CELLSTYLEMAP
  5
23C
102
{ACAD_REACTORS
330
23B
102
}
330
23B
100
AcDbCellStyleMap
 90
        3
300
CELLSTYLE
  1
TABLEFORMAT_BEGIN
 90
        5
170
     1
 91
        0
 92
    32768
 62
   257
 93
        1
300
CONTENTFORMAT
  1
CONTENTFORMAT_BEGIN
 90
        0
 91
        0
 92
        4
 93
        0
300

 40
0.0
140
1.0
 94
        5
 62
     0
340
11
144
6.0
309
CONTENTFORMAT_END
171
     1
301
MARGIN
  1
CELLMARGIN_BEGIN
 40
1.5
 40
1.5
 40
1.5
 40
1.5
 40
1.5
 40
1.5
309
CELLMARGIN_END
 94
        6
 95
        1
302
GRIDFORMAT
  1
GRIDFORMAT_BEGIN
 90
        0
 91
        1
 62
     0
 92
       -2
340
14
 93
        0
 40
0.045
309
GRIDFORMAT_END
 95
        2
302
GRIDFORMAT
  1
GRIDFORMAT_BEGIN
 90
        0
 91
        1
 62
     0
 92
       -2
340
14
 93
        0
 40
0.045
309
GRIDFORMAT_END
 95
        4
302
GRIDFORMAT
  1
GRIDFORMAT_BEGIN
 90
        0
 91
        1
 62
     0
 92
       -2
340
14
 93
        0
 40
0.045
309
GRIDFORMAT_END
 95
        8
302
GRIDFORMAT
  1
GRIDFORMAT_BEGIN
 90
        0
 91
        1
 62
     0
 92
       -2
340
14
 93
        0
 40
0.045
309
GRIDFORMAT_END
 95
       16
302
GRIDFORMAT
  1
GRIDFORMAT_BEGIN
 90
        0
 91
        1
 62
     0
 92
       -2
340
14
 93
        0
 40
0.045
309
GRIDFORMAT_END
 95
       32
302
GRIDFORMAT
  1
GRIDFORMAT_BEGIN
 90
        0
 91
        1
 62
     0
 92
       -2
340
14
 93
        0
 40
0.045
309
GRIDFORMAT_END
309
TABLEFORMAT_END
  1
CELLSTYLE_BEGIN
 90
        1
 91
        1
300
_TITLE
309
CELLSTYLE_END
300
CELLSTYLE
  1
TABLEFORMAT_BEGIN
 90
        5
170
     1
 91
        0
 92
        0
 62
   257
 93
        1
300
CONTENTFORMAT
  1
CONTENTFORMAT_BEGIN
 90
        0
 91
        0
 92
        4
 93
        0
300

 40
0.0
140
1.0
 94
        5
 62
     0
340
11
144
4.5
309
CONTENTFORMAT_END
171
     1
301
MARGIN
  1
CELLMARGIN_BEGIN
 40
1.5
 40
1.5
 40
1.5
 40
1.5
 40
1.5
 40
1.5
309
CELLMARGIN_END
 94
        6
 95
        1
302
GRIDFORMAT
  1
GRIDFORMAT_BEGIN
 90
        0
 91
        1
 62
     0
 92
       -2
340
14
 93
        0
 40
0.045
309
GRIDFORMAT_END
 95
        2
302
GRIDFORMAT
  1
GRIDFORMAT_BEGIN
 90
        0
 91
        1
 62
     0
 92
       -2
340
14
 93
        0
 40
0.045
309
GRIDFORMAT_END
 95
        4
302
GRIDFORMAT
  1
GRIDFORMAT_BEGIN
 90
        0
 91
        1
 62
     0
 92
       -2
340
14
 93
        0
 40
0.045
309
GRIDFORMAT_END
 95
        8
302
GRIDFORMAT
  1
GRIDFORMAT_BEGIN
 90
        0
 91
        1
 62
     0
 92
       -2
340
14
 93
        0
 40
0.045
309
GRIDFORMAT_END
 95
       16
302
GRIDFORMAT
  1
GRIDFORMAT_BEGIN
 90
        0
 91
        1
 62
     0
 92
       -2
340
14
 93
        0
 40
0.045
309
GRIDFORMAT_END
 95
       32
302
GRIDFORMAT
  1
GRIDFORMAT_BEGIN
 90
        0
 91
        1
 62
     0
 92
       -2
340
14
 93
        0
 40
0.045
309
GRIDFORMAT_END
309
TABLEFORMAT_END
  1
CELLSTYLE_BEGIN
 90
        2
 91
        1
300
_HEADER
309
CELLSTYLE_END
300
CELLSTYLE
  1
TABLEFORMAT_BEGIN
 90
        5
170
     1
 91
        0
 92
        0
 62
   257
 93
        1
300
CONTENTFORMAT
  1
CONTENTFORMAT_BEGIN
 90
        0
 91
        0
 92
        4
 93
        0
300

 40
0.0
140
1.0
 94
        2
 62
     0
340
11
144
4.5
309
CONTENTFORMAT_END
171
     1
301
MARGIN
  1
CELLMARGIN_BEGIN
 40
1.5
 40
1.5
 40
1.5
 40
1.5
 40
1.5
 40
1.5
309
CELLMARGIN_END
 94
        6
 95
        1
302
GRIDFORMAT
  1
GRIDFORMAT_BEGIN
 90
        0
 91
        1
 62
     0
 92
       -2
340
14
 93
        0
 40
0.045
309
GRIDFORMAT_END
 95
        2
302
GRIDFORMAT
  1
GRIDFORMAT_BEGIN
 90
        0
 91
        1
 62
     0
 92
       -2
340
14
 93
        0
 40
0.045
309
GRIDFORMAT_END
 95
        4
302
GRIDFORMAT
  1
GRIDFORMAT_BEGIN
 90
        0
 91
        1
 62
     0
 92
       -2
340
14
 93
        0
 40
0.045
309
GRIDFORMAT_END
 95
        8
302
GRIDFORMAT
  1
GRIDFORMAT_BEGIN
 90
        0
 91
        1
 62
     0
 92
       -2
340
14
 93
        0
 40
0.045
309
GRIDFORMAT_END
 95
       16
302
GRIDFORMAT
  1
GRIDFORMAT_BEGIN
 90
        0
 91
        1
 62
     0
 92
       -2
340
14
 93
        0
 40
0.045
309
GRIDFORMAT_END
 95
       32
302
GRIDFORMAT
  1
GRIDFORMAT_BEGIN
 90
        0
 91
        1
 62
     0
 92
       -2
340
14
 93
        0
 40
0.045
309
GRIDFORMAT_END
309
TABLEFORMAT_END
  1
CELLSTYLE_BEGIN
 90
        3
 91
        2
300
_DATA
309
CELLSTYLE_END
  0
XRECORD
  5
214
102
{ACAD_REACTORS
330
213
102
}
330
213
100
AcDbXrecord
280
     1
102
RTVSPropertyOp0
 70
     1
102
RTVSPropertyOp1
 70
     1
102
RTVSPropertyOp2
 70
     1
102
RTVSPropertyOp3
 70
     1
102
RTVSPropertyOp4
 70
     1
102
RTVSPropertyOp5
 70
     1
102
RTVSPropertyOp6
 70
     1
102
RTVSPropertyOp7
 70
     1
102
RTVSPropertyOp8
 70
     1
102
RTVSPropertyOp9
 70
     1
102
RTVSPropertyOp10
 70
     1
102
RTVSPropertyOp11
 70
     1
102
RTVSPropertyOp12
 70
     1
102
RTVSPropertyOp13
 70
     1
102
RTVSPropertyOp14
 70
     1
102
RTVSPropertyOp15
 70
     1
102
RTVSPropertyOp16
 70
     1
102
RTVSPropertyOp17
 70
     1
102
RTVSPropertyOp18
 70
     1
102
RTVSPropertyOp19
 70
     1
102
RTVSPropertyOp20
 70
     1
102
RTVSPropertyOp21
 70
     1
102
RTVSPropertyOp22
 70
     1
102
RTVSPropertyOp23
 70
     1
102
RTVSPropertyOp24
 70
     1
102
RTVSPropertyOp25
 70
     1
102
RTVSPropertyOp26
 70
     1
102
RTVSPropertyOp27
 70
     1
102
RTVSPropertyOp28
 70
     1
102
RTVSPropertyOp29
 70
     1
102
RTVSPropertyOp30
 70
     1
102
RTVSPropertyOp31
 70
     1
102
RTVSPropertyOp32
 70
     1
102
RTVSPropertyOp33
 70
     1
102
RTVSPropertyOp34
 70
     1
102
RTVSPropertyOp35
 70
     1
102
RTVSPropertyOp36
 70
     1
102
RTVSPropertyOp37
 70
     1
102
RTVSPropertyOp38
 70
     1
102
RTVSPropertyOp39
 70
     1
102
RTVSPropertyOp40
 70
     1
102
RTVSPropertyOp41
 70
     1
102
RTVSPropertyOp42
 70
     1
102
RTVSPropertyOp43
 70
     1
102
RTVSPropertyOp44
 70
     1
102
RTVSPropertyOp45
 70
     1
102
RTVSPropertyOp46
 70
     1
102
RTVSPropertyOp47
 70
     1
102
RTVSPropertyOp48
 70
     1
102
RTVSPropertyOp49
 70
     1
102
RTVSPropertyOp50
 70
     1
102
RTVSPropertyOp51
 70
     0
102
RTVSPropertyOp52
 70
     0
102
RTVSPropertyOp53
 70
     1
102
RTVSPropertyOp54
 70
     1
102
RTVSPropertyOp55
 70
     1
102
RTVSPropertyOp56
 70
     1
102
RTVSPropertyOp57
 70
     1
102
RTVSPost2010Prop28
280
     1
102
RTVSPost2010PropOp28
 70
     1
102
RTVSPost2010Prop29
280
     1
102
RTVSPost2010PropOp29
 70
     1
102
RTVSPost2010Prop30
280
     0
102
RTVSPost2010PropOp30
 70
     1
102
RTVSPost2010Prop31
280
     0
102
RTVSPost2010PropOp31
 70
     1
102
RTVSPost2010Prop32
280
     0
102
RTVSPost2010PropOp32
 70
     1
102
RTVSPost2010Prop33
280
     0
102
RTVSPost2010PropOp33
 70
     1
102
RTVSPost2010Prop34
280
     0
102
RTVSPost2010PropOp34
 70
     1
102
RTVSPost2010Prop35
280
     0
102
RTVSPost2010PropOp35
 70
     1
102
RTVSPost2010Prop36
280
     0
102
RTVSPost2010PropOp36
 70
     1
102
RTVSPost2010Prop37
 90
       50
102
RTVSPost2010PropOp37
 70
     1
102
RTVSPost2010Prop38
140
0.0
102
RTVSPost2010PropOp38
 70
     1
102
RTVSPost2010Prop39
140
1.0
102
RTVSPost2010PropOp39
 70
     1
102
RTVSPost2010Prop40
 90
        0
102
RTVSPost2010PropOp40
 70
     1
102
RTVSPost2010Prop41ColorIndex
 90
       18
102
RTVSPost2010Prop41ColorRGB
 90
        0
102
RTVSPost2010PropOp41
 70
     1
102
RTVSPost2010Prop42
 90
       50
102
RTVSPost2010PropOp42
 70
     1
102
RTVSPost2010Prop43
 90
        3
102
RTVSPost2010PropOp43
 70
     1
102
RTVSPost2010Prop44ColorIndex
 90
        5
102
RTVSPost2010Prop44ColorRGB
 90
      255
102
RTVSPost2010PropOp44
 70
     1
102
RTVSPost2010Prop45
280
     0
102
RTVSPost2010PropOp45
 70
     1
102
RTVSPost2010Prop46
 90
       50
102
RTVSPost2010PropOp46
 70
     1
102
RTVSPost2010Prop47
 90
       50
102
RTVSPost2010PropOp47
 70
     1
102
RTVSPost2010Prop48
 90
       50
102
RTVSPost2010PropOp48
 70
     1
102
RTVSPost2010Prop49
280
     0
102
RTVSPost2010PropOp49
 70
     1
102
RTVSPost2010Prop50
 90
       50
102
RTVSPost2010PropOp50
 70
     1
102
RTVSPost2010Prop51ColorIndex
 90
      256
102
RTVSPost2010Prop51ColorRGB
 90
-16777216
102
RTVSPost2010PropOp51
 70
     0
102
RTVSPost2010Prop52
140
1.0
102
RTVSPost2010PropOp52
 70
     0
102
RTVSPost2010Prop53
 90
        2
102
RTVSPost2010PropOp53
 70
     1
102
RTVSPost2010Prop54
  1
strokes_ogs.tif
102
RTVSPost2010PropOp54
 70
     1
102
RTVSPost2010Prop55
280
     0
102
RTVSPost2010PropOp55
 70
     1
102
RTVSPost2010Prop56
140
1.0
102
RTVSPost2010PropOp56
 70
     1
102
RTVSPost2010Prop57
140
1.0
102
RTVSPost2010PropOp57
 70
     1
  0
XRECORD
  5
21A
102
{ACAD_REACTORS
330
219
102
}
330
219
100
AcDbXrecord
280
     1
102
RTVSPropertyOp0
 70
     1
102
RTVSPropertyOp1
 70
     1
102
RTVSPropertyOp2
 70
     1
102
RTVSPropertyOp3
 70
     1
102
RTVSPropertyOp4
 70
     1
102
RTVSPropertyOp5
 70
     1
102
RTVSPropertyOp6
 70
     1
102
RTVSPropertyOp7
 70
     1
102
RTVSPropertyOp8
 70
     1
102
RTVSPropertyOp9
 70
     1
102
RTVSPropertyOp10
 70
     1
102
RTVSPropertyOp11
 70
     1
102
RTVSPropertyOp12
 70
     1
102
RTVSPropertyOp13
 70
     1
102
RTVSPropertyOp14
 70
     1
102
RTVSPropertyOp15
 70
     1
102
RTVSPropertyOp16
 70
     1
102
RTVSPropertyOp17
 70
     1
102
RTVSPropertyOp18
 70
     1
102
RTVSPropertyOp19
 70
     1
102
RTVSPropertyOp20
 70
     1
102
RTVSPropertyOp21
 70
     1
102
RTVSPropertyOp22
 70
     1
102
RTVSPropertyOp23
 70
     1
102
RTVSPropertyOp24
 70
     1
102
RTVSPropertyOp25
 70
     1
102
RTVSPropertyOp26
 70
     1
102
RTVSPropertyOp27
 70
     1
102
RTVSPropertyOp28
 70
     1
102
RTVSPropertyOp29
 70
     1
102
RTVSPropertyOp30
 70
     1
102
RTVSPropertyOp31
 70
     1
102
RTVSPropertyOp32
 70
     1
102
RTVSPropertyOp33
 70
     1
102
RTVSPropertyOp34
 70
     1
102
RTVSPropertyOp35
 70
     1
102
RTVSPropertyOp36
 70
     1
102
RTVSPropertyOp37
 70
     1
102
RTVSPropertyOp38
 70
     1
102
RTVSPropertyOp39
 70
     1
102
RTVSPropertyOp40
 70
     1
102
RTVSPropertyOp41
 70
     1
102
RTVSPropertyOp42
 70
     1
102
RTVSPropertyOp43
 70
     1
102
RTVSPropertyOp44
 70
     1
102
RTVSPropertyOp45
 70
     1
102
RTVSPropertyOp46
 70
     1
102
RTVSPropertyOp47
 70
     1
102
RTVSPropertyOp48
 70
     1
102
RTVSPropertyOp49
 70
     1
102
RTVSPropertyOp50
 70
     1
102
RTVSPropertyOp51
 70
     0
102
RTVSPropertyOp52
 70
     0
102
RTVSPropertyOp53
 70
     1
102
RTVSPropertyOp54
 70
     1
102
RTVSPropertyOp55
 70
     1
102
RTVSPropertyOp56
 70
     1
102
RTVSPropertyOp57
 70
     1
102
RTVSPost2010Prop28
280
     0
102
RTVSPost2010PropOp28
 70
     1
102
RTVSPost2010Prop29
280
     1
102
RTVSPost2010PropOp29
 70
     1
102
RTVSPost2010Prop30
280
     1
102
RTVSPost2010PropOp30
 70
     1
102
RTVSPost2010Prop31
280
     0
102
RTVSPost2010PropOp31
 70
     1
102
RTVSPost2010Prop32
280
     0
102
RTVSPost2010PropOp32
 70
     1
102
RTVSPost2010Prop33
280
     0
102
RTVSPost2010PropOp33
 70
     1
102
RTVSPost2010Prop34
280
     0
102
RTVSPost2010PropOp34
 70
     1
102
RTVSPost2010Prop35
280
     0
102
RTVSPost2010PropOp35
 70
     1
102
RTVSPost2010Prop36
280
     0
102
RTVSPost2010PropOp36
 70
     1
102
RTVSPost2010Prop37
 90
       50
102
RTVSPost2010PropOp37
 70
     1
102
RTVSPost2010Prop38
140
0.0
102
RTVSPost2010PropOp38
 70
     1
102
RTVSPost2010Prop39
140
1.0
102
RTVSPost2010PropOp39
 70
     1
102
RTVSPost2010Prop40
 90
        0
102
RTVSPost2010PropOp40
 70
     1
102
RTVSPost2010Prop41ColorIndex
 90
       18
102
RTVSPost2010Prop41ColorRGB
 90
        0
102
RTVSPost2010PropOp41
 70
     1
102
RTVSPost2010Prop42
 90
       50
102
RTVSPost2010PropOp42
 70
     1
102
RTVSPost2010Prop43
 90
        3
102
RTVSPost2010PropOp43
 70
     1
102
RTVSPost2010Prop44ColorIndex
 90
        5
102
RTVSPost2010Prop44ColorRGB
 90
      255
102
RTVSPost2010PropOp44
 70
     1
102
RTVSPost2010Prop45
280
     0
102
RTVSPost2010PropOp45
 70
     1
102
RTVSPost2010Prop46
 90
       50
102
RTVSPost2010PropOp46
 70
     1
102
RTVSPost2010Prop47
 90
       50
102
RTVSPost2010PropOp47
 70
     1
102
RTVSPost2010Prop48
 90
       50
102
RTVSPost2010PropOp48
 70
     1
102
RTVSPost2010Prop49
280
     0
102
RTVSPost2010PropOp49
 70
     1
102
RTVSPost2010Prop50
 90
       50
102
RTVSPost2010PropOp50
 70
     1
102
RTVSPost2010Prop51ColorIndex
 90
      256
102
RTVSPost2010Prop51ColorRGB
 90
-16777216
102
RTVSPost2010PropOp51
 70
     0
102
RTVSPost2010Prop52
140
1.0
102
RTVSPost2010PropOp52
 70
     0
102
RTVSPost2010Prop53
 90
        2
102
RTVSPost2010PropOp53
 70
     1
102
RTVSPost2010Prop54
  1
strokes_ogs.tif
102
RTVSPost2010PropOp54
 70
     1
102
RTVSPost2010Prop55
280
     0
102
RTVSPost2010PropOp55
 70
     1
102
RTVSPost2010Prop56
140
1.0
102
RTVSPost2010PropOp56
 70
     1
102
RTVSPost2010Prop57
140
1.0
102
RTVSPost2010PropOp57
 70
     1
  0
XRECORD
  5
222
102
{ACAD_REACTORS
330
221
102
}
330
221
100
AcDbXrecord
280
     1
102
RTVSPropertyOp0
 70
     1
102
RTVSPropertyOp1
 70
     1
102
RTVSPropertyOp2
 70
     1
102
RTVSPropertyOp3
 70
     1
102
RTVSPropertyOp4
 70
     1
102
RTVSPropertyOp5
 70
     1
102
RTVSPropertyOp6
 70
     1
102
RTVSPropertyOp7
 70
     1
102
RTVSPropertyOp8
 70
     1
102
RTVSPropertyOp9
 70
     1
102
RTVSPropertyOp10
 70
     1
102
RTVSPropertyOp11
 70
     1
102
RTVSPropertyOp12
 70
     1
102
RTVSPropertyOp13
 70
     1
102
RTVSPropertyOp14
 70
     1
102
RTVSPropertyOp15
 70
     1
102
RTVSPropertyOp16
 70
     1
102
RTVSPropertyOp17
 70
     1
102
RTVSPropertyOp18
 70
     1
102
RTVSPropertyOp19
 70
     1
102
RTVSPropertyOp20
 70
     1
102
RTVSPropertyOp21
 70
     1
102
RTVSPropertyOp22
 70
     1
102
RTVSPropertyOp23
 70
     1
102
RTVSPropertyOp24
 70
     1
102
RTVSPropertyOp25
 70
     1
102
RTVSPropertyOp26
 70
     1
102
RTVSPropertyOp27
 70
     1
102
RTVSPropertyOp28
 70
     1
102
RTVSPropertyOp29
 70
     1
102
RTVSPropertyOp30
 70
     1
102
RTVSPropertyOp31
 70
     1
102
RTVSPropertyOp32
 70
     1
102
RTVSPropertyOp33
 70
     1
102
RTVSPropertyOp34
 70
     1
102
RTVSPropertyOp35
 70
     1
102
RTVSPropertyOp36
 70
     1
102
RTVSPropertyOp37
 70
     1
102
RTVSPropertyOp38
 70
     1
102
RTVSPropertyOp39
 70
     1
102
RTVSPropertyOp40
 70
     1
102
RTVSPropertyOp41
 70
     1
102
RTVSPropertyOp42
 70
     1
102
RTVSPropertyOp43
 70
     1
102
RTVSPropertyOp44
 70
     1
102
RTVSPropertyOp45
 70
     1
102
RTVSPropertyOp46
 70
     1
102
RTVSPropertyOp47
 70
     1
102
RTVSPropertyOp48
 70
     1
102
RTVSPropertyOp49
 70
     1
102
RTVSPropertyOp50
 70
     1
102
RTVSPropertyOp51
 70
     0
102
RTVSPropertyOp52
 70
     0
102
RTVSPropertyOp53
 70
     1
102
RTVSPropertyOp54
 70
     1
102
RTVSPropertyOp55
 70
     1
102
RTVSPropertyOp56
 70
     1
102
RTVSPropertyOp57
 70
     1
102
RTVSPost2010Prop28
280
     0
102
RTVSPost2010PropOp28
 70
     1
102
RTVSPost2010Prop29
280
     1
102
RTVSPost2010PropOp29
 70
     1
102
RTVSPost2010Prop30
280
     1
102
RTVSPost2010PropOp30
 70
     1
102
RTVSPost2010Prop31
280
     0
102
RTVSPost2010PropOp31
 70
     1
102
RTVSPost2010Prop32
280
     0
102
RTVSPost2010PropOp32
 70
     1
102
RTVSPost2010Prop33
280
     0
102
RTVSPost2010PropOp33
 70
     1
102
RTVSPost2010Prop34
280
     0
102
RTVSPost2010PropOp34
 70
     1
102
RTVSPost2010Prop35
280
     0
102
RTVSPost2010PropOp35
 70
     1
102
RTVSPost2010Prop36
280
     0
102
RTVSPost2010PropOp36
 70
     1
102
RTVSPost2010Prop37
 90
       50
102
RTVSPost2010PropOp37
 70
     1
102
RTVSPost2010Prop38
140
0.0
102
RTVSPost2010PropOp38
 70
     1
102
RTVSPost2010Prop39
140
1.0
102
RTVSPost2010PropOp39
 70
     1
102
RTVSPost2010Prop40
 90
        0
102
RTVSPost2010PropOp40
 70
     1
102
RTVSPost2010Prop41ColorIndex
 90
       18
102
RTVSPost2010Prop41ColorRGB
 90
        0
102
RTVSPost2010PropOp41
 70
     1
102
RTVSPost2010Prop42
 90
       50
102
RTVSPost2010PropOp42
 70
     1
102
RTVSPost2010Prop43
 90
        3
102
RTVSPost2010PropOp43
 70
     1
102
RTVSPost2010Prop44ColorIndex
 90
        5
102
RTVSPost2010Prop44ColorRGB
 90
      255
102
RTVSPost2010PropOp44
 70
     1
102
RTVSPost2010Prop45
280
     0
102
RTVSPost2010PropOp45
 70
     1
102
RTVSPost2010Prop46
 90
       50
102
RTVSPost2010PropOp46
 70
     1
102
RTVSPost2010Prop47
 90
       50
102
RTVSPost2010PropOp47
 70
     1
102
RTVSPost2010Prop48
 90
       50
102
RTVSPost2010PropOp48
 70
     1
102
RTVSPost2010Prop49
280
     0
102
RTVSPost2010PropOp49
 70
     1
102
RTVSPost2010Prop50
 90
       50
102
RTVSPost2010PropOp50
 70
     1
102
RTVSPost2010Prop51ColorIndex
 90
      256
102
RTVSPost2010Prop51ColorRGB
 90
-16777216
102
RTVSPost2010PropOp51
 70
     0
102
RTVSPost2010Prop52
140
1.0
102
RTVSPost2010PropOp52
 70
     0
102
RTVSPost2010Prop53
 90
        2
102
RTVSPost2010PropOp53
 70
     1
102
RTVSPost2010Prop54
  1
strokes_ogs.tif
102
RTVSPost2010PropOp54
 70
     1
102
RTVSPost2010Prop55
280
     0
102
RTVSPost2010PropOp55
 70
     1
102
RTVSPost2010Prop56
140
1.0
102
RTVSPost2010PropOp56
 70
     1
102
RTVSPost2010Prop57
140
1.0
102
RTVSPost2010PropOp57
 70
     1
  0
XRECORD
  5
22A
102
{ACAD_REACTORS
330
229
102
}
330
229
100
AcDbXrecord
280
     1
102
RTVSPropertyOp0
 70
     1
102
RTVSPropertyOp1
 70
     1
102
RTVSPropertyOp2
 70
     1
102
RTVSPropertyOp3
 70
     1
102
RTVSPropertyOp4
 70
     1
102
RTVSPropertyOp5
 70
     1
102
RTVSPropertyOp6
 70
     1
102
RTVSPropertyOp7
 70
     1
102
RTVSPropertyOp8
 70
     1
102
RTVSPropertyOp9
 70
     1
102
RTVSPropertyOp10
 70
     1
102
RTVSPropertyOp11
 70
     1
102
RTVSPropertyOp12
 70
     1
102
RTVSPropertyOp13
 70
     1
102
RTVSPropertyOp14
 70
     1
102
RTVSPropertyOp15
 70
     1
102
RTVSPropertyOp16
 70
     1
102
RTVSPropertyOp17
 70
     1
102
RTVSPropertyOp18
 70
     1
102
RTVSPropertyOp19
 70
     1
102
RTVSPropertyOp20
 70
     1
102
RTVSPropertyOp21
 70
     1
102
RTVSPropertyOp22
 70
     1
102
RTVSPropertyOp23
 70
     1
102
RTVSPropertyOp24
 70
     1
102
RTVSPropertyOp25
 70
     1
102
RTVSPropertyOp26
 70
     1
102
RTVSPropertyOp27
 70
     1
102
RTVSPropertyOp28
 70
     1
102
RTVSPropertyOp29
 70
     1
102
RTVSPropertyOp30
 70
     1
102
RTVSPropertyOp31
 70
     1
102
RTVSPropertyOp32
 70
     1
102
RTVSPropertyOp33
 70
     1
102
RTVSPropertyOp34
 70
     1
102
RTVSPropertyOp35
 70
     1
102
RTVSPropertyOp36
 70
     1
102
RTVSPropertyOp37
 70
     1
102
RTVSPropertyOp38
 70
     1
102
RTVSPropertyOp39
 70
     1
102
RTVSPropertyOp40
 70
     1
102
RTVSPropertyOp41
 70
     1
102
RTVSPropertyOp42
 70
     1
102
RTVSPropertyOp43
 70
     1
102
RTVSPropertyOp44
 70
     1
102
RTVSPropertyOp45
 70
     1
102
RTVSPropertyOp46
 70
     1
102
RTVSPropertyOp47
 70
     1
102
RTVSPropertyOp48
 70
     1
102
RTVSPropertyOp49
 70
     1
102
RTVSPropertyOp50
 70
     1
102
RTVSPropertyOp51
 70
     0
102
RTVSPropertyOp52
 70
     0
102
RTVSPropertyOp53
 70
     1
102
RTVSPropertyOp54
 70
     1
102
RTVSPropertyOp55
 70
     1
102
RTVSPropertyOp56
 70
     1
102
RTVSPropertyOp57
 70
     1
102
RTVSPost2010Prop28
280
     0
102
RTVSPost2010PropOp28
 70
     1
102
RTVSPost2010Prop29
280
     1
102
RTVSPost2010PropOp29
 70
     1
102
RTVSPost2010Prop30
280
     1
102
RTVSPost2010PropOp30
 70
     1
102
RTVSPost2010Prop31
280
     0
102
RTVSPost2010PropOp31
 70
     1
102
RTVSPost2010Prop32
280
     0
102
RTVSPost2010PropOp32
 70
     1
102
RTVSPost2010Prop33
280
     0
102
RTVSPost2010PropOp33
 70
     1
102
RTVSPost2010Prop34
280
     0
102
RTVSPost2010PropOp34
 70
     1
102
RTVSPost2010Prop35
280
     0
102
RTVSPost2010PropOp35
 70
     1
102
RTVSPost2010Prop36
280
     0
102
RTVSPost2010PropOp36
 70
     1
102
RTVSPost2010Prop37
 90
       50
102
RTVSPost2010PropOp37
 70
     1
102
RTVSPost2010Prop38
140
0.0
102
RTVSPost2010PropOp38
 70
     1
102
RTVSPost2010Prop39
140
1.0
102
RTVSPost2010PropOp39
 70
     1
102
RTVSPost2010Prop40
 90
        0
102
RTVSPost2010PropOp40
 70
     1
102
RTVSPost2010Prop41ColorIndex
 90
       18
102
RTVSPost2010Prop41ColorRGB
 90
        0
102
RTVSPost2010PropOp41
 70
     1
102
RTVSPost2010Prop42
 90
       50
102
RTVSPost2010PropOp42
 70
     1
102
RTVSPost2010Prop43
 90
        3
102
RTVSPost2010PropOp43
 70
     1
102
RTVSPost2010Prop44ColorIndex
 90
        5
102
RTVSPost2010Prop44ColorRGB
 90
      255
102
RTVSPost2010PropOp44
 70
     1
102
RTVSPost2010Prop45
280
     0
102
RTVSPost2010PropOp45
 70
     1
102
RTVSPost2010Prop46
 90
       50
102
RTVSPost2010PropOp46
 70
     1
102
RTVSPost2010Prop47
 90
       50
102
RTVSPost2010PropOp47
 70
     1
102
RTVSPost2010Prop48
 90
       50
102
RTVSPost2010PropOp48
 70
     1
102
RTVSPost2010Prop49
280
     0
102
RTVSPost2010PropOp49
 70
     1
102
RTVSPost2010Prop50
 90
       50
102
RTVSPost2010PropOp50
 70
     1
102
RTVSPost2010Prop51ColorIndex
 90
      256
102
RTVSPost2010Prop51ColorRGB
 90
-16777216
102
RTVSPost2010PropOp51
 70
     0
102
RTVSPost2010Prop52
140
1.0
102
RTVSPost2010PropOp52
 70
     0
102
RTVSPost2010Prop53
 90
        2
102
RTVSPost2010PropOp53
 70
     1
102
RTVSPost2010Prop54
  1
strokes_ogs.tif
102
RTVSPost2010PropOp54
 70
     1
102
RTVSPost2010Prop55
280
     0
102
RTVSPost2010PropOp55
 70
     1
102
RTVSPost2010Prop56
140
1.0
102
RTVSPost2010PropOp56
 70
     1
102
RTVSPost2010Prop57
140
1.0
102
RTVSPost2010PropOp57
 70
     1
  0
XRECORD
  5
21E
102
{ACAD_REACTORS
330
21D
102
}
330
21D
100
AcDbXrecord
280
     1
102
RTVSPropertyOp0
 70
     1
102
RTVSPropertyOp1
 70
     1
102
RTVSPropertyOp2
 70
     1
102
RTVSPropertyOp3
 70
     1
102
RTVSPropertyOp4
 70
     1
102
RTVSPropertyOp5
 70
     1
102
RTVSPropertyOp6
 70
     1
102
RTVSPropertyOp7
 70
     1
102
RTVSPropertyOp8
 70
     1
102
RTVSPropertyOp9
 70
     1
102
RTVSPropertyOp10
 70
     1
102
RTVSPropertyOp11
 70
     1
102
RTVSPropertyOp12
 70
     1
102
RTVSPropertyOp13
 70
     1
102
RTVSPropertyOp14
 70
     1
102
RTVSPropertyOp15
 70
     1
102
RTVSPropertyOp16
 70
     1
102
RTVSPropertyOp17
 70
     1
102
RTVSPropertyOp18
 70
     1
102
RTVSPropertyOp19
 70
     1
102
RTVSPropertyOp20
 70
     1
102
RTVSPropertyOp21
 70
     1
102
RTVSPropertyOp22
 70
     1
102
RTVSPropertyOp23
 70
     1
102
RTVSPropertyOp24
 70
     1
102
RTVSPropertyOp25
 70
     1
102
RTVSPropertyOp26
 70
     1
102
RTVSPropertyOp27
 70
     1
102
RTVSPropertyOp28
 70
     1
102
RTVSPropertyOp29
 70
     1
102
RTVSPropertyOp30
 70
     1
102
RTVSPropertyOp31
 70
     1
102
RTVSPropertyOp32
 70
     1
102
RTVSPropertyOp33
 70
     1
102
RTVSPropertyOp34
 70
     1
102
RTVSPropertyOp35
 70
     1
102
RTVSPropertyOp36
 70
     1
102
RTVSPropertyOp37
 70
     1
102
RTVSPropertyOp38
 70
     1
102
RTVSPropertyOp39
 70
     1
102
RTVSPropertyOp40
 70
     1
102
RTVSPropertyOp41
 70
     1
102
RTVSPropertyOp42
 70
     1
102
RTVSPropertyOp43
 70
     1
102
RTVSPropertyOp44
 70
     1
102
RTVSPropertyOp45
 70
     1
102
RTVSPropertyOp46
 70
     1
102
RTVSPropertyOp47
 70
     1
102
RTVSPropertyOp48
 70
     1
102
RTVSPropertyOp49
 70
     1
102
RTVSPropertyOp50
 70
     1
102
RTVSPropertyOp51
 70
     0
102
RTVSPropertyOp52
 70
     0
102
RTVSPropertyOp53
 70
     1
102
RTVSPropertyOp54
 70
     1
102
RTVSPropertyOp55
 70
     1
102
RTVSPropertyOp56
 70
     1
102
RTVSPropertyOp57
 70
     1
102
RTVSPost2010Prop28
280
     0
102
RTVSPost2010PropOp28
 70
     1
102
RTVSPost2010Prop29
280
     1
102
RTVSPost2010PropOp29
 70
     1
102
RTVSPost2010Prop30
280
     1
102
RTVSPost2010PropOp30
 70
     1
102
RTVSPost2010Prop31
280
     0
102
RTVSPost2010PropOp31
 70
     1
102
RTVSPost2010Prop32
280
     0
102
RTVSPost2010PropOp32
 70
     1
102
RTVSPost2010Prop33
280
     0
102
RTVSPost2010PropOp33
 70
     1
102
RTVSPost2010Prop34
280
     0
102
RTVSPost2010PropOp34
 70
     1
102
RTVSPost2010Prop35
280
     0
102
RTVSPost2010PropOp35
 70
     1
102
RTVSPost2010Prop36
280
     0
102
RTVSPost2010PropOp36
 70
     1
102
RTVSPost2010Prop37
 90
       50
102
RTVSPost2010PropOp37
 70
     1
102
RTVSPost2010Prop38
140
0.0
102
RTVSPost2010PropOp38
 70
     1
102
RTVSPost2010Prop39
140
1.0
102
RTVSPost2010PropOp39
 70
     1
102
RTVSPost2010Prop40
 90
        0
102
RTVSPost2010PropOp40
 70
     1
102
RTVSPost2010Prop41ColorIndex
 90
       18
102
RTVSPost2010Prop41ColorRGB
 90
        0
102
RTVSPost2010PropOp41
 70
     1
102
RTVSPost2010Prop42
 90
       50
102
RTVSPost2010PropOp42
 70
     1
102
RTVSPost2010Prop43
 90
        3
102
RTVSPost2010PropOp43
 70
     1
102
RTVSPost2010Prop44ColorIndex
 90
        5
102
RTVSPost2010Prop44ColorRGB
 90
      255
102
RTVSPost2010PropOp44
 70
     1
102
RTVSPost2010Prop45
280
     0
102
RTVSPost2010PropOp45
 70
     1
102
RTVSPost2010Prop46
 90
       50
102
RTVSPost2010PropOp46
 70
     1
102
RTVSPost2010Prop47
 90
       50
102
RTVSPost2010PropOp47
 70
     1
102
RTVSPost2010Prop48
 90
       50
102
RTVSPost2010PropOp48
 70
     1
102
RTVSPost2010Prop49
280
     0
102
RTVSPost2010PropOp49
 70
     1
102
RTVSPost2010Prop50
 90
       50
102
RTVSPost2010PropOp50
 70
     1
102
RTVSPost2010Prop51ColorIndex
 90
      256
102
RTVSPost2010Prop51ColorRGB
 90
-16777216
102
RTVSPost2010PropOp51
 70
     0
102
RTVSPost2010Prop52
140
1.0
102
RTVSPost2010PropOp52
 70
     0
102
RTVSPost2010Prop53
 90
        2
102
RTVSPost2010PropOp53
 70
     1
102
RTVSPost2010Prop54
  1
strokes_ogs.tif
102
RTVSPost2010PropOp54
 70
     1
102
RTVSPost2010Prop55
280
     0
102
RTVSPost2010PropOp55
 70
     1
102
RTVSPost2010Prop56
140
1.0
102
RTVSPost2010PropOp56
 70
     1
102
RTVSPost2010Prop57
140
1.0
102
RTVSPost2010PropOp57
 70
     1
  0
XRECORD
  5
220
102
{ACAD_REACTORS
330
21F
102
}
330
21F
100
AcDbXrecord
280
     1
102
RTVSPropertyOp0
 70
     1
102
RTVSPropertyOp1
 70
     1
102
RTVSPropertyOp2
 70
     1
102
RTVSPropertyOp3
 70
     1
102
RTVSPropertyOp4
 70
     1
102
RTVSPropertyOp5
 70
     1
102
RTVSPropertyOp6
 70
     1
102
RTVSPropertyOp7
 70
     1
102
RTVSPropertyOp8
 70
     1
102
RTVSPropertyOp9
 70
     1
102
RTVSPropertyOp10
 70
     1
102
RTVSPropertyOp11
 70
     1
102
RTVSPropertyOp12
 70
     1
102
RTVSPropertyOp13
 70
     1
102
RTVSPropertyOp14
 70
     1
102
RTVSPropertyOp15
 70
     1
102
RTVSPropertyOp16
 70
     1
102
RTVSPropertyOp17
 70
     1
102
RTVSPropertyOp18
 70
     1
102
RTVSPropertyOp19
 70
     1
102
RTVSPropertyOp20
 70
     1
102
RTVSPropertyOp21
 70
     1
102
RTVSPropertyOp22
 70
     1
102
RTVSPropertyOp23
 70
     1
102
RTVSPropertyOp24
 70
     1
102
RTVSPropertyOp25
 70
     1
102
RTVSPropertyOp26
 70
     1
102
RTVSPropertyOp27
 70
     1
102
RTVSPropertyOp28
 70
     1
102
RTVSPropertyOp29
 70
     1
102
RTVSPropertyOp30
 70
     1
102
RTVSPropertyOp31
 70
     1
102
RTVSPropertyOp32
 70
     1
102
RTVSPropertyOp33
 70
     1
102
RTVSPropertyOp34
 70
     1
102
RTVSPropertyOp35
 70
     1
102
RTVSPropertyOp36
 70
     1
102
RTVSPropertyOp37
 70
     1
102
RTVSPropertyOp38
 70
     1
102
RTVSPropertyOp39
 70
     1
102
RTVSPropertyOp40
 70
     1
102
RTVSPropertyOp41
 70
     1
102
RTVSPropertyOp42
 70
     1
102
RTVSPropertyOp43
 70
     1
102
RTVSPropertyOp44
 70
     1
102
RTVSPropertyOp45
 70
     1
102
RTVSPropertyOp46
 70
     1
102
RTVSPropertyOp47
 70
     1
102
RTVSPropertyOp48
 70
     1
102
RTVSPropertyOp49
 70
     1
102
RTVSPropertyOp50
 70
     1
102
RTVSPropertyOp51
 70
     0
102
RTVSPropertyOp52
 70
     0
102
RTVSPropertyOp53
 70
     1
102
RTVSPropertyOp54
 70
     1
102
RTVSPropertyOp55
 70
     1
102
RTVSPropertyOp56
 70
     1
102
RTVSPropertyOp57
 70
     1
102
RTVSPost2010Prop28
280
     0
102
RTVSPost2010PropOp28
 70
     1
102
RTVSPost2010Prop29
280
     1
102
RTVSPost2010PropOp29
 70
     1
102
RTVSPost2010Prop30
280
     1
102
RTVSPost2010PropOp30
 70
     1
102
RTVSPost2010Prop31
280
     0
102
RTVSPost2010PropOp31
 70
     1
102
RTVSPost2010Prop32
280
     0
102
RTVSPost2010PropOp32
 70
     1
102
RTVSPost2010Prop33
280
     0
102
RTVSPost2010PropOp33
 70
     1
102
RTVSPost2010Prop34
280
     0
102
RTVSPost2010PropOp34
 70
     1
102
RTVSPost2010Prop35
280
     0
102
RTVSPost2010PropOp35
 70
     1
102
RTVSPost2010Prop36
280
     0
102
RTVSPost2010PropOp36
 70
     1
102
RTVSPost2010Prop37
 90
       50
102
RTVSPost2010PropOp37
 70
     1
102
RTVSPost2010Prop38
140
0.0
102
RTVSPost2010PropOp38
 70
     1
102
RTVSPost2010Prop39
140
1.0
102
RTVSPost2010PropOp39
 70
     1
102
RTVSPost2010Prop40
 90
        0
102
RTVSPost2010PropOp40
 70
     1
102
RTVSPost2010Prop41ColorIndex
 90
       18
102
RTVSPost2010Prop41ColorRGB
 90
        0
102
RTVSPost2010PropOp41
 70
     1
102
RTVSPost2010Prop42
 90
       50
102
RTVSPost2010PropOp42
 70
     1
102
RTVSPost2010Prop43
 90
        3
102
RTVSPost2010PropOp43
 70
     1
102
RTVSPost2010Prop44ColorIndex
 90
        5
102
RTVSPost2010Prop44ColorRGB
 90
      255
102
RTVSPost2010PropOp44
 70
     1
102
RTVSPost2010Prop45
280
     0
102
RTVSPost2010PropOp45
 70
     1
102
RTVSPost2010Prop46
 90
       50
102
RTVSPost2010PropOp46
 70
     1
102
RTVSPost2010Prop47
 90
       50
102
RTVSPost2010PropOp47
 70
     1
102
RTVSPost2010Prop48
 90
       50
102
RTVSPost2010PropOp48
 70
     1
102
RTVSPost2010Prop49
280
     0
102
RTVSPost2010PropOp49
 70
     1
102
RTVSPost2010Prop50
 90
       50
102
RTVSPost2010PropOp50
 70
     1
102
RTVSPost2010Prop51ColorIndex
 90
      256
102
RTVSPost2010Prop51ColorRGB
 90
-16777216
102
RTVSPost2010PropOp51
 70
     0
102
RTVSPost2010Prop52
140
1.0
102
RTVSPost2010PropOp52
 70
     0
102
RTVSPost2010Prop53
 90
        2
102
RTVSPost2010PropOp53
 70
     1
102
RTVSPost2010Prop54
  1
strokes_ogs.tif
102
RTVSPost2010PropOp54
 70
     1
102
RTVSPost2010Prop55
280
     0
102
RTVSPost2010PropOp55
 70
     1
102
RTVSPost2010Prop56
140
1.0
102
RTVSPost2010PropOp56
 70
     1
102
RTVSPost2010Prop57
140
1.0
102
RTVSPost2010PropOp57
 70
     1
  0
XRECORD
  5
230
102
{ACAD_REACTORS
330
22F
102
}
330
22F
100
AcDbXrecord
280
     1
102
RTVSPropertyOp0
 70
     0
102
RTVSPropertyOp1
 70
     0
102
RTVSPropertyOp2
 70
     0
102
RTVSPropertyOp3
 70
     0
102
RTVSPropertyOp4
 70
     0
102
RTVSPropertyOp5
 70
     0
102
RTVSPropertyOp6
 70
     0
102
RTVSPropertyOp7
 70
     0
102
RTVSPropertyOp8
 70
     0
102
RTVSPropertyOp9
 70
     0
102
RTVSPropertyOp10
 70
     0
102
RTVSPropertyOp11
 70
     0
102
RTVSPropertyOp12
 70
     0
102
RTVSPropertyOp13
 70
     0
102
RTVSPropertyOp14
 70
     2
102
RTVSPropertyOp15
 70
     0
102
RTVSPropertyOp16
 70
     0
102
RTVSPropertyOp17
 70
     0
102
RTVSPropertyOp18
 70
     0
102
RTVSPropertyOp19
 70
     0
102
RTVSPropertyOp20
 70
     0
102
RTVSPropertyOp21
 70
     0
102
RTVSPropertyOp22
 70
     0
102
RTVSPropertyOp23
 70
     0
102
RTVSPropertyOp24
 70
     0
102
RTVSPropertyOp25
 70
     0
102
RTVSPropertyOp26
 70
     0
102
RTVSPropertyOp27
 70
     0
102
RTVSPropertyOp28
 70
     0
102
RTVSPropertyOp29
 70
     0
102
RTVSPropertyOp30
 70
     0
102
RTVSPropertyOp31
 70
     0
102
RTVSPropertyOp32
 70
     0
102
RTVSPropertyOp33
 70
     0
102
RTVSPropertyOp34
 70
     0
102
RTVSPropertyOp35
 70
     0
102
RTVSPropertyOp36
 70
     0
102
RTVSPropertyOp37
 70
     0
102
RTVSPropertyOp38
 70
     0
102
RTVSPropertyOp39
 70
     0
102
RTVSPropertyOp40
 70
     0
102
RTVSPropertyOp41
 70
     0
102
RTVSPropertyOp42
 70
     0
102
RTVSPropertyOp43
 70
     0
102
RTVSPropertyOp44
 70
     0
102
RTVSPropertyOp45
 70
     0
102
RTVSPropertyOp46
 70
     0
102
RTVSPropertyOp47
 70
     0
102
RTVSPropertyOp48
 70
     0
102
RTVSPropertyOp49
 70
     0
102
RTVSPropertyOp50
 70
     0
102
RTVSPropertyOp51
 70
     0
102
RTVSPropertyOp52
 70
     0
102
RTVSPropertyOp53
 70
     0
102
RTVSPropertyOp54
 70
     0
102
RTVSPropertyOp55
 70
     0
102
RTVSPropertyOp56
 70
     0
102
RTVSPropertyOp57
 70
     0
102
RTVSPost2010Prop28
280
     0
102
RTVSPost2010PropOp28
 70
     0
102
RTVSPost2010Prop29
280
     1
102
RTVSPost2010PropOp29
 70
     0
102
RTVSPost2010Prop30
280
     1
102
RTVSPost2010PropOp30
 70
     0
102
RTVSPost2010Prop31
280
     0
102
RTVSPost2010PropOp31
 70
     0
102
RTVSPost2010Prop32
280
     0
102
RTVSPost2010PropOp32
 70
     0
102
RTVSPost2010Prop33
280
     0
102
RTVSPost2010PropOp33
 70
     0
102
RTVSPost2010Prop34
280
     0
102
RTVSPost2010PropOp34
 70
     0
102
RTVSPost2010Prop35
280
     0
102
RTVSPost2010PropOp35
 70
     0
102
RTVSPost2010Prop36
280
     0
102
RTVSPost2010PropOp36
 70
     0
102
RTVSPost2010Prop37
 90
       50
102
RTVSPost2010PropOp37
 70
     0
102
RTVSPost2010Prop38
140
0.0
102
RTVSPost2010PropOp38
 70
     0
102
RTVSPost2010Prop39
140
1.0
102
RTVSPost2010PropOp39
 70
     0
102
RTVSPost2010Prop40
 90
        0
102
RTVSPost2010PropOp40
 70
     0
102
RTVSPost2010Prop41ColorIndex
 90
       18
102
RTVSPost2010Prop41ColorRGB
 90
        0
102
RTVSPost2010PropOp41
 70
     0
102
RTVSPost2010Prop42
 90
       50
102
RTVSPost2010PropOp42
 70
     0
102
RTVSPost2010Prop43
 90
        3
102
RTVSPost2010PropOp43
 70
     0
102
RTVSPost2010Prop44ColorIndex
 90
        5
102
RTVSPost2010Prop44ColorRGB
 90
      255
102
RTVSPost2010PropOp44
 70
     0
102
RTVSPost2010Prop45
280
     0
102
RTVSPost2010PropOp45
 70
     0
102
RTVSPost2010Prop46
 90
       50
102
RTVSPost2010PropOp46
 70
     0
102
RTVSPost2010Prop47
 90
       50
102
RTVSPost2010PropOp47
 70
     0
102
RTVSPost2010Prop48
 90
       50
102
RTVSPost2010PropOp48
 70
     0
102
RTVSPost2010Prop49
280
     0
102
RTVSPost2010PropOp49
 70
     0
102
RTVSPost2010Prop50
 90
       50
102
RTVSPost2010PropOp50
 70
     0
102
RTVSPost2010Prop51ColorIndex
 90
      256
102
RTVSPost2010Prop51ColorRGB
 90
-16777216
102
RTVSPost2010PropOp51
 70
     0
102
RTVSPost2010Prop52
140
1.0
102
RTVSPost2010PropOp52
 70
     0
102
RTVSPost2010Prop53
 90
        2
102
RTVSPost2010PropOp53
 70
     0
102
RTVSPost2010Prop54
  1
strokes_ogs.tif
102
RTVSPost2010PropOp54
 70
     0
102
RTVSPost2010Prop55
280
     0
102
RTVSPost2010PropOp55
 70
     0
102
RTVSPost2010Prop56
140
1.0
102
RTVSPost2010PropOp56
 70
     0
102
RTVSPost2010Prop57
140
1.0
102
RTVSPost2010PropOp57
 70
     0
  0
XRECORD
  5
228
102
{ACAD_REACTORS
330
227
102
}
330
227
100
AcDbXrecord
280
     1
102
RTVSPropertyOp0
 70
     1
102
RTVSPropertyOp1
 70
     1
102
RTVSPropertyOp2
 70
     1
102
RTVSPropertyOp3
 70
     1
102
RTVSPropertyOp4
 70
     1
102
RTVSPropertyOp5
 70
     1
102
RTVSPropertyOp6
 70
     1
102
RTVSPropertyOp7
 70
     1
102
RTVSPropertyOp8
 70
     1
102
RTVSPropertyOp9
 70
     1
102
RTVSPropertyOp10
 70
     1
102
RTVSPropertyOp11
 70
     1
102
RTVSPropertyOp12
 70
     1
102
RTVSPropertyOp13
 70
     1
102
RTVSPropertyOp14
 70
     1
102
RTVSPropertyOp15
 70
     1
102
RTVSPropertyOp16
 70
     1
102
RTVSPropertyOp17
 70
     1
102
RTVSPropertyOp18
 70
     1
102
RTVSPropertyOp19
 70
     1
102
RTVSPropertyOp20
 70
     1
102
RTVSPropertyOp21
 70
     1
102
RTVSPropertyOp22
 70
     1
102
RTVSPropertyOp23
 70
     1
102
RTVSPropertyOp24
 70
     1
102
RTVSPropertyOp25
 70
     1
102
RTVSPropertyOp26
 70
     1
102
RTVSPropertyOp27
 70
     1
102
RTVSPropertyOp28
 70
     1
102
RTVSPropertyOp29
 70
     1
102
RTVSPropertyOp30
 70
     1
102
RTVSPropertyOp31
 70
     1
102
RTVSPropertyOp32
 70
     1
102
RTVSPropertyOp33
 70
     1
102
RTVSPropertyOp34
 70
     1
102
RTVSPropertyOp35
 70
     1
102
RTVSPropertyOp36
 70
     1
102
RTVSPropertyOp37
 70
     1
102
RTVSPropertyOp38
 70
     1
102
RTVSPropertyOp39
 70
     1
102
RTVSPropertyOp40
 70
     1
102
RTVSPropertyOp41
 70
     1
102
RTVSPropertyOp42
 70
     1
102
RTVSPropertyOp43
 70
     1
102
RTVSPropertyOp44
 70
     1
102
RTVSPropertyOp45
 70
     1
102
RTVSPropertyOp46
 70
     1
102
RTVSPropertyOp47
 70
     1
102
RTVSPropertyOp48
 70
     1
102
RTVSPropertyOp49
 70
     1
102
RTVSPropertyOp50
 70
     1
102
RTVSPropertyOp51
 70
     0
102
RTVSPropertyOp52
 70
     0
102
RTVSPropertyOp53
 70
     1
102
RTVSPropertyOp54
 70
     1
102
RTVSPropertyOp55
 70
     1
102
RTVSPropertyOp56
 70
     1
102
RTVSPropertyOp57
 70
     1
102
RTVSPost2010Prop28
280
     0
102
RTVSPost2010PropOp28
 70
     1
102
RTVSPost2010Prop29
280
     1
102
RTVSPost2010PropOp29
 70
     1
102
RTVSPost2010Prop30
280
     1
102
RTVSPost2010PropOp30
 70
     1
102
RTVSPost2010Prop31
280
     0
102
RTVSPost2010PropOp31
 70
     1
102
RTVSPost2010Prop32
280
     0
102
RTVSPost2010PropOp32
 70
     1
102
RTVSPost2010Prop33
280
     0
102
RTVSPost2010PropOp33
 70
     1
102
RTVSPost2010Prop34
280
     0
102
RTVSPost2010PropOp34
 70
     1
102
RTVSPost2010Prop35
280
     0
102
RTVSPost2010PropOp35
 70
     1
102
RTVSPost2010Prop36
280
     0
102
RTVSPost2010PropOp36
 70
     1
102
RTVSPost2010Prop37
 90
       50
102
RTVSPost2010PropOp37
 70
     1
102
RTVSPost2010Prop38
140
0.0
102
RTVSPost2010PropOp38
 70
     1
102
RTVSPost2010Prop39
140
1.0
102
RTVSPost2010PropOp39
 70
     1
102
RTVSPost2010Prop40
 90
        0
102
RTVSPost2010PropOp40
 70
     1
102
RTVSPost2010Prop41ColorIndex
 90
       18
102
RTVSPost2010Prop41ColorRGB
 90
        0
102
RTVSPost2010PropOp41
 70
     1
102
RTVSPost2010Prop42
 90
       50
102
RTVSPost2010PropOp42
 70
     1
102
RTVSPost2010Prop43
 90
        3
102
RTVSPost2010PropOp43
 70
     1
102
RTVSPost2010Prop44ColorIndex
 90
        5
102
RTVSPost2010Prop44ColorRGB
 90
      255
102
RTVSPost2010PropOp44
 70
     1
102
RTVSPost2010Prop45
280
     0
102
RTVSPost2010PropOp45
 70
     1
102
RTVSPost2010Prop46
 90
       50
102
RTVSPost2010PropOp46
 70
     1
102
RTVSPost2010Prop47
 90
       50
102
RTVSPost2010PropOp47
 70
     1
102
RTVSPost2010Prop48
 90
       50
102
RTVSPost2010PropOp48
 70
     1
102
RTVSPost2010Prop49
280
     0
102
RTVSPost2010PropOp49
 70
     1
102
RTVSPost2010Prop50
 90
       50
102
RTVSPost2010PropOp50
 70
     1
102
RTVSPost2010Prop51ColorIndex
 90
      256
102
RTVSPost2010Prop51ColorRGB
 90
-16777216
102
RTVSPost2010PropOp51
 70
     0
102
RTVSPost2010Prop52
140
1.0
102
RTVSPost2010PropOp52
 70
     0
102
RTVSPost2010Prop53
 90
        2
102
RTVSPost2010PropOp53
 70
     1
102
RTVSPost2010Prop54
  1
strokes_ogs.tif
102
RTVSPost2010PropOp54
 70
     1
102
RTVSPost2010Prop55
280
     0
102
RTVSPost2010PropOp55
 70
     1
102
RTVSPost2010Prop56
140
1.0
102
RTVSPost2010PropOp56
 70
     1
102
RTVSPost2010Prop57
140
1.0
102
RTVSPost2010PropOp57
 70
     1
  0
XRECORD
  5
20C
102
{ACAD_REACTORS
330
20B
102
}
330
20B
100
AcDbXrecord
280
     1
102
RTVSPropertyOp0
 70
     1
102
RTVSPropertyOp1
 70
     1
102
RTVSPropertyOp2
 70
     1
102
RTVSPropertyOp3
 70
     1
102
RTVSPropertyOp4
 70
     1
102
RTVSPropertyOp5
 70
     1
102
RTVSPropertyOp6
 70
     1
102
RTVSPropertyOp7
 70
     1
102
RTVSPropertyOp8
 70
     1
102
RTVSPropertyOp9
 70
     1
102
RTVSPropertyOp10
 70
     1
102
RTVSPropertyOp11
 70
     1
102
RTVSPropertyOp12
 70
     1
102
RTVSPropertyOp13
 70
     1
102
RTVSPropertyOp14
 70
     1
102
RTVSPropertyOp15
 70
     1
102
RTVSPropertyOp16
 70
     1
102
RTVSPropertyOp17
 70
     1
102
RTVSPropertyOp18
 70
     1
102
RTVSPropertyOp19
 70
     1
102
RTVSPropertyOp20
 70
     1
102
RTVSPropertyOp21
 70
     1
102
RTVSPropertyOp22
 70
     1
102
RTVSPropertyOp23
 70
     1
102
RTVSPropertyOp24
 70
     1
102
RTVSPropertyOp25
 70
     1
102
RTVSPropertyOp26
 70
     1
102
RTVSPropertyOp27
 70
     1
102
RTVSPropertyOp28
 70
     1
102
RTVSPropertyOp29
 70
     1
102
RTVSPropertyOp30
 70
     1
102
RTVSPropertyOp31
 70
     1
102
RTVSPropertyOp32
 70
     1
102
RTVSPropertyOp33
 70
     1
102
RTVSPropertyOp34
 70
     1
102
RTVSPropertyOp35
 70
     1
102
RTVSPropertyOp36
 70
     1
102
RTVSPropertyOp37
 70
     1
102
RTVSPropertyOp38
 70
     1
102
RTVSPropertyOp39
 70
     1
102
RTVSPropertyOp40
 70
     1
102
RTVSPropertyOp41
 70
     1
102
RTVSPropertyOp42
 70
     1
102
RTVSPropertyOp43
 70
     1
102
RTVSPropertyOp44
 70
     1
102
RTVSPropertyOp45
 70
     1
102
RTVSPropertyOp46
 70
     1
102
RTVSPropertyOp47
 70
     1
102
RTVSPropertyOp48
 70
     1
102
RTVSPropertyOp49
 70
     1
102
RTVSPropertyOp50
 70
     1
102
RTVSPropertyOp51
 70
     0
102
RTVSPropertyOp52
 70
     0
102
RTVSPropertyOp53
 70
     1
102
RTVSPropertyOp54
 70
     1
102
RTVSPropertyOp55
 70
     1
102
RTVSPropertyOp56
 70
     1
102
RTVSPropertyOp57
 70
     1
102
RTVSPost2010Prop28
280
     0
102
RTVSPost2010PropOp28
 70
     1
102
RTVSPost2010Prop29
280
     1
102
RTVSPost2010PropOp29
 70
     1
102
RTVSPost2010Prop30
280
     1
102
RTVSPost2010PropOp30
 70
     1
102
RTVSPost2010Prop31
280
     0
102
RTVSPost2010PropOp31
 70
     1
102
RTVSPost2010Prop32
280
     0
102
RTVSPost2010PropOp32
 70
     1
102
RTVSPost2010Prop33
280
     0
102
RTVSPost2010PropOp33
 70
     1
102
RTVSPost2010Prop34
280
     0
102
RTVSPost2010PropOp34
 70
     1
102
RTVSPost2010Prop35
280
     0
102
RTVSPost2010PropOp35
 70
     1
102
RTVSPost2010Prop36
280
     0
102
RTVSPost2010PropOp36
 70
     1
102
RTVSPost2010Prop37
 90
       50
102
RTVSPost2010PropOp37
 70
     1
102
RTVSPost2010Prop38
140
0.0
102
RTVSPost2010PropOp38
 70
     1
102
RTVSPost2010Prop39
140
1.0
102
RTVSPost2010PropOp39
 70
     1
102
RTVSPost2010Prop40
 90
        0
102
RTVSPost2010PropOp40
 70
     1
102
RTVSPost2010Prop41ColorIndex
 90
       18
102
RTVSPost2010Prop41ColorRGB
 90
        0
102
RTVSPost2010PropOp41
 70
     1
102
RTVSPost2010Prop42
 90
       50
102
RTVSPost2010PropOp42
 70
     1
102
RTVSPost2010Prop43
 90
        3
102
RTVSPost2010PropOp43
 70
     1
102
RTVSPost2010Prop44ColorIndex
 90
        5
102
RTVSPost2010Prop44ColorRGB
 90
      255
102
RTVSPost2010PropOp44
 70
     1
102
RTVSPost2010Prop45
280
     0
102
RTVSPost2010PropOp45
 70
     1
102
RTVSPost2010Prop46
 90
       50
102
RTVSPost2010PropOp46
 70
     1
102
RTVSPost2010Prop47
 90
       50
102
RTVSPost2010PropOp47
 70
     1
102
RTVSPost2010Prop48
 90
       50
102
RTVSPost2010PropOp48
 70
     1
102
RTVSPost2010Prop49
280
     0
102
RTVSPost2010PropOp49
 70
     1
102
RTVSPost2010Prop50
 90
       50
102
RTVSPost2010PropOp50
 70
     1
102
RTVSPost2010Prop51ColorIndex
 90
      256
102
RTVSPost2010Prop51ColorRGB
 90
-16777216
102
RTVSPost2010PropOp51
 70
     0
102
RTVSPost2010Prop52
140
1.0
102
RTVSPost2010PropOp52
 70
     0
102
RTVSPost2010Prop53
 90
        2
102
RTVSPost2010PropOp53
 70
     1
102
RTVSPost2010Prop54
  1
strokes_ogs.tif
102
RTVSPost2010PropOp54
 70
     1
102
RTVSPost2010Prop55
280
     0
102
RTVSPost2010PropOp55
 70
     1
102
RTVSPost2010Prop56
140
1.0
102
RTVSPost2010PropOp56
 70
     1
102
RTVSPost2010Prop57
140
1.0
102
RTVSPost2010PropOp57
 70
     1
  0
XRECORD
  5
20E
102
{ACAD_REACTORS
330
20D
102
}
330
20D
100
AcDbXrecord
280
     1
102
RTVSPropertyOp0
 70
     1
102
RTVSPropertyOp1
 70
     1
102
RTVSPropertyOp2
 70
     1
102
RTVSPropertyOp3
 70
     1
102
RTVSPropertyOp4
 70
     1
102
RTVSPropertyOp5
 70
     1
102
RTVSPropertyOp6
 70
     1
102
RTVSPropertyOp7
 70
     1
102
RTVSPropertyOp8
 70
     1
102
RTVSPropertyOp9
 70
     1
102
RTVSPropertyOp10
 70
     1
102
RTVSPropertyOp11
 70
     1
102
RTVSPropertyOp12
 70
     1
102
RTVSPropertyOp13
 70
     1
102
RTVSPropertyOp14
 70
     1
102
RTVSPropertyOp15
 70
     1
102
RTVSPropertyOp16
 70
     1
102
RTVSPropertyOp17
 70
     1
102
RTVSPropertyOp18
 70
     1
102
RTVSPropertyOp19
 70
     1
102
RTVSPropertyOp20
 70
     1
102
RTVSPropertyOp21
 70
     1
102
RTVSPropertyOp22
 70
     1
102
RTVSPropertyOp23
 70
     1
102
RTVSPropertyOp24
 70
     1
102
RTVSPropertyOp25
 70
     1
102
RTVSPropertyOp26
 70
     1
102
RTVSPropertyOp27
 70
     1
102
RTVSPropertyOp28
 70
     1
102
RTVSPropertyOp29
 70
     1
102
RTVSPropertyOp30
 70
     1
102
RTVSPropertyOp31
 70
     1
102
RTVSPropertyOp32
 70
     1
102
RTVSPropertyOp33
 70
     1
102
RTVSPropertyOp34
 70
     1
102
RTVSPropertyOp35
 70
     1
102
RTVSPropertyOp36
 70
     1
102
RTVSPropertyOp37
 70
     1
102
RTVSPropertyOp38
 70
     1
102
RTVSPropertyOp39
 70
     1
102
RTVSPropertyOp40
 70
     1
102
RTVSPropertyOp41
 70
     1
102
RTVSPropertyOp42
 70
     1
102
RTVSPropertyOp43
 70
     1
102
RTVSPropertyOp44
 70
     1
102
RTVSPropertyOp45
 70
     1
102
RTVSPropertyOp46
 70
     1
102
RTVSPropertyOp47
 70
     1
102
RTVSPropertyOp48
 70
     1
102
RTVSPropertyOp49
 70
     1
102
RTVSPropertyOp50
 70
     1
102
RTVSPropertyOp51
 70
     0
102
RTVSPropertyOp52
 70
     0
102
RTVSPropertyOp53
 70
     1
102
RTVSPropertyOp54
 70
     1
102
RTVSPropertyOp55
 70
     1
102
RTVSPropertyOp56
 70
     1
102
RTVSPropertyOp57
 70
     1
102
RTVSPost2010Prop28
280
     0
102
RTVSPost2010PropOp28
 70
     1
102
RTVSPost2010Prop29
280
     1
102
RTVSPost2010PropOp29
 70
     1
102
RTVSPost2010Prop30
280
     1
102
RTVSPost2010PropOp30
 70
     1
102
RTVSPost2010Prop31
280
     0
102
RTVSPost2010PropOp31
 70
     1
102
RTVSPost2010Prop32
280
     0
102
RTVSPost2010PropOp32
 70
     1
102
RTVSPost2010Prop33
280
     0
102
RTVSPost2010PropOp33
 70
     1
102
RTVSPost2010Prop34
280
     0
102
RTVSPost2010PropOp34
 70
     1
102
RTVSPost2010Prop35
280
     0
102
RTVSPost2010PropOp35
 70
     1
102
RTVSPost2010Prop36
280
     0
102
RTVSPost2010PropOp36
 70
     1
102
RTVSPost2010Prop37
 90
       50
102
RTVSPost2010PropOp37
 70
     1
102
RTVSPost2010Prop38
140
0.0
102
RTVSPost2010PropOp38
 70
     1
102
RTVSPost2010Prop39
140
1.0
102
RTVSPost2010PropOp39
 70
     1
102
RTVSPost2010Prop40
 90
        0
102
RTVSPost2010PropOp40
 70
     1
102
RTVSPost2010Prop41ColorIndex
 90
       18
102
RTVSPost2010Prop41ColorRGB
 90
        0
102
RTVSPost2010PropOp41
 70
     1
102
RTVSPost2010Prop42
 90
       50
102
RTVSPost2010PropOp42
 70
     1
102
RTVSPost2010Prop43
 90
        3
102
RTVSPost2010PropOp43
 70
     1
102
RTVSPost2010Prop44ColorIndex
 90
        5
102
RTVSPost2010Prop44ColorRGB
 90
      255
102
RTVSPost2010PropOp44
 70
     1
102
RTVSPost2010Prop45
280
     0
102
RTVSPost2010PropOp45
 70
     1
102
RTVSPost2010Prop46
 90
       50
102
RTVSPost2010PropOp46
 70
     1
102
RTVSPost2010Prop47
 90
       50
102
RTVSPost2010PropOp47
 70
     1
102
RTVSPost2010Prop48
 90
       50
102
RTVSPost2010PropOp48
 70
     1
102
RTVSPost2010Prop49
280
     0
102
RTVSPost2010PropOp49
 70
     1
102
RTVSPost2010Prop50
 90
       50
102
RTVSPost2010PropOp50
 70
     1
102
RTVSPost2010Prop51ColorIndex
 90
      256
102
RTVSPost2010Prop51ColorRGB
 90
-16777216
102
RTVSPost2010PropOp51
 70
     0
102
RTVSPost2010Prop52
140
1.0
102
RTVSPost2010PropOp52
 70
     0
102
RTVSPost2010Prop53
 90
        2
102
RTVSPost2010PropOp53
 70
     1
102
RTVSPost2010Prop54
  1
strokes_ogs.tif
102
RTVSPost2010PropOp54
 70
     1
102
RTVSPost2010Prop55
280
     0
102
RTVSPost2010PropOp55
 70
     1
102
RTVSPost2010Prop56
140
1.0
102
RTVSPost2010PropOp56
 70
     1
102
RTVSPost2010Prop57
140
1.0
102
RTVSPost2010PropOp57
 70
     1
  0
XRECORD
  5
210
102
{ACAD_REACTORS
330
20F
102
}
330
20F
100
AcDbXrecord
280
     1
102
RTVSPropertyOp0
 70
     1
102
RTVSPropertyOp1
 70
     1
102
RTVSPropertyOp2
 70
     1
102
RTVSPropertyOp3
 70
     1
102
RTVSPropertyOp4
 70
     1
102
RTVSPropertyOp5
 70
     1
102
RTVSPropertyOp6
 70
     1
102
RTVSPropertyOp7
 70
     1
102
RTVSPropertyOp8
 70
     1
102
RTVSPropertyOp9
 70
     1
102
RTVSPropertyOp10
 70
     1
102
RTVSPropertyOp11
 70
     1
102
RTVSPropertyOp12
 70
     1
102
RTVSPropertyOp13
 70
     1
102
RTVSPropertyOp14
 70
     1
102
RTVSPropertyOp15
 70
     1
102
RTVSPropertyOp16
 70
     1
102
RTVSPropertyOp17
 70
     1
102
RTVSPropertyOp18
 70
     1
102
RTVSPropertyOp19
 70
     1
102
RTVSPropertyOp20
 70
     1
102
RTVSPropertyOp21
 70
     1
102
RTVSPropertyOp22
 70
     1
102
RTVSPropertyOp23
 70
     1
102
RTVSPropertyOp24
 70
     1
102
RTVSPropertyOp25
 70
     1
102
RTVSPropertyOp26
 70
     1
102
RTVSPropertyOp27
 70
     1
102
RTVSPropertyOp28
 70
     1
102
RTVSPropertyOp29
 70
     1
102
RTVSPropertyOp30
 70
     1
102
RTVSPropertyOp31
 70
     1
102
RTVSPropertyOp32
 70
     1
102
RTVSPropertyOp33
 70
     1
102
RTVSPropertyOp34
 70
     1
102
RTVSPropertyOp35
 70
     1
102
RTVSPropertyOp36
 70
     1
102
RTVSPropertyOp37
 70
     1
102
RTVSPropertyOp38
 70
     1
102
RTVSPropertyOp39
 70
     1
102
RTVSPropertyOp40
 70
     1
102
RTVSPropertyOp41
 70
     1
102
RTVSPropertyOp42
 70
     1
102
RTVSPropertyOp43
 70
     1
102
RTVSPropertyOp44
 70
     1
102
RTVSPropertyOp45
 70
     1
102
RTVSPropertyOp46
 70
     1
102
RTVSPropertyOp47
 70
     1
102
RTVSPropertyOp48
 70
     1
102
RTVSPropertyOp49
 70
     1
102
RTVSPropertyOp50
 70
     1
102
RTVSPropertyOp51
 70
     0
102
RTVSPropertyOp52
 70
     0
102
RTVSPropertyOp53
 70
     1
102
RTVSPropertyOp54
 70
     1
102
RTVSPropertyOp55
 70
     1
102
RTVSPropertyOp56
 70
     1
102
RTVSPropertyOp57
 70
     1
102
RTVSPost2010Prop28
280
     0
102
RTVSPost2010PropOp28
 70
     1
102
RTVSPost2010Prop29
280
     1
102
RTVSPost2010PropOp29
 70
     1
102
RTVSPost2010Prop30
280
     1
102
RTVSPost2010PropOp30
 70
     1
102
RTVSPost2010Prop31
280
     0
102
RTVSPost2010PropOp31
 70
     1
102
RTVSPost2010Prop32
280
     0
102
RTVSPost2010PropOp32
 70
     1
102
RTVSPost2010Prop33
280
     0
102
RTVSPost2010PropOp33
 70
     1
102
RTVSPost2010Prop34
280
     0
102
RTVSPost2010PropOp34
 70
     1
102
RTVSPost2010Prop35
280
     0
102
RTVSPost2010PropOp35
 70
     1
102
RTVSPost2010Prop36
280
     0
102
RTVSPost2010PropOp36
 70
     1
102
RTVSPost2010Prop37
 90
       50
102
RTVSPost2010PropOp37
 70
     1
102
RTVSPost2010Prop38
140
0.0
102
RTVSPost2010PropOp38
 70
     1
102
RTVSPost2010Prop39
140
1.0
102
RTVSPost2010PropOp39
 70
     1
102
RTVSPost2010Prop40
 90
        0
102
RTVSPost2010PropOp40
 70
     1
102
RTVSPost2010Prop41ColorIndex
 90
       18
102
RTVSPost2010Prop41ColorRGB
 90
        0
102
RTVSPost2010PropOp41
 70
     1
102
RTVSPost2010Prop42
 90
       50
102
RTVSPost2010PropOp42
 70
     1
102
RTVSPost2010Prop43
 90
        3
102
RTVSPost2010PropOp43
 70
     1
102
RTVSPost2010Prop44ColorIndex
 90
        5
102
RTVSPost2010Prop44ColorRGB
 90
      255
102
RTVSPost2010PropOp44
 70
     1
102
RTVSPost2010Prop45
280
     0
102
RTVSPost2010PropOp45
 70
     1
102
RTVSPost2010Prop46
 90
       50
102
RTVSPost2010PropOp46
 70
     1
102
RTVSPost2010Prop47
 90
       50
102
RTVSPost2010PropOp47
 70
     1
102
RTVSPost2010Prop48
 90
       50
102
RTVSPost2010PropOp48
 70
     1
102
RTVSPost2010Prop49
280
     0
102
RTVSPost2010PropOp49
 70
     1
102
RTVSPost2010Prop50
 90
       50
102
RTVSPost2010PropOp50
 70
     1
102
RTVSPost2010Prop51ColorIndex
 90
      256
102
RTVSPost2010Prop51ColorRGB
 90
-16777216
102
RTVSPost2010PropOp51
 70
     0
102
RTVSPost2010Prop52
140
1.0
102
RTVSPost2010PropOp52
 70
     0
102
RTVSPost2010Prop53
 90
        2
102
RTVSPost2010PropOp53
 70
     1
102
RTVSPost2010Prop54
  1
strokes_ogs.tif
102
RTVSPost2010PropOp54
 70
     1
102
RTVSPost2010Prop55
280
     0
102
RTVSPost2010PropOp55
 70
     1
102
RTVSPost2010Prop56
140
1.0
102
RTVSPost2010PropOp56
 70
     1
102
RTVSPost2010Prop57
140
1.0
102
RTVSPost2010PropOp57
 70
     1
  0
XRECORD
  5
212
102
{ACAD_REACTORS
330
211
102
}
330
211
100
AcDbXrecord
280
     1
102
RTVSPropertyOp0
 70
     1
102
RTVSPropertyOp1
 70
     1
102
RTVSPropertyOp2
 70
     1
102
RTVSPropertyOp3
 70
     1
102
RTVSPropertyOp4
 70
     1
102
RTVSPropertyOp5
 70
     1
102
RTVSPropertyOp6
 70
     1
102
RTVSPropertyOp7
 70
     1
102
RTVSPropertyOp8
 70
     1
102
RTVSPropertyOp9
 70
     1
102
RTVSPropertyOp10
 70
     1
102
RTVSPropertyOp11
 70
     1
102
RTVSPropertyOp12
 70
     1
102
RTVSPropertyOp13
 70
     1
102
RTVSPropertyOp14
 70
     1
102
RTVSPropertyOp15
 70
     1
102
RTVSPropertyOp16
 70
     1
102
RTVSPropertyOp17
 70
     1
102
RTVSPropertyOp18
 70
     1
102
RTVSPropertyOp19
 70
     1
102
RTVSPropertyOp20
 70
     1
102
RTVSPropertyOp21
 70
     1
102
RTVSPropertyOp22
 70
     1
102
RTVSPropertyOp23
 70
     1
102
RTVSPropertyOp24
 70
     1
102
RTVSPropertyOp25
 70
     1
102
RTVSPropertyOp26
 70
     1
102
RTVSPropertyOp27
 70
     1
102
RTVSPropertyOp28
 70
     1
102
RTVSPropertyOp29
 70
     1
102
RTVSPropertyOp30
 70
     1
102
RTVSPropertyOp31
 70
     1
102
RTVSPropertyOp32
 70
     1
102
RTVSPropertyOp33
 70
     1
102
RTVSPropertyOp34
 70
     1
102
RTVSPropertyOp35
 70
     1
102
RTVSPropertyOp36
 70
     1
102
RTVSPropertyOp37
 70
     1
102
RTVSPropertyOp38
 70
     1
102
RTVSPropertyOp39
 70
     1
102
RTVSPropertyOp40
 70
     1
102
RTVSPropertyOp41
 70
     1
102
RTVSPropertyOp42
 70
     1
102
RTVSPropertyOp43
 70
     1
102
RTVSPropertyOp44
 70
     1
102
RTVSPropertyOp45
 70
     1
102
RTVSPropertyOp46
 70
     1
102
RTVSPropertyOp47
 70
     1
102
RTVSPropertyOp48
 70
     1
102
RTVSPropertyOp49
 70
     1
102
RTVSPropertyOp50
 70
     1
102
RTVSPropertyOp51
 70
     0
102
RTVSPropertyOp52
 70
     0
102
RTVSPropertyOp53
 70
     1
102
RTVSPropertyOp54
 70
     1
102
RTVSPropertyOp55
 70
     1
102
RTVSPropertyOp56
 70
     1
102
RTVSPropertyOp57
 70
     1
102
RTVSPost2010Prop28
280
     0
102
RTVSPost2010PropOp28
 70
     1
102
RTVSPost2010Prop29
280
     1
102
RTVSPost2010PropOp29
 70
     1
102
RTVSPost2010Prop30
280
     1
102
RTVSPost2010PropOp30
 70
     1
102
RTVSPost2010Prop31
280
     0
102
RTVSPost2010PropOp31
 70
     1
102
RTVSPost2010Prop32
280
     0
102
RTVSPost2010PropOp32
 70
     1
102
RTVSPost2010Prop33
280
     0
102
RTVSPost2010PropOp33
 70
     1
102
RTVSPost2010Prop34
280
     0
102
RTVSPost2010PropOp34
 70
     1
102
RTVSPost2010Prop35
280
     0
102
RTVSPost2010PropOp35
 70
     1
102
RTVSPost2010Prop36
280
     0
102
RTVSPost2010PropOp36
 70
     1
102
RTVSPost2010Prop37
 90
       50
102
RTVSPost2010PropOp37
 70
     1
102
RTVSPost2010Prop38
140
0.0
102
RTVSPost2010PropOp38
 70
     1
102
RTVSPost2010Prop39
140
1.0
102
RTVSPost2010PropOp39
 70
     1
102
RTVSPost2010Prop40
 90
        0
102
RTVSPost2010PropOp40
 70
     1
102
RTVSPost2010Prop41ColorIndex
 90
       18
102
RTVSPost2010Prop41ColorRGB
 90
        0
102
RTVSPost2010PropOp41
 70
     1
102
RTVSPost2010Prop42
 90
       50
102
RTVSPost2010PropOp42
 70
     1
102
RTVSPost2010Prop43
 90
        3
102
RTVSPost2010PropOp43
 70
     1
102
RTVSPost2010Prop44ColorIndex
 90
        5
102
RTVSPost2010Prop44ColorRGB
 90
      255
102
RTVSPost2010PropOp44
 70
     1
102
RTVSPost2010Prop45
280
     0
102
RTVSPost2010PropOp45
 70
     1
102
RTVSPost2010Prop46
 90
       50
102
RTVSPost2010PropOp46
 70
     1
102
RTVSPost2010Prop47
 90
       50
102
RTVSPost2010PropOp47
 70
     1
102
RTVSPost2010Prop48
 90
       50
102
RTVSPost2010PropOp48
 70
     1
102
RTVSPost2010Prop49
280
     0
102
RTVSPost2010PropOp49
 70
     1
102
RTVSPost2010Prop50
 90
       50
102
RTVSPost2010PropOp50
 70
     1
102
RTVSPost2010Prop51ColorIndex
 90
      256
102
RTVSPost2010Prop51ColorRGB
 90
-16777216
102
RTVSPost2010PropOp51
 70
     0
102
RTVSPost2010Prop52
140
1.0
102
RTVSPost2010PropOp52
 70
     0
102
RTVSPost2010Prop53
 90
        2
102
RTVSPost2010PropOp53
 70
     1
102
RTVSPost2010Prop54
  1
strokes_ogs.tif
102
RTVSPost2010PropOp54
 70
     1
102
RTVSPost2010Prop55
280
     0
102
RTVSPost2010PropOp55
 70
     1
102
RTVSPost2010Prop56
140
1.0
102
RTVSPost2010PropOp56
 70
     1
102
RTVSPost2010Prop57
140
1.0
102
RTVSPost2010PropOp57
 70
     1
  0
XRECORD
  5
218
102
{ACAD_REACTORS
330
217
102
}
330
217
100
AcDbXrecord
280
     1
102
RTVSPropertyOp0
 70
     1
102
RTVSPropertyOp1
 70
     1
102
RTVSPropertyOp2
 70
     1
102
RTVSPropertyOp3
 70
     1
102
RTVSPropertyOp4
 70
     1
102
RTVSPropertyOp5
 70
     1
102
RTVSPropertyOp6
 70
     1
102
RTVSPropertyOp7
 70
     1
102
RTVSPropertyOp8
 70
     1
102
RTVSPropertyOp9
 70
     1
102
RTVSPropertyOp10
 70
     1
102
RTVSPropertyOp11
 70
     1
102
RTVSPropertyOp12
 70
     1
102
RTVSPropertyOp13
 70
     1
102
RTVSPropertyOp14
 70
     1
102
RTVSPropertyOp15
 70
     1
102
RTVSPropertyOp16
 70
     1
102
RTVSPropertyOp17
 70
     1
102
RTVSPropertyOp18
 70
     1
102
RTVSPropertyOp19
 70
     1
102
RTVSPropertyOp20
 70
     1
102
RTVSPropertyOp21
 70
     1
102
RTVSPropertyOp22
 70
     1
102
RTVSPropertyOp23
 70
     1
102
RTVSPropertyOp24
 70
     1
102
RTVSPropertyOp25
 70
     1
102
RTVSPropertyOp26
 70
     1
102
RTVSPropertyOp27
 70
     1
102
RTVSPropertyOp28
 70
     1
102
RTVSPropertyOp29
 70
     1
102
RTVSPropertyOp30
 70
     1
102
RTVSPropertyOp31
 70
     1
102
RTVSPropertyOp32
 70
     1
102
RTVSPropertyOp33
 70
     1
102
RTVSPropertyOp34
 70
     1
102
RTVSPropertyOp35
 70
     1
102
RTVSPropertyOp36
 70
     1
102
RTVSPropertyOp37
 70
     1
102
RTVSPropertyOp38
 70
     1
102
RTVSPropertyOp39
 70
     1
102
RTVSPropertyOp40
 70
     1
102
RTVSPropertyOp41
 70
     1
102
RTVSPropertyOp42
 70
     1
102
RTVSPropertyOp43
 70
     1
102
RTVSPropertyOp44
 70
     1
102
RTVSPropertyOp45
 70
     1
102
RTVSPropertyOp46
 70
     1
102
RTVSPropertyOp47
 70
     1
102
RTVSPropertyOp48
 70
     1
102
RTVSPropertyOp49
 70
     1
102
RTVSPropertyOp50
 70
     1
102
RTVSPropertyOp51
 70
     0
102
RTVSPropertyOp52
 70
     0
102
RTVSPropertyOp53
 70
     1
102
RTVSPropertyOp54
 70
     1
102
RTVSPropertyOp55
 70
     1
102
RTVSPropertyOp56
 70
     1
102
RTVSPropertyOp57
 70
     1
102
RTVSPost2010Prop28
280
     0
102
RTVSPost2010PropOp28
 70
     1
102
RTVSPost2010Prop29
280
     1
102
RTVSPost2010PropOp29
 70
     1
102
RTVSPost2010Prop30
280
     1
102
RTVSPost2010PropOp30
 70
     1
102
RTVSPost2010Prop31
280
     0
102
RTVSPost2010PropOp31
 70
     1
102
RTVSPost2010Prop32
280
     0
102
RTVSPost2010PropOp32
 70
     1
102
RTVSPost2010Prop33
280
     0
102
RTVSPost2010PropOp33
 70
     1
102
RTVSPost2010Prop34
280
     0
102
RTVSPost2010PropOp34
 70
     1
102
RTVSPost2010Prop35
280
     0
102
RTVSPost2010PropOp35
 70
     1
102
RTVSPost2010Prop36
280
     0
102
RTVSPost2010PropOp36
 70
     1
102
RTVSPost2010Prop37
 90
       50
102
RTVSPost2010PropOp37
 70
     1
102
RTVSPost2010Prop38
140
0.0
102
RTVSPost2010PropOp38
 70
     1
102
RTVSPost2010Prop39
140
1.0
102
RTVSPost2010PropOp39
 70
     1
102
RTVSPost2010Prop40
 90
        0
102
RTVSPost2010PropOp40
 70
     1
102
RTVSPost2010Prop41ColorIndex
 90
       18
102
RTVSPost2010Prop41ColorRGB
 90
        0
102
RTVSPost2010PropOp41
 70
     1
102
RTVSPost2010Prop42
 90
       50
102
RTVSPost2010PropOp42
 70
     1
102
RTVSPost2010Prop43
 90
        3
102
RTVSPost2010PropOp43
 70
     1
102
RTVSPost2010Prop44ColorIndex
 90
        5
102
RTVSPost2010Prop44ColorRGB
 90
      255
102
RTVSPost2010PropOp44
 70
     1
102
RTVSPost2010Prop45
280
     0
102
RTVSPost2010PropOp45
 70
     1
102
RTVSPost2010Prop46
 90
       50
102
RTVSPost2010PropOp46
 70
     1
102
RTVSPost2010Prop47
 90
       50
102
RTVSPost2010PropOp47
 70
     1
102
RTVSPost2010Prop48
 90
       50
102
RTVSPost2010PropOp48
 70
     1
102
RTVSPost2010Prop49
280
     0
102
RTVSPost2010PropOp49
 70
     1
102
RTVSPost2010Prop50
 90
       50
102
RTVSPost2010PropOp50
 70
     1
102
RTVSPost2010Prop51ColorIndex
 90
      256
102
RTVSPost2010Prop51ColorRGB
 90
-16777216
102
RTVSPost2010PropOp51
 70
     0
102
RTVSPost2010Prop52
140
1.0
102
RTVSPost2010PropOp52
 70
     0
102
RTVSPost2010Prop53
 90
        2
102
RTVSPost2010PropOp53
 70
     1
102
RTVSPost2010Prop54
  1
strokes_ogs.tif
102
RTVSPost2010PropOp54
 70
     1
102
RTVSPost2010Prop55
280
     0
102
RTVSPost2010PropOp55
 70
     1
102
RTVSPost2010Prop56
140
1.0
102
RTVSPost2010PropOp56
 70
     1
102
RTVSPost2010Prop57
140
1.0
102
RTVSPost2010PropOp57
 70
     1
  0
XRECORD
  5
22C
102
{ACAD_REACTORS
330
22B
102
}
330
22B
100
AcDbXrecord
280
     1
102
RTVSPropertyOp0
 70
     0
102
RTVSPropertyOp1
 70
     0
102
RTVSPropertyOp2
 70
     0
102
RTVSPropertyOp3
 70
     0
102
RTVSPropertyOp4
 70
     0
102
RTVSPropertyOp5
 70
     0
102
RTVSPropertyOp6
 70
     0
102
RTVSPropertyOp7
 70
     0
102
RTVSPropertyOp8
 70
     0
102
RTVSPropertyOp9
 70
     0
102
RTVSPropertyOp10
 70
     0
102
RTVSPropertyOp11
 70
     0
102
RTVSPropertyOp12
 70
     0
102
RTVSPropertyOp13
 70
     0
102
RTVSPropertyOp14
 70
     2
102
RTVSPropertyOp15
 70
     0
102
RTVSPropertyOp16
 70
     0
102
RTVSPropertyOp17
 70
     0
102
RTVSPropertyOp18
 70
     0
102
RTVSPropertyOp19
 70
     0
102
RTVSPropertyOp20
 70
     0
102
RTVSPropertyOp21
 70
     0
102
RTVSPropertyOp22
 70
     0
102
RTVSPropertyOp23
 70
     0
102
RTVSPropertyOp24
 70
     0
102
RTVSPropertyOp25
 70
     0
102
RTVSPropertyOp26
 70
     0
102
RTVSPropertyOp27
 70
     0
102
RTVSPropertyOp28
 70
     0
102
RTVSPropertyOp29
 70
     0
102
RTVSPropertyOp30
 70
     0
102
RTVSPropertyOp31
 70
     0
102
RTVSPropertyOp32
 70
     0
102
RTVSPropertyOp33
 70
     0
102
RTVSPropertyOp34
 70
     0
102
RTVSPropertyOp35
 70
     0
102
RTVSPropertyOp36
 70
     0
102
RTVSPropertyOp37
 70
     0
102
RTVSPropertyOp38
 70
     0
102
RTVSPropertyOp39
 70
     0
102
RTVSPropertyOp40
 70
     0
102
RTVSPropertyOp41
 70
     0
102
RTVSPropertyOp42
 70
     0
102
RTVSPropertyOp43
 70
     0
102
RTVSPropertyOp44
 70
     0
102
RTVSPropertyOp45
 70
     0
102
RTVSPropertyOp46
 70
     0
102
RTVSPropertyOp47
 70
     0
102
RTVSPropertyOp48
 70
     0
102
RTVSPropertyOp49
 70
     0
102
RTVSPropertyOp50
 70
     0
102
RTVSPropertyOp51
 70
     0
102
RTVSPropertyOp52
 70
     0
102
RTVSPropertyOp53
 70
     0
102
RTVSPropertyOp54
 70
     0
102
RTVSPropertyOp55
 70
     0
102
RTVSPropertyOp56
 70
     0
102
RTVSPropertyOp57
 70
     0
102
RTVSPost2010Prop28
280
     0
102
RTVSPost2010PropOp28
 70
     0
102
RTVSPost2010Prop29
280
     1
102
RTVSPost2010PropOp29
 70
     0
102
RTVSPost2010Prop30
280
     1
102
RTVSPost2010PropOp30
 70
     0
102
RTVSPost2010Prop31
280
     0
102
RTVSPost2010PropOp31
 70
     0
102
RTVSPost2010Prop32
280
     0
102
RTVSPost2010PropOp32
 70
     0
102
RTVSPost2010Prop33
280
     0
102
RTVSPost2010PropOp33
 70
     0
102
RTVSPost2010Prop34
280
     0
102
RTVSPost2010PropOp34
 70
     0
102
RTVSPost2010Prop35
280
     0
102
RTVSPost2010PropOp35
 70
     0
102
RTVSPost2010Prop36
280
     0
102
RTVSPost2010PropOp36
 70
     0
102
RTVSPost2010Prop37
 90
       50
102
RTVSPost2010PropOp37
 70
     0
102
RTVSPost2010Prop38
140
0.0
102
RTVSPost2010PropOp38
 70
     0
102
RTVSPost2010Prop39
140
1.0
102
RTVSPost2010PropOp39
 70
     0
102
RTVSPost2010Prop40
 90
        0
102
RTVSPost2010PropOp40
 70
     0
102
RTVSPost2010Prop41ColorIndex
 90
       18
102
RTVSPost2010Prop41ColorRGB
 90
        0
102
RTVSPost2010PropOp41
 70
     0
102
RTVSPost2010Prop42
 90
       50
102
RTVSPost2010PropOp42
 70
     0
102
RTVSPost2010Prop43
 90
        3
102
RTVSPost2010PropOp43
 70
     0
102
RTVSPost2010Prop44ColorIndex
 90
        5
102
RTVSPost2010Prop44ColorRGB
 90
      255
102
RTVSPost2010PropOp44
 70
     0
102
RTVSPost2010Prop45
280
     0
102
RTVSPost2010PropOp45
 70
     0
102
RTVSPost2010Prop46
 90
       50
102
RTVSPost2010PropOp46
 70
     0
102
RTVSPost2010Prop47
 90
       50
102
RTVSPost2010PropOp47
 70
     0
102
RTVSPost2010Prop48
 90
       50
102
RTVSPost2010PropOp48
 70
     0
102
RTVSPost2010Prop49
280
     0
102
RTVSPost2010PropOp49
 70
     0
102
RTVSPost2010Prop50
 90
       50
102
RTVSPost2010PropOp50
 70
     0
102
RTVSPost2010Prop51ColorIndex
 90
      256
102
RTVSPost2010Prop51ColorRGB
 90
-16777216
102
RTVSPost2010PropOp51
 70
     0
102
RTVSPost2010Prop52
140
1.0
102
RTVSPost2010PropOp52
 70
     0
102
RTVSPost2010Prop53
 90
        2
102
RTVSPost2010PropOp53
 70
     0
102
RTVSPost2010Prop54
  1
strokes_ogs.tif
102
RTVSPost2010PropOp54
 70
     0
102
RTVSPost2010Prop55
280
     0
102
RTVSPost2010PropOp55
 70
     0
102
RTVSPost2010Prop56
140
1.0
102
RTVSPost2010PropOp56
 70
     0
102
RTVSPost2010Prop57
140
1.0
102
RTVSPost2010PropOp57
 70
     0
  0
XRECORD
  5
226
102
{ACAD_REACTORS
330
225
102
}
330
225
100
AcDbXrecord
280
     1
102
RTVSPropertyOp0
 70
     1
102
RTVSPropertyOp1
 70
     1
102
RTVSPropertyOp2
 70
     1
102
RTVSPropertyOp3
 70
     1
102
RTVSPropertyOp4
 70
     1
102
RTVSPropertyOp5
 70
     1
102
RTVSPropertyOp6
 70
     1
102
RTVSPropertyOp7
 70
     1
102
RTVSPropertyOp8
 70
     1
102
RTVSPropertyOp9
 70
     1
102
RTVSPropertyOp10
 70
     1
102
RTVSPropertyOp11
 70
     1
102
RTVSPropertyOp12
 70
     1
102
RTVSPropertyOp13
 70
     1
102
RTVSPropertyOp14
 70
     1
102
RTVSPropertyOp15
 70
     1
102
RTVSPropertyOp16
 70
     1
102
RTVSPropertyOp17
 70
     1
102
RTVSPropertyOp18
 70
     1
102
RTVSPropertyOp19
 70
     1
102
RTVSPropertyOp20
 70
     1
102
RTVSPropertyOp21
 70
     1
102
RTVSPropertyOp22
 70
     1
102
RTVSPropertyOp23
 70
     1
102
RTVSPropertyOp24
 70
     1
102
RTVSPropertyOp25
 70
     1
102
RTVSPropertyOp26
 70
     1
102
RTVSPropertyOp27
 70
     1
102
RTVSPropertyOp28
 70
     1
102
RTVSPropertyOp29
 70
     1
102
RTVSPropertyOp30
 70
     1
102
RTVSPropertyOp31
 70
     1
102
RTVSPropertyOp32
 70
     1
102
RTVSPropertyOp33
 70
     1
102
RTVSPropertyOp34
 70
     1
102
RTVSPropertyOp35
 70
     1
102
RTVSPropertyOp36
 70
     1
102
RTVSPropertyOp37
 70
     1
102
RTVSPropertyOp38
 70
     1
102
RTVSPropertyOp39
 70
     1
102
RTVSPropertyOp40
 70
     1
102
RTVSPropertyOp41
 70
     1
102
RTVSPropertyOp42
 70
     1
102
RTVSPropertyOp43
 70
     1
102
RTVSPropertyOp44
 70
     1
102
RTVSPropertyOp45
 70
     1
102
RTVSPropertyOp46
 70
     1
102
RTVSPropertyOp47
 70
     1
102
RTVSPropertyOp48
 70
     1
102
RTVSPropertyOp49
 70
     1
102
RTVSPropertyOp50
 70
     1
102
RTVSPropertyOp51
 70
     0
102
RTVSPropertyOp52
 70
     0
102
RTVSPropertyOp53
 70
     1
102
RTVSPropertyOp54
 70
     1
102
RTVSPropertyOp55
 70
     1
102
RTVSPropertyOp56
 70
     1
102
RTVSPropertyOp57
 70
     1
102
RTVSPost2010Prop28
280
     0
102
RTVSPost2010PropOp28
 70
     1
102
RTVSPost2010Prop29
280
     1
102
RTVSPost2010PropOp29
 70
     1
102
RTVSPost2010Prop30
280
     1
102
RTVSPost2010PropOp30
 70
     1
102
RTVSPost2010Prop31
280
     0
102
RTVSPost2010PropOp31
 70
     1
102
RTVSPost2010Prop32
280
     0
102
RTVSPost2010PropOp32
 70
     1
102
RTVSPost2010Prop33
280
     0
102
RTVSPost2010PropOp33
 70
     1
102
RTVSPost2010Prop34
280
     0
102
RTVSPost2010PropOp34
 70
     1
102
RTVSPost2010Prop35
280
     0
102
RTVSPost2010PropOp35
 70
     1
102
RTVSPost2010Prop36
280
     0
102
RTVSPost2010PropOp36
 70
     1
102
RTVSPost2010Prop37
 90
       50
102
RTVSPost2010PropOp37
 70
     1
102
RTVSPost2010Prop38
140
0.0
102
RTVSPost2010PropOp38
 70
     1
102
RTVSPost2010Prop39
140
1.0
102
RTVSPost2010PropOp39
 70
     1
102
RTVSPost2010Prop40
 90
        0
102
RTVSPost2010PropOp40
 70
     1
102
RTVSPost2010Prop41ColorIndex
 90
       18
102
RTVSPost2010Prop41ColorRGB
 90
        0
102
RTVSPost2010PropOp41
 70
     1
102
RTVSPost2010Prop42
 90
       50
102
RTVSPost2010PropOp42
 70
     1
102
RTVSPost2010Prop43
 90
        3
102
RTVSPost2010PropOp43
 70
     1
102
RTVSPost2010Prop44ColorIndex
 90
        5
102
RTVSPost2010Prop44ColorRGB
 90
      255
102
RTVSPost2010PropOp44
 70
     1
102
RTVSPost2010Prop45
280
     0
102
RTVSPost2010PropOp45
 70
     1
102
RTVSPost2010Prop46
 90
       50
102
RTVSPost2010PropOp46
 70
     1
102
RTVSPost2010Prop47
 90
       50
102
RTVSPost2010PropOp47
 70
     1
102
RTVSPost2010Prop48
 90
       50
102
RTVSPost2010PropOp48
 70
     1
102
RTVSPost2010Prop49
280
     0
102
RTVSPost2010PropOp49
 70
     1
102
RTVSPost2010Prop50
 90
       50
102
RTVSPost2010PropOp50
 70
     1
102
RTVSPost2010Prop51ColorIndex
 90
      256
102
RTVSPost2010Prop51ColorRGB
 90
-16777216
102
RTVSPost2010PropOp51
 70
     0
102
RTVSPost2010Prop52
140
1.0
102
RTVSPost2010PropOp52
 70
     0
102
RTVSPost2010Prop53
 90
        2
102
RTVSPost2010PropOp53
 70
     1
102
RTVSPost2010Prop54
  1
strokes_ogs.tif
102
RTVSPost2010PropOp54
 70
     1
102
RTVSPost2010Prop55
280
     0
102
RTVSPost2010PropOp55
 70
     1
102
RTVSPost2010Prop56
140
1.0
102
RTVSPost2010PropOp56
 70
     1
102
RTVSPost2010Prop57
140
1.0
102
RTVSPost2010PropOp57
 70
     1
  0
XRECORD
  5
22E
102
{ACAD_REACTORS
330
22D
102
}
330
22D
100
AcDbXrecord
280
     1
102
RTVSPropertyOp0
 70
     0
102
RTVSPropertyOp1
 70
     0
102
RTVSPropertyOp2
 70
     0
102
RTVSPropertyOp3
 70
     0
102
RTVSPropertyOp4
 70
     0
102
RTVSPropertyOp5
 70
     0
102
RTVSPropertyOp6
 70
     0
102
RTVSPropertyOp7
 70
     0
102
RTVSPropertyOp8
 70
     0
102
RTVSPropertyOp9
 70
     0
102
RTVSPropertyOp10
 70
     0
102
RTVSPropertyOp11
 70
     0
102
RTVSPropertyOp12
 70
     0
102
RTVSPropertyOp13
 70
     0
102
RTVSPropertyOp14
 70
     2
102
RTVSPropertyOp15
 70
     0
102
RTVSPropertyOp16
 70
     0
102
RTVSPropertyOp17
 70
     0
102
RTVSPropertyOp18
 70
     0
102
RTVSPropertyOp19
 70
     0
102
RTVSPropertyOp20
 70
     0
102
RTVSPropertyOp21
 70
     0
102
RTVSPropertyOp22
 70
     0
102
RTVSPropertyOp23
 70
     0
102
RTVSPropertyOp24
 70
     0
102
RTVSPropertyOp25
 70
     0
102
RTVSPropertyOp26
 70
     0
102
RTVSPropertyOp27
 70
     0
102
RTVSPropertyOp28
 70
     0
102
RTVSPropertyOp29
 70
     0
102
RTVSPropertyOp30
 70
     0
102
RTVSPropertyOp31
 70
     0
102
RTVSPropertyOp32
 70
     0
102
RTVSPropertyOp33
 70
     0
102
RTVSPropertyOp34
 70
     0
102
RTVSPropertyOp35
 70
     0
102
RTVSPropertyOp36
 70
     0
102
RTVSPropertyOp37
 70
     0
102
RTVSPropertyOp38
 70
     0
102
RTVSPropertyOp39
 70
     0
102
RTVSPropertyOp40
 70
     0
102
RTVSPropertyOp41
 70
     0
102
RTVSPropertyOp42
 70
     0
102
RTVSPropertyOp43
 70
     0
102
RTVSPropertyOp44
 70
     0
102
RTVSPropertyOp45
 70
     0
102
RTVSPropertyOp46
 70
     0
102
RTVSPropertyOp47
 70
     0
102
RTVSPropertyOp48
 70
     0
102
RTVSPropertyOp49
 70
     0
102
RTVSPropertyOp50
 70
     0
102
RTVSPropertyOp51
 70
     0
102
RTVSPropertyOp52
 70
     0
102
RTVSPropertyOp53
 70
     0
102
RTVSPropertyOp54
 70
     0
102
RTVSPropertyOp55
 70
     0
102
RTVSPropertyOp56
 70
     0
102
RTVSPropertyOp57
 70
     0
102
RTVSPost2010Prop28
280
     0
102
RTVSPost2010PropOp28
 70
     0
102
RTVSPost2010Prop29
280
     1
102
RTVSPost2010PropOp29
 70
     0
102
RTVSPost2010Prop30
280
     1
102
RTVSPost2010PropOp30
 70
     0
102
RTVSPost2010Prop31
280
     0
102
RTVSPost2010PropOp31
 70
     0
102
RTVSPost2010Prop32
280
     0
102
RTVSPost2010PropOp32
 70
     0
102
RTVSPost2010Prop33
280
     0
102
RTVSPost2010PropOp33
 70
     0
102
RTVSPost2010Prop34
280
     0
102
RTVSPost2010PropOp34
 70
     0
102
RTVSPost2010Prop35
280
     0
102
RTVSPost2010PropOp35
 70
     0
102
RTVSPost2010Prop36
280
     0
102
RTVSPost2010PropOp36
 70
     0
102
RTVSPost2010Prop37
 90
       50
102
RTVSPost2010PropOp37
 70
     0
102
RTVSPost2010Prop38
140
0.0
102
RTVSPost2010PropOp38
 70
     0
102
RTVSPost2010Prop39
140
1.0
102
RTVSPost2010PropOp39
 70
     0
102
RTVSPost2010Prop40
 90
        0
102
RTVSPost2010PropOp40
 70
     0
102
RTVSPost2010Prop41ColorIndex
 90
       18
102
RTVSPost2010Prop41ColorRGB
 90
        0
102
RTVSPost2010PropOp41
 70
     0
102
RTVSPost2010Prop42
 90
       50
102
RTVSPost2010PropOp42
 70
     0
102
RTVSPost2010Prop43
 90
        3
102
RTVSPost2010PropOp43
 70
     0
102
RTVSPost2010Prop44ColorIndex
 90
        5
102
RTVSPost2010Prop44ColorRGB
 90
      255
102
RTVSPost2010PropOp44
 70
     0
102
RTVSPost2010Prop45
280
     0
102
RTVSPost2010PropOp45
 70
     0
102
RTVSPost2010Prop46
 90
       50
102
RTVSPost2010PropOp46
 70
     0
102
RTVSPost2010Prop47
 90
       50
102
RTVSPost2010PropOp47
 70
     0
102
RTVSPost2010Prop48
 90
       50
102
RTVSPost2010PropOp48
 70
     0
102
RTVSPost2010Prop49
280
     0
102
RTVSPost2010PropOp49
 70
     0
102
RTVSPost2010Prop50
 90
       50
102
RTVSPost2010PropOp50
 70
     0
102
RTVSPost2010Prop51ColorIndex
 90
      256
102
RTVSPost2010Prop51ColorRGB
 90
-16777216
102
RTVSPost2010PropOp51
 70
     0
102
RTVSPost2010Prop52
140
1.0
102
RTVSPost2010PropOp52
 70
     0
102
RTVSPost2010Prop53
 90
        2
102
RTVSPost2010PropOp53
 70
     0
102
RTVSPost2010Prop54
  1
strokes_ogs.tif
102
RTVSPost2010PropOp54
 70
     0
102
RTVSPost2010Prop55
280
     0
102
RTVSPost2010PropOp55
 70
     0
102
RTVSPost2010Prop56
140
1.0
102
RTVSPost2010PropOp56
 70
     0
102
RTVSPost2010Prop57
140
1.0
102
RTVSPost2010PropOp57
 70
     0
  0
XRECORD
  5
21C
102
{ACAD_REACTORS
330
21B
102
}
330
21B
100
AcDbXrecord
280
     1
102
RTVSPropertyOp0
 70
     1
102
RTVSPropertyOp1
 70
     1
102
RTVSPropertyOp2
 70
     1
102
RTVSPropertyOp3
 70
     1
102
RTVSPropertyOp4
 70
     1
102
RTVSPropertyOp5
 70
     1
102
RTVSPropertyOp6
 70
     1
102
RTVSPropertyOp7
 70
     1
102
RTVSPropertyOp8
 70
     1
102
RTVSPropertyOp9
 70
     1
102
RTVSPropertyOp10
 70
     1
102
RTVSPropertyOp11
 70
     1
102
RTVSPropertyOp12
 70
     1
102
RTVSPropertyOp13
 70
     1
102
RTVSPropertyOp14
 70
     1
102
RTVSPropertyOp15
 70
     1
102
RTVSPropertyOp16
 70
     1
102
RTVSPropertyOp17
 70
     1
102
RTVSPropertyOp18
 70
     1
102
RTVSPropertyOp19
 70
     1
102
RTVSPropertyOp20
 70
     1
102
RTVSPropertyOp21
 70
     1
102
RTVSPropertyOp22
 70
     1
102
RTVSPropertyOp23
 70
     1
102
RTVSPropertyOp24
 70
     1
102
RTVSPropertyOp25
 70
     1
102
RTVSPropertyOp26
 70
     1
102
RTVSPropertyOp27
 70
     1
102
RTVSPropertyOp28
 70
     1
102
RTVSPropertyOp29
 70
     1
102
RTVSPropertyOp30
 70
     1
102
RTVSPropertyOp31
 70
     1
102
RTVSPropertyOp32
 70
     1
102
RTVSPropertyOp33
 70
     1
102
RTVSPropertyOp34
 70
     1
102
RTVSPropertyOp35
 70
     1
102
RTVSPropertyOp36
 70
     1
102
RTVSPropertyOp37
 70
     1
102
RTVSPropertyOp38
 70
     1
102
RTVSPropertyOp39
 70
     1
102
RTVSPropertyOp40
 70
     1
102
RTVSPropertyOp41
 70
     1
102
RTVSPropertyOp42
 70
     1
102
RTVSPropertyOp43
 70
     1
102
RTVSPropertyOp44
 70
     1
102
RTVSPropertyOp45
 70
     1
102
RTVSPropertyOp46
 70
     1
102
RTVSPropertyOp47
 70
     1
102
RTVSPropertyOp48
 70
     1
102
RTVSPropertyOp49
 70
     1
102
RTVSPropertyOp50
 70
     1
102
RTVSPropertyOp51
 70
     0
102
RTVSPropertyOp52
 70
     0
102
RTVSPropertyOp53
 70
     1
102
RTVSPropertyOp54
 70
     1
102
RTVSPropertyOp55
 70
     1
102
RTVSPropertyOp56
 70
     1
102
RTVSPropertyOp57
 70
     1
102
RTVSPost2010Prop28
280
     0
102
RTVSPost2010PropOp28
 70
     1
102
RTVSPost2010Prop29
280
     1
102
RTVSPost2010PropOp29
 70
     1
102
RTVSPost2010Prop30
280
     1
102
RTVSPost2010PropOp30
 70
     1
102
RTVSPost2010Prop31
280
     0
102
RTVSPost2010PropOp31
 70
     1
102
RTVSPost2010Prop32
280
     0
102
RTVSPost2010PropOp32
 70
     1
102
RTVSPost2010Prop33
280
     0
102
RTVSPost2010PropOp33
 70
     1
102
RTVSPost2010Prop34
280
     0
102
RTVSPost2010PropOp34
 70
     1
102
RTVSPost2010Prop35
280
     0
102
RTVSPost2010PropOp35
 70
     1
102
RTVSPost2010Prop36
280
     0
102
RTVSPost2010PropOp36
 70
     1
102
RTVSPost2010Prop37
 90
       50
102
RTVSPost2010PropOp37
 70
     1
102
RTVSPost2010Prop38
140
0.0
102
RTVSPost2010PropOp38
 70
     1
102
RTVSPost2010Prop39
140
1.0
102
RTVSPost2010PropOp39
 70
     1
102
RTVSPost2010Prop40
 90
        0
102
RTVSPost2010PropOp40
 70
     1
102
RTVSPost2010Prop41ColorIndex
 90
       18
102
RTVSPost2010Prop41ColorRGB
 90
        0
102
RTVSPost2010PropOp41
 70
     1
102
RTVSPost2010Prop42
 90
       50
102
RTVSPost2010PropOp42
 70
     1
102
RTVSPost2010Prop43
 90
        3
102
RTVSPost2010PropOp43
 70
     1
102
RTVSPost2010Prop44ColorIndex
 90
        5
102
RTVSPost2010Prop44ColorRGB
 90
      255
102
RTVSPost2010PropOp44
 70
     1
102
RTVSPost2010Prop45
280
     0
102
RTVSPost2010PropOp45
 70
     1
102
RTVSPost2010Prop46
 90
       50
102
RTVSPost2010PropOp46
 70
     1
102
RTVSPost2010Prop47
 90
       50
102
RTVSPost2010PropOp47
 70
     1
102
RTVSPost2010Prop48
 90
       50
102
RTVSPost2010PropOp48
 70
     1
102
RTVSPost2010Prop49
280
     0
102
RTVSPost2010PropOp49
 70
     1
102
RTVSPost2010Prop50
 90
       50
102
RTVSPost2010PropOp50
 70
     1
102
RTVSPost2010Prop51ColorIndex
 90
      256
102
RTVSPost2010Prop51ColorRGB
 90
-16777216
102
RTVSPost2010PropOp51
 70
     0
102
RTVSPost2010Prop52
140
1.0
102
RTVSPost2010PropOp52
 70
     0
102
RTVSPost2010Prop53
 90
        2
102
RTVSPost2010PropOp53
 70
     1
102
RTVSPost2010Prop54
  1
strokes_ogs.tif
102
RTVSPost2010PropOp54
 70
     1
102
RTVSPost2010Prop55
280
     0
102
RTVSPost2010PropOp55
 70
     1
102
RTVSPost2010Prop56
140
1.0
102
RTVSPost2010PropOp56
 70
     1
102
RTVSPost2010Prop57
140
1.0
102
RTVSPost2010PropOp57
 70
     1
  0
XRECORD
  5
23A
102
{ACAD_REACTORS
330
239
102
}
330
239
100
AcDbXrecord
280
     1
102
RTVSPropertyOp0
 70
     1
102
RTVSPropertyOp1
 70
     1
102
RTVSPropertyOp2
 70
     1
102
RTVSPropertyOp3
 70
     1
102
RTVSPropertyOp4
 70
     1
102
RTVSPropertyOp5
 70
     1
102
RTVSPropertyOp6
 70
     1
102
RTVSPropertyOp7
 70
     1
102
RTVSPropertyOp8
 70
     1
102
RTVSPropertyOp9
 70
     1
102
RTVSPropertyOp10
 70
     1
102
RTVSPropertyOp11
 70
     1
102
RTVSPropertyOp12
 70
     1
102
RTVSPropertyOp13
 70
     1
102
RTVSPropertyOp14
 70
     1
102
RTVSPropertyOp15
 70
     1
102
RTVSPropertyOp16
 70
     1
102
RTVSPropertyOp17
 70
     1
102
RTVSPropertyOp18
 70
     1
102
RTVSPropertyOp19
 70
     1
102
RTVSPropertyOp20
 70
     1
102
RTVSPropertyOp21
 70
     1
102
RTVSPropertyOp22
 70
     1
102
RTVSPropertyOp23
 70
     1
102
RTVSPropertyOp24
 70
     1
102
RTVSPropertyOp25
 70
     1
102
RTVSPropertyOp26
 70
     1
102
RTVSPropertyOp27
 70
     1
102
RTVSPropertyOp28
 70
     1
102
RTVSPropertyOp29
 70
     1
102
RTVSPropertyOp30
 70
     1
102
RTVSPropertyOp31
 70
     1
102
RTVSPropertyOp32
 70
     1
102
RTVSPropertyOp33
 70
     1
102
RTVSPropertyOp34
 70
     1
102
RTVSPropertyOp35
 70
     1
102
RTVSPropertyOp36
 70
     1
102
RTVSPropertyOp37
 70
     1
102
RTVSPropertyOp38
 70
     1
102
RTVSPropertyOp39
 70
     1
102
RTVSPropertyOp40
 70
     1
102
RTVSPropertyOp41
 70
     1
102
RTVSPropertyOp42
 70
     1
102
RTVSPropertyOp43
 70
     1
102
RTVSPropertyOp44
 70
     1
102
RTVSPropertyOp45
 70
     1
102
RTVSPropertyOp46
 70
     1
102
RTVSPropertyOp47
 70
     1
102
RTVSPropertyOp48
 70
     1
102
RTVSPropertyOp49
 70
     1
102
RTVSPropertyOp50
 70
     1
102
RTVSPropertyOp51
 70
     0
102
RTVSPropertyOp52
 70
     0
102
RTVSPropertyOp53
 70
     1
102
RTVSPropertyOp54
 70
     1
102
RTVSPropertyOp55
 70
     1
102
RTVSPropertyOp56
 70
     1
102
RTVSPropertyOp57
 70
     1
102
RTVSPost2010Prop28
280
     0
102
RTVSPost2010PropOp28
 70
     1
102
RTVSPost2010Prop29
280
     1
102
RTVSPost2010PropOp29
 70
     1
102
RTVSPost2010Prop30
280
     1
102
RTVSPost2010PropOp30
 70
     1
102
RTVSPost2010Prop31
280
     0
102
RTVSPost2010PropOp31
 70
     1
102
RTVSPost2010Prop32
280
     0
102
RTVSPost2010PropOp32
 70
     1
102
RTVSPost2010Prop33
280
     0
102
RTVSPost2010PropOp33
 70
     1
102
RTVSPost2010Prop34
280
     0
102
RTVSPost2010PropOp34
 70
     1
102
RTVSPost2010Prop35
280
     0
102
RTVSPost2010PropOp35
 70
     1
102
RTVSPost2010Prop36
280
     0
102
RTVSPost2010PropOp36
 70
     1
102
RTVSPost2010Prop37
 90
       50
102
RTVSPost2010PropOp37
 70
     1
102
RTVSPost2010Prop38
140
0.0
102
RTVSPost2010PropOp38
 70
     1
102
RTVSPost2010Prop39
140
1.0
102
RTVSPost2010PropOp39
 70
     1
102
RTVSPost2010Prop40
 90
        0
102
RTVSPost2010PropOp40
 70
     1
102
RTVSPost2010Prop41ColorIndex
 90
       18
102
RTVSPost2010Prop41ColorRGB
 90
        0
102
RTVSPost2010PropOp41
 70
     1
102
RTVSPost2010Prop42
 90
       50
102
RTVSPost2010PropOp42
 70
     1
102
RTVSPost2010Prop43
 90
        3
102
RTVSPost2010PropOp43
 70
     1
102
RTVSPost2010Prop44ColorIndex
 90
        5
102
RTVSPost2010Prop44ColorRGB
 90
      255
102
RTVSPost2010PropOp44
 70
     1
102
RTVSPost2010Prop45
280
     0
102
RTVSPost2010PropOp45
 70
     1
102
RTVSPost2010Prop46
 90
       50
102
RTVSPost2010PropOp46
 70
     1
102
RTVSPost2010Prop47
 90
       50
102
RTVSPost2010PropOp47
 70
     1
102
RTVSPost2010Prop48
 90
       50
102
RTVSPost2010PropOp48
 70
     1
102
RTVSPost2010Prop49
280
     0
102
RTVSPost2010PropOp49
 70
     1
102
RTVSPost2010Prop50
 90
       50
102
RTVSPost2010PropOp50
 70
     1
102
RTVSPost2010Prop51ColorIndex
 90
      256
102
RTVSPost2010Prop51ColorRGB
 90
-16777216
102
RTVSPost2010PropOp51
 70
     0
102
RTVSPost2010Prop52
140
1.0
102
RTVSPost2010PropOp52
 70
     0
102
RTVSPost2010Prop53
 90
        2
102
RTVSPost2010PropOp53
 70
     1
102
RTVSPost2010Prop54
  1
strokes_ogs.tif
102
RTVSPost2010PropOp54
 70
     1
102
RTVSPost2010Prop55
280
     0
102
RTVSPost2010PropOp55
 70
     1
102
RTVSPost2010Prop56
140
1.0
102
RTVSPost2010PropOp56
 70
     1
102
RTVSPost2010Prop57
140
1.0
102
RTVSPost2010PropOp57
 70
     1
  0
XRECORD
  5
238
102
{ACAD_REACTORS
330
237
102
}
330
237
100
AcDbXrecord
280
     1
102
RTVSPropertyOp0
 70
     1
102
RTVSPropertyOp1
 70
     1
102
RTVSPropertyOp2
 70
     1
102
RTVSPropertyOp3
 70
     1
102
RTVSPropertyOp4
 70
     1
102
RTVSPropertyOp5
 70
     1
102
RTVSPropertyOp6
 70
     1
102
RTVSPropertyOp7
 70
     1
102
RTVSPropertyOp8
 70
     1
102
RTVSPropertyOp9
 70
     1
102
RTVSPropertyOp10
 70
     1
102
RTVSPropertyOp11
 70
     1
102
RTVSPropertyOp12
 70
     1
102
RTVSPropertyOp13
 70
     1
102
RTVSPropertyOp14
 70
     1
102
RTVSPropertyOp15
 70
     1
102
RTVSPropertyOp16
 70
     1
102
RTVSPropertyOp17
 70
     1
102
RTVSPropertyOp18
 70
     1
102
RTVSPropertyOp19
 70
     1
102
RTVSPropertyOp20
 70
     1
102
RTVSPropertyOp21
 70
     1
102
RTVSPropertyOp22
 70
     1
102
RTVSPropertyOp23
 70
     1
102
RTVSPropertyOp24
 70
     1
102
RTVSPropertyOp25
 70
     1
102
RTVSPropertyOp26
 70
     1
102
RTVSPropertyOp27
 70
     1
102
RTVSPropertyOp28
 70
     1
102
RTVSPropertyOp29
 70
     1
102
RTVSPropertyOp30
 70
     1
102
RTVSPropertyOp31
 70
     1
102
RTVSPropertyOp32
 70
     1
102
RTVSPropertyOp33
 70
     1
102
RTVSPropertyOp34
 70
     1
102
RTVSPropertyOp35
 70
     1
102
RTVSPropertyOp36
 70
     1
102
RTVSPropertyOp37
 70
     1
102
RTVSPropertyOp38
 70
     1
102
RTVSPropertyOp39
 70
     1
102
RTVSPropertyOp40
 70
     1
102
RTVSPropertyOp41
 70
     1
102
RTVSPropertyOp42
 70
     1
102
RTVSPropertyOp43
 70
     1
102
RTVSPropertyOp44
 70
     1
102
RTVSPropertyOp45
 70
     1
102
RTVSPropertyOp46
 70
     1
102
RTVSPropertyOp47
 70
     1
102
RTVSPropertyOp48
 70
     1
102
RTVSPropertyOp49
 70
     1
102
RTVSPropertyOp50
 70
     1
102
RTVSPropertyOp51
 70
     0
102
RTVSPropertyOp52
 70
     0
102
RTVSPropertyOp53
 70
     1
102
RTVSPropertyOp54
 70
     1
102
RTVSPropertyOp55
 70
     1
102
RTVSPropertyOp56
 70
     1
102
RTVSPropertyOp57
 70
     1
102
RTVSPost2010Prop28
280
     0
102
RTVSPost2010PropOp28
 70
     1
102
RTVSPost2010Prop29
280
     1
102
RTVSPost2010PropOp29
 70
     1
102
RTVSPost2010Prop30
280
     1
102
RTVSPost2010PropOp30
 70
     1
102
RTVSPost2010Prop31
280
     0
102
RTVSPost2010PropOp31
 70
     1
102
RTVSPost2010Prop32
280
     0
102
RTVSPost2010PropOp32
 70
     1
102
RTVSPost2010Prop33
280
     0
102
RTVSPost2010PropOp33
 70
     1
102
RTVSPost2010Prop34
280
     0
102
RTVSPost2010PropOp34
 70
     1
102
RTVSPost2010Prop35
280
     0
102
RTVSPost2010PropOp35
 70
     1
102
RTVSPost2010Prop36
280
     0
102
RTVSPost2010PropOp36
 70
     1
102
RTVSPost2010Prop37
 90
       50
102
RTVSPost2010PropOp37
 70
     1
102
RTVSPost2010Prop38
140
0.0
102
RTVSPost2010PropOp38
 70
     1
102
RTVSPost2010Prop39
140
1.0
102
RTVSPost2010PropOp39
 70
     1
102
RTVSPost2010Prop40
 90
        0
102
RTVSPost2010PropOp40
 70
     1
102
RTVSPost2010Prop41ColorIndex
 90
       18
102
RTVSPost2010Prop41ColorRGB
 90
        0
102
RTVSPost2010PropOp41
 70
     1
102
RTVSPost2010Prop42
 90
       50
102
RTVSPost2010PropOp42
 70
     1
102
RTVSPost2010Prop43
 90
        3
102
RTVSPost2010PropOp43
 70
     1
102
RTVSPost2010Prop44ColorIndex
 90
        5
102
RTVSPost2010Prop44ColorRGB
 90
      255
102
RTVSPost2010PropOp44
 70
     1
102
RTVSPost2010Prop45
280
     0
102
RTVSPost2010PropOp45
 70
     1
102
RTVSPost2010Prop46
 90
       50
102
RTVSPost2010PropOp46
 70
     1
102
RTVSPost2010Prop47
 90
       50
102
RTVSPost2010PropOp47
 70
     1
102
RTVSPost2010Prop48
 90
       50
102
RTVSPost2010PropOp48
 70
     1
102
RTVSPost2010Prop49
280
     0
102
RTVSPost2010PropOp49
 70
     1
102
RTVSPost2010Prop50
 90
       50
102
RTVSPost2010PropOp50
 70
     1
102
RTVSPost2010Prop51ColorIndex
 90
      256
102
RTVSPost2010Prop51ColorRGB
 90
-16777216
102
RTVSPost2010PropOp51
 70
     0
102
RTVSPost2010Prop52
140
1.0
102
RTVSPost2010PropOp52
 70
     0
102
RTVSPost2010Prop53
 90
        2
102
RTVSPost2010PropOp53
 70
     1
102
RTVSPost2010Prop54
  1
strokes_ogs.tif
102
RTVSPost2010PropOp54
 70
     1
102
RTVSPost2010Prop55
280
     0
102
RTVSPost2010PropOp55
 70
     1
102
RTVSPost2010Prop56
140
1.0
102
RTVSPost2010PropOp56
 70
     1
102
RTVSPost2010Prop57
140
1.0
102
RTVSPost2010PropOp57
 70
     1
  0
XRECORD
  5
232
102
{ACAD_REACTORS
330
231
102
}
330
231
100
AcDbXrecord
280
     1
102
RTVSPropertyOp0
 70
     1
102
RTVSPropertyOp1
 70
     1
102
RTVSPropertyOp2
 70
     1
102
RTVSPropertyOp3
 70
     1
102
RTVSPropertyOp4
 70
     1
102
RTVSPropertyOp5
 70
     1
102
RTVSPropertyOp6
 70
     1
102
RTVSPropertyOp7
 70
     1
102
RTVSPropertyOp8
 70
     1
102
RTVSPropertyOp9
 70
     1
102
RTVSPropertyOp10
 70
     1
102
RTVSPropertyOp11
 70
     1
102
RTVSPropertyOp12
 70
     1
102
RTVSPropertyOp13
 70
     1
102
RTVSPropertyOp14
 70
     1
102
RTVSPropertyOp15
 70
     1
102
RTVSPropertyOp16
 70
     1
102
RTVSPropertyOp17
 70
     1
102
RTVSPropertyOp18
 70
     1
102
RTVSPropertyOp19
 70
     1
102
RTVSPropertyOp20
 70
     1
102
RTVSPropertyOp21
 70
     1
102
RTVSPropertyOp22
 70
     1
102
RTVSPropertyOp23
 70
     1
102
RTVSPropertyOp24
 70
     1
102
RTVSPropertyOp25
 70
     1
102
RTVSPropertyOp26
 70
     1
102
RTVSPropertyOp27
 70
     1
102
RTVSPropertyOp28
 70
     1
102
RTVSPropertyOp29
 70
     1
102
RTVSPropertyOp30
 70
     1
102
RTVSPropertyOp31
 70
     1
102
RTVSPropertyOp32
 70
     1
102
RTVSPropertyOp33
 70
     1
102
RTVSPropertyOp34
 70
     1
102
RTVSPropertyOp35
 70
     1
102
RTVSPropertyOp36
 70
     1
102
RTVSPropertyOp37
 70
     1
102
RTVSPropertyOp38
 70
     1
102
RTVSPropertyOp39
 70
     1
102
RTVSPropertyOp40
 70
     1
102
RTVSPropertyOp41
 70
     1
102
RTVSPropertyOp42
 70
     1
102
RTVSPropertyOp43
 70
     1
102
RTVSPropertyOp44
 70
     1
102
RTVSPropertyOp45
 70
     1
102
RTVSPropertyOp46
 70
     1
102
RTVSPropertyOp47
 70
     1
102
RTVSPropertyOp48
 70
     1
102
RTVSPropertyOp49
 70
     1
102
RTVSPropertyOp50
 70
     1
102
RTVSPropertyOp51
 70
     0
102
RTVSPropertyOp52
 70
     0
102
RTVSPropertyOp53
 70
     1
102
RTVSPropertyOp54
 70
     1
102
RTVSPropertyOp55
 70
     1
102
RTVSPropertyOp56
 70
     1
102
RTVSPropertyOp57
 70
     1
102
RTVSPost2010Prop28
280
     0
102
RTVSPost2010PropOp28
 70
     1
102
RTVSPost2010Prop29
280
     1
102
RTVSPost2010PropOp29
 70
     1
102
RTVSPost2010Prop30
280
     1
102
RTVSPost2010PropOp30
 70
     1
102
RTVSPost2010Prop31
280
     0
102
RTVSPost2010PropOp31
 70
     1
102
RTVSPost2010Prop32
280
     0
102
RTVSPost2010PropOp32
 70
     1
102
RTVSPost2010Prop33
280
     0
102
RTVSPost2010PropOp33
 70
     1
102
RTVSPost2010Prop34
280
     0
102
RTVSPost2010PropOp34
 70
     1
102
RTVSPost2010Prop35
280
     0
102
RTVSPost2010PropOp35
 70
     1
102
RTVSPost2010Prop36
280
     0
102
RTVSPost2010PropOp36
 70
     1
102
RTVSPost2010Prop37
 90
       50
102
RTVSPost2010PropOp37
 70
     1
102
RTVSPost2010Prop38
140
0.0
102
RTVSPost2010PropOp38
 70
     1
102
RTVSPost2010Prop39
140
1.0
102
RTVSPost2010PropOp39
 70
     1
102
RTVSPost2010Prop40
 90
        0
102
RTVSPost2010PropOp40
 70
     1
102
RTVSPost2010Prop41ColorIndex
 90
       18
102
RTVSPost2010Prop41ColorRGB
 90
        0
102
RTVSPost2010PropOp41
 70
     1
102
RTVSPost2010Prop42
 90
       50
102
RTVSPost2010PropOp42
 70
     1
102
RTVSPost2010Prop43
 90
        3
102
RTVSPost2010PropOp43
 70
     1
102
RTVSPost2010Prop44ColorIndex
 90
        5
102
RTVSPost2010Prop44ColorRGB
 90
      255
102
RTVSPost2010PropOp44
 70
     1
102
RTVSPost2010Prop45
280
     0
102
RTVSPost2010PropOp45
 70
     1
102
RTVSPost2010Prop46
 90
       50
102
RTVSPost2010PropOp46
 70
     1
102
RTVSPost2010Prop47
 90
       50
102
RTVSPost2010PropOp47
 70
     1
102
RTVSPost2010Prop48
 90
       50
102
RTVSPost2010PropOp48
 70
     1
102
RTVSPost2010Prop49
280
     0
102
RTVSPost2010PropOp49
 70
     1
102
RTVSPost2010Prop50
 90
       50
102
RTVSPost2010PropOp50
 70
     1
102
RTVSPost2010Prop51ColorIndex
 90
      256
102
RTVSPost2010Prop51ColorRGB
 90
-16777216
102
RTVSPost2010PropOp51
 70
     0
102
RTVSPost2010Prop52
140
1.0
102
RTVSPost2010PropOp52
 70
     0
102
RTVSPost2010Prop53
 90
        2
102
RTVSPost2010PropOp53
 70
     1
102
RTVSPost2010Prop54
  1
strokes_ogs.tif
102
RTVSPost2010PropOp54
 70
     1
102
RTVSPost2010Prop55
280
     0
102
RTVSPost2010PropOp55
 70
     1
102
RTVSPost2010Prop56
140
1.0
102
RTVSPost2010PropOp56
 70
     1
102
RTVSPost2010Prop57
140
1.0
102
RTVSPost2010PropOp57
 70
     1
  0
XRECORD
  5
234
102
{ACAD_REACTORS
330
233
102
}
330
233
100
AcDbXrecord
280
     1
102
RTVSPropertyOp0
 70
     1
102
RTVSPropertyOp1
 70
     1
102
RTVSPropertyOp2
 70
     1
102
RTVSPropertyOp3
 70
     1
102
RTVSPropertyOp4
 70
     1
102
RTVSPropertyOp5
 70
     1
102
RTVSPropertyOp6
 70
     1
102
RTVSPropertyOp7
 70
     1
102
RTVSPropertyOp8
 70
     1
102
RTVSPropertyOp9
 70
     1
102
RTVSPropertyOp10
 70
     1
102
RTVSPropertyOp11
 70
     1
102
RTVSPropertyOp12
 70
     1
102
RTVSPropertyOp13
 70
     1
102
RTVSPropertyOp14
 70
     1
102
RTVSPropertyOp15
 70
     1
102
RTVSPropertyOp16
 70
     1
102
RTVSPropertyOp17
 70
     1
102
RTVSPropertyOp18
 70
     1
102
RTVSPropertyOp19
 70
     1
102
RTVSPropertyOp20
 70
     1
102
RTVSPropertyOp21
 70
     1
102
RTVSPropertyOp22
 70
     1
102
RTVSPropertyOp23
 70
     1
102
RTVSPropertyOp24
 70
     1
102
RTVSPropertyOp25
 70
     1
102
RTVSPropertyOp26
 70
     1
102
RTVSPropertyOp27
 70
     1
102
RTVSPropertyOp28
 70
     1
102
RTVSPropertyOp29
 70
     1
102
RTVSPropertyOp30
 70
     1
102
RTVSPropertyOp31
 70
     1
102
RTVSPropertyOp32
 70
     1
102
RTVSPropertyOp33
 70
     1
102
RTVSPropertyOp34
 70
     1
102
RTVSPropertyOp35
 70
     1
102
RTVSPropertyOp36
 70
     1
102
RTVSPropertyOp37
 70
     1
102
RTVSPropertyOp38
 70
     1
102
RTVSPropertyOp39
 70
     1
102
RTVSPropertyOp40
 70
     1
102
RTVSPropertyOp41
 70
     1
102
RTVSPropertyOp42
 70
     1
102
RTVSPropertyOp43
 70
     1
102
RTVSPropertyOp44
 70
     1
102
RTVSPropertyOp45
 70
     1
102
RTVSPropertyOp46
 70
     1
102
RTVSPropertyOp47
 70
     1
102
RTVSPropertyOp48
 70
     1
102
RTVSPropertyOp49
 70
     1
102
RTVSPropertyOp50
 70
     1
102
RTVSPropertyOp51
 70
     0
102
RTVSPropertyOp52
 70
     0
102
RTVSPropertyOp53
 70
     1
102
RTVSPropertyOp54
 70
     1
102
RTVSPropertyOp55
 70
     1
102
RTVSPropertyOp56
 70
     1
102
RTVSPropertyOp57
 70
     1
102
RTVSPost2010Prop28
280
     0
102
RTVSPost2010PropOp28
 70
     1
102
RTVSPost2010Prop29
280
     1
102
RTVSPost2010PropOp29
 70
     1
102
RTVSPost2010Prop30
280
     1
102
RTVSPost2010PropOp30
 70
     1
102
RTVSPost2010Prop31
280
     0
102
RTVSPost2010PropOp31
 70
     1
102
RTVSPost2010Prop32
280
     0
102
RTVSPost2010PropOp32
 70
     1
102
RTVSPost2010Prop33
280
     0
102
RTVSPost2010PropOp33
 70
     1
102
RTVSPost2010Prop34
280
     0
102
RTVSPost2010PropOp34
 70
     1
102
RTVSPost2010Prop35
280
     0
102
RTVSPost2010PropOp35
 70
     1
102
RTVSPost2010Prop36
280
     0
102
RTVSPost2010PropOp36
 70
     1
102
RTVSPost2010Prop37
 90
       50
102
RTVSPost2010PropOp37
 70
     1
102
RTVSPost2010Prop38
140
0.0
102
RTVSPost2010PropOp38
 70
     1
102
RTVSPost2010Prop39
140
1.0
102
RTVSPost2010PropOp39
 70
     1
102
RTVSPost2010Prop40
 90
        0
102
RTVSPost2010PropOp40
 70
     1
102
RTVSPost2010Prop41ColorIndex
 90
       18
102
RTVSPost2010Prop41ColorRGB
 90
        0
102
RTVSPost2010PropOp41
 70
     1
102
RTVSPost2010Prop42
 90
       50
102
RTVSPost2010PropOp42
 70
     1
102
RTVSPost2010Prop43
 90
        3
102
RTVSPost2010PropOp43
 70
     1
102
RTVSPost2010Prop44ColorIndex
 90
        5
102
RTVSPost2010Prop44ColorRGB
 90
      255
102
RTVSPost2010PropOp44
 70
     1
102
RTVSPost2010Prop45
280
     0
102
RTVSPost2010PropOp45
 70
     1
102
RTVSPost2010Prop46
 90
       50
102
RTVSPost2010PropOp46
 70
     1
102
RTVSPost2010Prop47
 90
       50
102
RTVSPost2010PropOp47
 70
     1
102
RTVSPost2010Prop48
 90
       50
102
RTVSPost2010PropOp48
 70
     1
102
RTVSPost2010Prop49
280
     0
102
RTVSPost2010PropOp49
 70
     1
102
RTVSPost2010Prop50
 90
       50
102
RTVSPost2010PropOp50
 70
     1
102
RTVSPost2010Prop51ColorIndex
 90
      256
102
RTVSPost2010Prop51ColorRGB
 90
-16777216
102
RTVSPost2010PropOp51
 70
     0
102
RTVSPost2010Prop52
140
1.0
102
RTVSPost2010PropOp52
 70
     0
102
RTVSPost2010Prop53
 90
        2
102
RTVSPost2010PropOp53
 70
     1
102
RTVSPost2010Prop54
  1
strokes_ogs.tif
102
RTVSPost2010PropOp54
 70
     1
102
RTVSPost2010Prop55
280
     0
102
RTVSPost2010PropOp55
 70
     1
102
RTVSPost2010Prop56
140
1.0
102
RTVSPost2010PropOp56
 70
     1
102
RTVSPost2010Prop57
140
1.0
102
RTVSPost2010PropOp57
 70
     1
  0
XRECORD
  5
224
102
{ACAD_REACTORS
330
223
102
}
330
223
100
AcDbXrecord
280
     1
102
RTVSPropertyOp0
 70
     1
102
RTVSPropertyOp1
 70
     1
102
RTVSPropertyOp2
 70
     1
102
RTVSPropertyOp3
 70
     1
102
RTVSPropertyOp4
 70
     1
102
RTVSPropertyOp5
 70
     1
102
RTVSPropertyOp6
 70
     1
102
RTVSPropertyOp7
 70
     1
102
RTVSPropertyOp8
 70
     1
102
RTVSPropertyOp9
 70
     1
102
RTVSPropertyOp10
 70
     1
102
RTVSPropertyOp11
 70
     1
102
RTVSPropertyOp12
 70
     1
102
RTVSPropertyOp13
 70
     1
102
RTVSPropertyOp14
 70
     1
102
RTVSPropertyOp15
 70
     1
102
RTVSPropertyOp16
 70
     1
102
RTVSPropertyOp17
 70
     1
102
RTVSPropertyOp18
 70
     1
102
RTVSPropertyOp19
 70
     1
102
RTVSPropertyOp20
 70
     1
102
RTVSPropertyOp21
 70
     1
102
RTVSPropertyOp22
 70
     1
102
RTVSPropertyOp23
 70
     1
102
RTVSPropertyOp24
 70
     1
102
RTVSPropertyOp25
 70
     1
102
RTVSPropertyOp26
 70
     1
102
RTVSPropertyOp27
 70
     1
102
RTVSPropertyOp28
 70
     1
102
RTVSPropertyOp29
 70
     1
102
RTVSPropertyOp30
 70
     1
102
RTVSPropertyOp31
 70
     1
102
RTVSPropertyOp32
 70
     1
102
RTVSPropertyOp33
 70
     1
102
RTVSPropertyOp34
 70
     1
102
RTVSPropertyOp35
 70
     1
102
RTVSPropertyOp36
 70
     1
102
RTVSPropertyOp37
 70
     1
102
RTVSPropertyOp38
 70
     1
102
RTVSPropertyOp39
 70
     1
102
RTVSPropertyOp40
 70
     1
102
RTVSPropertyOp41
 70
     1
102
RTVSPropertyOp42
 70
     1
102
RTVSPropertyOp43
 70
     1
102
RTVSPropertyOp44
 70
     1
102
RTVSPropertyOp45
 70
     1
102
RTVSPropertyOp46
 70
     1
102
RTVSPropertyOp47
 70
     1
102
RTVSPropertyOp48
 70
     1
102
RTVSPropertyOp49
 70
     1
102
RTVSPropertyOp50
 70
     1
102
RTVSPropertyOp51
 70
     0
102
RTVSPropertyOp52
 70
     0
102
RTVSPropertyOp53
 70
     1
102
RTVSPropertyOp54
 70
     1
102
RTVSPropertyOp55
 70
     1
102
RTVSPropertyOp56
 70
     1
102
RTVSPropertyOp57
 70
     1
102
RTVSPost2010Prop28
280
     0
102
RTVSPost2010PropOp28
 70
     1
102
RTVSPost2010Prop29
280
     1
102
RTVSPost2010PropOp29
 70
     1
102
RTVSPost2010Prop30
280
     1
102
RTVSPost2010PropOp30
 70
     1
102
RTVSPost2010Prop31
280
     0
102
RTVSPost2010PropOp31
 70
     1
102
RTVSPost2010Prop32
280
     0
102
RTVSPost2010PropOp32
 70
     1
102
RTVSPost2010Prop33
280
     0
102
RTVSPost2010PropOp33
 70
     1
102
RTVSPost2010Prop34
280
     0
102
RTVSPost2010PropOp34
 70
     1
102
RTVSPost2010Prop35
280
     0
102
RTVSPost2010PropOp35
 70
     1
102
RTVSPost2010Prop36
280
     0
102
RTVSPost2010PropOp36
 70
     1
102
RTVSPost2010Prop37
 90
       50
102
RTVSPost2010PropOp37
 70
     1
102
RTVSPost2010Prop38
140
0.0
102
RTVSPost2010PropOp38
 70
     1
102
RTVSPost2010Prop39
140
1.0
102
RTVSPost2010PropOp39
 70
     1
102
RTVSPost2010Prop40
 90
        0
102
RTVSPost2010PropOp40
 70
     1
102
RTVSPost2010Prop41ColorIndex
 90
       18
102
RTVSPost2010Prop41ColorRGB
 90
        0
102
RTVSPost2010PropOp41
 70
     1
102
RTVSPost2010Prop42
 90
       50
102
RTVSPost2010PropOp42
 70
     1
102
RTVSPost2010Prop43
 90
        3
102
RTVSPost2010PropOp43
 70
     1
102
RTVSPost2010Prop44ColorIndex
 90
        5
102
RTVSPost2010Prop44ColorRGB
 90
      255
102
RTVSPost2010PropOp44
 70
     1
102
RTVSPost2010Prop45
280
     0
102
RTVSPost2010PropOp45
 70
     1
102
RTVSPost2010Prop46
 90
       50
102
RTVSPost2010PropOp46
 70
     1
102
RTVSPost2010Prop47
 90
       50
102
RTVSPost2010PropOp47
 70
     1
102
RTVSPost2010Prop48
 90
       50
102
RTVSPost2010PropOp48
 70
     1
102
RTVSPost2010Prop49
280
     0
102
RTVSPost2010PropOp49
 70
     1
102
RTVSPost2010Prop50
 90
       50
102
RTVSPost2010PropOp50
 70
     1
102
RTVSPost2010Prop51ColorIndex
 90
      256
102
RTVSPost2010Prop51ColorRGB
 90
-16777216
102
RTVSPost2010PropOp51
 70
     0
102
RTVSPost2010Prop52
140
1.0
102
RTVSPost2010PropOp52
 70
     0
102
RTVSPost2010Prop53
 90
        2
102
RTVSPost2010PropOp53
 70
     1
102
RTVSPost2010Prop54
  1
strokes_ogs.tif
102
RTVSPost2010PropOp54
 70
     1
102
RTVSPost2010Prop55
280
     0
102
RTVSPost2010PropOp55
 70
     1
102
RTVSPost2010Prop56
140
1.0
102
RTVSPost2010PropOp56
 70
     1
102
RTVSPost2010Prop57
140
1.0
102
RTVSPost2010PropOp57
 70
     1
  0
XRECORD
  5
216
102
{ACAD_REACTORS
330
215
102
}
330
215
100
AcDbXrecord
280
     1
102
RTVSPropertyOp0
 70
     1
102
RTVSPropertyOp1
 70
     1
102
RTVSPropertyOp2
 70
     1
102
RTVSPropertyOp3
 70
     1
102
RTVSPropertyOp4
 70
     1
102
RTVSPropertyOp5
 70
     1
102
RTVSPropertyOp6
 70
     1
102
RTVSPropertyOp7
 70
     1
102
RTVSPropertyOp8
 70
     1
102
RTVSPropertyOp9
 70
     1
102
RTVSPropertyOp10
 70
     1
102
RTVSPropertyOp11
 70
     1
102
RTVSPropertyOp12
 70
     1
102
RTVSPropertyOp13
 70
     1
102
RTVSPropertyOp14
 70
     1
102
RTVSPropertyOp15
 70
     1
102
RTVSPropertyOp16
 70
     1
102
RTVSPropertyOp17
 70
     1
102
RTVSPropertyOp18
 70
     1
102
RTVSPropertyOp19
 70
     1
102
RTVSPropertyOp20
 70
     1
102
RTVSPropertyOp21
 70
     1
102
RTVSPropertyOp22
 70
     1
102
RTVSPropertyOp23
 70
     1
102
RTVSPropertyOp24
 70
     1
102
RTVSPropertyOp25
 70
     1
102
RTVSPropertyOp26
 70
     1
102
RTVSPropertyOp27
 70
     1
102
RTVSPropertyOp28
 70
     1
102
RTVSPropertyOp29
 70
     1
102
RTVSPropertyOp30
 70
     1
102
RTVSPropertyOp31
 70
     1
102
RTVSPropertyOp32
 70
     1
102
RTVSPropertyOp33
 70
     1
102
RTVSPropertyOp34
 70
     1
102
RTVSPropertyOp35
 70
     1
102
RTVSPropertyOp36
 70
     1
102
RTVSPropertyOp37
 70
     1
102
RTVSPropertyOp38
 70
     1
102
RTVSPropertyOp39
 70
     1
102
RTVSPropertyOp40
 70
     1
102
RTVSPropertyOp41
 70
     1
102
RTVSPropertyOp42
 70
     1
102
RTVSPropertyOp43
 70
     1
102
RTVSPropertyOp44
 70
     1
102
RTVSPropertyOp45
 70
     1
102
RTVSPropertyOp46
 70
     1
102
RTVSPropertyOp47
 70
     1
102
RTVSPropertyOp48
 70
     1
102
RTVSPropertyOp49
 70
     1
102
RTVSPropertyOp50
 70
     1
102
RTVSPropertyOp51
 70
     0
102
RTVSPropertyOp52
 70
     0
102
RTVSPropertyOp53
 70
     1
102
RTVSPropertyOp54
 70
     1
102
RTVSPropertyOp55
 70
     1
102
RTVSPropertyOp56
 70
     1
102
RTVSPropertyOp57
 70
     1
102
RTVSPost2010Prop28
280
     0
102
RTVSPost2010PropOp28
 70
     1
102
RTVSPost2010Prop29
280
     1
102
RTVSPost2010PropOp29
 70
     1
102
RTVSPost2010Prop30
280
     1
102
RTVSPost2010PropOp30
 70
     1
102
RTVSPost2010Prop31
280
     0
102
RTVSPost2010PropOp31
 70
     1
102
RTVSPost2010Prop32
280
     0
102
RTVSPost2010PropOp32
 70
     1
102
RTVSPost2010Prop33
280
     0
102
RTVSPost2010PropOp33
 70
     1
102
RTVSPost2010Prop34
280
     0
102
RTVSPost2010PropOp34
 70
     1
102
RTVSPost2010Prop35
280
     0
102
RTVSPost2010PropOp35
 70
     1
102
RTVSPost2010Prop36
280
     0
102
RTVSPost2010PropOp36
 70
     1
102
RTVSPost2010Prop37
 90
       50
102
RTVSPost2010PropOp37
 70
     1
102
RTVSPost2010Prop38
140
0.0
102
RTVSPost2010PropOp38
 70
     1
102
RTVSPost2010Prop39
140
1.0
102
RTVSPost2010PropOp39
 70
     1
102
RTVSPost2010Prop40
 90
        0
102
RTVSPost2010PropOp40
 70
     1
102
RTVSPost2010Prop41ColorIndex
 90
       18
102
RTVSPost2010Prop41ColorRGB
 90
        0
102
RTVSPost2010PropOp41
 70
     1
102
RTVSPost2010Prop42
 90
       50
102
RTVSPost2010PropOp42
 70
     1
102
RTVSPost2010Prop43
 90
        3
102
RTVSPost2010PropOp43
 70
     1
102
RTVSPost2010Prop44ColorIndex
 90
        5
102
RTVSPost2010Prop44ColorRGB
 90
      255
102
RTVSPost2010PropOp44
 70
     1
102
RTVSPost2010Prop45
280
     0
102
RTVSPost2010PropOp45
 70
     1
102
RTVSPost2010Prop46
 90
       50
102
RTVSPost2010PropOp46
 70
     1
102
RTVSPost2010Prop47
 90
       50
102
RTVSPost2010PropOp47
 70
     1
102
RTVSPost2010Prop48
 90
       50
102
RTVSPost2010PropOp48
 70
     1
102
RTVSPost2010Prop49
280
     0
102
RTVSPost2010PropOp49
 70
     1
102
RTVSPost2010Prop50
 90
       50
102
RTVSPost2010PropOp50
 70
     1
102
RTVSPost2010Prop51ColorIndex
 90
      256
102
RTVSPost2010Prop51ColorRGB
 90
-16777216
102
RTVSPost2010PropOp51
 70
     0
102
RTVSPost2010Prop52
140
1.0
102
RTVSPost2010PropOp52
 70
     0
102
RTVSPost2010Prop53
 90
        2
102
RTVSPost2010PropOp53
 70
     1
102
RTVSPost2010Prop54
  1
strokes_ogs.tif
102
RTVSPost2010PropOp54
 70
     1
102
RTVSPost2010Prop55
280
     0
102
RTVSPost2010PropOp55
 70
     1
102
RTVSPost2010Prop56
140
1.0
102
RTVSPost2010PropOp56
 70
     1
102
RTVSPost2010Prop57
140
1.0
102
RTVSPost2010PropOp57
 70
     1
  0
XRECORD
  5
236
102
{ACAD_REACTORS
330
235
102
}
330
235
100
AcDbXrecord
280
     1
102
RTVSPropertyOp0
 70
     1
102
RTVSPropertyOp1
 70
     1
102
RTVSPropertyOp2
 70
     1
102
RTVSPropertyOp3
 70
     1
102
RTVSPropertyOp4
 70
     1
102
RTVSPropertyOp5
 70
     1
102
RTVSPropertyOp6
 70
     1
102
RTVSPropertyOp7
 70
     1
102
RTVSPropertyOp8
 70
     1
102
RTVSPropertyOp9
 70
     1
102
RTVSPropertyOp10
 70
     1
102
RTVSPropertyOp11
 70
     1
102
RTVSPropertyOp12
 70
     1
102
RTVSPropertyOp13
 70
     1
102
RTVSPropertyOp14
 70
     1
102
RTVSPropertyOp15
 70
     1
102
RTVSPropertyOp16
 70
     1
102
RTVSPropertyOp17
 70
     1
102
RTVSPropertyOp18
 70
     1
102
RTVSPropertyOp19
 70
     1
102
RTVSPropertyOp20
 70
     1
102
RTVSPropertyOp21
 70
     1
102
RTVSPropertyOp22
 70
     1
102
RTVSPropertyOp23
 70
     1
102
RTVSPropertyOp24
 70
     1
102
RTVSPropertyOp25
 70
     1
102
RTVSPropertyOp26
 70
     1
102
RTVSPropertyOp27
 70
     1
102
RTVSPropertyOp28
 70
     1
102
RTVSPropertyOp29
 70
     1
102
RTVSPropertyOp30
 70
     1
102
RTVSPropertyOp31
 70
     1
102
RTVSPropertyOp32
 70
     1
102
RTVSPropertyOp33
 70
     1
102
RTVSPropertyOp34
 70
     1
102
RTVSPropertyOp35
 70
     1
102
RTVSPropertyOp36
 70
     1
102
RTVSPropertyOp37
 70
     1
102
RTVSPropertyOp38
 70
     1
102
RTVSPropertyOp39
 70
     1
102
RTVSPropertyOp40
 70
     1
102
RTVSPropertyOp41
 70
     1
102
RTVSPropertyOp42
 70
     1
102
RTVSPropertyOp43
 70
     1
102
RTVSPropertyOp44
 70
     1
102
RTVSPropertyOp45
 70
     1
102
RTVSPropertyOp46
 70
     1
102
RTVSPropertyOp47
 70
     1
102
RTVSPropertyOp48
 70
     1
102
RTVSPropertyOp49
 70
     1
102
RTVSPropertyOp50
 70
     1
102
RTVSPropertyOp51
 70
     0
102
RTVSPropertyOp52
 70
     0
102
RTVSPropertyOp53
 70
     1
102
RTVSPropertyOp54
 70
     1
102
RTVSPropertyOp55
 70
     1
102
RTVSPropertyOp56
 70
     1
102
RTVSPropertyOp57
 70
     1
102
RTVSPost2010Prop28
280
     0
102
RTVSPost2010PropOp28
 70
     1
102
RTVSPost2010Prop29
280
     1
102
RTVSPost2010PropOp29
 70
     1
102
RTVSPost2010Prop30
280
     1
102
RTVSPost2010PropOp30
 70
     1
102
RTVSPost2010Prop31
280
     0
102
RTVSPost2010PropOp31
 70
     1
102
RTVSPost2010Prop32
280
     0
102
RTVSPost2010PropOp32
 70
     1
102
RTVSPost2010Prop33
280
     0
102
RTVSPost2010PropOp33
 70
     1
102
RTVSPost2010Prop34
280
     0
102
RTVSPost2010PropOp34
 70
     1
102
RTVSPost2010Prop35
280
     0
102
RTVSPost2010PropOp35
 70
     1
102
RTVSPost2010Prop36
280
     0
102
RTVSPost2010PropOp36
 70
     1
102
RTVSPost2010Prop37
 90
       50
102
RTVSPost2010PropOp37
 70
     1
102
RTVSPost2010Prop38
140
0.0
102
RTVSPost2010PropOp38
 70
     1
102
RTVSPost2010Prop39
140
1.0
102
RTVSPost2010PropOp39
 70
     1
102
RTVSPost2010Prop40
 90
        0
102
RTVSPost2010PropOp40
 70
     1
102
RTVSPost2010Prop41ColorIndex
 90
       18
102
RTVSPost2010Prop41ColorRGB
 90
        0
102
RTVSPost2010PropOp41
 70
     1
102
RTVSPost2010Prop42
 90
       50
102
RTVSPost2010PropOp42
 70
     1
102
RTVSPost2010Prop43
 90
        3
102
RTVSPost2010PropOp43
 70
     1
102
RTVSPost2010Prop44ColorIndex
 90
        5
102
RTVSPost2010Prop44ColorRGB
 90
      255
102
RTVSPost2010PropOp44
 70
     1
102
RTVSPost2010Prop45
280
     0
102
RTVSPost2010PropOp45
 70
     1
102
RTVSPost2010Prop46
 90
       50
102
RTVSPost2010PropOp46
 70
     1
102
RTVSPost2010Prop47
 90
       50
102
RTVSPost2010PropOp47
 70
     1
102
RTVSPost2010Prop48
 90
       50
102
RTVSPost2010PropOp48
 70
     1
102
RTVSPost2010Prop49
280
     0
102
RTVSPost2010PropOp49
 70
     1
102
RTVSPost2010Prop50
 90
       50
102
RTVSPost2010PropOp50
 70
     1
102
RTVSPost2010Prop51ColorIndex
 90
      256
102
RTVSPost2010Prop51ColorRGB
 90
-16777216
102
RTVSPost2010PropOp51
 70
     0
102
RTVSPost2010Prop52
140
1.0
102
RTVSPost2010PropOp52
 70
     0
102
RTVSPost2010Prop53
 90
        2
102
RTVSPost2010PropOp53
 70
     1
102
RTVSPost2010Prop54
  1
strokes_ogs.tif
102
RTVSPost2010PropOp54
 70
     1
102
RTVSPost2010Prop55
280
     0
102
RTVSPost2010PropOp55
 70
     1
102
RTVSPost2010Prop56
140
1.0
102
RTVSPost2010PropOp56
 70
     1
102
RTVSPost2010Prop57
140
1.0
102
RTVSPost2010PropOp57
 70
     1
  0
ENDSEC
  0
EOF
