ISO-10303-21;
HEADER;
/* Generated by software containing ST-Developer
 * from STEP Tools, Inc. (www.steptools.com) 
 */

FILE_DESCRIPTION(
/* description */ (''),
/* implementation_level */ '2;1');

FILE_NAME(
/* name */ 
'K:\\QUALIT\X\C4TSMANAGEMENT\\CAD\\3D_KONSTRUKTION\\PRODUKTE-UT2000\\V
ersuch1\\Versuch1.stp',
/* time_stamp */ '2017-08-07T15:53:58+02:00',
/* author */ ('bobermayer'),
/* organization */ (''),
/* preprocessor_version */ 'ST-DEVELOPER v16.13',
/* originating_system */ 'Autodesk Inventor 2018',
/* authorisation */ '');

FILE_SCHEMA (('AUTOMOTIVE_DESIGN { 1 0 10303 214 3 1 1 }'));
ENDSEC;

DATA;
#10=MECHANICAL_DESIGN_GEOMETRIC_PRESENTATION_REPRESENTATION('',(#25,#26),
#257);
#11=ITEM_DEFINED_TRANSFORMATION($,$,#159,#177);
#12=ITEM_DEFINED_TRANSFORMATION($,$,#168,#178);
#13=(
REPRESENTATION_RELATIONSHIP($,$,#271,#270)
REPRESENTATION_RELATIONSHIP_WITH_TRANSFORMATION(#11)
SHAPE_REPRESENTATION_RELATIONSHIP()
);
#14=(
REPRESENTATION_RELATIONSHIP($,$,#272,#270)
REPRESENTATION_RELATIONSHIP_WITH_TRANSFORMATION(#12)
SHAPE_REPRESENTATION_RELATIONSHIP()
);
#15=CONTEXT_DEPENDENT_SHAPE_REPRESENTATION(#13,#268);
#16=CONTEXT_DEPENDENT_SHAPE_REPRESENTATION(#14,#269);
#17=NEXT_ASSEMBLY_USAGE_OCCURRENCE('Rohr gerade:1','Rohr gerade:1',
'Rohr gerade:1',#274,#275,'Rohr gerade:1');
#18=NEXT_ASSEMBLY_USAGE_OCCURRENCE('Rohr gebogen:1','Rohr gebogen:1',
'Rohr gebogen:1',#274,#276,'Rohr gebogen:1');
#19=TOROIDAL_SURFACE('',#169,23.1180691866635,6.);
#20=TOROIDAL_SURFACE('',#172,23.1180691866635,8.);
#21=SHAPE_REPRESENTATION_RELATIONSHIP('SRR','None',#271,#23);
#22=SHAPE_REPRESENTATION_RELATIONSHIP('SRR','None',#272,#24);
#23=ADVANCED_BREP_SHAPE_REPRESENTATION('',(#27),#255);
#24=ADVANCED_BREP_SHAPE_REPRESENTATION('',(#28),#256);
#25=STYLED_ITEM('',(#290),#27);
#26=STYLED_ITEM('',(#290),#28);
#27=MANIFOLD_SOLID_BREP('Volumenk\X\F6rper1',#115);
#28=MANIFOLD_SOLID_BREP('Volumenk\X\F6rper1',#116);
#29=PLANE('',#166);
#30=PLANE('',#167);
#31=PLANE('',#175);
#32=PLANE('',#176);
#33=FACE_BOUND('',#50,.T.);
#34=FACE_BOUND('',#52,.T.);
#35=FACE_BOUND('',#54,.T.);
#36=FACE_BOUND('',#56,.T.);
#37=FACE_BOUND('',#58,.T.);
#38=FACE_BOUND('',#60,.T.);
#39=FACE_BOUND('',#62,.T.);
#40=FACE_BOUND('',#64,.T.);
#41=FACE_OUTER_BOUND('',#49,.T.);
#42=FACE_OUTER_BOUND('',#51,.T.);
#43=FACE_OUTER_BOUND('',#53,.T.);
#44=FACE_OUTER_BOUND('',#55,.T.);
#45=FACE_OUTER_BOUND('',#57,.T.);
#46=FACE_OUTER_BOUND('',#59,.T.);
#47=FACE_OUTER_BOUND('',#61,.T.);
#48=FACE_OUTER_BOUND('',#63,.T.);
#49=EDGE_LOOP('',(#89));
#50=EDGE_LOOP('',(#90));
#51=EDGE_LOOP('',(#91));
#52=EDGE_LOOP('',(#92));
#53=EDGE_LOOP('',(#93));
#54=EDGE_LOOP('',(#94));
#55=EDGE_LOOP('',(#95));
#56=EDGE_LOOP('',(#96));
#57=EDGE_LOOP('',(#97));
#58=EDGE_LOOP('',(#98));
#59=EDGE_LOOP('',(#99));
#60=EDGE_LOOP('',(#100));
#61=EDGE_LOOP('',(#101));
#62=EDGE_LOOP('',(#102));
#63=EDGE_LOOP('',(#103));
#64=EDGE_LOOP('',(#104));
#65=CIRCLE('',#161,9.);
#66=CIRCLE('',#162,9.);
#67=CIRCLE('',#164,11.);
#68=CIRCLE('',#165,11.);
#69=CIRCLE('',#170,6.);
#70=CIRCLE('',#171,6.);
#71=CIRCLE('',#173,8.);
#72=CIRCLE('',#174,8.);
#73=VERTEX_POINT('',#224);
#74=VERTEX_POINT('',#226);
#75=VERTEX_POINT('',#229);
#76=VERTEX_POINT('',#231);
#77=VERTEX_POINT('',#237);
#78=VERTEX_POINT('',#239);
#79=VERTEX_POINT('',#242);
#80=VERTEX_POINT('',#244);
#81=EDGE_CURVE('',#73,#73,#65,.T.);
#82=EDGE_CURVE('',#74,#74,#66,.T.);
#83=EDGE_CURVE('',#75,#75,#67,.T.);
#84=EDGE_CURVE('',#76,#76,#68,.T.);
#85=EDGE_CURVE('',#77,#77,#69,.T.);
#86=EDGE_CURVE('',#78,#78,#70,.T.);
#87=EDGE_CURVE('',#79,#79,#71,.T.);
#88=EDGE_CURVE('',#80,#80,#72,.T.);
#89=ORIENTED_EDGE('',*,*,#81,.F.);
#90=ORIENTED_EDGE('',*,*,#82,.F.);
#91=ORIENTED_EDGE('',*,*,#83,.F.);
#92=ORIENTED_EDGE('',*,*,#84,.F.);
#93=ORIENTED_EDGE('',*,*,#84,.T.);
#94=ORIENTED_EDGE('',*,*,#82,.T.);
#95=ORIENTED_EDGE('',*,*,#83,.T.);
#96=ORIENTED_EDGE('',*,*,#81,.T.);
#97=ORIENTED_EDGE('',*,*,#85,.F.);
#98=ORIENTED_EDGE('',*,*,#86,.F.);
#99=ORIENTED_EDGE('',*,*,#87,.F.);
#100=ORIENTED_EDGE('',*,*,#88,.T.);
#101=ORIENTED_EDGE('',*,*,#87,.T.);
#102=ORIENTED_EDGE('',*,*,#85,.T.);
#103=ORIENTED_EDGE('',*,*,#88,.F.);
#104=ORIENTED_EDGE('',*,*,#86,.T.);
#105=CYLINDRICAL_SURFACE('',#160,9.);
#106=CYLINDRICAL_SURFACE('',#163,11.);
#107=ADVANCED_FACE('',(#41,#33),#105,.F.);
#108=ADVANCED_FACE('',(#42,#34),#106,.T.);
#109=ADVANCED_FACE('',(#43,#35),#29,.F.);
#110=ADVANCED_FACE('',(#44,#36),#30,.T.);
#111=ADVANCED_FACE('',(#45,#37),#19,.F.);
#112=ADVANCED_FACE('',(#46,#38),#20,.T.);
#113=ADVANCED_FACE('',(#47,#39),#31,.F.);
#114=ADVANCED_FACE('',(#48,#40),#32,.T.);
#115=CLOSED_SHELL('',(#107,#108,#109,#110));
#116=CLOSED_SHELL('',(#111,#112,#113,#114));
#117=DERIVED_UNIT_ELEMENT(#121,0.);
#118=DERIVED_UNIT_ELEMENT(#259,0.);
#119=DERIVED_UNIT_ELEMENT(#121,0.);
#120=DERIVED_UNIT_ELEMENT(#259,0.);
#121=(
MASS_UNIT()
NAMED_UNIT(*)
SI_UNIT($,.GRAM.)
);
#122=DERIVED_UNIT((#117,#118));
#123=DERIVED_UNIT((#119,#120));
#124=MEASURE_REPRESENTATION_ITEM('density measure',
POSITIVE_RATIO_MEASURE(1.),#122);
#125=MEASURE_REPRESENTATION_ITEM('density measure',
POSITIVE_RATIO_MEASURE(1.),#123);
#126=PROPERTY_DEFINITION_REPRESENTATION(#136,#130);
#127=PROPERTY_DEFINITION_REPRESENTATION(#137,#131);
#128=PROPERTY_DEFINITION_REPRESENTATION(#138,#132);
#129=PROPERTY_DEFINITION_REPRESENTATION(#139,#133);
#130=REPRESENTATION('material name',(#134),#255);
#131=REPRESENTATION('density',(#124),#255);
#132=REPRESENTATION('material name',(#135),#256);
#133=REPRESENTATION('density',(#125),#256);
#134=DESCRIPTIVE_REPRESENTATION_ITEM('Generisch','Generisch');
#135=DESCRIPTIVE_REPRESENTATION_ITEM('Generisch','Generisch');
#136=PROPERTY_DEFINITION('material property','material name',#275);
#137=PROPERTY_DEFINITION('material property','density of part',#275);
#138=PROPERTY_DEFINITION('material property','material name',#276);
#139=PROPERTY_DEFINITION('material property','density of part',#276);
#140=DATE_TIME_ROLE('creation_date');
#141=DATE_TIME_ROLE('creation_date');
#142=DATE_TIME_ROLE('creation_date');
#143=APPLIED_DATE_AND_TIME_ASSIGNMENT(#146,#140,(#274));
#144=APPLIED_DATE_AND_TIME_ASSIGNMENT(#147,#141,(#275));
#145=APPLIED_DATE_AND_TIME_ASSIGNMENT(#148,#142,(#276));
#146=DATE_AND_TIME(#149,#152);
#147=DATE_AND_TIME(#150,#153);
#148=DATE_AND_TIME(#151,#154);
#149=CALENDAR_DATE(2017,7,8);
#150=CALENDAR_DATE(2017,7,8);
#151=CALENDAR_DATE(2017,7,8);
#152=LOCAL_TIME(7,22,14.,#155);
#153=LOCAL_TIME(7,17,17.,#156);
#154=LOCAL_TIME(7,12,21.,#157);
#155=COORDINATED_UNIVERSAL_TIME_OFFSET(0,0,.BEHIND.);
#156=COORDINATED_UNIVERSAL_TIME_OFFSET(0,0,.BEHIND.);
#157=COORDINATED_UNIVERSAL_TIME_OFFSET(0,0,.BEHIND.);
#158=AXIS2_PLACEMENT_3D('placement',#221,#179,#180);
#159=AXIS2_PLACEMENT_3D('placement',#222,#181,#182);
#160=AXIS2_PLACEMENT_3D('',#223,#183,#184);
#161=AXIS2_PLACEMENT_3D('',#225,#185,#186);
#162=AXIS2_PLACEMENT_3D('',#227,#187,#188);
#163=AXIS2_PLACEMENT_3D('',#228,#189,#190);
#164=AXIS2_PLACEMENT_3D('',#230,#191,#192);
#165=AXIS2_PLACEMENT_3D('',#232,#193,#194);
#166=AXIS2_PLACEMENT_3D('',#233,#195,#196);
#167=AXIS2_PLACEMENT_3D('',#234,#197,#198);
#168=AXIS2_PLACEMENT_3D('placement',#235,#199,#200);
#169=AXIS2_PLACEMENT_3D('',#236,#201,#202);
#170=AXIS2_PLACEMENT_3D('',#238,#203,#204);
#171=AXIS2_PLACEMENT_3D('',#240,#205,#206);
#172=AXIS2_PLACEMENT_3D('',#241,#207,#208);
#173=AXIS2_PLACEMENT_3D('',#243,#209,#210);
#174=AXIS2_PLACEMENT_3D('',#245,#211,#212);
#175=AXIS2_PLACEMENT_3D('',#246,#213,#214);
#176=AXIS2_PLACEMENT_3D('',#247,#215,#216);
#177=AXIS2_PLACEMENT_3D('',#248,#217,#218);
#178=AXIS2_PLACEMENT_3D('',#249,#219,#220);
#179=DIRECTION('axis',(0.,0.,1.));
#180=DIRECTION('refdir',(1.,0.,0.));
#181=DIRECTION('axis',(0.,0.,1.));
#182=DIRECTION('refdir',(1.,0.,0.));
#183=DIRECTION('center_axis',(0.,0.,1.));
#184=DIRECTION('ref_axis',(-1.,0.,0.));
#185=DIRECTION('center_axis',(0.,0.,-1.));
#186=DIRECTION('ref_axis',(-1.,0.,0.));
#187=DIRECTION('center_axis',(0.,0.,1.));
#188=DIRECTION('ref_axis',(-1.,0.,0.));
#189=DIRECTION('center_axis',(0.,0.,1.));
#190=DIRECTION('ref_axis',(-1.,0.,0.));
#191=DIRECTION('center_axis',(0.,0.,1.));
#192=DIRECTION('ref_axis',(-1.,0.,0.));
#193=DIRECTION('center_axis',(0.,0.,-1.));
#194=DIRECTION('ref_axis',(-1.,0.,0.));
#195=DIRECTION('center_axis',(0.,0.,1.));
#196=DIRECTION('ref_axis',(1.,0.,0.));
#197=DIRECTION('center_axis',(0.,0.,1.));
#198=DIRECTION('ref_axis',(1.,0.,0.));
#199=DIRECTION('axis',(0.,0.,1.));
#200=DIRECTION('refdir',(1.,0.,0.));
#201=DIRECTION('center_axis',(0.,0.,-1.));
#202=DIRECTION('ref_axis',(-1.,0.,0.));
#203=DIRECTION('center_axis',(-0.746943343072718,0.664887691448226,0.));
#204=DIRECTION('ref_axis',(0.664887691448226,0.746943343072718,0.));
#205=DIRECTION('center_axis',(0.746943343072718,0.664887691448226,0.));
#206=DIRECTION('ref_axis',(-0.664887691448226,0.746943343072718,0.));
#207=DIRECTION('center_axis',(0.,0.,-1.));
#208=DIRECTION('ref_axis',(-1.,0.,0.));
#209=DIRECTION('center_axis',(0.746943343072718,-0.664887691448226,0.));
#210=DIRECTION('ref_axis',(0.664887691448226,0.746943343072718,0.));
#211=DIRECTION('center_axis',(0.746943343072718,0.664887691448226,0.));
#212=DIRECTION('ref_axis',(-0.664887691448226,0.746943343072718,0.));
#213=DIRECTION('center_axis',(-0.746943343072718,0.664887691448226,0.));
#214=DIRECTION('ref_axis',(0.,0.,1.));
#215=DIRECTION('center_axis',(-0.746943343072718,-0.664887691448226,0.));
#216=DIRECTION('ref_axis',(0.,0.,1.));
#217=DIRECTION('',(0.,0.,1.));
#218=DIRECTION('',(1.,0.,0.));
#219=DIRECTION('',(-6.12323399573677E-17,1.,-6.12323399573677E-17));
#220=DIRECTION('',(-1.,-6.12323399573677E-17,-6.12323399573676E-17));
#221=CARTESIAN_POINT('',(0.,0.,0.));
#222=CARTESIAN_POINT('',(0.,0.,0.));
#223=CARTESIAN_POINT('Origin',(0.,0.,0.));
#224=CARTESIAN_POINT('',(9.,-1.10218211923262E-15,100.));
#225=CARTESIAN_POINT('Origin',(0.,0.,100.));
#226=CARTESIAN_POINT('',(9.,-1.10218211923262E-15,0.));
#227=CARTESIAN_POINT('Origin',(0.,0.,0.));
#228=CARTESIAN_POINT('Origin',(0.,0.,0.));
#229=CARTESIAN_POINT('',(11.,1.34711147906209E-15,100.));
#230=CARTESIAN_POINT('Origin',(0.,0.,100.));
#231=CARTESIAN_POINT('',(11.,1.34711147906209E-15,0.));
#232=CARTESIAN_POINT('Origin',(0.,0.,0.));
#233=CARTESIAN_POINT('Origin',(-4.48690509505221E-16,0.,0.));
#234=CARTESIAN_POINT('Origin',(-4.48690509505221E-16,0.,100.));
#235=CARTESIAN_POINT('',(0.,0.,0.));
#236=CARTESIAN_POINT('Origin',(-0.0198621082694642,-23.1180606543027,0.));
#237=CARTESIAN_POINT('',(11.3617313953023,-10.3318328290661,7.34788079488412E-16));
#238=CARTESIAN_POINT('Origin',(15.3510575439916,-5.8501727706298,0.));
#239=CARTESIAN_POINT('',(-11.4014556118412,-10.3318328290661,-7.34788079488412E-16));
#240=CARTESIAN_POINT('Origin',(-15.3907817605305,-5.8501727706298,0.));
#241=CARTESIAN_POINT('Origin',(-0.0198621082694642,-23.1180606543027,0.));
#242=CARTESIAN_POINT('',(10.0319560124058,-11.8257195152115,9.79717439317883E-16));
#243=CARTESIAN_POINT('Origin',(15.3510575439916,-5.8501727706298,0.));
#244=CARTESIAN_POINT('',(-10.0716802289447,-11.8257195152115,9.79717439317883E-16));
#245=CARTESIAN_POINT('Origin',(-15.3907817605305,-5.8501727706298,0.));
#246=CARTESIAN_POINT('Origin',(15.3510575439916,-5.8501727706298,0.));
#247=CARTESIAN_POINT('Origin',(-15.3907817605305,-5.8501727706298,0.));
#248=CARTESIAN_POINT('',(0.,0.,0.));
#249=CARTESIAN_POINT('',(-4.47124975933022E-15,-19.,92.));
#250=UNCERTAINTY_MEASURE_WITH_UNIT(LENGTH_MEASURE(0.01),#258,
'DISTANCE_ACCURACY_VALUE',
'Maximum model space distance between geometric entities at asserted c
onnectivities');
#251=UNCERTAINTY_MEASURE_WITH_UNIT(LENGTH_MEASURE(0.01),#258,
'DISTANCE_ACCURACY_VALUE',
'Maximum model space distance between geometric entities at asserted c
onnectivities');
#252=UNCERTAINTY_MEASURE_WITH_UNIT(LENGTH_MEASURE(0.01),#258,
'DISTANCE_ACCURACY_VALUE',
'Maximum model space distance between geometric entities at asserted c
onnectivities');
#253=UNCERTAINTY_MEASURE_WITH_UNIT(LENGTH_MEASURE(0.01),#258,
'DISTANCE_ACCURACY_VALUE',
'Maximum model space distance between geometric entities at asserted c
onnectivities');
#254=(
GEOMETRIC_REPRESENTATION_CONTEXT(3)
GLOBAL_UNCERTAINTY_ASSIGNED_CONTEXT((#250))
GLOBAL_UNIT_ASSIGNED_CONTEXT((#258,#261,#260))
REPRESENTATION_CONTEXT('','3D')
);
#255=(
GEOMETRIC_REPRESENTATION_CONTEXT(3)
GLOBAL_UNCERTAINTY_ASSIGNED_CONTEXT((#251))
GLOBAL_UNIT_ASSIGNED_CONTEXT((#258,#261,#260))
REPRESENTATION_CONTEXT('','3D')
);
#256=(
GEOMETRIC_REPRESENTATION_CONTEXT(3)
GLOBAL_UNCERTAINTY_ASSIGNED_CONTEXT((#252))
GLOBAL_UNIT_ASSIGNED_CONTEXT((#258,#261,#260))
REPRESENTATION_CONTEXT('','3D')
);
#257=(
GEOMETRIC_REPRESENTATION_CONTEXT(3)
GLOBAL_UNCERTAINTY_ASSIGNED_CONTEXT((#253))
GLOBAL_UNIT_ASSIGNED_CONTEXT((#258,#261,#260))
REPRESENTATION_CONTEXT('','3D')
);
#258=(
LENGTH_UNIT()
NAMED_UNIT(*)
SI_UNIT(.MILLI.,.METRE.)
);
#259=(
LENGTH_UNIT()
NAMED_UNIT(*)
SI_UNIT(.CENTI.,.METRE.)
);
#260=(
NAMED_UNIT(*)
SI_UNIT($,.STERADIAN.)
SOLID_ANGLE_UNIT()
);
#261=(
NAMED_UNIT(*)
PLANE_ANGLE_UNIT()
SI_UNIT($,.RADIAN.)
);
#262=SHAPE_DEFINITION_REPRESENTATION(#265,#270);
#263=SHAPE_DEFINITION_REPRESENTATION(#266,#271);
#264=SHAPE_DEFINITION_REPRESENTATION(#267,#272);
#265=PRODUCT_DEFINITION_SHAPE('',$,#274);
#266=PRODUCT_DEFINITION_SHAPE('',$,#275);
#267=PRODUCT_DEFINITION_SHAPE('',$,#276);
#268=PRODUCT_DEFINITION_SHAPE($,$,#17);
#269=PRODUCT_DEFINITION_SHAPE($,$,#18);
#270=SHAPE_REPRESENTATION('',(#158,#177,#178),#254);
#271=SHAPE_REPRESENTATION('',(#159),#255);
#272=SHAPE_REPRESENTATION('',(#168),#256);
#273=PRODUCT_DEFINITION_CONTEXT('part definition',#284,'design');
#274=PRODUCT_DEFINITION('Versuch1','Versuch1',#277,#273);
#275=PRODUCT_DEFINITION('Rohr gerade','Rohr gerade',#278,#273);
#276=PRODUCT_DEFINITION('Rohr gebogen','Rohr gebogen',#279,#273);
#277=PRODUCT_DEFINITION_FORMATION('',$,#286);
#278=PRODUCT_DEFINITION_FORMATION('',$,#287);
#279=PRODUCT_DEFINITION_FORMATION('',$,#288);
#280=PRODUCT_RELATED_PRODUCT_CATEGORY('Versuch1','Versuch1',(#286));
#281=PRODUCT_RELATED_PRODUCT_CATEGORY('Rohr gerade','Rohr gerade',(#287));
#282=PRODUCT_RELATED_PRODUCT_CATEGORY('Rohr gebogen','Rohr gebogen',(#288));
#283=APPLICATION_PROTOCOL_DEFINITION('international standard',
'automotive_design',2009,#284);
#284=APPLICATION_CONTEXT(
'Core Data for Automotive Mechanical Design Process');
#285=PRODUCT_CONTEXT('part definition',#284,'mechanical');
#286=PRODUCT('Versuch1','Versuch1',$,(#285));
#287=PRODUCT('Rohr gerade','Rohr gerade',$,(#285));
#288=PRODUCT('Rohr gebogen','Rohr gebogen',$,(#285));
#289=PRESENTATION_STYLE_ASSIGNMENT((#291));
#290=PRESENTATION_STYLE_ASSIGNMENT((#292));
#291=SURFACE_STYLE_USAGE(.BOTH.,#293);
#292=SURFACE_STYLE_USAGE(.BOTH.,#294);
#293=SURFACE_SIDE_STYLE('',(#295));
#294=SURFACE_SIDE_STYLE('',(#296));
#295=SURFACE_STYLE_FILL_AREA(#297);
#296=SURFACE_STYLE_FILL_AREA(#298);
#297=FILL_AREA_STYLE('',(#299));
#298=FILL_AREA_STYLE('',(#300));
#299=FILL_AREA_STYLE_COLOUR('',#301);
#300=FILL_AREA_STYLE_COLOUR('',#302);
#301=COLOUR_RGB('',0.768627450980392,0.76078431372549,0.8);
#302=COLOUR_RGB('',0.749019607843137,0.749019607843137,0.749019607843137);
ENDSEC;
END-ISO-10303-21;
