  0
SECTION
  2
HEADER
  9
$ACADVER
  1
AC1024
  9
$ACADMAINTVER
 70
     6
  9
$DWGCODEPAGE
  3
ANSI_1252
  9
$INSBASE
 10
0.0
 20
0.0
 30
0.0
  9
$EXTMIN
 10
1.000000000000000E+20
 20
1.000000000000000E+20
 30
1.000000000000000E+20
  9
$EXTMAX
 10
-1.000000000000000E+20
 20
-1.000000000000000E+20
 30
-1.000000000000000E+20
  9
$LIMMIN
 10
0.0
 20
0.0
  9
$LIMMAX
 10
12.0
 20
9.0
  9
$ORTHOMODE
 70
     0
  9
$REGENMODE
 70
     1
  9
$FILLMODE
 70
     1
  9
$QTEXTMODE
 70
     0
  9
$MIRRTEXT
 70
     1
  9
$LTSCALE
 40
1.0
  9
$ATTMODE
 70
     1
  9
$TEXTSIZE
 40
0.2
  9
$TRACEWID
 40
0.05
  9
$TEXTSTYLE
  7
Standard
  9
$CLAYER
  8
0
  9
$CELTYPE
  6
ByLayer
  9
$CECOLOR
 62
   256
  9
$CELTSCALE
 40
1.0
  9
$DISPSILH
 70
     0
  9
$DIMSCALE
 40
1.0
  9
$DIMASZ
 40
0.18
  9
$DIMEXO
 40
0.0625
  9
$DIMDLI
 40
0.38
  9
$DIMRND
 40
0.0
  9
$DIMDLE
 40
0.0
  9
$DIMEXE
 40
0.18
  9
$DIMTP
 40
0.0
  9
$DIMTM
 40
0.0
  9
$DIMTXT
 40
0.18
  9
$DIMCEN
 40
0.09
  9
$DIMTSZ
 40
0.0
  9
$DIMTOL
 70
     0
  9
$DIMLIM
 70
     0
  9
$DIMTIH
 70
     1
  9
$DIMTOH
 70
     1
  9
$DIMSE1
 70
     0
  9
$DIMSE2
 70
     0
  9
$DIMTAD
 70
     0
  9
$DIMZIN
 70
     0
  9
$DIMBLK
  1

  9
$DIMASO
 70
     1
  9
$DIMSHO
 70
     1
  9
$DIMPOST
  1

  9
$DIMAPOST
  1

  9
$DIMALT
 70
     0
  9
$DIMALTD
 70
     2
  9
$DIMALTF
 40
25.4
  9
$DIMLFAC
 40
1.0
  9
$DIMTOFL
 70
     0
  9
$DIMTVP
 40
0.0
  9
$DIMTIX
 70
     0
  9
$DIMSOXD
 70
     0
  9
$DIMSAH
 70
     0
  9
$DIMBLK1
  1

  9
$DIMBLK2
  1

  9
$DIMSTYLE
  2
Standard
  9
$DIMCLRD
 70
     0
  9
$DIMCLRE
 70
     0
  9
$DIMCLRT
 70
     0
  9
$DIMTFAC
 40
1.0
  9
$DIMGAP
 40
0.09
  9
$DIMJUST
 70
     0
  9
$DIMSD1
 70
     0
  9
$DIMSD2
 70
     0
  9
$DIMTOLJ
 70
     1
  9
$DIMTZIN
 70
     0
  9
$DIMALTZ
 70
     0
  9
$DIMALTTZ
 70
     0
  9
$DIMUPT
 70
     0
  9
$DIMDEC
 70
     4
  9
$DIMTDEC
 70
     4
  9
$DIMALTU
 70
     2
  9
$DIMALTTD
 70
     2
  9
$DIMTXSTY
  7
Standard
  9
$DIMAUNIT
 70
     0
  9
$DIMADEC
 70
     0
  9
$DIMALTRND
 40
0.0
  9
$DIMAZIN
 70
     0
  9
$DIMDSEP
 70
    46
  9
$DIMATFIT
 70
     3
  9
$DIMFRAC
 70
     0
  9
$DIMLDRBLK
  1

  9
$DIMLUNIT
 70
     2
  9
$DIMLWD
 70
    -2
  9
$DIMLWE
 70
    -2
  9
$DIMTMOVE
 70
     0
  9
$DIMFXL
 40
1.0
  9
$DIMFXLON
 70
     0
  9
$DIMJOGANG
 40
0.7853981633974483
  9
$DIMTFILL
 70
     0
  9
$DIMTFILLCLR
 70
     0
  9
$DIMARCSYM
 70
     0
  9
$DIMLTYPE
  6

  9
$DIMLTEX1
  6

  9
$DIMLTEX2
  6

  9
$DIMTXTDIRECTION
 70
     0
  9
$LUNITS
 70
     2
  9
$LUPREC
 70
     4
  9
$SKETCHINC
 40
0.1
  9
$FILLETRAD
 40
0.5
  9
$AUNITS
 70
     0
  9
$AUPREC
 70
     0
  9
$MENU
  1
.
  9
$ELEVATION
 40
0.0
  9
$PELEVATION
 40
0.0
  9
$THICKNESS
 40
0.0
  9
$LIMCHECK
 70
     0
  9
$CHAMFERA
 40
0.5
  9
$CHAMFERB
 40
0.5
  9
$CHAMFERC
 40
1.0
  9
$CHAMFERD
 40
0.0
  9
$SKPOLY
 70
     0
  9
$TDCREATE
 40
2458118.689463252
  9
$TDUCREATE
 40
2458118.647796586
  9
$TDUPDATE
 40
2458118.689463438
  9
$TDUUPDATE
 40
2458118.647796771
  9
$TDINDWG
 40
0.0000000116
  9
$TDUSRTIMER
 40
0.0000000116
  9
$USRTIMER
 70
     1
  9
$ANGBASE
 50
0.0
  9
$ANGDIR
 70
     0
  9
$PDMODE
 70
     0
  9
$PDSIZE
 40
0.0
  9
$PLINEWID
 40
0.0
  9
$SPLFRAME
 70
     0
  9
$SPLINETYPE
 70
     6
  9
$SPLINESEGS
 70
     8
  9
$HANDSEED
  5
6B
  9
$SURFTAB1
 70
     6
  9
$SURFTAB2
 70
     6
  9
$SURFTYPE
 70
     6
  9
$SURFU
 70
     6
  9
$SURFV
 70
     6
  9
$UCSBASE
  2

  9
$UCSNAME
  2

  9
$UCSORG
 10
0.0
 20
0.0
 30
0.0
  9
$UCSXDIR
 10
1.0
 20
0.0
 30
0.0
  9
$UCSYDIR
 10
0.0
 20
1.0
 30
0.0
  9
$UCSORTHOREF
  2

  9
$UCSORTHOVIEW
 70
     0
  9
$UCSORGTOP
 10
0.0
 20
0.0
 30
0.0
  9
$UCSORGBOTTOM
 10
0.0
 20
0.0
 30
0.0
  9
$UCSORGLEFT
 10
0.0
 20
0.0
 30
0.0
  9
$UCSORGRIGHT
 10
0.0
 20
0.0
 30
0.0
  9
$UCSORGFRONT
 10
0.0
 20
0.0
 30
0.0
  9
$UCSORGBACK
 10
0.0
 20
0.0
 30
0.0
  9
$PUCSBASE
  2

  9
$PUCSNAME
  2

  9
$PUCSORG
 10
0.0
 20
0.0
 30
0.0
  9
$PUCSXDIR
 10
1.0
 20
0.0
 30
0.0
  9
$PUCSYDIR
 10
0.0
 20
1.0
 30
0.0
  9
$PUCSORTHOREF
  2

  9
$PUCSORTHOVIEW
 70
     0
  9
$PUCSORGTOP
 10
0.0
 20
0.0
 30
0.0
  9
$PUCSORGBOTTOM
 10
0.0
 20
0.0
 30
0.0
  9
$PUCSORGLEFT
 10
0.0
 20
0.0
 30
0.0
  9
$PUCSORGRIGHT
 10
0.0
 20
0.0
 30
0.0
  9
$PUCSORGFRONT
 10
0.0
 20
0.0
 30
0.0
  9
$PUCSORGBACK
 10
0.0
 20
0.0
 30
0.0
  9
$USERI1
 70
     0
  9
$USERI2
 70
     0
  9
$USERI3
 70
     0
  9
$USERI4
 70
     0
  9
$USERI5
 70
     0
  9
$USERR1
 40
0.0
  9
$USERR2
 40
0.0
  9
$USERR3
 40
0.0
  9
$USERR4
 40
0.0
  9
$USERR5
 40
0.0
  9
$WORLDVIEW
 70
     1
  9
$SHADEDGE
 70
     3
  9
$SHADEDIF
 70
    70
  9
$TILEMODE
 70
     1
  9
$MAXACTVP
 70
    64
  9
$PINSBASE
 10
0.0
 20
0.0
 30
0.0
  9
$PLIMCHECK
 70
     0
  9
$PEXTMIN
 10
1.000000000000000E+20
 20
1.000000000000000E+20
 30
1.000000000000000E+20
  9
$PEXTMAX
 10
-1.000000000000000E+20
 20
-1.000000000000000E+20
 30
-1.000000000000000E+20
  9
$PLIMMIN
 10
0.0
 20
0.0
  9
$PLIMMAX
 10
12.0
 20
9.0
  9
$UNITMODE
 70
     0
  9
$VISRETAIN
 70
     1
  9
$PLINEGEN
 70
     0
  9
$PSLTSCALE
 70
     1
  9
$TREEDEPTH
 70
  3020
  9
$CMLSTYLE
  2
Standard
  9
$CMLJUST
 70
     0
  9
$CMLSCALE
 40
1.0
  9
$PROXYGRAPHICS
 70
     1
  9
$MEASUREMENT
 70
     0
  9
$CELWEIGHT
370
    -1
  9
$ENDCAPS
280
     0
  9
$JOINSTYLE
280
     0
  9
$LWDISPLAY
290
     1
  9
$INSUNITS
 70
     1
  9
$HYPERLINKBASE
  1

  9
$STYLESHEET
  1

  9
$XEDIT
290
     1
  9
$CEPSNTYPE
380
     0
  9
$PSTYLEMODE
290
     1
  9
$FINGERPRINTGUID
  2
{0ECCA11A-2A67-4705-8783-A8FC06E3287A}
  9
$VERSIONGUID
  2
{FAEB1C32-E019-11D5-929B-00C0DF256EC4}
  9
$EXTNAMES
290
     1
  9
$PSVPSCALE
 40
0.0
  9
$OLESTARTUP
290
     0
  9
$SORTENTS
280
   127
  9
$INDEXCTL
280
     0
  9
$HIDETEXT
280
     1
  9
$XCLIPFRAME
280
     2
  9
$HALOGAP
280
     0
  9
$OBSCOLOR
 70
   257
  9
$OBSLTYPE
280
     0
  9
$INTERSECTIONDISPLAY
280
     0
  9
$INTERSECTIONCOLOR
 70
   257
  9
$DIMASSOC
280
     2
  9
$PROJECTNAME
  1

  9
$CAMERADISPLAY
290
     0
  9
$LENSLENGTH
 40
50.0
  9
$CAMERAHEIGHT
 40
0.0
  9
$STEPSPERSEC
 40
2.0
  9
$STEPSIZE
 40
6.0
  9
$3DDWFPREC
 40
2.0
  9
$PSOLWIDTH
 40
0.25
  9
$PSOLHEIGHT
 40
4.0
  9
$LOFTANG1
 40
1.570796326794897
  9
$LOFTANG2
 40
1.570796326794897
  9
$LOFTMAG1
 40
0.0
  9
$LOFTMAG2
 40
0.0
  9
$LOFTPARAM
 70
     7
  9
$LOFTNORMALS
280
     1
  9
$LATITUDE
 40
37.795
  9
$LONGITUDE
 40
-122.394
  9
$NORTHDIRECTION
 40
0.0
  9
$TIMEZONE
 70
 -8000
  9
$LIGHTGLYPHDISPLAY
280
     1
  9
$TILEMODELIGHTSYNCH
280
     1
  9
$CMATERIAL
347
3C
  9
$SOLIDHIST
280
     1
  9
$SHOWHIST
280
     1
  9
$DWFFRAME
280
     2
  9
$DGNFRAME
280
     2
  9
$REALWORLDSCALE
290
     1
  9
$INTERFERECOLOR
 62
   256
  9
$CSHADOW
280
     0
  9
$SHADOWPLANELOCATION
 40
0.0
  0
ENDSEC
  0
SECTION
  2
CLASSES
  0
CLASS
  1
ACDBDICTIONARYWDFLT
  2
AcDbDictionaryWithDefault
  3
ObjectDBX Classes
 90
        0
 91
        4
280
     0
281
     0
  0
CLASS
  1
VISUALSTYLE
  2
AcDbVisualStyle
  3
ObjectDBX Classes
 90
     4095
 91
        4
280
     0
281
     0
  0
CLASS
  1
MATERIAL
  2
AcDbMaterial
  3
ObjectDBX Classes
 90
     1153
 91
        4
280
     0
281
     0
  0
CLASS
  1
SUN
  2
AcDbSun
  3
SCENEOE
 90
     1024
 91
        4
280
     0
281
     0
  0
ENDSEC
  0
SECTION
  2
TABLES
  0
TABLE
  2
VPORT
  5
8
330
0
100
AcDbSymbolTable
 70
     1
  0
VPORT
  5
29
330
8
100
AcDbSymbolTableRecord
100
AcDbViewportTableRecord
  2
*Active
 70
     0
 10
0.0
 20
0.0
 11
1.0
 21
1.0
 12
0.0
 22
0.0
 13
0.0
 23
0.0
 14
0.5
 24
0.5
 15
0.5
 25
0.5
 16
0.0
 26
0.0
 36
1.0
 17
105.0007777515276
 27
148.5000416295416
 37
0.0
 40
39.99999998999988
 41
0.3715469613259611
 42
50.0
 43
0.0
 44
0.0
 50
0.0
 51
0.0
 71
     0
 72
   100
 73
     1
 74
     3
 75
     0
 76
     0
 77
     0
 78
     0
281
     0
 65
     1
110
0.0
120
0.0
130
0.0
111
1.0
121
0.0
131
0.0
112
0.0
122
1.0
132
0.0
 79
     0
146
0.0
 60
     3
 61
     5
292
     1
282
     1
141
0.0
142
0.0
 63
   250
361
3F
  0
ENDTAB
  0
TABLE
  2
LTYPE
  5
5
330
0
100
AcDbSymbolTable
 70
     1
  0
LTYPE
  5
14
330
5
100
AcDbSymbolTableRecord
100
AcDbLinetypeTableRecord
  2
ByBlock
 70
     0
  3

 72
    65
 73
     0
 40
0.0
  0
LTYPE
  5
15
330
5
100
AcDbSymbolTableRecord
100
AcDbLinetypeTableRecord
  2
ByLayer
 70
     0
  3

 72
    65
 73
     0
 40
0.0
  0
LTYPE
  5
16
330
5
100
AcDbSymbolTableRecord
100
AcDbLinetypeTableRecord
  2
Continuous
 70
     0
  3
Solid line
 72
    65
 73
     0
 40
0.0
  0
ENDTAB
  0
TABLE
  2
LAYER
  5
2
330
0
100
AcDbSymbolTable
 70
     2
  0
LAYER
  5
10
330
2
100
AcDbSymbolTableRecord
100
AcDbLayerTableRecord
  2
0
 70
     0
 62
     7
  6
Continuous
370
    -3
390
F
347
3E
  0
LAYER
  5
40
330
2
100
AcDbSymbolTableRecord
100
AcDbLayerTableRecord
  2
IDTHEAD_U+00A0Bild
 70
     0
 62
     7
  6
Continuous
370
    -3
390
F
347
3E
  0
ENDTAB
  0
TABLE
  2
STYLE
  5
3
330
0
100
AcDbSymbolTable
 70
     1
  0
STYLE
  5
11
330
3
100
AcDbSymbolTableRecord
100
AcDbTextStyleTableRecord
  2
Standard
 70
     0
 40
0.0
 41
1.0
 50
0.0
 71
     0
 42
0.2
  3
txt
  4

  0
ENDTAB
  0
TABLE
  2
VIEW
  5
6
330
0
100
AcDbSymbolTable
 70
     0
  0
ENDTAB
  0
TABLE
  2
UCS
  5
7
330
0
100
AcDbSymbolTable
 70
     0
  0
ENDTAB
  0
TABLE
  2
APPID
  5
9
330
0
100
AcDbSymbolTable
 70
     1
  0
APPID
  5
12
330
9
100
AcDbSymbolTableRecord
100
AcDbRegAppTableRecord
  2
ACAD
 70
     0
  0
ENDTAB
  0
TABLE
  2
DIMSTYLE
  5
A
330
0
100
AcDbSymbolTable
 70
     1
100
AcDbDimStyleTable
  0
DIMSTYLE
105
27
330
A
100
AcDbSymbolTableRecord
100
AcDbDimStyleTableRecord
  2
Standard
 70
     0
178
     0
340
11
  0
ENDTAB
  0
TABLE
  2
BLOCK_RECORD
  5
1
330
0
100
AcDbSymbolTable
 70
     2
  0
BLOCK_RECORD
  5
1F
330
1
100
AcDbSymbolTableRecord
100
AcDbBlockTableRecord
  2
*Model_Space
340
22
 70
     0
280
     1
281
     0
  0
BLOCK_RECORD
  5
1B
330
1
100
AcDbSymbolTableRecord
100
AcDbBlockTableRecord
  2
*Paper_Space
340
1E
 70
     0
280
     1
281
     0
  0
BLOCK_RECORD
  5
23
330
1
100
AcDbSymbolTableRecord
100
AcDbBlockTableRecord
  2
*Paper_Space0
340
26
 70
     0
280
     1
281
     0
  0
BLOCK_RECORD
  5
41
330
1
100
AcDbSymbolTableRecord
100
AcDbBlockTableRecord
  2
block 2
340
0
102
{BLKREFS
331
42
102
}
 70
     0
280
     1
281
     0
  0
ENDTAB
  0
ENDSEC
  0
SECTION
  2
BLOCKS
  0
BLOCK
  5
20
330
1F
100
AcDbEntity
  8
0
100
AcDbBlockBegin
  2
*Model_Space
 70
     0
 10
0.0
 20
0.0
 30
0.0
  3
*Model_Space
  1

  0
ENDBLK
  5
21
330
1F
100
AcDbEntity
  8
0
100
AcDbBlockEnd
  0
BLOCK
  5
1C
330
1B
100
AcDbEntity
 67
     1
  8
0
100
AcDbBlockBegin
  2
*Paper_Space
 70
     0
 10
0.0
 20
0.0
 30
0.0
  3
*Paper_Space
  1

  0
ENDBLK
  5
1D
330
1B
100
AcDbEntity
 67
     1
  8
0
100
AcDbBlockEnd
  0
BLOCK
  5
24
330
23
100
AcDbEntity
  8
0
100
AcDbBlockBegin
  2
*Paper_Space0
 70
     0
 10
0.0
 20
0.0
 30
0.0
  3
*Paper_Space0
  1

  0
ENDBLK
  5
25
330
23
100
AcDbEntity
  8
0
100
AcDbBlockEnd
  0
BLOCK
  5
43
330
41
100
AcDbEntity
  8
0
100
AcDbBlockBegin
  2
block 2
 70
     0
 10
0.0
 20
0.0
 30
0.0
  3
block 2
  1

  0
SPLINE
  5
45
330
41
100
AcDbEntity
  8
IDTHEAD_U+00A0Bild
370
     0
100
AcDbSpline
210
0.0
220
0.0
230
1.0
 70
    11
 71
     3
 72
   260
 73
   256
 74
     0
 42
0.0000000001
 43
0.0000000001
 12
1.0
 22
0.0
 32
0.0
 13
1.0
 23
0.0
 33
0.0
 40
0.0
 40
0.0
 40
0.0
 40
0.0
 40
1.0
 40
1.0
 40
1.0
 40
2.0
 40
2.0
 40
2.0
 40
3.0
 40
3.0
 40
3.0
 40
4.0
 40
4.0
 40
4.0
 40
5.0
 40
5.0
 40
5.0
 40
6.0
 40
6.0
 40
6.0
 40
7.0
 40
7.0
 40
7.0
 40
8.0
 40
8.0
 40
8.0
 40
9.0
 40
9.0
 40
9.0
 40
10.0
 40
10.0
 40
10.0
 40
11.0
 40
11.0
 40
11.0
 40
12.0
 40
12.0
 40
12.0
 40
13.0
 40
13.0
 40
13.0
 40
14.0
 40
14.0
 40
14.0
 40
15.0
 40
15.0
 40
15.0
 40
16.0
 40
16.0
 40
16.0
 40
17.0
 40
17.0
 40
17.0
 40
18.0
 40
18.0
 40
18.0
 40
19.0
 40
19.0
 40
19.0
 40
20.0
 40
20.0
 40
20.0
 40
21.0
 40
21.0
 40
21.0
 40
22.0
 40
22.0
 40
22.0
 40
23.0
 40
23.0
 40
23.0
 40
24.0
 40
24.0
 40
24.0
 40
25.0
 40
25.0
 40
25.0
 40
26.0
 40
26.0
 40
26.0
 40
27.0
 40
27.0
 40
27.0
 40
28.0
 40
28.0
 40
28.0
 40
29.0
 40
29.0
 40
29.0
 40
30.0
 40
30.0
 40
30.0
 40
31.0
 40
31.0
 40
31.0
 40
32.0
 40
32.0
 40
32.0
 40
33.0
 40
33.0
 40
33.0
 40
34.0
 40
34.0
 40
34.0
 40
35.0
 40
35.0
 40
35.0
 40
36.0
 40
36.0
 40
36.0
 40
37.0
 40
37.0
 40
37.0
 40
38.0
 40
38.0
 40
38.0
 40
39.0
 40
39.0
 40
39.0
 40
40.0
 40
40.0
 40
40.0
 40
41.0
 40
41.0
 40
41.0
 40
42.0
 40
42.0
 40
42.0
 40
43.0
 40
43.0
 40
43.0
 40
44.0
 40
44.0
 40
44.0
 40
45.0
 40
45.0
 40
45.0
 40
46.0
 40
46.0
 40
46.0
 40
47.0
 40
47.0
 40
47.0
 40
48.0
 40
48.0
 40
48.0
 40
49.0
 40
49.0
 40
49.0
 40
50.0
 40
50.0
 40
50.0
 40
51.0
 40
51.0
 40
51.0
 40
52.0
 40
52.0
 40
52.0
 40
53.0
 40
53.0
 40
53.0
 40
54.0
 40
54.0
 40
54.0
 40
55.0
 40
55.0
 40
55.0
 40
56.0
 40
56.0
 40
56.0
 40
57.0
 40
57.0
 40
57.0
 40
58.0
 40
58.0
 40
58.0
 40
59.0
 40
59.0
 40
59.0
 40
60.0
 40
60.0
 40
60.0
 40
61.0
 40
61.0
 40
61.0
 40
62.0
 40
62.0
 40
62.0
 40
63.0
 40
63.0
 40
63.0
 40
64.0
 40
64.0
 40
64.0
 40
65.0
 40
65.0
 40
65.0
 40
66.0
 40
66.0
 40
66.0
 40
67.0
 40
67.0
 40
67.0
 40
68.0
 40
68.0
 40
68.0
 40
69.0
 40
69.0
 40
69.0
 40
70.0
 40
70.0
 40
70.0
 40
71.0
 40
71.0
 40
71.0
 40
72.0
 40
72.0
 40
72.0
 40
73.0
 40
73.0
 40
73.0
 40
74.0
 40
74.0
 40
74.0
 40
75.0
 40
75.0
 40
75.0
 40
76.0
 40
76.0
 40
76.0
 40
77.0
 40
77.0
 40
77.0
 40
78.0
 40
78.0
 40
78.0
 40
79.0
 40
79.0
 40
79.0
 40
80.0
 40
80.0
 40
80.0
 40
81.0
 40
81.0
 40
81.0
 40
82.0
 40
82.0
 40
82.0
 40
83.0
 40
83.0
 40
83.0
 40
84.0
 40
84.0
 40
84.0
 40
85.0
 40
85.0
 40
85.0
 40
85.0
 10
99.00630243466092
 20
128.4447921649322
 30
0.0
 10
98.54632180282411
 20
128.4447921649322
 30
0.0
 10
98.08634090754161
 20
128.4447921649322
 30
0.0
 10
97.62508714681043
 20
128.4447921649322
 30
0.0
 10
97.62508714681043
 20
137.9659698779618
 30
0.0
 10
97.62508714681043
 20
147.4871492770459
 30
0.0
 10
97.62508729170575
 20
157.0083286761294
 30
0.0
 10
97.71303436184535
 20
157.1067672572705
 30
0.0
 10
97.84832866246728
 20
157.1918118248361
 30
0.0
 10
97.88063116657307
 20
157.3059930928794
 30
0.0
 10
98.01189477051597
 20
157.7699799999562
 30
0.0
 10
98.1097475532441
 20
158.2433497979627
 30
0.0
 10
98.2243077619407
 20
158.7121866395873
 30
0.0
 10
98.24906477889016
 20
158.8135050010891
 30
0.0
 10
98.29201895596229
 20
158.9103763949669
 30
0.0
 10
98.3265912840225
 20
159.0092963445466
 30
0.0
 10
98.34993670488628
 20
159.0028994553844
 30
0.0
 10
98.37328217843933
 20
158.9965017231949
 30
0.0
 10
98.3966275993031
 20
158.9901039910058
 30
0.0
 10
98.3966275993031
 20
158.8836768856552
 30
0.0
 10
98.4139564942662
 20
158.7738304626399
 30
0.0
 10
98.39374676515833
 20
158.6713891891238
 30
0.0
 10
98.2827715816285
 20
158.1088659097699
 30
0.0
 10
98.16576580418437
 20
157.5474680715112
 30
0.0
 10
98.04414761506033
 20
156.987134976401
 30
0.0
 10
97.99008036578633
 20
156.738030603078
 30
0.0
 10
97.85219341454331
 20
156.4862833399916
 30
0.0
 10
97.87345995707697
 20
156.2464758688407
 30
0.0
 10
97.90657073969976
 20
155.8731093101572
 30
0.0
 10
97.99956307638627
 20
155.4907122458455
 30
0.0
 10
98.14461894514581
 20
155.1445990652375
 30
0.0
 10
98.44711617245733
 20
154.4228229202951
 30
0.0
 10
98.61058512163957
 20
153.7231905665527
 30
0.0
 10
98.34128466570884
 20
152.9378619853444
 30
0.0
 10
98.18683320792466
 20
152.4874562438454
 30
0.0
 10
98.18589560379122
 20
151.9838403217794
 30
0.0
 10
98.12118205584866
 20
151.5034599109273
 30
0.0
 10
98.08671157599223
 20
151.247580972329
 30
0.0
 10
98.19414815353102
 20
151.0523173637972
 30
0.0
 10
98.41525686347184
 20
150.928439598766
 30
0.0
 10
98.67698656777957
 20
150.7818034758244
 30
0.0
 10
98.93676671937297
 20
150.6262026033634
 30
0.0
 10
99.21281529060543
 20
150.5116571476396
 30
0.0
 10
99.98584969238753
 20
150.1908819876774
 30
0.0
 10
100.7614668128778
 20
149.8746928948004
 30
0.0
 10
101.5466959168958
 20
149.5855649698344
 30
0.0
 10
102.0118183813922
 20
149.4143057131749
 30
0.0
 10
102.5083271640166
 20
149.2108209049712
 30
0.0
 10
102.8961406770458
 20
149.7550724163096
 30
0.0
 10
102.8983477218304
 20
149.7581696976461
 30
0.0
 10
102.9116388861073
 20
149.7533711877477
 30
0.0
 10
102.9554767135823
 20
149.7473620910227
 30
0.0
 10
102.906619081611
 20
149.6259341625628
 30
0.0
 10
102.8618842733679
 20
149.5116433010047
 30
0.0
 10
102.814815966284
 20
149.3983219205398
 30
0.0
 10
102.6308160420033
 20
148.9553128982696
 30
0.0
 10
102.7463065310362
 20
148.7116359330154
 30
0.0
 10
103.2057655398935
 20
148.6382487433276
 30
0.0
 10
103.4206645126744
 20
148.6039240544596
 30
0.0
 10
103.6504926512663
 20
148.5966217542589
 30
0.0
 10
103.8640503680302
 20
148.6329477893144
 30
0.0
 10
104.4762254108249
 20
148.7370751169059
 30
0.0
 10
104.6265501985702
 20
148.9102783939144
 30
0.0
 10
104.5138193585454
 20
149.4688461904074
 30
0.0
 10
104.4062874662619
 20
150.0016527666816
 30
0.0
 10
104.2713980820638
 20
150.5389543631211
 30
0.0
 10
104.0624032491416
 20
151.0382236377807
 30
0.0
 10
103.8822610165855
 20
151.4685670218357
 30
0.0
 10
103.5691418066666
 20
151.8416520094888
 30
0.0
 10
103.3404133968451
 20
152.2542412441294
 30
0.0
 10
103.2738800169739
 20
152.374259631382
 30
0.0
 10
103.2541502336967
 20
152.5552845132469
 30
0.0
 10
103.2925779351573
 20
152.6847043380241
 30
0.0
 10
103.3141198050523
 20
152.7572569309448
 30
0.0
 10
103.4948905142649
 20
152.7985720000096
 30
0.0
 10
103.610519259732
 20
152.8243079294171
 30
0.0
 10
104.0529116077238
 20
152.9227734874234
 30
0.0
 10
104.5013998842255
 20
152.9954559065076
 30
0.0
 10
104.9409255187757
 20
153.104673431353
 30
0.0
 10
105.2689810602359
 20
153.186192459847
 30
0.0
 10
105.5867482997275
 20
153.3091108601092
 30
0.0
 10
105.9090965481417
 20
153.4135922590567
 30
0.0
 10
105.9212057885114
 20
153.3928908871183
 30
0.0
 10
105.9333150288816
 20
153.3721895151799
 30
0.0
 10
105.9454234262242
 20
153.3514898292955
 30
0.0
 10
105.8491531106245
 20
153.2792660169196
 30
0.0
 10
105.7616983287578
 20
153.188273050576
 30
0.0
 10
105.6550368618912
 20
153.1381736397783
 30
0.0
 10
105.2595846808729
 20
152.9524278065022
 30
0.0
 10
104.858990034925
 20
152.7774204516331
 30
0.0
 10
104.4580118116749
 20
152.6037214747263
 30
0.0
 10
104.1508565965344
 20
152.4706631452542
 30
0.0
 10
104.0894686321877
 20
152.3650402876976
 30
0.0
 10
104.1591026655037
 20
152.0332046130004
 30
0.0
 10
104.1796514495482
 20
151.9352785922984
 30
0.0
 10
104.2227065264189
 20
151.8423011403079
 30
0.0
 10
104.2482881818786
 20
151.7451692510754
 30
0.0
 10
104.4220520718673
 20
151.0854028029198
 30
0.0
 10
104.6013925857104
 20
150.4269615932675
 30
0.0
 10
104.7631496631143
 20
149.7642378062639
 30
0.0
 10
104.8419035629245
 20
149.4415793238994
 30
0.0
 10
104.9672777009478
 20
149.358128077435
 30
0.0
 10
105.2874551547405
 20
149.4757033723325
 30
0.0
 10
105.3642995983097
 20
149.503922859393
 30
0.0
 10
105.435181311642
 20
149.548053638764
 30
0.0
 10
105.5097841463182
 20
149.5827644340152
 30
0.0
 10
106.0040508985361
 20
149.8127472680686
 30
0.0
 10
106.4986329428655
 20
150.0420489362753
 30
0.0
 10
106.9930160328143
 20
150.2717839203798
 30
0.0
 10
107.5207745631865
 20
150.5170255438159
 30
0.0
 10
108.0517458696
 20
150.7556864981956
 30
0.0
 10
108.5747918788317
 20
151.0106026999166
 30
0.0
 10
108.8580034400466
 20
151.1486332028574
 30
0.0
 10
109.0467352750899
 20
151.3749994509188
 30
0.0
 10
108.9910701997891
 20
151.7103471762552
 30
0.0
 10
108.9409480272613
 20
152.0123009145732
 30
0.0
 10
108.8572691634968
 20
152.3093937589916
 30
0.0
 10
108.7762433058201
 20
152.6053063655571
 30
0.0
 10
108.6950066913838
 20
152.9019894988353
 30
0.0
 10
108.5407462319128
 20
153.1909741092049
 30
0.0
 10
108.5222729804352
 20
153.4897496355905
 30
0.0
 10
108.4924239221107
 20
153.9725343595545
 30
0.0
 10
108.546442565607
 20
154.4606234096397
 30
0.0
 10
108.5687979565933
 20
154.9462997163428
 30
0.0
 10
108.5707327036446
 20
154.9883515910387
 30
0.0
 10
108.6006095818619
 20
155.029117849502
 30
0.0
 10
108.617507215806
 20
155.0704809711078
 30
0.0
 10
108.71309046437
 20
154.8268267675837
 30
0.0
 10
108.7682960899355
 20
154.5884558145049
 30
0.0
 10
108.7938473964216
 20
154.3469496438729
 30
0.0
 10
108.829538632118
 20
154.0096140607816
 30
0.0
 10
108.8374791037861
 20
153.669383522843
 30
0.0
 10
108.870919457292
 20
153.33174107791
 30
0.0
 10
108.877494225159
 20
153.265347640527
 30
0.0
 10
108.9459589799737
 20
153.205083009708
 30
0.0
 10
108.9858805253449
 20
153.1419925522589
 30
0.0
 10
109.0449784067434
 20
153.199382460879
 30
0.0
 10
109.1332298491609
 20
153.2468634296979
 30
0.0
 10
109.1568421934601
 20
153.3163170552278
 30
0.0
 10
109.2002150915239
 20
153.4438923368466
 30
0.0
 10
109.2250017724871
 20
153.5846222123621
 30
0.0
 10
109.2235559811178
 20
153.7195031662899
 30
0.0
 10
109.2133975053128
 20
154.666939945663
 30
0.0
 10
109.1903752799396
 20
155.614235939521
 30
0.0
 10
109.1797598834809
 20
156.5616710328403
 30
0.0
 10
109.1704511789301
 20
157.3925078995989
 30
0.0
 10
109.2776572412633
 20
158.2121325067557
 30
0.0
 10
109.6013467456949
 20
158.9781169895565
 30
0.0
 10
109.8308144902286
 20
159.5211351523387
 30
0.0
 10
110.1497805141678
 20
160.0259144517167
 30
0.0
 10
110.4179609033001
 20
160.5532725442461
 30
0.0
 10
110.4886807554408
 20
160.6923382843893
 30
0.0
 10
110.5192185668556
 20
160.8518373138724
 30
0.0
 10
110.5682093970986
 20
161.0019534524258
 30
0.0
 10
110.5322441776154
 20
161.0228883428535
 30
0.0
 10
110.4962798011591
 20
161.0438232332816
 30
0.0
 10
110.4603145816758
 20
161.0647572806824
 30
0.0
 10
109.9941105134897
 20
160.6432977155505
 30
0.0
 10
109.5279064453036
 20
160.2218373073918
 30
0.0
 10
109.0617023771181
 20
159.8003777422603
 30
0.0
 10
109.0343933592579
 20
159.8302984578831
 30
0.0
 10
109.0070851844247
 20
159.860220016533
 30
0.0
 10
108.9797761665651
 20
159.8901407321561
 30
0.0
 10
109.5451261155762
 20
160.4512780750599
 30
0.0
 10
110.1009110798181
 20
161.0224879050107
 30
0.0
 10
110.6783719552534
 20
161.570871934888
 30
0.0
 10
111.3244290977211
 20
162.1843966639705
 30
0.0
 10
112.0639551769428
 20
162.7088134351651
 30
0.0
 10
112.4869659118239
 20
163.5276658295554
 30
0.0
 10
112.4869659118239
 20
151.8333768560864
 30
0.0
 10
112.4869659118239
 20
140.1390878826174
 30
0.0
 10
112.4869659118239
 20
128.4447955370401
 30
0.0
 10
108.0486603906422
 20
128.4447921649322
 30
0.0
 10
103.6103544479463
 20
128.4447921649322
 30
0.0
 10
99.17204829449366
 20
128.4447921649322
 30
0.0
 10
99.20272320318016
 20
128.5082114029258
 30
0.0
 10
99.22147391593154
 20
128.5818953381315
 30
0.0
 10
99.26587878446793
 20
128.6335020812728
 30
0.0
 10
99.84532825530718
 20
129.3069255674392
 30
0.0
 10
100.4068363193511
 20
129.9974995956614
 30
0.0
 10
101.0148048679845
 20
130.6443373811666
 30
0.0
 10
102.5585660957894
 20
132.2867900982234
 30
0.0
 10
104.1880324028439
 20
133.834897973435
 30
0.0
 10
106.0549056615597
 20
135.1169633760811
 30
0.0
 10
106.5290333408731
 20
135.4425673949153
 30
0.0
 10
106.9923028319403
 20
135.7953236285806
 30
0.0
 10
107.4093963600439
 20
136.189715281585
 30
0.0
 10
107.9096005516882
 20
136.6626905429385
 30
0.0
 10
108.1045631995672
 20
137.4892751813182
 30
0.0
 10
107.7419132005877
 20
138.0675748686565
 30
0.0
 10
107.5313461222397
 20
138.4033559098905
 30
0.0
 10
107.1955052260863
 20
138.5113443013145
 30
0.0
 10
106.8505764984668
 20
138.5917960575784
 30
0.0
 10
106.350541755257
 20
138.7084271621937
 30
0.0
 10
105.8921559198186
 20
138.8970628921549
 30
0.0
 10
105.5375593581301
 20
139.2764014543735
 30
0.0
 10
105.2048654819085
 20
139.6323038649436
 30
0.0
 10
104.987173139038
 20
139.9673497866002
 30
0.0
 10
105.4060446111639
 20
140.5310246408882
 30
0.0
 10
105.6124058276201
 20
140.8087244913309
 30
0.0
 10
105.8079779840475
 20
141.0955003708613
 30
0.0
 10
105.9914156092941
 20
141.3888113959888
 30
0.0
 10
106.1156052943296
 20
141.5873914728869
 30
0.0
 10
106.1343440993244
 20
141.7982966050767
 30
0.0
 10
105.9694378944209
 20
141.9992118668689
 30
0.0
 10
105.6951582046707
 20
142.3333759822447
 30
0.0
 10
105.3422274644085
 20
142.3471527300952
 30
0.0
 10
104.9976249882518
 20
142.0121995414121
 30
0.0
 10
104.542425373503
 20
141.5697486030411
 30
0.0
 10
104.0975566335878
 20
141.1166519192382
 30
0.0
 10
103.6496062083361
 20
140.6667755987188
 30
0.0
 10
103.5231664841372
 20
140.5397954941882
 30
0.0
 10
103.3998324715453
 20
140.5333665699989
 30
0.0
 10
103.2666809875852
 20
140.6560944461506
 30
0.0
 10
103.1393362738613
 20
140.7734707866671
 30
0.0
 10
103.0196559404508
 20
140.8942192353344
 30
0.0
 10
103.1597253042823
 20
141.0732023057135
 30
0.0
 10
103.3402957945735
 20
141.3039388059386
 30
0.0
 10
103.5360736495981
 20
141.5230229864484
 30
0.0
 10
103.71122263301
 20
141.7576374110472
 30
0.0
 10
103.7835788006306
 20
141.85455854352
 30
0.0
 10
103.8193889031391
 20
141.9787634030424
 30
0.0
 10
103.8718205482369
 20
142.0905589045686
 30
0.0
 10
103.7517570590376
 20
142.0876015657206
 30
0.0
 10
103.6249131033741
 20
142.1088121259893
 30
0.0
 10
103.5128423535198
 20
142.0773672174823
 30
0.0
 10
103.1010792853759
 20
141.961843850395
 30
0.0
 10
102.6905740135726
 20
141.8392120793253
 30
0.0
 10
102.287285053212
 20
141.6973862686612
 30
0.0
 10
102.1228113211788
 20
141.6395495557106
 30
0.0
 10
101.9563450947424
 20
141.5491281616985
 30
0.0
 10
101.8297983061094
 20
141.4315444365309
 30
0.0
 10
101.6777406762882
 20
141.2902598492248
 30
0.0
 10
101.5632892180794
 20
141.1071088531711
 30
0.0
 10
101.4394805812649
 20
140.9370433227967
 30
0.0
 10
100.7830261755839
 20
140.035314626382
 30
0.0
 10
100.7727401919398
 20
138.7409781221741
 30
0.0
 10
101.9642459441399
 20
138.048306642682
 30
0.0
 10
102.5041478574772
 20
137.7344375602129
 30
0.0
 10
103.1005869575859
 20
137.5162115812279
 30
0.0
 10
103.6768305019788
 20
137.2672218595821
 30
0.0
 10
103.9264073919565
 20
137.1593818409162
 30
0.0
 10
104.1200359495487
 20
136.9804139450239
 30
0.0
 10
104.1215196771349
 20
136.7263896659085
 30
0.0
 10
104.1233878250507
 20
136.4065924173105
 30
0.0
 10
104.1067291892717
 20
136.046110683871
 30
0.0
 10
103.9632847666947
 20
135.7743153948005
 30
0.0
 10
103.6452532382268
 20
135.1717230403437
 30
0.0
 10
103.2649540466984
 20
134.5981004670109
 30
0.0
 10
102.8711103612685
 20
134.0401514523638
 30
0.0
 10
101.7613036238351
 20
132.4679127712247
 30
0.0
 10
100.6272739797698
 20
130.9127841668431
 30
0.0
 10
99.5143661673778
 20
129.3427070070287
 30
0.0
 10
99.31652268535403
 20
129.0635942432703
 30
0.0
 10
99.17424005941346
 20
128.7451020005263
 30
0.0
 10
99.00630243466092
 20
128.4447921649322
 30
0.0
  0
SPLINE
  5
46
330
41
100
AcDbEntity
  8
IDTHEAD_U+00A0Bild
370
     0
100
AcDbSpline
210
0.0
220
0.0
230
1.0
 70
    11
 71
     3
 72
    71
 73
    67
 74
     0
 42
0.0000000001
 43
0.0000000001
 12
1.0
 22
0.0
 32
0.0
 13
1.0
 23
0.0
 33
0.0
 40
0.0
 40
0.0
 40
0.0
 40
0.0
 40
1.0
 40
1.0
 40
1.0
 40
2.0
 40
2.0
 40
2.0
 40
3.0
 40
3.0
 40
3.0
 40
4.0
 40
4.0
 40
4.0
 40
5.0
 40
5.0
 40
5.0
 40
6.0
 40
6.0
 40
6.0
 40
7.0
 40
7.0
 40
7.0
 40
8.0
 40
8.0
 40
8.0
 40
9.0
 40
9.0
 40
9.0
 40
10.0
 40
10.0
 40
10.0
 40
11.0
 40
11.0
 40
11.0
 40
12.0
 40
12.0
 40
12.0
 40
13.0
 40
13.0
 40
13.0
 40
14.0
 40
14.0
 40
14.0
 40
15.0
 40
15.0
 40
15.0
 40
16.0
 40
16.0
 40
16.0
 40
17.0
 40
17.0
 40
17.0
 40
18.0
 40
18.0
 40
18.0
 40
19.0
 40
19.0
 40
19.0
 40
20.0
 40
20.0
 40
20.0
 40
21.0
 40
21.0
 40
21.0
 40
22.0
 40
22.0
 40
22.0
 40
22.0
 10
102.4379967903675
 20
146.918136375555
 30
0.0
 10
102.4030866192218
 20
147.0192574687301
 30
0.0
 10
102.3541160216275
 20
147.0991831761229
 30
0.0
 10
102.3508084050449
 20
147.1809584848363
 30
0.0
 10
102.3323912148652
 20
147.636282446073
 30
0.0
 10
102.3364710442143
 20
147.6373396019783
 30
0.0
 10
101.9026046501686
 20
147.7781318614944
 30
0.0
 10
101.8341213487591
 20
147.800354054209
 30
0.0
 10
101.7622629886041
 20
147.8146484206608
 30
0.0
 10
101.6908628136439
 20
147.8250075369004
 30
0.0
 10
101.2344028734736
 20
147.8912256246595
 30
0.0
 10
100.8068709845891
 20
147.9787706104188
 30
0.0
 10
100.6990866057079
 20
148.5460249575086
 30
0.0
 10
100.6736798783587
 20
148.679737475962
 30
0.0
 10
100.5397825262273
 20
148.8163887866689
 30
0.0
 10
100.4205570059036
 20
148.903409409611
 30
0.0
 10
100.2231249210741
 20
149.0475080211693
 30
0.0
 10
100.0000353083513
 20
149.1580457263556
 30
0.0
 10
99.7822002831549
 20
149.272112342722
 30
0.0
 10
99.59551194565066
 20
149.3698748161787
 30
0.0
 10
99.4188244378954
 20
149.3508190330178
 30
0.0
 10
99.316027090834
 20
149.1486038235331
 30
0.0
 10
99.10828467995493
 20
148.7399481530504
 30
0.0
 10
98.97477311807141
 20
148.3099959335408
 30
0.0
 10
99.14000736587086
 20
147.8557948843178
 30
0.0
 10
99.26432592866462
 20
147.5140637582521
 30
0.0
 10
99.42082114743418
 20
147.1834673333004
 30
0.0
 10
99.57341957910026
 20
146.852725907698
 30
0.0
 10
99.79442839033696
 20
146.3737128867012
 30
0.0
 10
100.1423783161036
 20
146.0389401058045
 30
0.0
 10
100.6657092684736
 20
145.8966337697287
 30
0.0
 10
100.8218692786175
 20
145.8541704978387
 30
0.0
 10
100.9793707555349
 20
145.7825283741184
 30
0.0
 10
101.1095573134028
 20
145.6876271344282
 30
0.0
 10
101.2593294969249
 20
145.5784483888265
 30
0.0
 10
101.4100163647829
 20
145.4474959408947
 30
0.0
 10
101.5058078410256
 20
145.2923519890877
 30
0.0
 10
101.67628308254
 20
145.016252203963
 30
0.0
 10
101.8278252013277
 20
144.9643773782237
 30
0.0
 10
102.1288941827697
 20
145.1101654159653
 30
0.0
 10
102.3545994976336
 20
145.2194588132439
 30
0.0
 10
102.4534452608337
 20
145.3857846756789
 30
0.0
 10
102.4261164318385
 20
145.6346614317017
 30
0.0
 10
102.542369438827
 20
145.4996489655558
 30
0.0
 10
102.6369907935413
 20
145.3693473344971
 30
0.0
 10
102.7524045671137
 20
145.2612459774502
 30
0.0
 10
102.8772185136704
 20
145.1443434181289
 30
0.0
 10
103.0284659945085
 20
145.0559638356022
 30
0.0
 10
103.1557647632588
 20
144.941349251661
 30
0.0
 10
103.4345820460401
 20
144.6903059161515
 30
0.0
 10
103.8527529626976
 20
144.6755343963966
 30
0.0
 10
104.123263900076
 20
144.9376348745328
 30
0.0
 10
104.327069058554
 20
145.1351038417956
 30
0.0
 10
104.5155842356488
 20
145.3499088170612
 30
0.0
 10
104.6958145645304
 20
145.569390906333
 30
0.0
 10
104.7682263719355
 20
145.657571534479
 30
0.0
 10
104.8202015178925
 20
145.7740154870914
 30
0.0
 10
104.8475417277529
 20
145.8858902331602
 30
0.0
 10
105.0483794310582
 20
146.7077168269394
 30
0.0
 10
104.7702563810426
 20
147.4340250852364
 30
0.0
 10
104.2935621059125
 20
148.0642839010177
 30
0.0
 10
103.8770549031142
 20
148.6149643365455
 30
0.0
 10
103.211579475859
 20
148.4940034450646
 30
0.0
 10
102.9032604618929
 20
147.87389130271
 30
0.0
 10
102.7512289659096
 20
147.5681169658572
 30
0.0
 10
102.6041489892325
 20
147.2598793039997
 30
0.0
 10
102.4379967903675
 20
146.918136375555
 30
0.0
  0
SPLINE
  5
47
330
41
100
AcDbEntity
  8
IDTHEAD_U+00A0Bild
370
     0
100
AcDbSpline
210
0.0
220
0.0
230
1.0
 70
    11
 71
     3
 72
    56
 73
    52
 74
     0
 42
0.0000000001
 43
0.0000000001
 12
1.0
 22
0.0
 32
0.0
 13
1.0
 23
0.0
 33
0.0
 40
0.0
 40
0.0
 40
0.0
 40
0.0
 40
1.0
 40
1.0
 40
1.0
 40
2.0
 40
2.0
 40
2.0
 40
3.0
 40
3.0
 40
3.0
 40
4.0
 40
4.0
 40
4.0
 40
5.0
 40
5.0
 40
5.0
 40
6.0
 40
6.0
 40
6.0
 40
7.0
 40
7.0
 40
7.0
 40
8.0
 40
8.0
 40
8.0
 40
9.0
 40
9.0
 40
9.0
 40
10.0
 40
10.0
 40
10.0
 40
11.0
 40
11.0
 40
11.0
 40
12.0
 40
12.0
 40
12.0
 40
13.0
 40
13.0
 40
13.0
 40
14.0
 40
14.0
 40
14.0
 40
15.0
 40
15.0
 40
15.0
 40
16.0
 40
16.0
 40
16.0
 40
17.0
 40
17.0
 40
17.0
 40
17.0
 10
100.3174375171354
 20
141.7706554345635
 30
0.0
 10
100.5519507784896
 20
141.933961574149
 30
0.0
 10
100.7676647476594
 20
142.0797867050808
 30
0.0
 10
100.9787907529329
 20
142.2319766901471
 30
0.0
 10
101.790730325614
 20
142.8172549553032
 30
0.0
 10
102.5735989539259
 20
143.4442512564481
 30
0.0
 10
103.488807652674
 20
143.874980746887
 30
0.0
 10
103.8875956916804
 20
144.0626638562954
 30
0.0
 10
104.2662674195123
 20
144.1610602860843
 30
0.0
 10
104.662958428762
 20
143.8935880396634
 30
0.0
 10
104.7079743865226
 20
143.8632373802515
 30
0.0
 10
104.7585964740838
 20
143.8381741864198
 30
0.0
 10
104.8100497863042
 20
143.8208550389566
 30
0.0
 10
105.5227692917804
 20
143.5809767535349
 30
0.0
 10
106.2360477241821
 20
143.3427626034849
 30
0.0
 10
106.9492941215567
 20
143.1044523483528
 30
0.0
 10
107.0911098158971
 20
143.0570674846166
 30
0.0
 10
107.1963372937728
 20
143.0622588451148
 30
0.0
 10
107.22939575603
 20
143.2486656115883
 30
0.0
 10
107.2944226465851
 20
143.6153317913758
 30
0.0
 10
107.2206552517032
 20
143.8185097377381
 30
0.0
 10
106.9132226806669
 20
144.0225307111376
 30
0.0
 10
106.79221795178
 20
144.1028324085889
 30
0.0
 10
106.6637178695008
 20
144.173051502669
 30
0.0
 10
106.5341066775858
 20
144.2389661006944
 30
0.0
 10
105.9821254513389
 20
144.5196823018781
 30
0.0
 10
105.4303111444448
 20
144.800921179825
 30
0.0
 10
104.8726310554225
 20
145.0699361657254
 30
0.0
 10
104.8145043411714
 20
145.0979752449999
 30
0.0
 10
104.7000044089076
 20
145.0702750625942
 30
0.0
 10
104.6426802563965
 20
145.027179520426
 30
0.0
 10
104.4819554656005
 20
144.906345083001
 30
0.0
 10
104.3416323506305
 20
144.7588322119395
 30
0.0
 10
104.1857305175174
 20
144.6310293130205
 30
0.0
 10
103.8420701240754
 20
144.349306537554
 30
0.0
 10
103.5741274685676
 20
144.34009562414
 30
0.0
 10
103.2317678658451
 20
144.6100851492953
 30
0.0
 10
103.052311435784
 20
144.7516024120645
 30
0.0
 10
102.9030121904301
 20
144.9334382859391
 30
0.0
 10
102.7163938241703
 20
145.0629036341764
 30
0.0
 10
102.6259833895096
 20
145.1256265318375
 30
0.0
 10
102.4492882945109
 20
145.1667611931161
 30
0.0
 10
102.3656705502065
 20
145.1203525546895
 30
0.0
 10
101.6486646737572
 20
144.7223965833696
 30
0.0
 10
100.9477093998359
 20
144.2956192036837
 30
0.0
 10
100.2330861285518
 20
143.8932069914424
 30
0.0
 10
100.0560032411156
 20
143.793488695258
 30
0.0
 10
100.0510479281877
 20
143.6599414101044
 30
0.0
 10
100.0723575441338
 20
143.503580127255
 30
0.0
 10
100.1476912832519
 20
142.9508089846738
 30
0.0
 10
100.2281531558405
 20
142.3987341824251
 30
0.0
 10
100.3174375171354
 20
141.7706554345635
 30
0.0
  0
SPLINE
  5
48
330
41
100
AcDbEntity
  8
IDTHEAD_U+00A0Bild
370
     0
100
AcDbSpline
210
0.0
220
0.0
230
1.0
 70
    11
 71
     3
 72
    38
 73
    34
 74
     0
 42
0.0000000001
 43
0.0000000001
 12
1.0
 22
0.0
 32
0.0
 13
1.0
 23
0.0
 33
0.0
 40
0.0
 40
0.0
 40
0.0
 40
0.0
 40
1.0
 40
1.0
 40
1.0
 40
2.0
 40
2.0
 40
2.0
 40
3.0
 40
3.0
 40
3.0
 40
4.0
 40
4.0
 40
4.0
 40
5.0
 40
5.0
 40
5.0
 40
6.0
 40
6.0
 40
6.0
 40
7.0
 40
7.0
 40
7.0
 40
8.0
 40
8.0
 40
8.0
 40
9.0
 40
9.0
 40
9.0
 40
10.0
 40
10.0
 40
10.0
 40
11.0
 40
11.0
 40
11.0
 40
11.0
 10
108.3184551765518
 20
148.4546441987276
 30
0.0
 10
108.2696784751763
 20
148.6960062117361
 30
0.0
 10
108.2242317305993
 20
148.9743062974295
 30
0.0
 10
108.1541812419266
 20
149.2462701919074
 30
0.0
 10
108.1159170877112
 20
149.3948233583332
 30
0.0
 10
108.0080973016947
 20
149.544996822725
 30
0.0
 10
107.8370395284974
 20
149.4742617960978
 30
0.0
 10
107.3123782794614
 20
149.2573121600476
 30
0.0
 10
106.7352664172194
 20
149.1190675282395
 30
0.0
 10
106.4287611759246
 20
148.5535902821452
 30
0.0
 10
106.177355338789
 20
148.08976523626
 30
0.0
 10
105.8204581563144
 20
147.7360260330687
 30
0.0
 10
105.2888048410277
 20
147.5945408053273
 30
0.0
 10
105.1239964272609
 20
147.5506814806624
 30
0.0
 10
105.0443927561967
 20
147.4411048262994
 30
0.0
 10
105.0920254698822
 20
147.2627607704144
 30
0.0
 10
105.1485268280043
 20
147.0512048213521
 30
0.0
 10
105.213529270775
 20
146.8413062634451
 30
0.0
 10
105.2573059787902
 20
146.6271048955378
 30
0.0
 10
105.3292810981899
 20
146.2749354086913
 30
0.0
 10
105.4090811945537
 20
146.2157363640482
 30
0.0
 10
105.7529502371875
 20
146.3070918320176
 30
0.0
 10
105.8219427269279
 20
146.3254192398183
 30
0.0
 10
105.8881844194437
 20
146.3635190037611
 30
0.0
 10
105.9485881497239
 20
146.4032930194006
 30
0.0
 10
106.5365944503741
 20
146.790491965719
 30
0.0
 10
107.1496024038826
 20
147.1159240070378
 30
0.0
 10
107.8352708577719
 20
147.3094695264668
 30
0.0
 10
107.9885458186359
 20
147.3527370461511
 30
0.0
 10
108.1334773409073
 20
147.5683968508336
 30
0.0
 10
108.2006876714899
 20
147.7371691777318
 30
0.0
 10
108.2826745799899
 20
147.9430448106144
 30
0.0
 10
108.2785572359373
 20
148.1832114112833
 30
0.0
 10
108.3184551765518
 20
148.4546441987276
 30
0.0
  0
SPLINE
  5
49
330
41
100
AcDbEntity
  8
IDTHEAD_U+00A0Bild
370
     0
100
AcDbSpline
210
0.0
220
0.0
230
1.0
 70
    11
 71
     3
 72
    35
 73
    31
 74
     0
 42
0.0000000001
 43
0.0000000001
 12
1.0
 22
0.0
 32
0.0
 13
1.0
 23
0.0
 33
0.0
 40
0.0
 40
0.0
 40
0.0
 40
0.0
 40
1.0
 40
1.0
 40
1.0
 40
2.0
 40
2.0
 40
2.0
 40
3.0
 40
3.0
 40
3.0
 40
4.0
 40
4.0
 40
4.0
 40
5.0
 40
5.0
 40
5.0
 40
6.0
 40
6.0
 40
6.0
 40
7.0
 40
7.0
 40
7.0
 40
8.0
 40
8.0
 40
8.0
 40
9.0
 40
9.0
 40
9.0
 40
10.0
 40
10.0
 40
10.0
 40
10.0
 10
105.5653227675637
 20
144.8980480108956
 30
0.0
 10
105.6804971214572
 20
144.9533539566781
 30
0.0
 10
105.7982073006806
 20
145.000010445054
 30
0.0
 10
105.9061358371852
 20
145.063336950074
 30
0.0
 10
106.5169982868822
 20
145.421770127811
 30
0.0
 10
107.1254564234682
 20
145.7842987308978
 30
0.0
 10
107.7349236634178
 20
146.1451109309357
 30
0.0
 10
107.7978640620544
 20
146.1823710399486
 30
0.0
 10
107.9016904289933
 20
146.2046657329885
 30
0.0
 10
107.9183005907174
 20
146.2559909050994
 30
0.0
 10
107.9690061379554
 20
146.4126624218983
 30
0.0
 10
107.9976488245889
 20
146.5796559617467
 30
0.0
 10
108.0045262391627
 20
146.7439029195066
 30
0.0
 10
108.0055581042568
 20
146.7685429137651
 30
0.0
 10
107.824073772657
 20
146.8471939642764
 30
0.0
 10
107.7608340994222
 20
146.8205627401552
 30
0.0
 10
107.3776749386685
 20
146.6592039930264
 30
0.0
 10
106.9983093995841
 20
146.4861507748307
 30
0.0
 10
106.6292068716579
 20
146.2947650906726
 30
0.0
 10
106.1476647695475
 20
146.0450807147477
 30
0.0
 10
105.6762305616196
 20
145.7758212510065
 30
0.0
 10
105.2021534639282
 20
145.5119166950091
 30
0.0
 10
105.1372336378073
 20
145.475776125902
 30
0.0
 10
105.0320845614458
 20
145.4212474510478
 30
0.0
 10
105.0327362213459
 20
145.3764995758856
 30
0.0
 10
105.0341727394183
 20
145.2778182029577
 30
0.0
 10
105.0628213272413
 20
145.1422898042651
 30
0.0
 10
105.131936898929
 20
145.0901266632789
 30
0.0
 10
105.2504066455136
 20
145.0007118435496
 30
0.0
 10
105.4083637785448
 20
144.9636186538896
 30
0.0
 10
105.5653227675637
 20
144.8980480108956
 30
0.0
  0
SPLINE
  5
4A
330
41
100
AcDbEntity
  8
IDTHEAD_U+00A0Bild
370
     0
100
AcDbSpline
210
0.0
220
0.0
230
1.0
 70
    11
 71
     3
 72
    23
 73
    19
 74
     0
 42
0.0000000001
 43
0.0000000001
 12
1.0
 22
0.0
 32
0.0
 13
1.0
 23
0.0
 33
0.0
 40
0.0
 40
0.0
 40
0.0
 40
0.0
 40
1.0
 40
1.0
 40
1.0
 40
2.0
 40
2.0
 40
2.0
 40
3.0
 40
3.0
 40
3.0
 40
4.0
 40
4.0
 40
4.0
 40
5.0
 40
5.0
 40
5.0
 40
6.0
 40
6.0
 40
6.0
 40
6.0
 10
102.3409062094599
 20
143.0033514878271
 30
0.0
 10
102.469684912175
 20
142.9963290726025
 30
0.0
 10
102.5471460300227
 20
142.9711057036338
 30
0.0
 10
102.608986278375
 20
142.9920363789267
 30
0.0
 10
103.1323252395022
 20
143.1691614177147
 30
0.0
 10
103.6558871812806
 20
143.3467652958599
 30
0.0
 10
104.1709303348429
 20
143.5460703760104
 30
0.0
 10
104.2504834242848
 20
143.5768543513199
 30
0.0
 10
104.2870206376134
 20
143.718801557878
 30
0.0
 10
104.343450759951
 20
143.8093409756756
 30
0.0
 10
104.2365094081077
 20
143.8289902498711
 30
0.0
 10
104.1087895473519
 20
143.8964728781867
 30
0.0
 10
104.0260021846798
 20
143.8605144029192
 30
0.0
 10
103.493092759107
 20
143.6290377249555
 30
0.0
 10
102.9697533764662
 20
143.3754804828187
 30
0.0
 10
102.4444754531524
 20
143.1266323897152
 30
0.0
 10
102.4178105079492
 20
143.1139987865278
 30
0.0
 10
102.4022646678601
 20
143.0778953106102
 30
0.0
 10
102.3409062094599
 20
143.0033514878271
 30
0.0
  0
SPLINE
  5
4B
330
41
100
AcDbEntity
  8
IDTHEAD_U+00A0Bild
370
     0
100
AcDbSpline
210
0.0
220
0.0
230
1.0
 70
    11
 71
     3
 72
    20
 73
    16
 74
     0
 42
0.0000000001
 43
0.0000000001
 12
1.0
 22
0.0
 32
0.0
 13
1.0
 23
0.0
 33
0.0
 40
0.0
 40
0.0
 40
0.0
 40
0.0
 40
1.0
 40
1.0
 40
1.0
 40
2.0
 40
2.0
 40
2.0
 40
3.0
 40
3.0
 40
3.0
 40
4.0
 40
4.0
 40
4.0
 40
5.0
 40
5.0
 40
5.0
 40
5.0
 10
106.8602451755621
 20
144.2665482593145
 30
0.0
 10
107.1850348302777
 20
144.2741355026545
 30
0.0
 10
107.4713647485058
 20
144.5809079835197
 30
0.0
 10
107.4701794524905
 20
144.841426942934
 30
0.0
 10
107.4693035473986
 20
145.0340232139181
 30
0.0
 10
107.3711768862617
 20
145.1560547497366
 30
0.0
 10
107.1811408883907
 20
145.0790863811924
 30
0.0
 10
106.9405485590674
 20
144.9816408859018
 30
0.0
 10
106.7123318666584
 20
144.8474276093883
 30
0.0
 10
106.4949472286566
 20
144.7044822588178
 30
0.0
 10
106.4546623386323
 20
144.6779909771841
 30
0.0
 10
106.4550787939883
 20
144.4881328580186
 30
0.0
 10
106.4987349491371
 20
144.4547236965135
 30
0.0
 10
106.623473444774
 20
144.3592643729238
 30
0.0
 10
106.7801458046
 20
144.3055348877014
 30
0.0
 10
106.8602451755621
 20
144.2665482593145
 30
0.0
  0
SPLINE
  5
4C
330
41
100
AcDbEntity
  8
IDTHEAD_U+00A0Bild
370
     0
100
AcDbSpline
210
0.0
220
0.0
230
1.0
 70
    11
 71
     3
 72
    17
 73
    13
 74
     0
 42
0.0000000001
 43
0.0000000001
 12
1.0
 22
0.0
 32
0.0
 13
1.0
 23
0.0
 33
0.0
 40
0.0
 40
0.0
 40
0.0
 40
0.0
 40
1.0
 40
1.0
 40
1.0
 40
2.0
 40
2.0
 40
2.0
 40
3.0
 40
3.0
 40
3.0
 40
4.0
 40
4.0
 40
4.0
 40
4.0
 10
100.2780112501487
 20
145.0858660046302
 30
0.0
 10
100.2815369999773
 20
144.6805959307309
 30
0.0
 10
100.3810700409702
 20
144.5395541352116
 30
0.0
 10
100.609639329438
 20
144.5366608664179
 30
0.0
 10
100.7851415411784
 20
144.5344403332007
 30
0.0
 10
101.1033960502978
 20
144.7645631097424
 30
0.0
 10
101.1019635366038
 20
144.8926509517997
 30
0.0
 10
101.0990675279724
 20
145.1515732180046
 30
0.0
 10
100.8479466339754
 20
145.3963528626236
 30
0.0
 10
100.5922188079738
 20
145.4034309176327
 30
0.0
 10
100.3018672292623
 20
145.4114683374105
 30
0.0
 10
100.2697833062607
 20
145.2274136163719
 30
0.0
 10
100.2780112501487
 20
145.0858660046302
 30
0.0
  0
SPLINE
  5
4D
330
41
100
AcDbEntity
  8
IDTHEAD_U+00A0Bild
370
     0
100
AcDbSpline
210
0.0
220
0.0
230
1.0
 70
    11
 71
     3
 72
   263
 73
   259
 74
     0
 42
0.0000000001
 43
0.0000000001
 12
1.0
 22
0.0
 32
0.0
 13
1.0
 23
0.0
 33
0.0
 40
0.0
 40
0.0
 40
0.0
 40
0.0
 40
1.0
 40
1.0
 40
1.0
 40
2.0
 40
2.0
 40
2.0
 40
3.0
 40
3.0
 40
3.0
 40
4.0
 40
4.0
 40
4.0
 40
5.0
 40
5.0
 40
5.0
 40
6.0
 40
6.0
 40
6.0
 40
7.0
 40
7.0
 40
7.0
 40
8.0
 40
8.0
 40
8.0
 40
9.0
 40
9.0
 40
9.0
 40
10.0
 40
10.0
 40
10.0
 40
11.0
 40
11.0
 40
11.0
 40
12.0
 40
12.0
 40
12.0
 40
13.0
 40
13.0
 40
13.0
 40
14.0
 40
14.0
 40
14.0
 40
15.0
 40
15.0
 40
15.0
 40
16.0
 40
16.0
 40
16.0
 40
17.0
 40
17.0
 40
17.0
 40
18.0
 40
18.0
 40
18.0
 40
19.0
 40
19.0
 40
19.0
 40
20.0
 40
20.0
 40
20.0
 40
21.0
 40
21.0
 40
21.0
 40
22.0
 40
22.0
 40
22.0
 40
23.0
 40
23.0
 40
23.0
 40
24.0
 40
24.0
 40
24.0
 40
25.0
 40
25.0
 40
25.0
 40
26.0
 40
26.0
 40
26.0
 40
27.0
 40
27.0
 40
27.0
 40
28.0
 40
28.0
 40
28.0
 40
29.0
 40
29.0
 40
29.0
 40
30.0
 40
30.0
 40
30.0
 40
31.0
 40
31.0
 40
31.0
 40
32.0
 40
32.0
 40
32.0
 40
33.0
 40
33.0
 40
33.0
 40
34.0
 40
34.0
 40
34.0
 40
35.0
 40
35.0
 40
35.0
 40
36.0
 40
36.0
 40
36.0
 40
37.0
 40
37.0
 40
37.0
 40
38.0
 40
38.0
 40
38.0
 40
39.0
 40
39.0
 40
39.0
 40
40.0
 40
40.0
 40
40.0
 40
41.0
 40
41.0
 40
41.0
 40
42.0
 40
42.0
 40
42.0
 40
43.0
 40
43.0
 40
43.0
 40
44.0
 40
44.0
 40
44.0
 40
45.0
 40
45.0
 40
45.0
 40
46.0
 40
46.0
 40
46.0
 40
47.0
 40
47.0
 40
47.0
 40
48.0
 40
48.0
 40
48.0
 40
49.0
 40
49.0
 40
49.0
 40
50.0
 40
50.0
 40
50.0
 40
51.0
 40
51.0
 40
51.0
 40
52.0
 40
52.0
 40
52.0
 40
53.0
 40
53.0
 40
53.0
 40
54.0
 40
54.0
 40
54.0
 40
55.0
 40
55.0
 40
55.0
 40
56.0
 40
56.0
 40
56.0
 40
57.0
 40
57.0
 40
57.0
 40
58.0
 40
58.0
 40
58.0
 40
59.0
 40
59.0
 40
59.0
 40
60.0
 40
60.0
 40
60.0
 40
61.0
 40
61.0
 40
61.0
 40
62.0
 40
62.0
 40
62.0
 40
63.0
 40
63.0
 40
63.0
 40
64.0
 40
64.0
 40
64.0
 40
65.0
 40
65.0
 40
65.0
 40
66.0
 40
66.0
 40
66.0
 40
67.0
 40
67.0
 40
67.0
 40
68.0
 40
68.0
 40
68.0
 40
69.0
 40
69.0
 40
69.0
 40
70.0
 40
70.0
 40
70.0
 40
71.0
 40
71.0
 40
71.0
 40
72.0
 40
72.0
 40
72.0
 40
73.0
 40
73.0
 40
73.0
 40
74.0
 40
74.0
 40
74.0
 40
75.0
 40
75.0
 40
75.0
 40
76.0
 40
76.0
 40
76.0
 40
77.0
 40
77.0
 40
77.0
 40
78.0
 40
78.0
 40
78.0
 40
79.0
 40
79.0
 40
79.0
 40
80.0
 40
80.0
 40
80.0
 40
81.0
 40
81.0
 40
81.0
 40
82.0
 40
82.0
 40
82.0
 40
83.0
 40
83.0
 40
83.0
 40
84.0
 40
84.0
 40
84.0
 40
85.0
 40
85.0
 40
85.0
 40
86.0
 40
86.0
 40
86.0
 40
86.0
 10
112.4869659118239
 20
163.5276658295554
 30
0.0
 10
112.0639551769428
 20
162.7088134351651
 30
0.0
 10
111.3244290977211
 20
162.1843966639705
 30
0.0
 10
110.6783719552534
 20
161.570871934888
 30
0.0
 10
110.1009110798181
 20
161.0224879050107
 30
0.0
 10
109.5451261155762
 20
160.4512780750599
 30
0.0
 10
108.9797761665651
 20
159.8901407321561
 30
0.0
 10
109.0070851844247
 20
159.860220016533
 30
0.0
 10
109.0343933592579
 20
159.8302984578831
 30
0.0
 10
109.0617023771181
 20
159.8003777422603
 30
0.0
 10
109.5279064453036
 20
160.2218373073918
 30
0.0
 10
109.9941105134897
 20
160.6432977155505
 30
0.0
 10
110.4603145816758
 20
161.0647572806824
 30
0.0
 10
110.4962798011591
 20
161.0438232332816
 30
0.0
 10
110.5322441776154
 20
161.0228883428535
 30
0.0
 10
110.5682093970986
 20
161.0019534524258
 30
0.0
 10
110.5192185668556
 20
160.8518373138724
 30
0.0
 10
110.4886807554408
 20
160.6923382843893
 30
0.0
 10
110.4179609033001
 20
160.5532725442461
 30
0.0
 10
110.1497805141678
 20
160.0259144517167
 30
0.0
 10
109.8308144902286
 20
159.5211351523387
 30
0.0
 10
109.6013467456949
 20
158.9781169895565
 30
0.0
 10
109.2776572412633
 20
158.2121325067557
 30
0.0
 10
109.1704511789301
 20
157.3925078995989
 30
0.0
 10
109.1797598834809
 20
156.5616710328403
 30
0.0
 10
109.1903752799396
 20
155.614235939521
 30
0.0
 10
109.2133975053128
 20
154.666939945663
 30
0.0
 10
109.2235559811178
 20
153.7195031662899
 30
0.0
 10
109.2250017724871
 20
153.5846222123621
 30
0.0
 10
109.2002150915239
 20
153.4438923368466
 30
0.0
 10
109.1568421934601
 20
153.3163170552278
 30
0.0
 10
109.1332298491609
 20
153.2468634296979
 30
0.0
 10
109.0449784067434
 20
153.199382460879
 30
0.0
 10
108.9858805253449
 20
153.1419925522589
 30
0.0
 10
108.9459589799737
 20
153.205083009708
 30
0.0
 10
108.877494225159
 20
153.265347640527
 30
0.0
 10
108.870919457292
 20
153.33174107791
 30
0.0
 10
108.8374791037861
 20
153.669383522843
 30
0.0
 10
108.829538632118
 20
154.0096140607816
 30
0.0
 10
108.7938473964216
 20
154.3469496438729
 30
0.0
 10
108.7682960899355
 20
154.5884558145049
 30
0.0
 10
108.71309046437
 20
154.8268267675837
 30
0.0
 10
108.617507215806
 20
155.0704809711078
 30
0.0
 10
108.6006095818619
 20
155.029117849502
 30
0.0
 10
108.5707327036446
 20
154.9883515910387
 30
0.0
 10
108.5687979565933
 20
154.9462997163428
 30
0.0
 10
108.546442565607
 20
154.4606234096397
 30
0.0
 10
108.4924239221107
 20
153.9725343595545
 30
0.0
 10
108.5222729804352
 20
153.4897496355905
 30
0.0
 10
108.5407462319128
 20
153.1909741092049
 30
0.0
 10
108.6950066913838
 20
152.9019894988353
 30
0.0
 10
108.7762433058201
 20
152.6053063655571
 30
0.0
 10
108.8572691634968
 20
152.3093937589916
 30
0.0
 10
108.9409480272613
 20
152.0123009145732
 30
0.0
 10
108.9910701997891
 20
151.7103471762552
 30
0.0
 10
109.0467352750899
 20
151.3749994509188
 30
0.0
 10
108.8580034400466
 20
151.1486332028574
 30
0.0
 10
108.5747918788317
 20
151.0106026999166
 30
0.0
 10
108.0517458696
 20
150.7556864981956
 30
0.0
 10
107.5207745631865
 20
150.5170255438159
 30
0.0
 10
106.9930160328143
 20
150.2717839203798
 30
0.0
 10
106.4986329428655
 20
150.0420489362753
 30
0.0
 10
106.0040508985361
 20
149.8127472680686
 30
0.0
 10
105.5097841463182
 20
149.5827644340152
 30
0.0
 10
105.435181311642
 20
149.548053638764
 30
0.0
 10
105.3642995983097
 20
149.503922859393
 30
0.0
 10
105.2874551547405
 20
149.4757033723325
 30
0.0
 10
104.9672777009478
 20
149.358128077435
 30
0.0
 10
104.8419035629245
 20
149.4415793238994
 30
0.0
 10
104.7631496631143
 20
149.7642378062639
 30
0.0
 10
104.6013925857104
 20
150.4269615932675
 30
0.0
 10
104.4220520718673
 20
151.0854028029198
 30
0.0
 10
104.2482881818786
 20
151.7451692510754
 30
0.0
 10
104.2227065264189
 20
151.8423011403079
 30
0.0
 10
104.1796514495482
 20
151.9352785922984
 30
0.0
 10
104.1591026655037
 20
152.0332046130004
 30
0.0
 10
104.0894686321877
 20
152.3650402876976
 30
0.0
 10
104.1508565965344
 20
152.4706631452542
 30
0.0
 10
104.4580118116749
 20
152.6037214747263
 30
0.0
 10
104.858990034925
 20
152.7774204516331
 30
0.0
 10
105.2595846808729
 20
152.9524278065022
 30
0.0
 10
105.6550368618912
 20
153.1381736397783
 30
0.0
 10
105.7616983287578
 20
153.188273050576
 30
0.0
 10
105.8491531106245
 20
153.2792660169196
 30
0.0
 10
105.9454234262242
 20
153.3514898292955
 30
0.0
 10
105.9333150288816
 20
153.3721895151799
 30
0.0
 10
105.9212057885114
 20
153.3928908871183
 30
0.0
 10
105.9090965481417
 20
153.4135922590567
 30
0.0
 10
105.5867482997275
 20
153.3091108601092
 30
0.0
 10
105.2689810602359
 20
153.186192459847
 30
0.0
 10
104.9409255187757
 20
153.104673431353
 30
0.0
 10
104.5013998842255
 20
152.9954559065076
 30
0.0
 10
104.0529116077238
 20
152.9227734874234
 30
0.0
 10
103.610519259732
 20
152.8243079294171
 30
0.0
 10
103.4948905142649
 20
152.7985720000096
 30
0.0
 10
103.3141198050523
 20
152.7572569309448
 30
0.0
 10
103.2925779351573
 20
152.6847043380241
 30
0.0
 10
103.2541502336967
 20
152.5552845132469
 30
0.0
 10
103.2738800169739
 20
152.374259631382
 30
0.0
 10
103.3404133968451
 20
152.2542412441294
 30
0.0
 10
103.5691418066666
 20
151.8416520094888
 30
0.0
 10
103.8822610165855
 20
151.4685670218357
 30
0.0
 10
104.0624032491416
 20
151.0382236377807
 30
0.0
 10
104.2713980820638
 20
150.5389543631211
 30
0.0
 10
104.4062874662619
 20
150.0016527666816
 30
0.0
 10
104.5138193585454
 20
149.4688461904074
 30
0.0
 10
104.6265501985702
 20
148.9102783939144
 30
0.0
 10
104.4762254108249
 20
148.7370751169059
 30
0.0
 10
103.8640503680302
 20
148.6329477893144
 30
0.0
 10
103.6504926512663
 20
148.5966217542589
 30
0.0
 10
103.4206645126744
 20
148.6039240544596
 30
0.0
 10
103.2057655398935
 20
148.6382487433276
 30
0.0
 10
102.7463065310362
 20
148.7116359330154
 30
0.0
 10
102.6308160420033
 20
148.9553128982696
 30
0.0
 10
102.814815966284
 20
149.3983219205398
 30
0.0
 10
102.8618842733679
 20
149.5116433010047
 30
0.0
 10
102.906619081611
 20
149.6259341625628
 30
0.0
 10
102.9554767135823
 20
149.7473620910227
 30
0.0
 10
102.9116388861073
 20
149.7533711877477
 30
0.0
 10
102.8983477218304
 20
149.7581696976461
 30
0.0
 10
102.8961406770458
 20
149.7550724163096
 30
0.0
 10
102.5083271640166
 20
149.2108209049712
 30
0.0
 10
102.0118183813922
 20
149.4143057131749
 30
0.0
 10
101.5466959168958
 20
149.5855649698344
 30
0.0
 10
100.7614668128778
 20
149.8746928948004
 30
0.0
 10
99.98584969238753
 20
150.1908819876774
 30
0.0
 10
99.21281529060543
 20
150.5116571476396
 30
0.0
 10
98.93676671937297
 20
150.6262026033634
 30
0.0
 10
98.67698656777957
 20
150.7818034758244
 30
0.0
 10
98.41525686347184
 20
150.928439598766
 30
0.0
 10
98.19414815353102
 20
151.0523173637972
 30
0.0
 10
98.08671157599223
 20
151.247580972329
 30
0.0
 10
98.12118205584866
 20
151.5034599109273
 30
0.0
 10
98.18589560379122
 20
151.9838403217794
 30
0.0
 10
98.18683320792466
 20
152.4874562438454
 30
0.0
 10
98.34128466570884
 20
152.9378619853444
 30
0.0
 10
98.61058512163957
 20
153.7231905665527
 30
0.0
 10
98.44711617245733
 20
154.4228229202951
 30
0.0
 10
98.14461894514581
 20
155.1445990652375
 30
0.0
 10
97.99956307638627
 20
155.4907122458455
 30
0.0
 10
97.90657073969976
 20
155.8731093101572
 30
0.0
 10
97.87345995707697
 20
156.2464758688407
 30
0.0
 10
97.85219341454331
 20
156.4862833399916
 30
0.0
 10
97.99008036578633
 20
156.738030603078
 30
0.0
 10
98.04414761506033
 20
156.987134976401
 30
0.0
 10
98.16576580418437
 20
157.5474680715112
 30
0.0
 10
98.2827715816285
 20
158.1088659097699
 30
0.0
 10
98.39374676515833
 20
158.6713891891238
 30
0.0
 10
98.4139564942662
 20
158.7738304626399
 30
0.0
 10
98.3966275993031
 20
158.8836768856552
 30
0.0
 10
98.3966275993031
 20
158.9901039910058
 30
0.0
 10
98.37328217843933
 20
158.9965017231949
 30
0.0
 10
98.34993670488628
 20
159.0028994553844
 30
0.0
 10
98.3265912840225
 20
159.0092963445466
 30
0.0
 10
98.29201895596229
 20
158.9103763949669
 30
0.0
 10
98.24906477889016
 20
158.8135050010891
 30
0.0
 10
98.2243077619407
 20
158.7121866395873
 30
0.0
 10
98.1097475532441
 20
158.2433497979627
 30
0.0
 10
98.01189477051597
 20
157.7699799999562
 30
0.0
 10
97.88063116657307
 20
157.3059930928794
 30
0.0
 10
97.84832866246728
 20
157.1918118248361
 30
0.0
 10
97.71303436184535
 20
157.1067672572705
 30
0.0
 10
97.62508729170575
 20
157.0083286761294
 30
0.0
 10
97.62508714681043
 20
157.0451613704345
 30
0.0
 10
97.62508714681043
 20
157.0819932217127
 30
0.0
 10
97.62508714681043
 20
157.1188259160181
 30
0.0
 10
97.62508714681043
 20
157.7633934297105
 30
0.0
 10
97.62508714681043
 20
158.4079601003759
 30
0.0
 10
97.62508714681043
 20
159.0525276140683
 30
0.0
 10
97.62508714681043
 20
159.3840193337337
 30
0.0
 10
97.62508714681043
 20
159.7155110533995
 30
0.0
 10
97.62508714681043
 20
160.0470027730653
 30
0.0
 10
97.93105819875362
 20
160.4997605599994
 30
0.0
 10
98.2442289123557
 20
160.9457201769014
 30
0.0
 10
98.73429154142569
 20
161.2251895410962
 30
0.0
 10
99.03561648695184
 20
161.3970262712768
 30
0.0
 10
99.333150550646
 20
161.5759300971144
 30
0.0
 10
99.63881529398414
 20
161.7396594362731
 30
0.0
 10
100.5731510116777
 20
162.2401371901911
 30
0.0
 10
101.3695645554047
 20
162.9300005466205
 30
0.0
 10
102.1981952204057
 20
163.5770676354796
 30
0.0
 10
102.2928414444176
 20
163.6509758158769
 30
0.0
 10
102.4560232375152
 20
163.6371185589444
 30
0.0
 10
102.5874267049121
 20
163.6639559031769
 30
0.0
 10
102.5883607788702
 20
163.510266594524
 30
0.0
 10
102.609368169623
 20
163.3529880982581
 30
0.0
 10
102.5827719311233
 20
163.2042208029649
 30
0.0
 10
102.5665727450802
 20
163.1136139430045
 30
0.0
 10
102.4770007008083
 20
163.0361250052642
 30
0.0
 10
102.4203863770629
 20
162.9527437300443
 30
0.0
 10
102.4500111901955
 20
162.9314383292334
 30
0.0
 10
102.4796360033283
 20
162.9101329284225
 30
0.0
 10
102.5092608164609
 20
162.8888279491252
 30
0.0
 10
102.6455479394876
 20
163.0696408096896
 30
0.0
 10
102.778815339665
 20
163.252874422393
 30
0.0
 10
102.920362951407
 20
163.4294704617149
 30
0.0
 10
102.9534719952866
 20
163.4707783650498
 30
0.0
 10
103.0127612438229
 20
163.5051161208369
 30
0.0
 10
103.0638061094435
 20
163.5113014102128
 30
0.0
 10
103.084934053063
 20
163.5138621048397
 30
0.0
 10
103.1324091206924
 20
163.4367453635369
 30
0.0
 10
103.1401628618718
 20
163.3911481386342
 30
0.0
 10
103.2454527237484
 20
162.771929604939
 30
0.0
 10
103.1053319352676
 20
162.199158067401
 30
0.0
 10
102.7890690775248
 20
161.6669441391341
 30
0.0
 10
102.6462539746316
 20
161.4266114621387
 30
0.0
 10
102.4819012169787
 20
161.19907762163
 30
0.0
 10
102.3273195642065
 20
160.9657370108853
 30
0.0
 10
102.3420400808256
 20
160.9371895863067
 30
0.0
 10
102.3567610189585
 20
160.9086413187013
 30
0.0
 10
102.3714815355775
 20
160.880093051096
 30
0.0
 10
102.5797838217883
 20
160.9632138309613
 30
0.0
 10
102.816626788361
 20
161.0078495835276
 30
0.0
 10
102.9907881655981
 20
161.1370072268962
 30
0.0
 10
103.4313810723777
 20
161.4637497537451
 30
0.0
 10
103.8579114451413
 20
161.8129155352565
 30
0.0
 10
104.2643891552721
 20
162.1814308948514
 30
0.0
 10
104.9654424310869
 20
162.8170113188082
 30
0.0
 10
105.7515702019266
 20
163.1431831163525
 30
0.0
 10
106.7177744492138
 20
163.0403030472631
 30
0.0
 10
107.2249184394329
 20
162.9863021073347
 30
0.0
 10
107.7470337468144
 20
162.9893922229415
 30
0.0
 10
108.2542249465476
 20
163.0433822035186
 30
0.0
 10
108.738547351828
 20
163.0949375220106
 30
0.0
 10
109.2331749196182
 20
163.1912411371787
 30
0.0
 10
109.6864671856944
 20
163.3642855035904
 30
0.0
 10
110.7414995058922
 20
163.7670450429713
 30
0.0
 10
111.1759003790801
 20
164.9277423720779
 30
0.0
 10
110.5115141427578
 20
165.8325934298836
 30
0.0
 10
110.226195013948
 20
166.2211795771929
 30
0.0
 10
109.8740364864528
 20
166.5648020344179
 30
0.0
 10
109.5267751030189
 20
166.9026735719483
 30
0.0
 10
109.1571364098965
 20
167.2623167042416
 30
0.0
 10
109.0261595141804
 20
168.0710010597395
 30
0.0
 10
109.6140376747207
 20
168.4447930045972
 30
0.0
 10
109.6508703690262
 20
168.4447930045972
 30
0.0
 10
109.6877022203047
 20
168.4447930045972
 30
0.0
 10
109.7245349146095
 20
168.4447929584943
 30
0.0
 10
109.7826709021583
 20
168.3498553566762
 30
0.0
 10
109.8512132154602
 20
168.2596396876058
 30
0.0
 10
109.8968614434988
 20
168.1590360549645
 30
0.0
 10
110.0049838762221
 20
167.9207515911908
 30
0.0
 10
110.0625828555478
 20
167.6487299493609
 30
0.0
 10
110.2123971904217
 20
167.4424975052846
 30
0.0
 10
110.496837042031
 20
167.0509393715323
 30
0.0
 10
110.8293985630078
 20
166.6940481956255
 30
0.0
 10
111.1459602738354
 20
166.326190186363
 30
0.0
 10
111.5211789629204
 20
165.8901709120197
 30
0.0
 10
111.8150042345407
 20
165.4159953909218
 30
0.0
 10
111.8820518609053
 20
164.8287381197944
 30
0.0
 10
111.8880558994675
 20
164.7761475641001
 30
0.0
 10
111.8967272755775
 20
164.7123519145339
 30
0.0
 10
111.9291669559895
 20
164.6761957494263
 30
0.0
 10
112.1108510849975
 20
164.4737027625327
 30
0.0
 10
112.3002202484816
 20
164.2781044722669
 30
0.0
 10
112.4869659118239
 20
164.0801520289984
 30
0.0
 10
112.4869659118239
 20
163.8959898220129
 30
0.0
 10
112.4869659118239
 20
163.7118280365409
 30
0.0
 10
112.4869659118239
 20
163.5276658295554
 30
0.0
  0
SPLINE
  5
4E
330
41
100
AcDbEntity
  8
IDTHEAD_U+00A0Bild
370
     0
100
AcDbSpline
210
0.0
220
0.0
230
1.0
 70
    11
 71
     3
 72
    32
 73
    28
 74
     0
 42
0.0000000001
 43
0.0000000001
 12
1.0
 22
0.0
 32
0.0
 13
1.0
 23
0.0
 33
0.0
 40
0.0
 40
0.0
 40
0.0
 40
0.0
 40
1.0
 40
1.0
 40
1.0
 40
2.0
 40
2.0
 40
2.0
 40
3.0
 40
3.0
 40
3.0
 40
4.0
 40
4.0
 40
4.0
 40
5.0
 40
5.0
 40
5.0
 40
6.0
 40
6.0
 40
6.0
 40
7.0
 40
7.0
 40
7.0
 40
8.0
 40
8.0
 40
8.0
 40
9.0
 40
9.0
 40
9.0
 40
9.0
 10
111.4672201743441
 20
163.5114721231877
 30
0.0
 10
111.3790909708477
 20
163.4351482488139
 30
0.0
 10
111.2839739162347
 20
163.3654745932273
 30
0.0
 10
111.2039681212738
 20
163.281418896377
 30
0.0
 10
110.6939140017208
 20
162.7455466522799
 30
0.0
 10
110.0644349859494
 20
162.4006963261743
 30
0.0
 10
109.3685642188495
 20
162.1897372402543
 30
0.0
 10
108.9098942832998
 20
162.0506875176251
 30
0.0
 10
108.4292929993633
 20
161.9848104343025
 30
0.0
 10
107.9597159799995
 20
161.8807349528738
 30
0.0
 10
106.9900586939664
 20
161.6658220701468
 30
0.0
 10
106.1325931321668
 20
161.2560654063529
 30
0.0
 10
105.5374286889393
 20
160.4245077514771
 30
0.0
 10
105.4499713779917
 20
160.302314354467
 30
0.0
 10
105.4402495901928
 20
160.1244845450756
 30
0.0
 10
105.3945600538291
 20
159.9723974093079
 30
0.0
 10
105.5169557773278
 20
160.0412685031549
 30
0.0
 10
105.6659473178133
 20
160.0852846308482
 30
0.0
 10
105.7573651697837
 20
160.1831052731707
 30
0.0
 10
106.2908706154726
 20
160.7539821074415
 30
0.0
 10
106.8919952598568
 20
161.2194991085916
 30
0.0
 10
107.6498251421217
 20
161.4492606480476
 30
0.0
 10
108.2422784103959
 20
161.6288831544349
 30
0.0
 10
108.8475532768867
 20
161.7701719568765
 30
0.0
 10
109.4310535980206
 20
161.9744247627114
 30
0.0
 10
110.263781374425
 20
162.2659182215451
 30
0.0
 10
110.9738900251652
 20
162.7457641532557
 30
0.0
 10
111.4672201743441
 20
163.5114721231877
 30
0.0
  0
SPLINE
  5
4F
330
41
100
AcDbEntity
  8
IDTHEAD_U+00A0Bild
370
     0
100
AcDbSpline
210
0.0
220
0.0
230
1.0
 70
    11
 71
     3
 72
    17
 73
    13
 74
     0
 42
0.0000000001
 43
0.0000000001
 12
1.0
 22
0.0
 32
0.0
 13
1.0
 23
0.0
 33
0.0
 40
0.0
 40
0.0
 40
0.0
 40
0.0
 40
1.0
 40
1.0
 40
1.0
 40
2.0
 40
2.0
 40
2.0
 40
3.0
 40
3.0
 40
3.0
 40
4.0
 40
4.0
 40
4.0
 40
4.0
 10
105.7283186731995
 20
161.1797874769527
 30
0.0
 10
105.5874615006008
 20
161.2331789083327
 30
0.0
 10
105.4708792915542
 20
161.3052223129228
 30
0.0
 10
105.4471017139553
 20
161.2820474996557
 30
0.0
 10
105.2239339104748
 20
161.0645321924631
 30
0.0
 10
105.0134469196959
 20
160.8334272894226
 30
0.0
 10
104.812261889251
 20
160.5952949129954
 30
0.0
 10
104.7994596806562
 20
160.5801423450195
 30
0.0
 10
104.8945067640244
 20
160.4738745717793
 30
0.0
 10
104.9393819362695
 20
160.4099950410226
 30
0.0
 10
105.1858956875059
 20
160.6505266723992
 30
0.0
 10
105.4324094387417
 20
160.8910591468025
 30
0.0
 10
105.7283186731995
 20
161.1797874769527
 30
0.0
  0
HATCH
  5
50
330
41
100
AcDbEntity
  8
IDTHEAD_U+00A0Bild
 62
     7
420
 16777215
100
AcDbHatch
 10
0.0
 20
0.0
 30
0.0
210
0.0
220
0.0
230
1.0
  2
SOLID
 70
     1
 71
     0
 91
        3
 92
        1
 93
        1
 72
     4
 94
        3
 73
     0
 74
     1
 95
      263
 96
      259
 40
0.0
 40
0.0
 40
0.0
 40
0.0
 40
1.0
 40
1.0
 40
1.0
 40
2.0
 40
2.0
 40
2.0
 40
3.0
 40
3.0
 40
3.0
 40
4.0
 40
4.0
 40
4.0
 40
5.0
 40
5.0
 40
5.0
 40
6.0
 40
6.0
 40
6.0
 40
7.0
 40
7.0
 40
7.0
 40
8.0
 40
8.0
 40
8.0
 40
9.0
 40
9.0
 40
9.0
 40
10.0
 40
10.0
 40
10.0
 40
11.0
 40
11.0
 40
11.0
 40
12.0
 40
12.0
 40
12.0
 40
13.0
 40
13.0
 40
13.0
 40
14.0
 40
14.0
 40
14.0
 40
15.0
 40
15.0
 40
15.0
 40
16.0
 40
16.0
 40
16.0
 40
17.0
 40
17.0
 40
17.0
 40
18.0
 40
18.0
 40
18.0
 40
19.0
 40
19.0
 40
19.0
 40
20.0
 40
20.0
 40
20.0
 40
21.0
 40
21.0
 40
21.0
 40
22.0
 40
22.0
 40
22.0
 40
23.0
 40
23.0
 40
23.0
 40
24.0
 40
24.0
 40
24.0
 40
25.0
 40
25.0
 40
25.0
 40
26.0
 40
26.0
 40
26.0
 40
27.0
 40
27.0
 40
27.0
 40
28.0
 40
28.0
 40
28.0
 40
29.0
 40
29.0
 40
29.0
 40
30.0
 40
30.0
 40
30.0
 40
31.0
 40
31.0
 40
31.0
 40
32.0
 40
32.0
 40
32.0
 40
33.0
 40
33.0
 40
33.0
 40
34.0
 40
34.0
 40
34.0
 40
35.0
 40
35.0
 40
35.0
 40
36.0
 40
36.0
 40
36.0
 40
37.0
 40
37.0
 40
37.0
 40
38.0
 40
38.0
 40
38.0
 40
39.0
 40
39.0
 40
39.0
 40
40.0
 40
40.0
 40
40.0
 40
41.0
 40
41.0
 40
41.0
 40
42.0
 40
42.0
 40
42.0
 40
43.0
 40
43.0
 40
43.0
 40
44.0
 40
44.0
 40
44.0
 40
45.0
 40
45.0
 40
45.0
 40
46.0
 40
46.0
 40
46.0
 40
47.0
 40
47.0
 40
47.0
 40
48.0
 40
48.0
 40
48.0
 40
49.0
 40
49.0
 40
49.0
 40
50.0
 40
50.0
 40
50.0
 40
51.0
 40
51.0
 40
51.0
 40
52.0
 40
52.0
 40
52.0
 40
53.0
 40
53.0
 40
53.0
 40
54.0
 40
54.0
 40
54.0
 40
55.0
 40
55.0
 40
55.0
 40
56.0
 40
56.0
 40
56.0
 40
57.0
 40
57.0
 40
57.0
 40
58.0
 40
58.0
 40
58.0
 40
59.0
 40
59.0
 40
59.0
 40
60.0
 40
60.0
 40
60.0
 40
61.0
 40
61.0
 40
61.0
 40
62.0
 40
62.0
 40
62.0
 40
63.0
 40
63.0
 40
63.0
 40
64.0
 40
64.0
 40
64.0
 40
65.0
 40
65.0
 40
65.0
 40
66.0
 40
66.0
 40
66.0
 40
67.0
 40
67.0
 40
67.0
 40
68.0
 40
68.0
 40
68.0
 40
69.0
 40
69.0
 40
69.0
 40
70.0
 40
70.0
 40
70.0
 40
71.0
 40
71.0
 40
71.0
 40
72.0
 40
72.0
 40
72.0
 40
73.0
 40
73.0
 40
73.0
 40
74.0
 40
74.0
 40
74.0
 40
75.0
 40
75.0
 40
75.0
 40
76.0
 40
76.0
 40
76.0
 40
77.0
 40
77.0
 40
77.0
 40
78.0
 40
78.0
 40
78.0
 40
79.0
 40
79.0
 40
79.0
 40
80.0
 40
80.0
 40
80.0
 40
81.0
 40
81.0
 40
81.0
 40
82.0
 40
82.0
 40
82.0
 40
83.0
 40
83.0
 40
83.0
 40
84.0
 40
84.0
 40
84.0
 40
85.0
 40
85.0
 40
85.0
 40
86.0
 40
86.0
 40
86.0
 40
86.0
 10
112.4869659118239
 20
163.5276658295554
 10
112.0639551769428
 20
162.7088134351651
 10
111.3244290977211
 20
162.1843966639705
 10
110.6783719552534
 20
161.570871934888
 10
110.1009110798181
 20
161.0224879050107
 10
109.5451261155762
 20
160.4512780750599
 10
108.9797761665651
 20
159.8901407321561
 10
109.0070851844247
 20
159.860220016533
 10
109.0343933592579
 20
159.8302984578831
 10
109.0617023771181
 20
159.8003777422603
 10
109.5279064453036
 20
160.2218373073918
 10
109.9941105134897
 20
160.6432977155505
 10
110.4603145816758
 20
161.0647572806824
 10
110.4962798011591
 20
161.0438232332816
 10
110.5322441776154
 20
161.0228883428535
 10
110.5682093970986
 20
161.0019534524258
 10
110.5192185668556
 20
160.8518373138724
 10
110.4886807554408
 20
160.6923382843893
 10
110.4179609033001
 20
160.5532725442461
 10
110.1497805141678
 20
160.0259144517167
 10
109.8308144902286
 20
159.5211351523387
 10
109.6013467456949
 20
158.9781169895565
 10
109.2776572412633
 20
158.2121325067557
 10
109.1704511789301
 20
157.3925078995989
 10
109.1797598834809
 20
156.5616710328403
 10
109.1903752799396
 20
155.614235939521
 10
109.2133975053128
 20
154.666939945663
 10
109.2235559811178
 20
153.7195031662899
 10
109.2250017724871
 20
153.5846222123621
 10
109.2002150915239
 20
153.4438923368466
 10
109.1568421934601
 20
153.3163170552278
 10
109.1332298491609
 20
153.2468634296979
 10
109.0449784067434
 20
153.199382460879
 10
108.9858805253449
 20
153.1419925522589
 10
108.9459589799737
 20
153.205083009708
 10
108.877494225159
 20
153.265347640527
 10
108.870919457292
 20
153.33174107791
 10
108.8374791037861
 20
153.669383522843
 10
108.829538632118
 20
154.0096140607816
 10
108.7938473964216
 20
154.3469496438729
 10
108.7682960899355
 20
154.5884558145049
 10
108.71309046437
 20
154.8268267675837
 10
108.617507215806
 20
155.0704809711078
 10
108.6006095818619
 20
155.029117849502
 10
108.5707327036446
 20
154.9883515910387
 10
108.5687979565933
 20
154.9462997163428
 10
108.546442565607
 20
154.4606234096397
 10
108.4924239221107
 20
153.9725343595545
 10
108.5222729804352
 20
153.4897496355905
 10
108.5407462319128
 20
153.1909741092049
 10
108.6950066913838
 20
152.9019894988353
 10
108.7762433058201
 20
152.6053063655571
 10
108.8572691634968
 20
152.3093937589916
 10
108.9409480272613
 20
152.0123009145732
 10
108.9910701997891
 20
151.7103471762552
 10
109.0467352750899
 20
151.3749994509188
 10
108.8580034400466
 20
151.1486332028574
 10
108.5747918788317
 20
151.0106026999166
 10
108.0517458696
 20
150.7556864981956
 10
107.5207745631865
 20
150.5170255438159
 10
106.9930160328143
 20
150.2717839203798
 10
106.4986329428655
 20
150.0420489362753
 10
106.0040508985361
 20
149.8127472680686
 10
105.5097841463182
 20
149.5827644340152
 10
105.435181311642
 20
149.548053638764
 10
105.3642995983097
 20
149.503922859393
 10
105.2874551547405
 20
149.4757033723325
 10
104.9672777009478
 20
149.358128077435
 10
104.8419035629245
 20
149.4415793238994
 10
104.7631496631143
 20
149.7642378062639
 10
104.6013925857104
 20
150.4269615932675
 10
104.4220520718673
 20
151.0854028029198
 10
104.2482881818786
 20
151.7451692510754
 10
104.2227065264189
 20
151.8423011403079
 10
104.1796514495482
 20
151.9352785922984
 10
104.1591026655037
 20
152.0332046130004
 10
104.0894686321877
 20
152.3650402876976
 10
104.1508565965344
 20
152.4706631452542
 10
104.4580118116749
 20
152.6037214747263
 10
104.858990034925
 20
152.7774204516331
 10
105.2595846808729
 20
152.9524278065022
 10
105.6550368618912
 20
153.1381736397783
 10
105.7616983287578
 20
153.188273050576
 10
105.8491531106245
 20
153.2792660169196
 10
105.9454234262242
 20
153.3514898292955
 10
105.9333150288816
 20
153.3721895151799
 10
105.9212057885114
 20
153.3928908871183
 10
105.9090965481417
 20
153.4135922590567
 10
105.5867482997275
 20
153.3091108601092
 10
105.2689810602359
 20
153.186192459847
 10
104.9409255187757
 20
153.104673431353
 10
104.5013998842255
 20
152.9954559065076
 10
104.0529116077238
 20
152.9227734874234
 10
103.610519259732
 20
152.8243079294171
 10
103.4948905142649
 20
152.7985720000096
 10
103.3141198050523
 20
152.7572569309448
 10
103.2925779351573
 20
152.6847043380241
 10
103.2541502336967
 20
152.5552845132469
 10
103.2738800169739
 20
152.374259631382
 10
103.3404133968451
 20
152.2542412441294
 10
103.5691418066666
 20
151.8416520094888
 10
103.8822610165855
 20
151.4685670218357
 10
104.0624032491416
 20
151.0382236377807
 10
104.2713980820638
 20
150.5389543631211
 10
104.4062874662619
 20
150.0016527666816
 10
104.5138193585454
 20
149.4688461904074
 10
104.6265501985702
 20
148.9102783939144
 10
104.4762254108249
 20
148.7370751169059
 10
103.8640503680302
 20
148.6329477893144
 10
103.6504926512663
 20
148.5966217542589
 10
103.4206645126744
 20
148.6039240544596
 10
103.2057655398935
 20
148.6382487433276
 10
102.7463065310362
 20
148.7116359330154
 10
102.6308160420033
 20
148.9553128982696
 10
102.814815966284
 20
149.3983219205398
 10
102.8618842733679
 20
149.5116433010047
 10
102.906619081611
 20
149.6259341625628
 10
102.9554767135823
 20
149.7473620910227
 10
102.9116388861073
 20
149.7533711877477
 10
102.8983477218304
 20
149.7581696976461
 10
102.8961406770458
 20
149.7550724163096
 10
102.5083271640166
 20
149.2108209049712
 10
102.0118183813922
 20
149.4143057131749
 10
101.5466959168958
 20
149.5855649698344
 10
100.7614668128778
 20
149.8746928948004
 10
99.98584969238753
 20
150.1908819876774
 10
99.21281529060543
 20
150.5116571476396
 10
98.93676671937297
 20
150.6262026033634
 10
98.67698656777957
 20
150.7818034758244
 10
98.41525686347184
 20
150.928439598766
 10
98.19414815353102
 20
151.0523173637972
 10
98.08671157599223
 20
151.247580972329
 10
98.12118205584866
 20
151.5034599109273
 10
98.18589560379122
 20
151.9838403217794
 10
98.18683320792466
 20
152.4874562438454
 10
98.34128466570884
 20
152.9378619853444
 10
98.61058512163957
 20
153.7231905665527
 10
98.44711617245733
 20
154.4228229202951
 10
98.14461894514581
 20
155.1445990652375
 10
97.99956307638627
 20
155.4907122458455
 10
97.90657073969976
 20
155.8731093101572
 10
97.87345995707697
 20
156.2464758688407
 10
97.85219341454331
 20
156.4862833399916
 10
97.99008036578633
 20
156.738030603078
 10
98.04414761506033
 20
156.987134976401
 10
98.16576580418437
 20
157.5474680715112
 10
98.2827715816285
 20
158.1088659097699
 10
98.39374676515833
 20
158.6713891891238
 10
98.4139564942662
 20
158.7738304626399
 10
98.3966275993031
 20
158.8836768856552
 10
98.3966275993031
 20
158.9901039910058
 10
98.37328217843933
 20
158.9965017231949
 10
98.34993670488628
 20
159.0028994553844
 10
98.3265912840225
 20
159.0092963445466
 10
98.29201895596229
 20
158.9103763949669
 10
98.24906477889016
 20
158.8135050010891
 10
98.2243077619407
 20
158.7121866395873
 10
98.1097475532441
 20
158.2433497979627
 10
98.01189477051597
 20
157.7699799999562
 10
97.88063116657307
 20
157.3059930928794
 10
97.84832866246728
 20
157.1918118248361
 10
97.71303436184535
 20
157.1067672572705
 10
97.62508729170575
 20
157.0083286761294
 10
97.62508714681043
 20
157.0451613704345
 10
97.62508714681043
 20
157.0819932217127
 10
97.62508714681043
 20
157.1188259160181
 10
97.62508714681043
 20
157.7633934297105
 10
97.62508714681043
 20
158.4079601003759
 10
97.62508714681043
 20
159.0525276140683
 10
97.62508714681043
 20
159.3840193337337
 10
97.62508714681043
 20
159.7155110533995
 10
97.62508714681043
 20
160.0470027730653
 10
97.93105819875362
 20
160.4997605599994
 10
98.2442289123557
 20
160.9457201769014
 10
98.73429154142569
 20
161.2251895410962
 10
99.03561648695184
 20
161.3970262712768
 10
99.333150550646
 20
161.5759300971144
 10
99.63881529398414
 20
161.7396594362731
 10
100.5731510116777
 20
162.2401371901911
 10
101.3695645554047
 20
162.9300005466205
 10
102.1981952204057
 20
163.5770676354796
 10
102.2928414444176
 20
163.6509758158769
 10
102.4560232375152
 20
163.6371185589444
 10
102.5874267049121
 20
163.6639559031769
 10
102.5883607788702
 20
163.510266594524
 10
102.609368169623
 20
163.3529880982581
 10
102.5827719311233
 20
163.2042208029649
 10
102.5665727450802
 20
163.1136139430045
 10
102.4770007008083
 20
163.0361250052642
 10
102.4203863770629
 20
162.9527437300443
 10
102.4500111901955
 20
162.9314383292334
 10
102.4796360033283
 20
162.9101329284225
 10
102.5092608164609
 20
162.8888279491252
 10
102.6455479394876
 20
163.0696408096896
 10
102.778815339665
 20
163.252874422393
 10
102.920362951407
 20
163.4294704617149
 10
102.9534719952866
 20
163.4707783650498
 10
103.0127612438229
 20
163.5051161208369
 10
103.0638061094435
 20
163.5113014102128
 10
103.084934053063
 20
163.5138621048397
 10
103.1324091206924
 20
163.4367453635369
 10
103.1401628618718
 20
163.3911481386342
 10
103.2454527237484
 20
162.771929604939
 10
103.1053319352676
 20
162.199158067401
 10
102.7890690775248
 20
161.6669441391341
 10
102.6462539746316
 20
161.4266114621387
 10
102.4819012169787
 20
161.19907762163
 10
102.3273195642065
 20
160.9657370108853
 10
102.3420400808256
 20
160.9371895863067
 10
102.3567610189585
 20
160.9086413187013
 10
102.3714815355775
 20
160.880093051096
 10
102.5797838217883
 20
160.9632138309613
 10
102.816626788361
 20
161.0078495835276
 10
102.9907881655981
 20
161.1370072268962
 10
103.4313810723777
 20
161.4637497537451
 10
103.8579114451413
 20
161.8129155352565
 10
104.2643891552721
 20
162.1814308948514
 10
104.9654424310869
 20
162.8170113188082
 10
105.7515702019266
 20
163.1431831163525
 10
106.7177744492138
 20
163.0403030472631
 10
107.2249184394329
 20
162.9863021073347
 10
107.7470337468144
 20
162.9893922229415
 10
108.2542249465476
 20
163.0433822035186
 10
108.738547351828
 20
163.0949375220106
 10
109.2331749196182
 20
163.1912411371787
 10
109.6864671856944
 20
163.3642855035904
 10
110.7414995058922
 20
163.7670450429713
 10
111.1759003790801
 20
164.9277423720779
 10
110.5115141427578
 20
165.8325934298836
 10
110.226195013948
 20
166.2211795771929
 10
109.8740364864528
 20
166.5648020344179
 10
109.5267751030189
 20
166.9026735719483
 10
109.1571364098965
 20
167.2623167042416
 10
109.0261595141804
 20
168.0710010597395
 10
109.6140376747207
 20
168.4447930045972
 10
109.6508703690262
 20
168.4447930045972
 10
109.6877022203047
 20
168.4447930045972
 10
109.7245349146095
 20
168.4447929584943
 10
109.7826709021583
 20
168.3498553566762
 10
109.8512132154602
 20
168.2596396876058
 10
109.8968614434988
 20
168.1590360549645
 10
110.0049838762221
 20
167.9207515911908
 10
110.0625828555478
 20
167.6487299493609
 10
110.2123971904217
 20
167.4424975052846
 10
110.496837042031
 20
167.0509393715323
 10
110.8293985630078
 20
166.6940481956255
 10
111.1459602738354
 20
166.326190186363
 10
111.5211789629204
 20
165.8901709120197
 10
111.8150042345407
 20
165.4159953909218
 10
111.8820518609053
 20
164.8287381197944
 10
111.8880558994675
 20
164.7761475641001
 10
111.8967272755775
 20
164.7123519145339
 10
111.9291669559895
 20
164.6761957494263
 10
112.1108510849975
 20
164.4737027625327
 10
112.3002202484816
 20
164.2781044722669
 10
112.4869659118239
 20
164.0801520289984
 10
112.4869659118239
 20
163.8959898220129
 10
112.4869659118239
 20
163.7118280365409
 10
112.4869659118239
 20
163.5276658295554
 97
        0
 97
        0
 92
        1
 93
        1
 72
     4
 94
        3
 73
     0
 74
     1
 95
       32
 96
       28
 40
0.0
 40
0.0
 40
0.0
 40
0.0
 40
1.0
 40
1.0
 40
1.0
 40
2.0
 40
2.0
 40
2.0
 40
3.0
 40
3.0
 40
3.0
 40
4.0
 40
4.0
 40
4.0
 40
5.0
 40
5.0
 40
5.0
 40
6.0
 40
6.0
 40
6.0
 40
7.0
 40
7.0
 40
7.0
 40
8.0
 40
8.0
 40
8.0
 40
9.0
 40
9.0
 40
9.0
 40
9.0
 10
111.4672201743441
 20
163.5114721231877
 10
111.3790909708477
 20
163.4351482488139
 10
111.2839739162347
 20
163.3654745932273
 10
111.2039681212738
 20
163.281418896377
 10
110.6939140017208
 20
162.7455466522799
 10
110.0644349859494
 20
162.4006963261743
 10
109.3685642188495
 20
162.1897372402543
 10
108.9098942832998
 20
162.0506875176251
 10
108.4292929993633
 20
161.9848104343025
 10
107.9597159799995
 20
161.8807349528738
 10
106.9900586939664
 20
161.6658220701468
 10
106.1325931321668
 20
161.2560654063529
 10
105.5374286889393
 20
160.4245077514771
 10
105.4499713779917
 20
160.302314354467
 10
105.4402495901928
 20
160.1244845450756
 10
105.3945600538291
 20
159.9723974093079
 10
105.5169557773278
 20
160.0412685031549
 10
105.6659473178133
 20
160.0852846308482
 10
105.7573651697837
 20
160.1831052731707
 10
106.2908706154726
 20
160.7539821074415
 10
106.8919952598568
 20
161.2194991085916
 10
107.6498251421217
 20
161.4492606480476
 10
108.2422784103959
 20
161.6288831544349
 10
108.8475532768867
 20
161.7701719568765
 10
109.4310535980206
 20
161.9744247627114
 10
110.263781374425
 20
162.2659182215451
 10
110.9738900251652
 20
162.7457641532557
 10
111.4672201743441
 20
163.5114721231877
 97
        0
 97
        0
 92
        1
 93
        1
 72
     4
 94
        3
 73
     0
 74
     1
 95
       17
 96
       13
 40
0.0
 40
0.0
 40
0.0
 40
0.0
 40
1.0
 40
1.0
 40
1.0
 40
2.0
 40
2.0
 40
2.0
 40
3.0
 40
3.0
 40
3.0
 40
4.0
 40
4.0
 40
4.0
 40
4.0
 10
105.7283186731995
 20
161.1797874769527
 10
105.5874615006008
 20
161.2331789083327
 10
105.4708792915542
 20
161.3052223129228
 10
105.4471017139553
 20
161.2820474996557
 10
105.2239339104748
 20
161.0645321924631
 10
105.0134469196959
 20
160.8334272894226
 10
104.812261889251
 20
160.5952949129954
 10
104.7994596806562
 20
160.5801423450195
 10
104.8945067640244
 20
160.4738745717793
 10
104.9393819362695
 20
160.4099950410226
 10
105.1858956875059
 20
160.6505266723992
 10
105.4324094387417
 20
160.8910591468025
 10
105.7283186731995
 20
161.1797874769527
 97
        0
 97
        0
 75
     2
 76
     1
 98
        0
  0
SPLINE
  5
51
330
41
100
AcDbEntity
  8
IDTHEAD_U+00A0Bild
370
     0
100
AcDbSpline
210
0.0
220
0.0
230
1.0
 70
    11
 71
     3
 72
    74
 73
    70
 74
     0
 42
0.0000000001
 43
0.0000000001
 12
1.0
 22
0.0
 32
0.0
 13
1.0
 23
0.0
 33
0.0
 40
0.0
 40
0.0
 40
0.0
 40
0.0
 40
1.0
 40
1.0
 40
1.0
 40
2.0
 40
2.0
 40
2.0
 40
3.0
 40
3.0
 40
3.0
 40
4.0
 40
4.0
 40
4.0
 40
5.0
 40
5.0
 40
5.0
 40
6.0
 40
6.0
 40
6.0
 40
7.0
 40
7.0
 40
7.0
 40
8.0
 40
8.0
 40
8.0
 40
9.0
 40
9.0
 40
9.0
 40
10.0
 40
10.0
 40
10.0
 40
11.0
 40
11.0
 40
11.0
 40
12.0
 40
12.0
 40
12.0
 40
13.0
 40
13.0
 40
13.0
 40
14.0
 40
14.0
 40
14.0
 40
15.0
 40
15.0
 40
15.0
 40
16.0
 40
16.0
 40
16.0
 40
17.0
 40
17.0
 40
17.0
 40
18.0
 40
18.0
 40
18.0
 40
19.0
 40
19.0
 40
19.0
 40
20.0
 40
20.0
 40
20.0
 40
21.0
 40
21.0
 40
21.0
 40
22.0
 40
22.0
 40
22.0
 40
23.0
 40
23.0
 40
23.0
 40
23.0
 10
109.6140376747207
 20
168.4447930045972
 30
0.0
 10
109.0261595141804
 20
168.0710010597395
 30
0.0
 10
109.1571364098965
 20
167.2623167042416
 30
0.0
 10
109.5267751030189
 20
166.9026735719483
 30
0.0
 10
109.8740364864528
 20
166.5648020344179
 30
0.0
 10
110.226195013948
 20
166.2211795771929
 30
0.0
 10
110.5115141427578
 20
165.8325934298836
 30
0.0
 10
111.1759003790801
 20
164.9277423720779
 30
0.0
 10
110.7414995058922
 20
163.7670450429713
 30
0.0
 10
109.6864671856944
 20
163.3642855035904
 30
0.0
 10
109.2331749196182
 20
163.1912411371787
 30
0.0
 10
108.738547351828
 20
163.0949375220106
 30
0.0
 10
108.2542249465476
 20
163.0433822035186
 30
0.0
 10
107.7470337468144
 20
162.9893922229415
 30
0.0
 10
107.2249184394329
 20
162.9863021073347
 30
0.0
 10
106.7177744492138
 20
163.0403030472631
 30
0.0
 10
105.7515702019266
 20
163.1431831163525
 30
0.0
 10
104.9654424310869
 20
162.8170113188082
 30
0.0
 10
104.2643891552721
 20
162.1814308948514
 30
0.0
 10
103.8579114451413
 20
161.8129155352565
 30
0.0
 10
103.4313810723777
 20
161.4637497537451
 30
0.0
 10
102.9907881655981
 20
161.1370072268962
 30
0.0
 10
102.816626788361
 20
161.0078495835276
 30
0.0
 10
102.5797838217883
 20
160.9632138309613
 30
0.0
 10
102.3714815355775
 20
160.880093051096
 30
0.0
 10
102.3567610189585
 20
160.9086413187013
 30
0.0
 10
102.3420400808256
 20
160.9371895863067
 30
0.0
 10
102.3273195642065
 20
160.9657370108853
 30
0.0
 10
102.4819012169787
 20
161.19907762163
 30
0.0
 10
102.6462539746316
 20
161.4266114621387
 30
0.0
 10
102.7890690775248
 20
161.6669441391341
 30
0.0
 10
103.1053319352676
 20
162.199158067401
 30
0.0
 10
103.2454527237484
 20
162.771929604939
 30
0.0
 10
103.1401628618718
 20
163.3911481386342
 30
0.0
 10
103.1324091206924
 20
163.4367453635369
 30
0.0
 10
103.084934053063
 20
163.5138621048397
 30
0.0
 10
103.0638061094435
 20
163.5113014102128
 30
0.0
 10
103.0127612438229
 20
163.5051161208369
 30
0.0
 10
102.9534719952866
 20
163.4707783650498
 30
0.0
 10
102.920362951407
 20
163.4294704617149
 30
0.0
 10
102.778815339665
 20
163.252874422393
 30
0.0
 10
102.6455479394876
 20
163.0696408096896
 30
0.0
 10
102.5092608164609
 20
162.8888279491252
 30
0.0
 10
102.4796360033283
 20
162.9101329284225
 30
0.0
 10
102.4500111901955
 20
162.9314383292334
 30
0.0
 10
102.4203863770629
 20
162.9527437300443
 30
0.0
 10
102.4770007008083
 20
163.0361250052642
 30
0.0
 10
102.5665727450802
 20
163.1136139430045
 30
0.0
 10
102.5827719311233
 20
163.2042208029649
 30
0.0
 10
102.609368169623
 20
163.3529880982581
 30
0.0
 10
102.5883607788702
 20
163.510266594524
 30
0.0
 10
102.5874267049121
 20
163.6639559031769
 30
0.0
 10
102.4560232375152
 20
163.6371185589444
 30
0.0
 10
102.2928414444176
 20
163.6509758158769
 30
0.0
 10
102.1981952204057
 20
163.5770676354796
 30
0.0
 10
101.3695645554047
 20
162.9300005466205
 30
0.0
 10
100.5731510116777
 20
162.2401371901911
 30
0.0
 10
99.63881529398414
 20
161.7396594362731
 30
0.0
 10
99.333150550646
 20
161.5759300971144
 30
0.0
 10
99.03561648695184
 20
161.3970262712768
 30
0.0
 10
98.73429154142569
 20
161.2251895410962
 30
0.0
 10
98.2442289123557
 20
160.9457201769014
 30
0.0
 10
97.93105819875362
 20
160.4997605599994
 30
0.0
 10
97.62508714681043
 20
160.0470027730653
 30
0.0
 10
97.62508714681043
 20
162.8462660430714
 30
0.0
 10
97.62508714681043
 20
165.6455295238343
 30
0.0
 10
97.62508714681043
 20
168.4447930045972
 30
0.0
 10
101.6214041299518
 20
168.4447930045972
 30
0.0
 10
105.6177211130932
 20
168.4447930045972
 30
0.0
 10
109.6140376747207
 20
168.4447930045972
 30
0.0
  0
SPLINE
  5
52
330
41
100
AcDbEntity
  8
IDTHEAD_U+00A0Bild
370
     0
100
AcDbSpline
210
0.0
220
0.0
230
1.0
 70
    11
 71
     3
 72
    11
 73
     7
 74
     0
 42
0.0000000001
 43
0.0000000001
 12
1.0
 22
0.0
 32
0.0
 13
1.0
 23
0.0
 33
0.0
 40
0.0
 40
0.0
 40
0.0
 40
0.0
 40
1.0
 40
1.0
 40
1.0
 40
2.0
 40
2.0
 40
2.0
 40
2.0
 10
109.3685633758225
 20
166.728615887037
 30
0.0
 10
109.313738798478
 20
166.1808422087349
 30
0.0
 10
110.1818265009528
 20
164.7665674048434
 30
0.0
 10
110.628261585104
 20
164.6539722921713
 30
0.0
 10
110.7443784432259
 20
165.3475333759451
 30
0.0
 10
109.9732936468474
 20
166.6346240627632
 30
0.0
 10
109.3685633758225
 20
166.728615887037
 30
0.0
  0
SPLINE
  5
53
330
41
100
AcDbEntity
  8
IDTHEAD_U+00A0Bild
370
     0
100
AcDbSpline
210
0.0
220
0.0
230
1.0
 70
    11
 71
     3
 72
    89
 73
    85
 74
     0
 42
0.0000000001
 43
0.0000000001
 12
1.0
 22
0.0
 32
0.0
 13
1.0
 23
0.0
 33
0.0
 40
0.0
 40
0.0
 40
0.0
 40
0.0
 40
1.0
 40
1.0
 40
1.0
 40
2.0
 40
2.0
 40
2.0
 40
3.0
 40
3.0
 40
3.0
 40
4.0
 40
4.0
 40
4.0
 40
5.0
 40
5.0
 40
5.0
 40
6.0
 40
6.0
 40
6.0
 40
7.0
 40
7.0
 40
7.0
 40
8.0
 40
8.0
 40
8.0
 40
9.0
 40
9.0
 40
9.0
 40
10.0
 40
10.0
 40
10.0
 40
11.0
 40
11.0
 40
11.0
 40
12.0
 40
12.0
 40
12.0
 40
13.0
 40
13.0
 40
13.0
 40
14.0
 40
14.0
 40
14.0
 40
15.0
 40
15.0
 40
15.0
 40
16.0
 40
16.0
 40
16.0
 40
17.0
 40
17.0
 40
17.0
 40
18.0
 40
18.0
 40
18.0
 40
19.0
 40
19.0
 40
19.0
 40
20.0
 40
20.0
 40
20.0
 40
21.0
 40
21.0
 40
21.0
 40
22.0
 40
22.0
 40
22.0
 40
23.0
 40
23.0
 40
23.0
 40
24.0
 40
24.0
 40
24.0
 40
25.0
 40
25.0
 40
25.0
 40
26.0
 40
26.0
 40
26.0
 40
27.0
 40
27.0
 40
27.0
 40
28.0
 40
28.0
 40
28.0
 40
28.0
 10
99.00630243466092
 20
128.4447921649322
 30
0.0
 10
99.17424005941346
 20
128.7451020005263
 30
0.0
 10
99.31652268535403
 20
129.0635942432703
 30
0.0
 10
99.5143661673778
 20
129.3427070070287
 30
0.0
 10
100.6272739797698
 20
130.9127841668431
 30
0.0
 10
101.7613036238351
 20
132.4679127712247
 30
0.0
 10
102.8711103612685
 20
134.0401514523638
 30
0.0
 10
103.2649540466984
 20
134.5981004670109
 30
0.0
 10
103.6452532382268
 20
135.1717230403437
 30
0.0
 10
103.9632847666947
 20
135.7743153948005
 30
0.0
 10
104.1067291892717
 20
136.046110683871
 30
0.0
 10
104.1233878250507
 20
136.4065924173105
 30
0.0
 10
104.1215196771349
 20
136.7263896659085
 30
0.0
 10
104.1200359495487
 20
136.9804139450239
 30
0.0
 10
103.9264073919565
 20
137.1593818409162
 30
0.0
 10
103.6768305019788
 20
137.2672218595821
 30
0.0
 10
103.1005869575859
 20
137.5162115812279
 30
0.0
 10
102.5041478574772
 20
137.7344375602129
 30
0.0
 10
101.9642459441399
 20
138.048306642682
 30
0.0
 10
100.7727401919398
 20
138.7409781221741
 30
0.0
 10
100.7830261755839
 20
140.035314626382
 30
0.0
 10
101.4394805812649
 20
140.9370433227967
 30
0.0
 10
101.5632892180794
 20
141.1071088531711
 30
0.0
 10
101.6777406762882
 20
141.2902598492248
 30
0.0
 10
101.8297983061094
 20
141.4315444365309
 30
0.0
 10
101.9563450947424
 20
141.5491281616985
 30
0.0
 10
102.1228113211788
 20
141.6395495557106
 30
0.0
 10
102.287285053212
 20
141.6973862686612
 30
0.0
 10
102.6905740135726
 20
141.8392120793253
 30
0.0
 10
103.1010792853759
 20
141.961843850395
 30
0.0
 10
103.5128423535198
 20
142.0773672174823
 30
0.0
 10
103.6249131033741
 20
142.1088121259893
 30
0.0
 10
103.7517570590376
 20
142.0876015657206
 30
0.0
 10
103.8718205482369
 20
142.0905589045686
 30
0.0
 10
103.8193889031391
 20
141.9787634030424
 30
0.0
 10
103.7835788006306
 20
141.85455854352
 30
0.0
 10
103.71122263301
 20
141.7576374110472
 30
0.0
 10
103.5360736495981
 20
141.5230229864484
 30
0.0
 10
103.3402957945735
 20
141.3039388059386
 30
0.0
 10
103.1597253042823
 20
141.0732023057135
 30
0.0
 10
103.0196559404508
 20
140.8942192353344
 30
0.0
 10
103.1393362738613
 20
140.7734707866671
 30
0.0
 10
103.2666809875852
 20
140.6560944461506
 30
0.0
 10
103.3998324715453
 20
140.5333665699989
 30
0.0
 10
103.5231664841372
 20
140.5397954941882
 30
0.0
 10
103.6496062083361
 20
140.6667755987188
 30
0.0
 10
104.0975566335878
 20
141.1166519192382
 30
0.0
 10
104.542425373503
 20
141.5697486030411
 30
0.0
 10
104.9976249882518
 20
142.0121995414121
 30
0.0
 10
105.3422274644085
 20
142.3471527300952
 30
0.0
 10
105.6951582046707
 20
142.3333759822447
 30
0.0
 10
105.9694378944209
 20
141.9992118668689
 30
0.0
 10
106.1343440993244
 20
141.7982966050767
 30
0.0
 10
106.1156052943296
 20
141.5873914728869
 30
0.0
 10
105.9914156092941
 20
141.3888113959888
 30
0.0
 10
105.8079779840475
 20
141.0955003708613
 30
0.0
 10
105.6124058276201
 20
140.8087244913309
 30
0.0
 10
105.4060446111639
 20
140.5310246408882
 30
0.0
 10
104.987173139038
 20
139.9673497866002
 30
0.0
 10
105.2048654819085
 20
139.6323038649436
 30
0.0
 10
105.5375593581301
 20
139.2764014543735
 30
0.0
 10
105.8921559198186
 20
138.8970628921549
 30
0.0
 10
106.350541755257
 20
138.7084271621937
 30
0.0
 10
106.8505764984668
 20
138.5917960575784
 30
0.0
 10
107.1955052260863
 20
138.5113443013145
 30
0.0
 10
107.5313461222397
 20
138.4033559098905
 30
0.0
 10
107.7419132005877
 20
138.0675748686565
 30
0.0
 10
108.1045631995672
 20
137.4892751813182
 30
0.0
 10
107.9096005516882
 20
136.6626905429385
 30
0.0
 10
107.4093963600439
 20
136.189715281585
 30
0.0
 10
106.9923028319403
 20
135.7953236285806
 30
0.0
 10
106.5290333408731
 20
135.4425673949153
 30
0.0
 10
106.0549056615597
 20
135.1169633760811
 30
0.0
 10
104.1880324028439
 20
133.834897973435
 30
0.0
 10
102.5585660957894
 20
132.2867900982234
 30
0.0
 10
101.0148048679845
 20
130.6443373811666
 30
0.0
 10
100.4068363193511
 20
129.9974995956614
 30
0.0
 10
99.84532825530718
 20
129.3069255674392
 30
0.0
 10
99.26587878446793
 20
128.6335020812728
 30
0.0
 10
99.22147391593154
 20
128.5818953381315
 30
0.0
 10
99.20272320318016
 20
128.5082114029258
 30
0.0
 10
99.17204829449366
 20
128.4447921649322
 30
0.0
 10
99.11679988530607
 20
128.4447921649322
 30
0.0
 10
99.06155126536203
 20
128.4447921649322
 30
0.0
 10
99.00630243466092
 20
128.4447921649322
 30
0.0
  0
HATCH
  5
54
330
41
100
AcDbEntity
  8
IDTHEAD_U+00A0Bild
 62
     7
420
 16777215
100
AcDbHatch
 10
0.0
 20
0.0
 30
0.0
210
0.0
220
0.0
230
1.0
  2
SOLID
 70
     1
 71
     0
 91
        1
 92
        1
 93
        1
 72
     4
 94
        3
 73
     0
 74
     1
 95
       89
 96
       85
 40
0.0
 40
0.0
 40
0.0
 40
0.0
 40
1.0
 40
1.0
 40
1.0
 40
2.0
 40
2.0
 40
2.0
 40
3.0
 40
3.0
 40
3.0
 40
4.0
 40
4.0
 40
4.0
 40
5.0
 40
5.0
 40
5.0
 40
6.0
 40
6.0
 40
6.0
 40
7.0
 40
7.0
 40
7.0
 40
8.0
 40
8.0
 40
8.0
 40
9.0
 40
9.0
 40
9.0
 40
10.0
 40
10.0
 40
10.0
 40
11.0
 40
11.0
 40
11.0
 40
12.0
 40
12.0
 40
12.0
 40
13.0
 40
13.0
 40
13.0
 40
14.0
 40
14.0
 40
14.0
 40
15.0
 40
15.0
 40
15.0
 40
16.0
 40
16.0
 40
16.0
 40
17.0
 40
17.0
 40
17.0
 40
18.0
 40
18.0
 40
18.0
 40
19.0
 40
19.0
 40
19.0
 40
20.0
 40
20.0
 40
20.0
 40
21.0
 40
21.0
 40
21.0
 40
22.0
 40
22.0
 40
22.0
 40
23.0
 40
23.0
 40
23.0
 40
24.0
 40
24.0
 40
24.0
 40
25.0
 40
25.0
 40
25.0
 40
26.0
 40
26.0
 40
26.0
 40
27.0
 40
27.0
 40
27.0
 40
28.0
 40
28.0
 40
28.0
 40
28.0
 10
99.00630243466092
 20
128.4447921649322
 10
99.17424005941346
 20
128.7451020005263
 10
99.31652268535403
 20
129.0635942432703
 10
99.5143661673778
 20
129.3427070070287
 10
100.6272739797698
 20
130.9127841668431
 10
101.7613036238351
 20
132.4679127712247
 10
102.8711103612685
 20
134.0401514523638
 10
103.2649540466984
 20
134.5981004670109
 10
103.6452532382268
 20
135.1717230403437
 10
103.9632847666947
 20
135.7743153948005
 10
104.1067291892717
 20
136.046110683871
 10
104.1233878250507
 20
136.4065924173105
 10
104.1215196771349
 20
136.7263896659085
 10
104.1200359495487
 20
136.9804139450239
 10
103.9264073919565
 20
137.1593818409162
 10
103.6768305019788
 20
137.2672218595821
 10
103.1005869575859
 20
137.5162115812279
 10
102.5041478574772
 20
137.7344375602129
 10
101.9642459441399
 20
138.048306642682
 10
100.7727401919398
 20
138.7409781221741
 10
100.7830261755839
 20
140.035314626382
 10
101.4394805812649
 20
140.9370433227967
 10
101.5632892180794
 20
141.1071088531711
 10
101.6777406762882
 20
141.2902598492248
 10
101.8297983061094
 20
141.4315444365309
 10
101.9563450947424
 20
141.5491281616985
 10
102.1228113211788
 20
141.6395495557106
 10
102.287285053212
 20
141.6973862686612
 10
102.6905740135726
 20
141.8392120793253
 10
103.1010792853759
 20
141.961843850395
 10
103.5128423535198
 20
142.0773672174823
 10
103.6249131033741
 20
142.1088121259893
 10
103.7517570590376
 20
142.0876015657206
 10
103.8718205482369
 20
142.0905589045686
 10
103.8193889031391
 20
141.9787634030424
 10
103.7835788006306
 20
141.85455854352
 10
103.71122263301
 20
141.7576374110472
 10
103.5360736495981
 20
141.5230229864484
 10
103.3402957945735
 20
141.3039388059386
 10
103.1597253042823
 20
141.0732023057135
 10
103.0196559404508
 20
140.8942192353344
 10
103.1393362738613
 20
140.7734707866671
 10
103.2666809875852
 20
140.6560944461506
 10
103.3998324715453
 20
140.5333665699989
 10
103.5231664841372
 20
140.5397954941882
 10
103.6496062083361
 20
140.6667755987188
 10
104.0975566335878
 20
141.1166519192382
 10
104.542425373503
 20
141.5697486030411
 10
104.9976249882518
 20
142.0121995414121
 10
105.3422274644085
 20
142.3471527300952
 10
105.6951582046707
 20
142.3333759822447
 10
105.9694378944209
 20
141.9992118668689
 10
106.1343440993244
 20
141.7982966050767
 10
106.1156052943296
 20
141.5873914728869
 10
105.9914156092941
 20
141.3888113959888
 10
105.8079779840475
 20
141.0955003708613
 10
105.6124058276201
 20
140.8087244913309
 10
105.4060446111639
 20
140.5310246408882
 10
104.987173139038
 20
139.9673497866002
 10
105.2048654819085
 20
139.6323038649436
 10
105.5375593581301
 20
139.2764014543735
 10
105.8921559198186
 20
138.8970628921549
 10
106.350541755257
 20
138.7084271621937
 10
106.8505764984668
 20
138.5917960575784
 10
107.1955052260863
 20
138.5113443013145
 10
107.5313461222397
 20
138.4033559098905
 10
107.7419132005877
 20
138.0675748686565
 10
108.1045631995672
 20
137.4892751813182
 10
107.9096005516882
 20
136.6626905429385
 10
107.4093963600439
 20
136.189715281585
 10
106.9923028319403
 20
135.7953236285806
 10
106.5290333408731
 20
135.4425673949153
 10
106.0549056615597
 20
135.1169633760811
 10
104.1880324028439
 20
133.834897973435
 10
102.5585660957894
 20
132.2867900982234
 10
101.0148048679845
 20
130.6443373811666
 10
100.4068363193511
 20
129.9974995956614
 10
99.84532825530718
 20
129.3069255674392
 10
99.26587878446793
 20
128.6335020812728
 10
99.22147391593154
 20
128.5818953381315
 10
99.20272320318016
 20
128.5082114029258
 10
99.17204829449366
 20
128.4447921649322
 10
99.11679988530607
 20
128.4447921649322
 10
99.06155126536203
 20
128.4447921649322
 10
99.00630243466092
 20
128.4447921649322
 97
        0
 97
        0
 75
     2
 76
     1
 98
        0
  0
SPLINE
  5
55
330
41
100
AcDbEntity
  8
IDTHEAD_U+00A0Bild
370
     0
100
AcDbSpline
210
0.0
220
0.0
230
1.0
 70
    11
 71
     3
 72
    29
 73
    25
 74
     0
 42
0.0000000001
 43
0.0000000001
 12
1.0
 22
0.0
 32
0.0
 13
1.0
 23
0.0
 33
0.0
 40
0.0
 40
0.0
 40
0.0
 40
0.0
 40
1.0
 40
1.0
 40
1.0
 40
2.0
 40
2.0
 40
2.0
 40
3.0
 40
3.0
 40
3.0
 40
4.0
 40
4.0
 40
4.0
 40
5.0
 40
5.0
 40
5.0
 40
6.0
 40
6.0
 40
6.0
 40
7.0
 40
7.0
 40
7.0
 40
8.0
 40
8.0
 40
8.0
 40
8.0
 10
112.4869659118239
 20
164.0801520289984
 30
0.0
 10
112.3002202484816
 20
164.2781044722669
 30
0.0
 10
112.1108510849975
 20
164.4737027625327
 30
0.0
 10
111.9291669559895
 20
164.6761957494263
 30
0.0
 10
111.8967272755775
 20
164.7123519145339
 30
0.0
 10
111.8880558994675
 20
164.7761475641001
 30
0.0
 10
111.8820518609053
 20
164.8287381197944
 30
0.0
 10
111.8150042345407
 20
165.4159953909218
 30
0.0
 10
111.5211789629204
 20
165.8901709120197
 30
0.0
 10
111.1459602738354
 20
166.326190186363
 30
0.0
 10
110.8293985630078
 20
166.6940481956255
 30
0.0
 10
110.496837042031
 20
167.0509393715323
 30
0.0
 10
110.2123971904217
 20
167.4424975052846
 30
0.0
 10
110.0625828555478
 20
167.6487299493609
 30
0.0
 10
110.0049838762221
 20
167.9207515911908
 30
0.0
 10
109.8968614434988
 20
168.1590360549645
 30
0.0
 10
109.8512132154602
 20
168.2596396876058
 30
0.0
 10
109.7826709021583
 20
168.3498553566762
 30
0.0
 10
109.7245349146095
 20
168.4447929584943
 30
0.0
 10
110.6453455280233
 20
168.4447930045972
 30
0.0
 10
111.5661552984101
 20
168.4447930045972
 30
0.0
 10
112.4869659118239
 20
168.4447930045972
 30
0.0
 10
112.4869659118239
 20
166.9899126442714
 30
0.0
 10
112.4869659118239
 20
165.5350322839459
 30
0.0
 10
112.4869659118239
 20
164.0801520289984
 30
0.0
  0
SPLINE
  5
56
330
41
100
AcDbEntity
  8
IDTHEAD_U+00A0Bild
370
     0
100
AcDbSpline
210
0.0
220
0.0
230
1.0
 70
    27
 71
     3
 72
    11
 73
     7
 74
     0
 42
0.0000000001
 43
0.0000000001
 12
1.0
 22
0.0
 32
0.0
 13
1.0
 23
0.0
 33
0.0
 40
0.0
 40
0.0
 40
0.0
 40
0.0
 40
1.0
 40
1.0
 40
1.0
 40
2.0
 40
2.0
 40
2.0
 40
2.0
 10
97.62508714681043
 20
159.0525276140683
 30
0.0
 10
97.62508714681043
 20
158.4079601003759
 30
0.0
 10
97.62508714681043
 20
157.7633934297105
 30
0.0
 10
97.62508714681043
 20
157.1188259160181
 30
0.0
 10
97.62508714681043
 20
157.7633934297105
 30
0.0
 10
97.62508714681043
 20
158.4079601003759
 30
0.0
 10
97.62508714681043
 20
159.0525276140683
 30
0.0
  0
SPLINE
  5
57
330
41
100
AcDbEntity
  8
IDTHEAD_U+00A0Bild
370
     0
100
AcDbSpline
210
0.0
220
0.0
230
1.0
 70
    11
 71
     3
 72
    71
 73
    67
 74
     0
 42
0.0000000001
 43
0.0000000001
 12
1.0
 22
0.0
 32
0.0
 13
1.0
 23
0.0
 33
0.0
 40
0.0
 40
0.0
 40
0.0
 40
0.0
 40
1.0
 40
1.0
 40
1.0
 40
2.0
 40
2.0
 40
2.0
 40
3.0
 40
3.0
 40
3.0
 40
4.0
 40
4.0
 40
4.0
 40
5.0
 40
5.0
 40
5.0
 40
6.0
 40
6.0
 40
6.0
 40
7.0
 40
7.0
 40
7.0
 40
8.0
 40
8.0
 40
8.0
 40
9.0
 40
9.0
 40
9.0
 40
10.0
 40
10.0
 40
10.0
 40
11.0
 40
11.0
 40
11.0
 40
12.0
 40
12.0
 40
12.0
 40
13.0
 40
13.0
 40
13.0
 40
14.0
 40
14.0
 40
14.0
 40
15.0
 40
15.0
 40
15.0
 40
16.0
 40
16.0
 40
16.0
 40
17.0
 40
17.0
 40
17.0
 40
18.0
 40
18.0
 40
18.0
 40
19.0
 40
19.0
 40
19.0
 40
20.0
 40
20.0
 40
20.0
 40
21.0
 40
21.0
 40
21.0
 40
22.0
 40
22.0
 40
22.0
 40
22.0
 10
102.4379967903675
 20
146.918136375555
 30
0.0
 10
102.6041489892325
 20
147.2598793039997
 30
0.0
 10
102.7512289659096
 20
147.5681169658572
 30
0.0
 10
102.9032604618929
 20
147.87389130271
 30
0.0
 10
103.211579475859
 20
148.4940034450646
 30
0.0
 10
103.8770549031142
 20
148.6149643365455
 30
0.0
 10
104.2935621059125
 20
148.0642839010177
 30
0.0
 10
104.7702563810426
 20
147.4340250852364
 30
0.0
 10
105.0483794310582
 20
146.7077168269394
 30
0.0
 10
104.8475417277529
 20
145.8858902331602
 30
0.0
 10
104.8202015178925
 20
145.7740154870914
 30
0.0
 10
104.7682263719355
 20
145.657571534479
 30
0.0
 10
104.6958145645304
 20
145.569390906333
 30
0.0
 10
104.5155842356488
 20
145.3499088170612
 30
0.0
 10
104.327069058554
 20
145.1351038417956
 30
0.0
 10
104.123263900076
 20
144.9376348745328
 30
0.0
 10
103.8527529626976
 20
144.6755343963966
 30
0.0
 10
103.4345820460401
 20
144.6903059161515
 30
0.0
 10
103.1557647632588
 20
144.941349251661
 30
0.0
 10
103.0284659945085
 20
145.0559638356022
 30
0.0
 10
102.8772185136704
 20
145.1443434181289
 30
0.0
 10
102.7524045671137
 20
145.2612459774502
 30
0.0
 10
102.6369907935413
 20
145.3693473344971
 30
0.0
 10
102.542369438827
 20
145.4996489655558
 30
0.0
 10
102.4261164318385
 20
145.6346614317017
 30
0.0
 10
102.4534452608337
 20
145.3857846756789
 30
0.0
 10
102.3545994976336
 20
145.2194588132439
 30
0.0
 10
102.1288941827697
 20
145.1101654159653
 30
0.0
 10
101.8278252013277
 20
144.9643773782237
 30
0.0
 10
101.67628308254
 20
145.016252203963
 30
0.0
 10
101.5058078410256
 20
145.2923519890877
 30
0.0
 10
101.4100163647829
 20
145.4474959408947
 30
0.0
 10
101.2593294969249
 20
145.5784483888265
 30
0.0
 10
101.1095573134028
 20
145.6876271344282
 30
0.0
 10
100.9793707555349
 20
145.7825283741184
 30
0.0
 10
100.8218692786175
 20
145.8541704978387
 30
0.0
 10
100.6657092684736
 20
145.8966337697287
 30
0.0
 10
100.1423783161036
 20
146.0389401058045
 30
0.0
 10
99.79442839033696
 20
146.3737128867012
 30
0.0
 10
99.57341957910026
 20
146.852725907698
 30
0.0
 10
99.42082114743418
 20
147.1834673333004
 30
0.0
 10
99.26432592866462
 20
147.5140637582521
 30
0.0
 10
99.14000736587086
 20
147.8557948843178
 30
0.0
 10
98.97477311807141
 20
148.3099959335408
 30
0.0
 10
99.10828467995493
 20
148.7399481530504
 30
0.0
 10
99.316027090834
 20
149.1486038235331
 30
0.0
 10
99.4188244378954
 20
149.3508190330178
 30
0.0
 10
99.59551194565066
 20
149.3698748161787
 30
0.0
 10
99.7822002831549
 20
149.272112342722
 30
0.0
 10
100.0000353083513
 20
149.1580457263556
 30
0.0
 10
100.2231249210741
 20
149.0475080211693
 30
0.0
 10
100.4205570059036
 20
148.903409409611
 30
0.0
 10
100.5397825262273
 20
148.8163887866689
 30
0.0
 10
100.6736798783587
 20
148.679737475962
 30
0.0
 10
100.6990866057079
 20
148.5460249575086
 30
0.0
 10
100.8068709845891
 20
147.9787706104188
 30
0.0
 10
101.2344028734736
 20
147.8912256246595
 30
0.0
 10
101.6908628136439
 20
147.8250075369004
 30
0.0
 10
101.7622629886041
 20
147.8146484206608
 30
0.0
 10
101.8341213487591
 20
147.800354054209
 30
0.0
 10
101.9026046501686
 20
147.7781318614944
 30
0.0
 10
102.3364710442143
 20
147.6373396019783
 30
0.0
 10
102.3323912148652
 20
147.636282446073
 30
0.0
 10
102.3508084050449
 20
147.1809584848363
 30
0.0
 10
102.3541160216275
 20
147.0991831761229
 30
0.0
 10
102.4030866192218
 20
147.0192574687301
 30
0.0
 10
102.4379967903675
 20
146.918136375555
 30
0.0
  0
HATCH
  5
58
330
41
100
AcDbEntity
  8
IDTHEAD_U+00A0Bild
 62
     7
420
 16777215
100
AcDbHatch
 10
0.0
 20
0.0
 30
0.0
210
0.0
220
0.0
230
1.0
  2
SOLID
 70
     1
 71
     0
 91
        1
 92
        1
 93
        1
 72
     4
 94
        3
 73
     0
 74
     1
 95
       71
 96
       67
 40
0.0
 40
0.0
 40
0.0
 40
0.0
 40
1.0
 40
1.0
 40
1.0
 40
2.0
 40
2.0
 40
2.0
 40
3.0
 40
3.0
 40
3.0
 40
4.0
 40
4.0
 40
4.0
 40
5.0
 40
5.0
 40
5.0
 40
6.0
 40
6.0
 40
6.0
 40
7.0
 40
7.0
 40
7.0
 40
8.0
 40
8.0
 40
8.0
 40
9.0
 40
9.0
 40
9.0
 40
10.0
 40
10.0
 40
10.0
 40
11.0
 40
11.0
 40
11.0
 40
12.0
 40
12.0
 40
12.0
 40
13.0
 40
13.0
 40
13.0
 40
14.0
 40
14.0
 40
14.0
 40
15.0
 40
15.0
 40
15.0
 40
16.0
 40
16.0
 40
16.0
 40
17.0
 40
17.0
 40
17.0
 40
18.0
 40
18.0
 40
18.0
 40
19.0
 40
19.0
 40
19.0
 40
20.0
 40
20.0
 40
20.0
 40
21.0
 40
21.0
 40
21.0
 40
22.0
 40
22.0
 40
22.0
 40
22.0
 10
102.4379967903675
 20
146.918136375555
 10
102.6041489892325
 20
147.2598793039997
 10
102.7512289659096
 20
147.5681169658572
 10
102.9032604618929
 20
147.87389130271
 10
103.211579475859
 20
148.4940034450646
 10
103.8770549031142
 20
148.6149643365455
 10
104.2935621059125
 20
148.0642839010177
 10
104.7702563810426
 20
147.4340250852364
 10
105.0483794310582
 20
146.7077168269394
 10
104.8475417277529
 20
145.8858902331602
 10
104.8202015178925
 20
145.7740154870914
 10
104.7682263719355
 20
145.657571534479
 10
104.6958145645304
 20
145.569390906333
 10
104.5155842356488
 20
145.3499088170612
 10
104.327069058554
 20
145.1351038417956
 10
104.123263900076
 20
144.9376348745328
 10
103.8527529626976
 20
144.6755343963966
 10
103.4345820460401
 20
144.6903059161515
 10
103.1557647632588
 20
144.941349251661
 10
103.0284659945085
 20
145.0559638356022
 10
102.8772185136704
 20
145.1443434181289
 10
102.7524045671137
 20
145.2612459774502
 10
102.6369907935413
 20
145.3693473344971
 10
102.542369438827
 20
145.4996489655558
 10
102.4261164318385
 20
145.6346614317017
 10
102.4534452608337
 20
145.3857846756789
 10
102.3545994976336
 20
145.2194588132439
 10
102.1288941827697
 20
145.1101654159653
 10
101.8278252013277
 20
144.9643773782237
 10
101.67628308254
 20
145.016252203963
 10
101.5058078410256
 20
145.2923519890877
 10
101.4100163647829
 20
145.4474959408947
 10
101.2593294969249
 20
145.5784483888265
 10
101.1095573134028
 20
145.6876271344282
 10
100.9793707555349
 20
145.7825283741184
 10
100.8218692786175
 20
145.8541704978387
 10
100.6657092684736
 20
145.8966337697287
 10
100.1423783161036
 20
146.0389401058045
 10
99.79442839033696
 20
146.3737128867012
 10
99.57341957910026
 20
146.852725907698
 10
99.42082114743418
 20
147.1834673333004
 10
99.26432592866462
 20
147.5140637582521
 10
99.14000736587086
 20
147.8557948843178
 10
98.97477311807141
 20
148.3099959335408
 10
99.10828467995493
 20
148.7399481530504
 10
99.316027090834
 20
149.1486038235331
 10
99.4188244378954
 20
149.3508190330178
 10
99.59551194565066
 20
149.3698748161787
 10
99.7822002831549
 20
149.272112342722
 10
100.0000353083513
 20
149.1580457263556
 10
100.2231249210741
 20
149.0475080211693
 10
100.4205570059036
 20
148.903409409611
 10
100.5397825262273
 20
148.8163887866689
 10
100.6736798783587
 20
148.679737475962
 10
100.6990866057079
 20
148.5460249575086
 10
100.8068709845891
 20
147.9787706104188
 10
101.2344028734736
 20
147.8912256246595
 10
101.6908628136439
 20
147.8250075369004
 10
101.7622629886041
 20
147.8146484206608
 10
101.8341213487591
 20
147.800354054209
 10
101.9026046501686
 20
147.7781318614944
 10
102.3364710442143
 20
147.6373396019783
 10
102.3323912148652
 20
147.636282446073
 10
102.3508084050449
 20
147.1809584848363
 10
102.3541160216275
 20
147.0991831761229
 10
102.4030866192218
 20
147.0192574687301
 10
102.4379967903675
 20
146.918136375555
 97
        0
 97
        0
 75
     2
 76
     1
 98
        0
  0
SPLINE
  5
59
330
41
100
AcDbEntity
  8
IDTHEAD_U+00A0Bild
370
     0
100
AcDbSpline
210
0.0
220
0.0
230
1.0
 70
    11
 71
     3
 72
    56
 73
    52
 74
     0
 42
0.0000000001
 43
0.0000000001
 12
1.0
 22
0.0
 32
0.0
 13
1.0
 23
0.0
 33
0.0
 40
0.0
 40
0.0
 40
0.0
 40
0.0
 40
1.0
 40
1.0
 40
1.0
 40
2.0
 40
2.0
 40
2.0
 40
3.0
 40
3.0
 40
3.0
 40
4.0
 40
4.0
 40
4.0
 40
5.0
 40
5.0
 40
5.0
 40
6.0
 40
6.0
 40
6.0
 40
7.0
 40
7.0
 40
7.0
 40
8.0
 40
8.0
 40
8.0
 40
9.0
 40
9.0
 40
9.0
 40
10.0
 40
10.0
 40
10.0
 40
11.0
 40
11.0
 40
11.0
 40
12.0
 40
12.0
 40
12.0
 40
13.0
 40
13.0
 40
13.0
 40
14.0
 40
14.0
 40
14.0
 40
15.0
 40
15.0
 40
15.0
 40
16.0
 40
16.0
 40
16.0
 40
17.0
 40
17.0
 40
17.0
 40
17.0
 10
100.3174375171354
 20
141.7706554345635
 30
0.0
 10
100.2281531558405
 20
142.3987341824251
 30
0.0
 10
100.1476912832519
 20
142.9508089846738
 30
0.0
 10
100.0723575441338
 20
143.503580127255
 30
0.0
 10
100.0510479281877
 20
143.6599414101044
 30
0.0
 10
100.0560032411156
 20
143.793488695258
 30
0.0
 10
100.2330861285518
 20
143.8932069914424
 30
0.0
 10
100.9477093998359
 20
144.2956192036837
 30
0.0
 10
101.6486646737572
 20
144.7223965833696
 30
0.0
 10
102.3656705502065
 20
145.1203525546895
 30
0.0
 10
102.4492882945109
 20
145.1667611931161
 30
0.0
 10
102.6259833895096
 20
145.1256265318375
 30
0.0
 10
102.7163938241703
 20
145.0629036341764
 30
0.0
 10
102.9030121904301
 20
144.9334382859391
 30
0.0
 10
103.052311435784
 20
144.7516024120645
 30
0.0
 10
103.2317678658451
 20
144.6100851492953
 30
0.0
 10
103.5741274685676
 20
144.34009562414
 30
0.0
 10
103.8420701240754
 20
144.349306537554
 30
0.0
 10
104.1857305175174
 20
144.6310293130205
 30
0.0
 10
104.3416323506305
 20
144.7588322119395
 30
0.0
 10
104.4819554656005
 20
144.906345083001
 30
0.0
 10
104.6426802563965
 20
145.027179520426
 30
0.0
 10
104.7000044089076
 20
145.0702750625942
 30
0.0
 10
104.8145043411714
 20
145.0979752449999
 30
0.0
 10
104.8726310554225
 20
145.0699361657254
 30
0.0
 10
105.4303111444448
 20
144.800921179825
 30
0.0
 10
105.9821254513389
 20
144.5196823018781
 30
0.0
 10
106.5341066775858
 20
144.2389661006944
 30
0.0
 10
106.6637178695008
 20
144.173051502669
 30
0.0
 10
106.79221795178
 20
144.1028324085889
 30
0.0
 10
106.9132226806669
 20
144.0225307111376
 30
0.0
 10
107.2206552517032
 20
143.8185097377381
 30
0.0
 10
107.2944226465851
 20
143.6153317913758
 30
0.0
 10
107.22939575603
 20
143.2486656115883
 30
0.0
 10
107.1963372937728
 20
143.0622588451148
 30
0.0
 10
107.0911098158971
 20
143.0570674846166
 30
0.0
 10
106.9492941215567
 20
143.1044523483528
 30
0.0
 10
106.2360477241821
 20
143.3427626034849
 30
0.0
 10
105.5227692917804
 20
143.5809767535349
 30
0.0
 10
104.8100497863042
 20
143.8208550389566
 30
0.0
 10
104.7585964740838
 20
143.8381741864198
 30
0.0
 10
104.7079743865226
 20
143.8632373802515
 30
0.0
 10
104.662958428762
 20
143.8935880396634
 30
0.0
 10
104.2662674195123
 20
144.1610602860843
 30
0.0
 10
103.8875956916804
 20
144.0626638562954
 30
0.0
 10
103.488807652674
 20
143.874980746887
 30
0.0
 10
102.5735989539259
 20
143.4442512564481
 30
0.0
 10
101.790730325614
 20
142.8172549553032
 30
0.0
 10
100.9787907529329
 20
142.2319766901471
 30
0.0
 10
100.7676647476594
 20
142.0797867050808
 30
0.0
 10
100.5519507784896
 20
141.933961574149
 30
0.0
 10
100.3174375171354
 20
141.7706554345635
 30
0.0
  0
HATCH
  5
5A
330
41
100
AcDbEntity
  8
IDTHEAD_U+00A0Bild
 62
     7
420
 16777215
100
AcDbHatch
 10
0.0
 20
0.0
 30
0.0
210
0.0
220
0.0
230
1.0
  2
SOLID
 70
     1
 71
     0
 91
        1
 92
        1
 93
        1
 72
     4
 94
        3
 73
     0
 74
     1
 95
       56
 96
       52
 40
0.0
 40
0.0
 40
0.0
 40
0.0
 40
1.0
 40
1.0
 40
1.0
 40
2.0
 40
2.0
 40
2.0
 40
3.0
 40
3.0
 40
3.0
 40
4.0
 40
4.0
 40
4.0
 40
5.0
 40
5.0
 40
5.0
 40
6.0
 40
6.0
 40
6.0
 40
7.0
 40
7.0
 40
7.0
 40
8.0
 40
8.0
 40
8.0
 40
9.0
 40
9.0
 40
9.0
 40
10.0
 40
10.0
 40
10.0
 40
11.0
 40
11.0
 40
11.0
 40
12.0
 40
12.0
 40
12.0
 40
13.0
 40
13.0
 40
13.0
 40
14.0
 40
14.0
 40
14.0
 40
15.0
 40
15.0
 40
15.0
 40
16.0
 40
16.0
 40
16.0
 40
17.0
 40
17.0
 40
17.0
 40
17.0
 10
100.3174375171354
 20
141.7706554345635
 10
100.2281531558405
 20
142.3987341824251
 10
100.1476912832519
 20
142.9508089846738
 10
100.0723575441338
 20
143.503580127255
 10
100.0510479281877
 20
143.6599414101044
 10
100.0560032411156
 20
143.793488695258
 10
100.2330861285518
 20
143.8932069914424
 10
100.9477093998359
 20
144.2956192036837
 10
101.6486646737572
 20
144.7223965833696
 10
102.3656705502065
 20
145.1203525546895
 10
102.4492882945109
 20
145.1667611931161
 10
102.6259833895096
 20
145.1256265318375
 10
102.7163938241703
 20
145.0629036341764
 10
102.9030121904301
 20
144.9334382859391
 10
103.052311435784
 20
144.7516024120645
 10
103.2317678658451
 20
144.6100851492953
 10
103.5741274685676
 20
144.34009562414
 10
103.8420701240754
 20
144.349306537554
 10
104.1857305175174
 20
144.6310293130205
 10
104.3416323506305
 20
144.7588322119395
 10
104.4819554656005
 20
144.906345083001
 10
104.6426802563965
 20
145.027179520426
 10
104.7000044089076
 20
145.0702750625942
 10
104.8145043411714
 20
145.0979752449999
 10
104.8726310554225
 20
145.0699361657254
 10
105.4303111444448
 20
144.800921179825
 10
105.9821254513389
 20
144.5196823018781
 10
106.5341066775858
 20
144.2389661006944
 10
106.6637178695008
 20
144.173051502669
 10
106.79221795178
 20
144.1028324085889
 10
106.9132226806669
 20
144.0225307111376
 10
107.2206552517032
 20
143.8185097377381
 10
107.2944226465851
 20
143.6153317913758
 10
107.22939575603
 20
143.2486656115883
 10
107.1963372937728
 20
143.0622588451148
 10
107.0911098158971
 20
143.0570674846166
 10
106.9492941215567
 20
143.1044523483528
 10
106.2360477241821
 20
143.3427626034849
 10
105.5227692917804
 20
143.5809767535349
 10
104.8100497863042
 20
143.8208550389566
 10
104.7585964740838
 20
143.8381741864198
 10
104.7079743865226
 20
143.8632373802515
 10
104.662958428762
 20
143.8935880396634
 10
104.2662674195123
 20
144.1610602860843
 10
103.8875956916804
 20
144.0626638562954
 10
103.488807652674
 20
143.874980746887
 10
102.5735989539259
 20
143.4442512564481
 10
101.790730325614
 20
142.8172549553032
 10
100.9787907529329
 20
142.2319766901471
 10
100.7676647476594
 20
142.0797867050808
 10
100.5519507784896
 20
141.933961574149
 10
100.3174375171354
 20
141.7706554345635
 97
        0
 97
        0
 75
     2
 76
     1
 98
        0
  0
SPLINE
  5
5B
330
41
100
AcDbEntity
  8
IDTHEAD_U+00A0Bild
370
     0
100
AcDbSpline
210
0.0
220
0.0
230
1.0
 70
    11
 71
     3
 72
    38
 73
    34
 74
     0
 42
0.0000000001
 43
0.0000000001
 12
1.0
 22
0.0
 32
0.0
 13
1.0
 23
0.0
 33
0.0
 40
0.0
 40
0.0
 40
0.0
 40
0.0
 40
1.0
 40
1.0
 40
1.0
 40
2.0
 40
2.0
 40
2.0
 40
3.0
 40
3.0
 40
3.0
 40
4.0
 40
4.0
 40
4.0
 40
5.0
 40
5.0
 40
5.0
 40
6.0
 40
6.0
 40
6.0
 40
7.0
 40
7.0
 40
7.0
 40
8.0
 40
8.0
 40
8.0
 40
9.0
 40
9.0
 40
9.0
 40
10.0
 40
10.0
 40
10.0
 40
11.0
 40
11.0
 40
11.0
 40
11.0
 10
108.3184551765518
 20
148.4546441987276
 30
0.0
 10
108.2785572359373
 20
148.1832114112833
 30
0.0
 10
108.2826745799899
 20
147.9430448106144
 30
0.0
 10
108.2006876714899
 20
147.7371691777318
 30
0.0
 10
108.1334773409073
 20
147.5683968508336
 30
0.0
 10
107.9885458186359
 20
147.3527370461511
 30
0.0
 10
107.8352708577719
 20
147.3094695264668
 30
0.0
 10
107.1496024038826
 20
147.1159240070378
 30
0.0
 10
106.5365944503741
 20
146.790491965719
 30
0.0
 10
105.9485881497239
 20
146.4032930194006
 30
0.0
 10
105.8881844194437
 20
146.3635190037611
 30
0.0
 10
105.8219427269279
 20
146.3254192398183
 30
0.0
 10
105.7529502371875
 20
146.3070918320176
 30
0.0
 10
105.4090811945537
 20
146.2157363640482
 30
0.0
 10
105.3292810981899
 20
146.2749354086913
 30
0.0
 10
105.2573059787902
 20
146.6271048955378
 30
0.0
 10
105.213529270775
 20
146.8413062634451
 30
0.0
 10
105.1485268280043
 20
147.0512048213521
 30
0.0
 10
105.0920254698822
 20
147.2627607704144
 30
0.0
 10
105.0443927561967
 20
147.4411048262994
 30
0.0
 10
105.1239964272609
 20
147.5506814806624
 30
0.0
 10
105.2888048410277
 20
147.5945408053273
 30
0.0
 10
105.8204581563144
 20
147.7360260330687
 30
0.0
 10
106.177355338789
 20
148.08976523626
 30
0.0
 10
106.4287611759246
 20
148.5535902821452
 30
0.0
 10
106.7352664172194
 20
149.1190675282395
 30
0.0
 10
107.3123782794614
 20
149.2573121600476
 30
0.0
 10
107.8370395284974
 20
149.4742617960978
 30
0.0
 10
108.0080973016947
 20
149.544996822725
 30
0.0
 10
108.1159170877112
 20
149.3948233583332
 30
0.0
 10
108.1541812419266
 20
149.2462701919074
 30
0.0
 10
108.2242317305993
 20
148.9743062974295
 30
0.0
 10
108.2696784751763
 20
148.6960062117361
 30
0.0
 10
108.3184551765518
 20
148.4546441987276
 30
0.0
  0
HATCH
  5
5C
330
41
100
AcDbEntity
  8
IDTHEAD_U+00A0Bild
 62
     7
420
 16777215
100
AcDbHatch
 10
0.0
 20
0.0
 30
0.0
210
0.0
220
0.0
230
1.0
  2
SOLID
 70
     1
 71
     0
 91
        1
 92
        1
 93
        1
 72
     4
 94
        3
 73
     0
 74
     1
 95
       38
 96
       34
 40
0.0
 40
0.0
 40
0.0
 40
0.0
 40
1.0
 40
1.0
 40
1.0
 40
2.0
 40
2.0
 40
2.0
 40
3.0
 40
3.0
 40
3.0
 40
4.0
 40
4.0
 40
4.0
 40
5.0
 40
5.0
 40
5.0
 40
6.0
 40
6.0
 40
6.0
 40
7.0
 40
7.0
 40
7.0
 40
8.0
 40
8.0
 40
8.0
 40
9.0
 40
9.0
 40
9.0
 40
10.0
 40
10.0
 40
10.0
 40
11.0
 40
11.0
 40
11.0
 40
11.0
 10
108.3184551765518
 20
148.4546441987276
 10
108.2785572359373
 20
148.1832114112833
 10
108.2826745799899
 20
147.9430448106144
 10
108.2006876714899
 20
147.7371691777318
 10
108.1334773409073
 20
147.5683968508336
 10
107.9885458186359
 20
147.3527370461511
 10
107.8352708577719
 20
147.3094695264668
 10
107.1496024038826
 20
147.1159240070378
 10
106.5365944503741
 20
146.790491965719
 10
105.9485881497239
 20
146.4032930194006
 10
105.8881844194437
 20
146.3635190037611
 10
105.8219427269279
 20
146.3254192398183
 10
105.7529502371875
 20
146.3070918320176
 10
105.4090811945537
 20
146.2157363640482
 10
105.3292810981899
 20
146.2749354086913
 10
105.2573059787902
 20
146.6271048955378
 10
105.213529270775
 20
146.8413062634451
 10
105.1485268280043
 20
147.0512048213521
 10
105.0920254698822
 20
147.2627607704144
 10
105.0443927561967
 20
147.4411048262994
 10
105.1239964272609
 20
147.5506814806624
 10
105.2888048410277
 20
147.5945408053273
 10
105.8204581563144
 20
147.7360260330687
 10
106.177355338789
 20
148.08976523626
 10
106.4287611759246
 20
148.5535902821452
 10
106.7352664172194
 20
149.1190675282395
 10
107.3123782794614
 20
149.2573121600476
 10
107.8370395284974
 20
149.4742617960978
 10
108.0080973016947
 20
149.544996822725
 10
108.1159170877112
 20
149.3948233583332
 10
108.1541812419266
 20
149.2462701919074
 10
108.2242317305993
 20
148.9743062974295
 10
108.2696784751763
 20
148.6960062117361
 10
108.3184551765518
 20
148.4546441987276
 97
        0
 97
        0
 75
     2
 76
     1
 98
        0
  0
SPLINE
  5
5D
330
41
100
AcDbEntity
  8
IDTHEAD_U+00A0Bild
370
     0
100
AcDbSpline
210
0.0
220
0.0
230
1.0
 70
    11
 71
     3
 72
    35
 73
    31
 74
     0
 42
0.0000000001
 43
0.0000000001
 12
1.0
 22
0.0
 32
0.0
 13
1.0
 23
0.0
 33
0.0
 40
0.0
 40
0.0
 40
0.0
 40
0.0
 40
1.0
 40
1.0
 40
1.0
 40
2.0
 40
2.0
 40
2.0
 40
3.0
 40
3.0
 40
3.0
 40
4.0
 40
4.0
 40
4.0
 40
5.0
 40
5.0
 40
5.0
 40
6.0
 40
6.0
 40
6.0
 40
7.0
 40
7.0
 40
7.0
 40
8.0
 40
8.0
 40
8.0
 40
9.0
 40
9.0
 40
9.0
 40
10.0
 40
10.0
 40
10.0
 40
10.0
 10
105.5653227675637
 20
144.8980480108956
 30
0.0
 10
105.4083637785448
 20
144.9636186538896
 30
0.0
 10
105.2504066455136
 20
145.0007118435496
 30
0.0
 10
105.131936898929
 20
145.0901266632789
 30
0.0
 10
105.0628213272413
 20
145.1422898042651
 30
0.0
 10
105.0341727394183
 20
145.2778182029577
 30
0.0
 10
105.0327362213459
 20
145.3764995758856
 30
0.0
 10
105.0320845614458
 20
145.4212474510478
 30
0.0
 10
105.1372336378073
 20
145.475776125902
 30
0.0
 10
105.2021534639282
 20
145.5119166950091
 30
0.0
 10
105.6762305616196
 20
145.7758212510065
 30
0.0
 10
106.1476647695475
 20
146.0450807147477
 30
0.0
 10
106.6292068716579
 20
146.2947650906726
 30
0.0
 10
106.9983093995841
 20
146.4861507748307
 30
0.0
 10
107.3776749386685
 20
146.6592039930264
 30
0.0
 10
107.7608340994222
 20
146.8205627401552
 30
0.0
 10
107.824073772657
 20
146.8471939642764
 30
0.0
 10
108.0055581042568
 20
146.7685429137651
 30
0.0
 10
108.0045262391627
 20
146.7439029195066
 30
0.0
 10
107.9976488245889
 20
146.5796559617467
 30
0.0
 10
107.9690061379554
 20
146.4126624218983
 30
0.0
 10
107.9183005907174
 20
146.2559909050994
 30
0.0
 10
107.9016904289933
 20
146.2046657329885
 30
0.0
 10
107.7978640620544
 20
146.1823710399486
 30
0.0
 10
107.7349236634178
 20
146.1451109309357
 30
0.0
 10
107.1254564234682
 20
145.7842987308978
 30
0.0
 10
106.5169982868822
 20
145.421770127811
 30
0.0
 10
105.9061358371852
 20
145.063336950074
 30
0.0
 10
105.7982073006806
 20
145.000010445054
 30
0.0
 10
105.6804971214572
 20
144.9533539566781
 30
0.0
 10
105.5653227675637
 20
144.8980480108956
 30
0.0
  0
HATCH
  5
5E
330
41
100
AcDbEntity
  8
IDTHEAD_U+00A0Bild
 62
     7
420
 16777215
100
AcDbHatch
 10
0.0
 20
0.0
 30
0.0
210
0.0
220
0.0
230
1.0
  2
SOLID
 70
     1
 71
     0
 91
        1
 92
        1
 93
        1
 72
     4
 94
        3
 73
     0
 74
     1
 95
       35
 96
       31
 40
0.0
 40
0.0
 40
0.0
 40
0.0
 40
1.0
 40
1.0
 40
1.0
 40
2.0
 40
2.0
 40
2.0
 40
3.0
 40
3.0
 40
3.0
 40
4.0
 40
4.0
 40
4.0
 40
5.0
 40
5.0
 40
5.0
 40
6.0
 40
6.0
 40
6.0
 40
7.0
 40
7.0
 40
7.0
 40
8.0
 40
8.0
 40
8.0
 40
9.0
 40
9.0
 40
9.0
 40
10.0
 40
10.0
 40
10.0
 40
10.0
 10
105.5653227675637
 20
144.8980480108956
 10
105.4083637785448
 20
144.9636186538896
 10
105.2504066455136
 20
145.0007118435496
 10
105.131936898929
 20
145.0901266632789
 10
105.0628213272413
 20
145.1422898042651
 10
105.0341727394183
 20
145.2778182029577
 10
105.0327362213459
 20
145.3764995758856
 10
105.0320845614458
 20
145.4212474510478
 10
105.1372336378073
 20
145.475776125902
 10
105.2021534639282
 20
145.5119166950091
 10
105.6762305616196
 20
145.7758212510065
 10
106.1476647695475
 20
146.0450807147477
 10
106.6292068716579
 20
146.2947650906726
 10
106.9983093995841
 20
146.4861507748307
 10
107.3776749386685
 20
146.6592039930264
 10
107.7608340994222
 20
146.8205627401552
 10
107.824073772657
 20
146.8471939642764
 10
108.0055581042568
 20
146.7685429137651
 10
108.0045262391627
 20
146.7439029195066
 10
107.9976488245889
 20
146.5796559617467
 10
107.9690061379554
 20
146.4126624218983
 10
107.9183005907174
 20
146.2559909050994
 10
107.9016904289933
 20
146.2046657329885
 10
107.7978640620544
 20
146.1823710399486
 10
107.7349236634178
 20
146.1451109309357
 10
107.1254564234682
 20
145.7842987308978
 10
106.5169982868822
 20
145.421770127811
 10
105.9061358371852
 20
145.063336950074
 10
105.7982073006806
 20
145.000010445054
 10
105.6804971214572
 20
144.9533539566781
 10
105.5653227675637
 20
144.8980480108956
 97
        0
 97
        0
 75
     2
 76
     1
 98
        0
  0
SPLINE
  5
5F
330
41
100
AcDbEntity
  8
IDTHEAD_U+00A0Bild
370
     0
100
AcDbSpline
210
0.0
220
0.0
230
1.0
 70
    11
 71
     3
 72
    23
 73
    19
 74
     0
 42
0.0000000001
 43
0.0000000001
 12
1.0
 22
0.0
 32
0.0
 13
1.0
 23
0.0
 33
0.0
 40
0.0
 40
0.0
 40
0.0
 40
0.0
 40
1.0
 40
1.0
 40
1.0
 40
2.0
 40
2.0
 40
2.0
 40
3.0
 40
3.0
 40
3.0
 40
4.0
 40
4.0
 40
4.0
 40
5.0
 40
5.0
 40
5.0
 40
6.0
 40
6.0
 40
6.0
 40
6.0
 10
102.3409062094599
 20
143.0033514878271
 30
0.0
 10
102.4022646678601
 20
143.0778953106102
 30
0.0
 10
102.4178105079492
 20
143.1139987865278
 30
0.0
 10
102.4444754531524
 20
143.1266323897152
 30
0.0
 10
102.9697533764662
 20
143.3754804828187
 30
0.0
 10
103.493092759107
 20
143.6290377249555
 30
0.0
 10
104.0260021846798
 20
143.8605144029192
 30
0.0
 10
104.1087895473519
 20
143.8964728781867
 30
0.0
 10
104.2365094081077
 20
143.8289902498711
 30
0.0
 10
104.3434511814645
 20
143.8093409756756
 30
0.0
 10
104.2870206376134
 20
143.718801557878
 30
0.0
 10
104.2504834242848
 20
143.5768543513199
 30
0.0
 10
104.1709303348429
 20
143.5460703760104
 30
0.0
 10
103.6558871812806
 20
143.3467652958599
 30
0.0
 10
103.1323252395022
 20
143.1691614177147
 30
0.0
 10
102.608986278375
 20
142.9920363789267
 30
0.0
 10
102.5471460300227
 20
142.9711057036338
 30
0.0
 10
102.469684912175
 20
142.9963290726025
 30
0.0
 10
102.3409062094599
 20
143.0033514878271
 30
0.0
  0
HATCH
  5
60
330
41
100
AcDbEntity
  8
IDTHEAD_U+00A0Bild
 62
     7
420
 16777215
100
AcDbHatch
 10
0.0
 20
0.0
 30
0.0
210
0.0
220
0.0
230
1.0
  2
SOLID
 70
     1
 71
     0
 91
        1
 92
        1
 93
        1
 72
     4
 94
        3
 73
     0
 74
     1
 95
       23
 96
       19
 40
0.0
 40
0.0
 40
0.0
 40
0.0
 40
1.0
 40
1.0
 40
1.0
 40
2.0
 40
2.0
 40
2.0
 40
3.0
 40
3.0
 40
3.0
 40
4.0
 40
4.0
 40
4.0
 40
5.0
 40
5.0
 40
5.0
 40
6.0
 40
6.0
 40
6.0
 40
6.0
 10
102.3409062094599
 20
143.0033514878271
 10
102.4022646678601
 20
143.0778953106102
 10
102.4178105079492
 20
143.1139987865278
 10
102.4444754531524
 20
143.1266323897152
 10
102.9697533764662
 20
143.3754804828187
 10
103.493092759107
 20
143.6290377249555
 10
104.0260021846798
 20
143.8605144029192
 10
104.1087895473519
 20
143.8964728781867
 10
104.2365094081077
 20
143.8289902498711
 10
104.3434511814645
 20
143.8093409756756
 10
104.2870206376134
 20
143.718801557878
 10
104.2504834242848
 20
143.5768543513199
 10
104.1709303348429
 20
143.5460703760104
 10
103.6558871812806
 20
143.3467652958599
 10
103.1323252395022
 20
143.1691614177147
 10
102.608986278375
 20
142.9920363789267
 10
102.5471460300227
 20
142.9711057036338
 10
102.469684912175
 20
142.9963290726025
 10
102.3409062094599
 20
143.0033514878271
 97
        0
 97
        0
 75
     2
 76
     1
 98
        0
  0
SPLINE
  5
61
330
41
100
AcDbEntity
  8
IDTHEAD_U+00A0Bild
370
     0
100
AcDbSpline
210
0.0
220
0.0
230
1.0
 70
    11
 71
     3
 72
    20
 73
    16
 74
     0
 42
0.0000000001
 43
0.0000000001
 12
1.0
 22
0.0
 32
0.0
 13
1.0
 23
0.0
 33
0.0
 40
0.0
 40
0.0
 40
0.0
 40
0.0
 40
1.0
 40
1.0
 40
1.0
 40
2.0
 40
2.0
 40
2.0
 40
3.0
 40
3.0
 40
3.0
 40
4.0
 40
4.0
 40
4.0
 40
5.0
 40
5.0
 40
5.0
 40
5.0
 10
106.8602451755621
 20
144.2665482593145
 30
0.0
 10
106.7801458046
 20
144.3055348877014
 30
0.0
 10
106.623473444774
 20
144.3592643729238
 30
0.0
 10
106.4987349491371
 20
144.4547236965135
 30
0.0
 10
106.4550787939883
 20
144.4881328580186
 30
0.0
 10
106.4546623386323
 20
144.6779909771841
 30
0.0
 10
106.4949472286566
 20
144.7044822588178
 30
0.0
 10
106.7123318666584
 20
144.8474276093883
 30
0.0
 10
106.9405485590674
 20
144.9816408859018
 30
0.0
 10
107.1811408883907
 20
145.0790863811924
 30
0.0
 10
107.3711768862617
 20
145.1560547497366
 30
0.0
 10
107.4693035473986
 20
145.0340232139181
 30
0.0
 10
107.4701794524905
 20
144.841426942934
 30
0.0
 10
107.4713647485058
 20
144.5809079835197
 30
0.0
 10
107.1850348302777
 20
144.2741355026545
 30
0.0
 10
106.8602451755621
 20
144.2665482593145
 30
0.0
  0
HATCH
  5
62
330
41
100
AcDbEntity
  8
IDTHEAD_U+00A0Bild
 62
     7
420
 16777215
100
AcDbHatch
 10
0.0
 20
0.0
 30
0.0
210
0.0
220
0.0
230
1.0
  2
SOLID
 70
     1
 71
     0
 91
        1
 92
        1
 93
        1
 72
     4
 94
        3
 73
     0
 74
     1
 95
       20
 96
       16
 40
0.0
 40
0.0
 40
0.0
 40
0.0
 40
1.0
 40
1.0
 40
1.0
 40
2.0
 40
2.0
 40
2.0
 40
3.0
 40
3.0
 40
3.0
 40
4.0
 40
4.0
 40
4.0
 40
5.0
 40
5.0
 40
5.0
 40
5.0
 10
106.8602451755621
 20
144.2665482593145
 10
106.7801458046
 20
144.3055348877014
 10
106.623473444774
 20
144.3592643729238
 10
106.4987349491371
 20
144.4547236965135
 10
106.4550787939883
 20
144.4881328580186
 10
106.4546623386323
 20
144.6779909771841
 10
106.4949472286566
 20
144.7044822588178
 10
106.7123318666584
 20
144.8474276093883
 10
106.9405485590674
 20
144.9816408859018
 10
107.1811408883907
 20
145.0790863811924
 10
107.3711768862617
 20
145.1560547497366
 10
107.4693035473986
 20
145.0340232139181
 10
107.4701794524905
 20
144.841426942934
 10
107.4713647485058
 20
144.5809079835197
 10
107.1850348302777
 20
144.2741355026545
 10
106.8602451755621
 20
144.2665482593145
 97
        0
 97
        0
 75
     2
 76
     1
 98
        0
  0
SPLINE
  5
63
330
41
100
AcDbEntity
  8
IDTHEAD_U+00A0Bild
370
     0
100
AcDbSpline
210
0.0
220
0.0
230
1.0
 70
    11
 71
     3
 72
    17
 73
    13
 74
     0
 42
0.0000000001
 43
0.0000000001
 12
1.0
 22
0.0
 32
0.0
 13
1.0
 23
0.0
 33
0.0
 40
0.0
 40
0.0
 40
0.0
 40
0.0
 40
1.0
 40
1.0
 40
1.0
 40
2.0
 40
2.0
 40
2.0
 40
3.0
 40
3.0
 40
3.0
 40
4.0
 40
4.0
 40
4.0
 40
4.0
 10
100.2780112501487
 20
145.0858660046302
 30
0.0
 10
100.2697833062607
 20
145.2274136163719
 30
0.0
 10
100.3018672292623
 20
145.4114683374105
 30
0.0
 10
100.5922188079738
 20
145.4034309176327
 30
0.0
 10
100.8479466339754
 20
145.3963528626236
 30
0.0
 10
101.0990675279724
 20
145.1515732180046
 30
0.0
 10
101.1019635366038
 20
144.8926509517997
 30
0.0
 10
101.1033960502978
 20
144.7645631097424
 30
0.0
 10
100.7851415411784
 20
144.5344403332007
 30
0.0
 10
100.609639329438
 20
144.5366608664179
 30
0.0
 10
100.3810700409702
 20
144.5395541352116
 30
0.0
 10
100.2815369999773
 20
144.6805959307309
 30
0.0
 10
100.2780112501487
 20
145.0858660046302
 30
0.0
  0
HATCH
  5
64
330
41
100
AcDbEntity
  8
IDTHEAD_U+00A0Bild
 62
     7
420
 16777215
100
AcDbHatch
 10
0.0
 20
0.0
 30
0.0
210
0.0
220
0.0
230
1.0
  2
SOLID
 70
     1
 71
     0
 91
        1
 92
        1
 93
        1
 72
     4
 94
        3
 73
     0
 74
     1
 95
       17
 96
       13
 40
0.0
 40
0.0
 40
0.0
 40
0.0
 40
1.0
 40
1.0
 40
1.0
 40
2.0
 40
2.0
 40
2.0
 40
3.0
 40
3.0
 40
3.0
 40
4.0
 40
4.0
 40
4.0
 40
4.0
 10
100.2780112501487
 20
145.0858660046302
 10
100.2697833062607
 20
145.2274136163719
 10
100.3018672292623
 20
145.4114683374105
 10
100.5922188079738
 20
145.4034309176327
 10
100.8479466339754
 20
145.3963528626236
 10
101.0990675279724
 20
145.1515732180046
 10
101.1019635366038
 20
144.8926509517997
 10
101.1033960502978
 20
144.7645631097424
 10
100.7851415411784
 20
144.5344403332007
 10
100.609639329438
 20
144.5366608664179
 10
100.3810700409702
 20
144.5395541352116
 10
100.2815369999773
 20
144.6805959307309
 10
100.2780112501487
 20
145.0858660046302
 97
        0
 97
        0
 75
     2
 76
     1
 98
        0
  0
SPLINE
  5
65
330
41
100
AcDbEntity
  8
IDTHEAD_U+00A0Bild
370
     0
100
AcDbSpline
210
0.0
220
0.0
230
1.0
 70
    11
 71
     3
 72
    32
 73
    28
 74
     0
 42
0.0000000001
 43
0.0000000001
 12
1.0
 22
0.0
 32
0.0
 13
1.0
 23
0.0
 33
0.0
 40
0.0
 40
0.0
 40
0.0
 40
0.0
 40
1.0
 40
1.0
 40
1.0
 40
2.0
 40
2.0
 40
2.0
 40
3.0
 40
3.0
 40
3.0
 40
4.0
 40
4.0
 40
4.0
 40
5.0
 40
5.0
 40
5.0
 40
6.0
 40
6.0
 40
6.0
 40
7.0
 40
7.0
 40
7.0
 40
8.0
 40
8.0
 40
8.0
 40
9.0
 40
9.0
 40
9.0
 40
9.0
 10
111.4672201743441
 20
163.5114721231877
 30
0.0
 10
110.9738900251652
 20
162.7457641532557
 30
0.0
 10
110.263781374425
 20
162.2659182215451
 30
0.0
 10
109.4310535980206
 20
161.9744247627114
 30
0.0
 10
108.8475532768867
 20
161.7701719568765
 30
0.0
 10
108.2422784103959
 20
161.6288831544349
 30
0.0
 10
107.6498251421217
 20
161.4492606480476
 30
0.0
 10
106.8919952598568
 20
161.2194991085916
 30
0.0
 10
106.2908706154726
 20
160.7539821074415
 30
0.0
 10
105.7573651697837
 20
160.1831052731707
 30
0.0
 10
105.6659473178133
 20
160.0852846308482
 30
0.0
 10
105.5169557773278
 20
160.0412685031549
 30
0.0
 10
105.394560896856
 20
159.9723974093079
 30
0.0
 10
105.4402495901928
 20
160.1244845450756
 30
0.0
 10
105.4499713779917
 20
160.302314354467
 30
0.0
 10
105.5374286889393
 20
160.4245077514771
 30
0.0
 10
106.1325931321668
 20
161.2560654063529
 30
0.0
 10
106.9900586939664
 20
161.6658220701468
 30
0.0
 10
107.9597159799995
 20
161.8807349528738
 30
0.0
 10
108.4292929993633
 20
161.9848104343025
 30
0.0
 10
108.9098942832998
 20
162.0506875176251
 30
0.0
 10
109.3685642188495
 20
162.1897372402543
 30
0.0
 10
110.0644349859494
 20
162.4006963261743
 30
0.0
 10
110.6939140017208
 20
162.7455466522799
 30
0.0
 10
111.2039681212738
 20
163.281418896377
 30
0.0
 10
111.2839739162347
 20
163.3654745932273
 30
0.0
 10
111.3790909708477
 20
163.4351482488139
 30
0.0
 10
111.4672201743441
 20
163.5114721231877
 30
0.0
  0
SPLINE
  5
66
330
41
100
AcDbEntity
  8
IDTHEAD_U+00A0Bild
370
     0
100
AcDbSpline
210
0.0
220
0.0
230
1.0
 70
    11
 71
     3
 72
    17
 73
    13
 74
     0
 42
0.0000000001
 43
0.0000000001
 12
1.0
 22
0.0
 32
0.0
 13
1.0
 23
0.0
 33
0.0
 40
0.0
 40
0.0
 40
0.0
 40
0.0
 40
1.0
 40
1.0
 40
1.0
 40
2.0
 40
2.0
 40
2.0
 40
3.0
 40
3.0
 40
3.0
 40
4.0
 40
4.0
 40
4.0
 40
4.0
 10
105.7283186731995
 20
161.1797874769527
 30
0.0
 10
105.4324094387417
 20
160.8910591468025
 30
0.0
 10
105.1858956875059
 20
160.6505266723992
 30
0.0
 10
104.9393819362695
 20
160.4099950410226
 30
0.0
 10
104.8945067640244
 20
160.4738745717793
 30
0.0
 10
104.7994596806562
 20
160.5801423450195
 30
0.0
 10
104.812261889251
 20
160.5952949129954
 30
0.0
 10
105.0134469196959
 20
160.8334272894226
 30
0.0
 10
105.2239339104748
 20
161.0645321924631
 30
0.0
 10
105.4471017139553
 20
161.2820474996557
 30
0.0
 10
105.4708792915542
 20
161.3052223129228
 30
0.0
 10
105.5874615006008
 20
161.2331789083327
 30
0.0
 10
105.7283186731995
 20
161.1797874769527
 30
0.0
  0
SPLINE
  5
67
330
41
100
AcDbEntity
  8
IDTHEAD_U+00A0Bild
370
     0
100
AcDbSpline
210
0.0
220
0.0
230
1.0
 70
    11
 71
     3
 72
    11
 73
     7
 74
     0
 42
0.0000000001
 43
0.0000000001
 12
1.0
 22
0.0
 32
0.0
 13
1.0
 23
0.0
 33
0.0
 40
0.0
 40
0.0
 40
0.0
 40
0.0
 40
1.0
 40
1.0
 40
1.0
 40
2.0
 40
2.0
 40
2.0
 40
2.0
 10
109.3685633758225
 20
166.728615887037
 30
0.0
 10
109.9732936468474
 20
166.6346240627632
 30
0.0
 10
110.7443784432259
 20
165.3475333759451
 30
0.0
 10
110.628261585104
 20
164.6539722921713
 30
0.0
 10
110.1818265009528
 20
164.7665674048434
 30
0.0
 10
109.313738798478
 20
166.1808422087349
 30
0.0
 10
109.3685633758225
 20
166.728615887037
 30
0.0
  0
HATCH
  5
68
330
41
100
AcDbEntity
  8
IDTHEAD_U+00A0Bild
 62
     7
420
 16777215
100
AcDbHatch
 10
0.0
 20
0.0
 30
0.0
210
0.0
220
0.0
230
1.0
  2
SOLID
 70
     1
 71
     0
 91
        1
 92
        1
 93
        1
 72
     4
 94
        3
 73
     0
 74
     1
 95
       11
 96
        7
 40
0.0
 40
0.0
 40
0.0
 40
0.0
 40
1.0
 40
1.0
 40
1.0
 40
2.0
 40
2.0
 40
2.0
 40
2.0
 10
109.3685633758225
 20
166.728615887037
 10
109.9732936468474
 20
166.6346240627632
 10
110.7443784432259
 20
165.3475333759451
 10
110.628261585104
 20
164.6539722921713
 10
110.1818265009528
 20
164.7665674048434
 10
109.313738798478
 20
166.1808422087349
 10
109.3685633758225
 20
166.728615887037
 97
        0
 97
        0
 75
     2
 76
     1
 98
        0
  0
ENDBLK
  5
44
330
41
100
AcDbEntity
  8
0
100
AcDbBlockEnd
  0
ENDSEC
  0
SECTION
  2
ENTITIES
  0
INSERT
  5
42
330
1F
100
AcDbEntity
  8
IDTHEAD_U+00A0Bild
100
AcDbBlockReference
  2
block 2
 10
0.0
 20
0.0
 30
0.0
  0
ENDSEC
  0
SECTION
  2
OBJECTS
  0
DICTIONARY
  5
C
330
0
100
AcDbDictionary
281
     1
  3
ACAD_GROUP
350
D
  3
ACAD_LAYOUT
350
1A
  3
ACAD_MATERIAL
350
3B
  3
ACAD_MLEADERSTYLE
350
6A
  3
ACAD_MLINESTYLE
350
17
  3
ACAD_PLOTSETTINGS
350
19
  3
ACAD_PLOTSTYLENAME
350
E
  3
ACAD_TABLESTYLE
350
69
  3
ACAD_VISUALSTYLE
350
2A
  0
SUN
  5
3F
330
29
100
AcDbSun
 90
        1
290
     0
 63
     7
421
 16777215
 40
1.0
291
     1
 91
  2455826
 92
 54000000
292
     0
 70
     2
 71
   256
280
     1
  0
DICTIONARY
  5
D
102
{ACAD_REACTORS
330
C
102
}
330
C
100
AcDbDictionary
281
     1
  0
DICTIONARY
  5
1A
102
{ACAD_REACTORS
330
C
102
}
330
C
100
AcDbDictionary
281
     1
  3
Layout1
350
1E
  3
Layout2
350
26
  3
Model
350
22
  0
DICTIONARY
  5
3B
102
{ACAD_REACTORS
330
C
102
}
330
C
100
AcDbDictionary
281
     1
  3
ByBlock
350
3D
  3
ByLayer
350
3C
  3
Global
350
3E
  0
DICTIONARY
  5
6A
102
{ACAD_REACTORS
330
C
102
}
330
C
100
AcDbDictionary
281
     1
  0
DICTIONARY
  5
17
102
{ACAD_REACTORS
330
C
102
}
330
C
100
AcDbDictionary
281
     1
  3
Standard
350
18
  0
DICTIONARY
  5
19
102
{ACAD_REACTORS
330
C
102
}
330
C
100
AcDbDictionary
281
     1
  0
ACDBDICTIONARYWDFLT
  5
E
102
{ACAD_REACTORS
330
C
102
}
330
C
100
AcDbDictionary
281
     1
  3
Normal
350
F
100
AcDbDictionaryWithDefault
340
F
  0
DICTIONARY
  5
69
102
{ACAD_REACTORS
330
C
102
}
330
C
100
AcDbDictionary
281
     1
  0
DICTIONARY
  5
2A
102
{ACAD_REACTORS
330
C
102
}
330
C
100
AcDbDictionary
281
     1
  3
2dWireframe
350
2F
  3
3D Hidden
350
31
  3
3dWireframe
350
30
  3
Basic
350
32
  3
Brighten
350
36
  3
ColorChange
350
3A
  3
Conceptual
350
34
  3
Dim
350
35
  3
Facepattern
350
39
  3
Flat
350
2B
  3
FlatWithEdges
350
2C
  3
Gouraud
350
2D
  3
GouraudWithEdges
350
2E
  3
Linepattern
350
38
  3
Realistic
350
33
  3
Thicken
350
37
  0
LAYOUT
  5
1E
102
{ACAD_REACTORS
330
1A
102
}
330
1A
100
AcDbPlotSettings
  1

  2
none_device
  4

  6

 40
0.0
 41
0.0
 42
0.0
 43
0.0
 44
0.0
 45
0.0
 46
0.0
 47
0.0
 48
0.0
 49
0.0
140
0.0
141
0.0
142
1.0
143
1.0
 70
   688
 72
     0
 73
     0
 74
     5
  7

 75
    16
 76
     0
 77
     2
 78
   300
147
1.0
148
0.0
149
0.0
100
AcDbLayout
  1
Layout1
 70
     1
 71
     1
 10
0.0
 20
0.0
 11
12.0
 21
9.0
 12
0.0
 22
0.0
 32
0.0
 14
1.000000000000000E+20
 24
1.000000000000000E+20
 34
1.000000000000000E+20
 15
-1.000000000000000E+20
 25
-1.000000000000000E+20
 35
-1.000000000000000E+20
146
0.0
 13
0.0
 23
0.0
 33
0.0
 16
1.0
 26
0.0
 36
0.0
 17
0.0
 27
1.0
 37
0.0
 76
     0
330
1B
  0
LAYOUT
  5
26
102
{ACAD_REACTORS
330
1A
102
}
330
1A
100
AcDbPlotSettings
  1

  2
none_device
  4

  6

 40
0.0
 41
0.0
 42
0.0
 43
0.0
 44
0.0
 45
0.0
 46
0.0
 47
0.0
 48
0.0
 49
0.0
140
0.0
141
0.0
142
1.0
143
1.0
 70
   688
 72
     0
 73
     0
 74
     5
  7

 75
    16
 76
     0
 77
     2
 78
   300
147
1.0
148
0.0
149
0.0
100
AcDbLayout
  1
Layout2
 70
     1
 71
     2
 10
0.0
 20
0.0
 11
0.0
 21
0.0
 12
0.0
 22
0.0
 32
0.0
 14
0.0
 24
0.0
 34
0.0
 15
0.0
 25
0.0
 35
0.0
146
0.0
 13
0.0
 23
0.0
 33
0.0
 16
1.0
 26
0.0
 36
0.0
 17
0.0
 27
1.0
 37
0.0
 76
     0
330
23
  0
LAYOUT
  5
22
102
{ACAD_REACTORS
330
1A
102
}
330
1A
100
AcDbPlotSettings
  1

  2
none_device
  4

  6

 40
0.0
 41
0.0
 42
0.0
 43
0.0
 44
0.0
 45
0.0
 46
0.0
 47
0.0
 48
0.0
 49
0.0
140
0.0
141
0.0
142
1.0
143
1.0
 70
  1712
 72
     0
 73
     0
 74
     0
  7

 75
     0
 76
     0
 77
     2
 78
   300
147
1.0
148
0.0
149
0.0
100
AcDbLayout
  1
Model
 70
     1
 71
     0
 10
0.0
 20
0.0
 11
12.0
 21
9.0
 12
0.0
 22
0.0
 32
0.0
 14
1.000000000000000E+20
 24
1.000000000000000E+20
 34
1.000000000000000E+20
 15
-1.000000000000000E+20
 25
-1.000000000000000E+20
 35
-1.000000000000000E+20
146
0.0
 13
0.0
 23
0.0
 33
0.0
 16
1.0
 26
0.0
 36
0.0
 17
0.0
 27
1.0
 37
0.0
 76
     0
330
1F
331
29
  0
MATERIAL
  5
3D
102
{ACAD_REACTORS
330
3B
102
}
330
3B
100
AcDbMaterial
  1
ByBlock
 72
     1
 94
      127
  0
MATERIAL
  5
3C
102
{ACAD_REACTORS
330
3B
102
}
330
3B
100
AcDbMaterial
  1
ByLayer
 72
     1
 94
      127
  0
MATERIAL
  5
3E
102
{ACAD_REACTORS
330
3B
102
}
330
3B
100
AcDbMaterial
  1
Global
 72
     1
 94
      127
  0
MLINESTYLE
  5
18
102
{ACAD_REACTORS
330
17
102
}
330
17
100
AcDbMlineStyle
  2
Standard
 70
     0
  3

 62
   256
 51
90.0
 52
90.0
 71
     2
 49
0.5
 62
   256
  6
BYLAYER
 49
-0.5
 62
   256
  6
BYLAYER
  0
ACDBPLACEHOLDER
  5
F
102
{ACAD_REACTORS
330
E
102
}
330
E
  0
VISUALSTYLE
  5
2F
102
{ACAD_REACTORS
330
2A
102
}
330
2A
100
AcDbVisualStyle
  2
2dWireframe
 70
     4
177
     2
291
     0
 71
     0
176
     1
 72
     2
176
     1
 73
     0
176
     1
 90
        0
176
     1
 40
-0.6
176
     1
 41
-30.0
176
     1
 62
     5
 63
     7
421
 16777215
176
     1
 74
     1
176
     1
 91
        4
176
     1
 64
     7
176
     1
 65
   257
176
     1
 75
     1
176
     1
175
     1
176
     1
 42
1.0
176
     1
 92
        0
176
     1
 66
   257
176
     1
 43
1.0
176
     1
 76
     1
176
     1
 77
     6
176
     1
 78
     2
176
     1
 67
     7
176
     1
 79
     5
176
     1
170
     0
176
     1
171
     0
176
     1
290
     0
176
     1
 93
        1
176
     1
 44
0.0
176
     1
173
     0
176
     1
  0
VISUALSTYLE
  5
31
102
{ACAD_REACTORS
330
2A
102
}
330
2A
100
AcDbVisualStyle
  2
3D Hidden
 70
     6
177
     2
291
     0
 71
     1
176
     1
 72
     2
176
     1
 73
     2
176
     1
 90
        0
176
     1
 40
-0.6
176
     1
 41
-30.0
176
     1
 62
     5
 63
     7
421
 16777215
176
     1
 74
     2
176
     1
 91
        2
176
     1
 64
     7
176
     1
 65
   257
176
     1
 75
     2
176
     1
175
     1
176
     1
 42
40.0
176
     1
 92
        0
176
     1
 66
   257
176
     1
 43
1.0
176
     1
 76
     1
176
     1
 77
     6
176
     1
 78
     2
176
     1
 67
     7
176
     1
 79
     3
176
     1
170
     0
176
     1
171
     0
176
     1
290
     0
176
     1
 93
        1
176
     1
 44
0.0
176
     1
173
     0
176
     1
  0
VISUALSTYLE
  5
30
102
{ACAD_REACTORS
330
2A
102
}
330
2A
100
AcDbVisualStyle
  2
3dWireframe
 70
     5
177
     2
291
     0
 71
     0
176
     1
 72
     2
176
     1
 73
     0
176
     1
 90
        0
176
     1
 40
-0.6
176
     1
 41
-30.0
176
     1
 62
     5
 63
     7
421
 16777215
176
     1
 74
     1
176
     1
 91
        4
176
     1
 64
     7
176
     1
 65
   257
176
     1
 75
     1
176
     1
175
     1
176
     1
 42
1.0
176
     1
 92
        0
176
     1
 66
   257
176
     1
 43
1.0
176
     1
 76
     1
176
     1
 77
     6
176
     1
 78
     2
176
     1
 67
     7
176
     1
 79
     5
176
     1
170
     0
176
     1
171
     0
176
     1
290
     0
176
     1
 93
        1
176
     1
 44
0.0
176
     1
173
     0
176
     1
  0
VISUALSTYLE
  5
32
102
{ACAD_REACTORS
330
2A
102
}
330
2A
100
AcDbVisualStyle
  2
Basic
 70
     7
177
     2
291
     1
 71
     1
176
     1
 72
     0
176
     1
 73
     1
176
     1
 90
        0
176
     1
 40
-0.6
176
     1
 41
-30.0
176
     1
 62
     5
 63
     7
421
 16777215
176
     1
 74
     0
176
     1
 91
        4
176
     1
 64
     7
176
     1
 65
   257
176
     1
 75
     1
176
     1
175
     1
176
     1
 42
1.0
176
     1
 92
        8
176
     1
 66
     7
176
     1
 43
1.0
176
     1
 76
     1
176
     1
 77
     6
176
     1
 78
     2
176
     1
 67
     7
176
     1
 79
     5
176
     1
170
     0
176
     1
171
     0
176
     1
290
     0
176
     1
 93
        1
176
     1
 44
0.0
176
     1
173
     0
176
     1
  0
VISUALSTYLE
  5
36
102
{ACAD_REACTORS
330
2A
102
}
330
2A
100
AcDbVisualStyle
  2
Brighten
 70
    12
177
     2
291
     1
 71
     2
176
     1
 72
     2
176
     1
 73
     0
176
     1
 90
        0
176
     1
 40
-0.6
176
     1
 41
-30.0
176
     1
 62
     5
 63
     7
421
 16777215
176
     1
 74
     1
176
     1
 91
        4
176
     1
 64
     7
176
     1
 65
   257
176
     1
 75
     1
176
     1
175
     1
176
     1
 42
1.0
176
     1
 92
        8
176
     1
 66
     7
176
     1
 43
1.0
176
     1
 76
     1
176
     1
 77
     6
176
     1
 78
     2
176
     1
 67
     7
176
     1
 79
     5
176
     1
170
     0
176
     1
171
     0
176
     1
290
     0
176
     1
 93
        1
176
     1
 44
50.0
176
     1
173
     0
176
     1
  0
VISUALSTYLE
  5
3A
102
{ACAD_REACTORS
330
2A
102
}
330
2A
100
AcDbVisualStyle
  2
ColorChange
 70
    16
177
     2
291
     1
 71
     2
176
     1
 72
     2
176
     1
 73
     3
176
     1
 90
        0
176
     1
 40
-0.6
176
     1
 41
-30.0
176
     1
 62
     5
 63
     8
421
  8421504
176
     1
 74
     1
176
     1
 91
        4
176
     1
 64
     7
176
     1
 65
   257
176
     1
 75
     1
176
     1
175
     1
176
     1
 42
1.0
176
     1
 92
        8
176
     1
 66
     8
424
  8421504
176
     1
 43
1.0
176
     1
 76
     1
176
     1
 77
     6
176
     1
 78
     2
176
     1
 67
     7
176
     1
 79
     5
176
     1
170
     0
176
     1
171
     0
176
     1
290
     0
176
     1
 93
        1
176
     1
 44
0.0
176
     1
173
     0
176
     1
  0
VISUALSTYLE
  5
34
102
{ACAD_REACTORS
330
2A
102
}
330
2A
100
AcDbVisualStyle
  2
Conceptual
 70
     9
177
     2
291
     0
 71
     3
176
     1
 72
     2
176
     1
 73
     0
176
     1
 90
        0
176
     1
 40
-0.6
176
     1
 41
-30.0
176
     1
 62
     5
 63
     7
421
 16777215
176
     1
 74
     2
176
     1
 91
        2
176
     1
 64
     7
176
     1
 65
   257
176
     1
 75
     1
176
     1
175
     1
176
     1
 42
40.0
176
     1
 92
        8
176
     1
 66
     7
176
     1
 43
1.0
176
     1
 76
     1
176
     1
 77
     6
176
     1
 78
     2
176
     1
 67
     7
176
     1
 79
     3
176
     1
170
     0
176
     1
171
     0
176
     1
290
     0
176
     1
 93
        1
176
     1
 44
0.0
176
     1
173
     0
176
     1
  0
VISUALSTYLE
  5
35
102
{ACAD_REACTORS
330
2A
102
}
330
2A
100
AcDbVisualStyle
  2
Dim
 70
    11
177
     2
291
     1
 71
     2
176
     1
 72
     2
176
     1
 73
     0
176
     1
 90
        0
176
     1
 40
-0.6
176
     1
 41
-30.0
176
     1
 62
     5
 63
     7
421
 16777215
176
     1
 74
     1
176
     1
 91
        4
176
     1
 64
     7
176
     1
 65
   257
176
     1
 75
     1
176
     1
175
     1
176
     1
 42
1.0
176
     1
 92
        8
176
     1
 66
     7
176
     1
 43
1.0
176
     1
 76
     1
176
     1
 77
     6
176
     1
 78
     2
176
     1
 67
     7
176
     1
 79
     5
176
     1
170
     0
176
     1
171
     0
176
     1
290
     0
176
     1
 93
        1
176
     1
 44
-50.0
176
     1
173
     0
176
     1
  0
VISUALSTYLE
  5
39
102
{ACAD_REACTORS
330
2A
102
}
330
2A
100
AcDbVisualStyle
  2
Facepattern
 70
    15
177
     2
291
     1
 71
     2
176
     1
 72
     2
176
     1
 73
     0
176
     1
 90
        0
176
     1
 40
-0.6
176
     1
 41
-30.0
176
     1
 62
     5
 63
     7
421
 16777215
176
     1
 74
     1
176
     1
 91
        4
176
     1
 64
     7
176
     1
 65
   257
176
     1
 75
     1
176
     1
175
     1
176
     1
 42
1.0
176
     1
 92
        8
176
     1
 66
     7
176
     1
 43
1.0
176
     1
 76
     1
176
     1
 77
     6
176
     1
 78
     2
176
     1
 67
     7
176
     1
 79
     5
176
     1
170
     0
176
     1
171
     0
176
     1
290
     0
176
     1
 93
        1
176
     1
 44
0.0
176
     1
173
     0
176
     1
  0
VISUALSTYLE
  5
2B
102
{ACAD_REACTORS
330
2A
102
}
330
2A
100
AcDbVisualStyle
  2
Flat
 70
     0
177
     2
291
     1
 71
     2
176
     1
 72
     1
176
     1
 73
     1
176
     1
 90
        2
176
     1
 40
-0.6
176
     1
 41
30.0
176
     1
 62
     5
 63
     7
421
 16777215
176
     1
 74
     0
176
     1
 91
        4
176
     1
 64
     7
176
     1
 65
   257
176
     1
 75
     1
176
     1
175
     1
176
     1
 42
1.0
176
     1
 92
        8
176
     1
 66
     7
176
     1
 43
1.0
176
     1
 76
     1
176
     1
 77
     6
176
     1
 78
     2
176
     1
 67
     7
176
     1
 79
     5
176
     1
170
     0
176
     1
171
     0
176
     1
290
     0
176
     1
 93
       13
176
     1
 44
0.0
176
     1
173
     0
176
     1
  0
VISUALSTYLE
  5
2C
102
{ACAD_REACTORS
330
2A
102
}
330
2A
100
AcDbVisualStyle
  2
FlatWithEdges
 70
     1
177
     2
291
     1
 71
     2
176
     1
 72
     1
176
     1
 73
     1
176
     1
 90
        2
176
     1
 40
-0.6
176
     1
 41
30.0
176
     1
 62
     5
 63
     7
421
 16777215
176
     1
 74
     1
176
     1
 91
        4
176
     1
 64
     7
176
     1
 65
   257
176
     1
 75
     1
176
     1
175
     1
176
     1
 42
1.0
176
     1
 92
        0
176
     1
 66
   257
176
     1
 43
1.0
176
     1
 76
     1
176
     1
 77
     6
176
     1
 78
     2
176
     1
 67
     7
176
     1
 79
     5
176
     1
170
     0
176
     1
171
     0
176
     1
290
     0
176
     1
 93
       13
176
     1
 44
0.0
176
     1
173
     0
176
     1
  0
VISUALSTYLE
  5
2D
102
{ACAD_REACTORS
330
2A
102
}
330
2A
100
AcDbVisualStyle
  2
Gouraud
 70
     2
177
     2
291
     1
 71
     2
176
     1
 72
     2
176
     1
 73
     1
176
     1
 90
        2
176
     1
 40
-0.6
176
     1
 41
30.0
176
     1
 62
     5
 63
     7
421
 16777215
176
     1
 74
     0
176
     1
 91
        4
176
     1
 64
     7
176
     1
 65
   257
176
     1
 75
     1
176
     1
175
     1
176
     1
 42
1.0
176
     1
 92
        0
176
     1
 66
     7
176
     1
 43
1.0
176
     1
 76
     1
176
     1
 77
     6
176
     1
 78
     2
176
     1
 67
     7
176
     1
 79
     5
176
     1
170
     0
176
     1
171
     0
176
     1
290
     0
176
     1
 93
       13
176
     1
 44
0.0
176
     1
173
     0
176
     1
  0
VISUALSTYLE
  5
2E
102
{ACAD_REACTORS
330
2A
102
}
330
2A
100
AcDbVisualStyle
  2
GouraudWithEdges
 70
     3
177
     2
291
     1
 71
     2
176
     1
 72
     2
176
     1
 73
     1
176
     1
 90
        2
176
     1
 40
-0.6
176
     1
 41
30.0
176
     1
 62
     5
 63
     7
421
 16777215
176
     1
 74
     1
176
     1
 91
        4
176
     1
 64
     7
176
     1
 65
   257
176
     1
 75
     1
176
     1
175
     1
176
     1
 42
1.0
176
     1
 92
        0
176
     1
 66
   257
176
     1
 43
1.0
176
     1
 76
     1
176
     1
 77
     6
176
     1
 78
     2
176
     1
 67
     7
176
     1
 79
     5
176
     1
170
     0
176
     1
171
     0
176
     1
290
     0
176
     1
 93
       13
176
     1
 44
0.0
176
     1
173
     0
176
     1
  0
VISUALSTYLE
  5
38
102
{ACAD_REACTORS
330
2A
102
}
330
2A
100
AcDbVisualStyle
  2
Linepattern
 70
    14
177
     2
291
     1
 71
     2
176
     1
 72
     2
176
     1
 73
     0
176
     1
 90
        0
176
     1
 40
-0.6
176
     1
 41
-30.0
176
     1
 62
     5
 63
     7
421
 16777215
176
     1
 74
     1
176
     1
 91
        4
176
     1
 64
     7
176
     1
 65
   257
176
     1
 75
     7
176
     1
175
     7
176
     1
 42
1.0
176
     1
 92
        8
176
     1
 66
     7
176
     1
 43
1.0
176
     1
 76
     1
176
     1
 77
     6
176
     1
 78
     2
176
     1
 67
     7
176
     1
 79
     5
176
     1
170
     0
176
     1
171
     0
176
     1
290
     0
176
     1
 93
        1
176
     1
 44
0.0
176
     1
173
     0
176
     1
  0
VISUALSTYLE
  5
33
102
{ACAD_REACTORS
330
2A
102
}
330
2A
100
AcDbVisualStyle
  2
Realistic
 70
     8
177
     2
291
     0
 71
     2
176
     1
 72
     2
176
     1
 73
     0
176
     1
 90
        0
176
     1
 40
-0.6
176
     1
 41
-30.0
176
     1
 62
     5
 63
     7
421
 16777215
176
     1
 74
     1
176
     1
 91
        0
176
     1
 64
     7
176
     1
 65
   257
176
     1
 75
     1
176
     1
175
     1
176
     1
 42
1.0
176
     1
 92
        8
176
     1
 66
     8
424
  7895160
176
     1
 43
1.0
176
     1
 76
     1
176
     1
 77
     6
176
     1
 78
     2
176
     1
 67
     7
176
     1
 79
     5
176
     1
170
     0
176
     1
171
     0
176
     1
290
     0
176
     1
 93
       13
176
     1
 44
0.0
176
     1
173
     0
176
     1
  0
VISUALSTYLE
  5
37
102
{ACAD_REACTORS
330
2A
102
}
330
2A
100
AcDbVisualStyle
  2
Thicken
 70
    13
177
     2
291
     1
 71
     2
176
     1
 72
     2
176
     1
 73
     0
176
     1
 90
        0
176
     1
 40
-0.6
176
     1
 41
-30.0
176
     1
 62
     5
 63
     7
421
 16777215
176
     1
 74
     1
176
     1
 91
        4
176
     1
 64
     7
176
     1
 65
   257
176
     1
 75
     1
176
     1
175
     1
176
     1
 42
1.0
176
     1
 92
       12
176
     1
 66
     7
176
     1
 43
1.0
176
     1
 76
     1
176
     1
 77
     6
176
     1
 78
     2
176
     1
 67
     7
176
     1
 79
     5
176
     1
170
     0
176
     1
171
     0
176
     1
290
     0
176
     1
 93
        1
176
     1
 44
0.0
176
     1
173
     0
176
     1
  0
ENDSEC
  0
EOF
