  0
SECTION
  2
HEADER
  9
$ACADVER
  1
AC1015
  9
$ACADMAINTVER
 70
     6
  9
$DWGCODEPAGE
  3
ANSI_1252
  9
$INSBASE
 10
465.9965889814
 20
227.2216330434
 30
0.0
  9
$EXTMIN
 10
0.0000543091999816
 20
-0.0000353189999771
 30
0.0
  9
$EXTMAX
 10
594.0000543092
 20
419.9999646809999
 30
0.0
  9
$LIMMIN
 10
0.0
 20
0.0
  9
$LIMMAX
 10
12.0
 20
9.0
  9
$ORTHOMODE
 70
     0
  9
$REGENMODE
 70
     1
  9
$FILLMODE
 70
     1
  9
$QTEXTMODE
 70
     0
  9
$MIRRTEXT
 70
     1
  9
$LTSCALE
 40
1.0
  9
$ATTMODE
 70
     1
  9
$TEXTSIZE
 40
0.2
  9
$TRACEWID
 40
0.05
  9
$TEXTSTYLE
  7
STANDARD
  9
$CLAYER
  8
0
  9
$CELTYPE
  6
ByLayer
  9
$CECOLOR
 62
   256
  9
$CELTSCALE
 40
1.0
  9
$DISPSILH
 70
     0
  9
$DIMSCALE
 40
1.0
  9
$DIMASZ
 40
0.18
  9
$DIMEXO
 40
0.0625
  9
$DIMDLI
 40
0.38
  9
$DIMRND
 40
0.0
  9
$DIMDLE
 40
0.0
  9
$DIMEXE
 40
0.18
  9
$DIMTP
 40
0.0
  9
$DIMTM
 40
0.0
  9
$DIMTXT
 40
0.18
  9
$DIMCEN
 40
0.09
  9
$DIMTSZ
 40
0.0
  9
$DIMTOL
 70
     0
  9
$DIMLIM
 70
     0
  9
$DIMTIH
 70
     1
  9
$DIMTOH
 70
     1
  9
$DIMSE1
 70
     0
  9
$DIMSE2
 70
     0
  9
$DIMTAD
 70
     0
  9
$DIMZIN
 70
     0
  9
$DIMBLK
  1

  9
$DIMASO
 70
     1
  9
$DIMSHO
 70
     1
  9
$DIMPOST
  1

  9
$DIMAPOST
  1

  9
$DIMALT
 70
     0
  9
$DIMALTD
 70
     2
  9
$DIMALTF
 40
25.4
  9
$DIMLFAC
 40
1.0
  9
$DIMTOFL
 70
     0
  9
$DIMTVP
 40
0.0
  9
$DIMTIX
 70
     0
  9
$DIMSOXD
 70
     0
  9
$DIMSAH
 70
     0
  9
$DIMBLK1
  1

  9
$DIMBLK2
  1

  9
$DIMSTYLE
  2
STANDARD
  9
$DIMCLRD
 70
     0
  9
$DIMCLRE
 70
     0
  9
$DIMCLRT
 70
     0
  9
$DIMTFAC
 40
1.0
  9
$DIMGAP
 40
0.09
  9
$DIMJUST
 70
     0
  9
$DIMSD1
 70
     0
  9
$DIMSD2
 70
     0
  9
$DIMTOLJ
 70
     1
  9
$DIMTZIN
 70
     0
  9
$DIMALTZ
 70
     0
  9
$DIMALTTZ
 70
     0
  9
$DIMUPT
 70
     0
  9
$DIMDEC
 70
     4
  9
$DIMTDEC
 70
     4
  9
$DIMALTU
 70
     2
  9
$DIMALTTD
 70
     2
  9
$DIMTXSTY
  7
STANDARD
  9
$DIMAUNIT
 70
     0
  9
$DIMADEC
 70
     0
  9
$DIMALTRND
 40
0.0
  9
$DIMAZIN
 70
     0
  9
$DIMDSEP
 70
    46
  9
$DIMATFIT
 70
     3
  9
$DIMFRAC
 70
     0
  9
$DIMLDRBLK
  1

  9
$DIMLUNIT
 70
     2
  9
$DIMLWD
 70
    -2
  9
$DIMLWE
 70
    -2
  9
$DIMTMOVE
 70
     2
  9
$LUNITS
 70
     2
  9
$LUPREC
 70
     4
  9
$SKETCHINC
 40
0.1
  9
$FILLETRAD
 40
0.5
  9
$AUNITS
 70
     0
  9
$AUPREC
 70
     0
  9
$MENU
  1
.
  9
$ELEVATION
 40
0.0
  9
$PELEVATION
 40
0.0
  9
$THICKNESS
 40
0.0
  9
$LIMCHECK
 70
     0
  9
$CHAMFERA
 40
0.0
  9
$CHAMFERB
 40
0.0
  9
$CHAMFERC
 40
0.0
  9
$CHAMFERD
 40
0.0
  9
$SKPOLY
 70
     0
  9
$TDCREATE
 40
2460000.790103658
  9
$TDUCREATE
 40
2460000.748436991
  9
$TDUPDATE
 40
2460000.79429397
  9
$TDUUPDATE
 40
2460000.752627303
  9
$TDINDWG
 40
0.0
  9
$TDUSRTIMER
 40
0.0
  9
$USRTIMER
 70
     1
  9
$ANGBASE
 50
0.0
  9
$ANGDIR
 70
     0
  9
$PDMODE
 70
     0
  9
$PDSIZE
 40
0.0
  9
$PLINEWID
 40
0.0
  9
$SPLFRAME
 70
     0
  9
$SPLINETYPE
 70
     6
  9
$SPLINESEGS
 70
     8
  9
$HANDSEED
  5
B2
  9
$SURFTAB1
 70
     6
  9
$SURFTAB2
 70
     6
  9
$SURFTYPE
 70
     6
  9
$SURFU
 70
     6
  9
$SURFV
 70
     6
  9
$UCSBASE
  2

  9
$UCSNAME
  2

  9
$UCSORG
 10
0.0
 20
0.0
 30
0.0
  9
$UCSXDIR
 10
1.0
 20
0.0
 30
0.0
  9
$UCSYDIR
 10
0.0
 20
1.0
 30
0.0
  9
$UCSORTHOREF
  2

  9
$UCSORTHOVIEW
 70
     0
  9
$UCSORGTOP
 10
0.0
 20
0.0
 30
0.0
  9
$UCSORGBOTTOM
 10
0.0
 20
0.0
 30
0.0
  9
$UCSORGLEFT
 10
0.0
 20
0.0
 30
0.0
  9
$UCSORGRIGHT
 10
0.0
 20
0.0
 30
0.0
  9
$UCSORGFRONT
 10
0.0
 20
0.0
 30
0.0
  9
$UCSORGBACK
 10
0.0
 20
0.0
 30
0.0
  9
$PUCSBASE
  2

  9
$PUCSNAME
  2

  9
$PUCSORG
 10
0.0
 20
0.0
 30
0.0
  9
$PUCSXDIR
 10
1.0
 20
0.0
 30
0.0
  9
$PUCSYDIR
 10
0.0
 20
1.0
 30
0.0
  9
$PUCSORTHOREF
  2

  9
$PUCSORTHOVIEW
 70
     0
  9
$PUCSORGTOP
 10
0.0
 20
0.0
 30
0.0
  9
$PUCSORGBOTTOM
 10
0.0
 20
0.0
 30
0.0
  9
$PUCSORGLEFT
 10
0.0
 20
0.0
 30
0.0
  9
$PUCSORGRIGHT
 10
0.0
 20
0.0
 30
0.0
  9
$PUCSORGFRONT
 10
0.0
 20
0.0
 30
0.0
  9
$PUCSORGBACK
 10
0.0
 20
0.0
 30
0.0
  9
$USERI1
 70
     0
  9
$USERI2
 70
     0
  9
$USERI3
 70
     0
  9
$USERI4
 70
     0
  9
$USERI5
 70
     0
  9
$USERR1
 40
0.0
  9
$USERR2
 40
0.0
  9
$USERR3
 40
0.0
  9
$USERR4
 40
0.0
  9
$USERR5
 40
0.0
  9
$WORLDVIEW
 70
     1
  9
$SHADEDGE
 70
     3
  9
$SHADEDIF
 70
    70
  9
$TILEMODE
 70
     1
  9
$MAXACTVP
 70
    64
  9
$PINSBASE
 10
0.0
 20
0.0
 30
0.0
  9
$PLIMCHECK
 70
     0
  9
$PEXTMIN
 10
1.000000000000000E+20
 20
1.000000000000000E+20
 30
1.000000000000000E+20
  9
$PEXTMAX
 10
-1.000000000000000E+20
 20
-1.000000000000000E+20
 30
-1.000000000000000E+20
  9
$PLIMMIN
 10
0.0
 20
0.0
  9
$PLIMMAX
 10
0.0
 20
0.0
  9
$UNITMODE
 70
     0
  9
$VISRETAIN
 70
     1
  9
$PLINEGEN
 70
     0
  9
$PSLTSCALE
 70
     1
  9
$TREEDEPTH
 70
  3020
  9
$CMLSTYLE
  2
Standard
  9
$CMLJUST
 70
     0
  9
$CMLSCALE
 40
1.0
  9
$PROXYGRAPHICS
 70
     1
  9
$MEASUREMENT
 70
     0
  9
$CELWEIGHT
370
    -1
  9
$ENDCAPS
280
     0
  9
$JOINSTYLE
280
     0
  9
$LWDISPLAY
290
     0
  9
$INSUNITS
 70
     0
  9
$HYPERLINKBASE
  1

  9
$STYLESHEET
  1

  9
$XEDIT
290
     1
  9
$CEPSNTYPE
380
     0
  9
$PSTYLEMODE
290
     1
  9
$FINGERPRINTGUID
  2
{249e6040-b1a5-4489-ba1d-aed9e723c19a}
  9
$VERSIONGUID
  2
{FAEB1C32-E019-11D5-929B-00C0DF256EC4}
  9
$EXTNAMES
290
     1
  9
$PSVPSCALE
 40
0.0
  9
$OLESTARTUP
290
     0
  0
ENDSEC
  0
SECTION
  2
CLASSES
  0
CLASS
  1
ACDBDICTIONARYWDFLT
  2
AcDbDictionaryWithDefault
  3
ObjectDBX Classes
 90
        0
280
     0
281
     0
  0
CLASS
  1
MATERIAL
  2
AcDbMaterial
  3
ObjectDBX Classes
 90
     1153
280
     0
281
     0
  0
CLASS
  1
VISUALSTYLE
  2
AcDbVisualStyle
  3
ObjectDBX Classes
 90
     4095
280
     0
281
     0
  0
CLASS
  1
SCALE
  2
AcDbScale
  3
ObjectDBX Classes
 90
     1153
280
     0
281
     0
  0
CLASS
  1
SUN
  2
AcDbSun
  3
SCENEOE
 90
     1153
280
     0
281
     0
  0
CLASS
  1
ACDBPLACEHOLDER
  2
AcDbPlaceHolder
  3
ObjectDBX Classes
 90
        0
280
     0
281
     0
  0
CLASS
  1
LAYOUT
  2
AcDbLayout
  3
ObjectDBX Classes
 90
        0
280
     0
281
     0
  0
ENDSEC
  0
SECTION
  2
TABLES
  0
TABLE
  2
VPORT
  5
1E
330
0
100
AcDbSymbolTable
 70
     1
  0
VPORT
  5
24
330
1E
100
AcDbSymbolTableRecord
100
AcDbViewportTableRecord
  2
*ACTIVE
 70
     0
 10
0.0
 20
0.0
 11
1.0
 21
1.0
 12
396.19862618705
 22
256.1134382220999
 13
0.0
 23
0.0
 14
0.5
 24
0.5
 15
0.5
 25
0.5
 16
0.0
 26
0.0
 36
1.0
 17
0.0
 27
0.0
 37
0.0
 40
74.14033242887986
 41
2.25943295934276
 42
50.0
 43
0.0
 44
0.0
 50
0.0
 51
0.0
 71
    16
 72
   100
 73
     1
 74
     3
 75
     0
 76
     0
 77
     0
 78
     0
281
     0
 65
     0
110
0.0
120
0.0
130
0.0
111
1.0
121
0.0
131
0.0
112
0.0
122
1.0
132
0.0
 79
     0
146
0.0
  0
ENDTAB
  0
TABLE
  2
LTYPE
  5
9
330
0
100
AcDbSymbolTable
 70
     1
  0
LTYPE
  5
A
330
9
100
AcDbSymbolTableRecord
100
AcDbLinetypeTableRecord
  2
ByBlock
 70
     0
  3

 72
    65
 73
     0
 40
0.0
  0
LTYPE
  5
B
330
9
100
AcDbSymbolTableRecord
100
AcDbLinetypeTableRecord
  2
ByLayer
 70
     0
  3

 72
    65
 73
     0
 40
0.0
  0
LTYPE
  5
8
330
9
100
AcDbSymbolTableRecord
100
AcDbLinetypeTableRecord
  2
CONTINUOUS
 70
     0
  3
Solid line
 72
    65
 73
     0
 40
0.0
  0
ENDTAB
  0
TABLE
  2
LAYER
  5
2
330
0
100
AcDbSymbolTable
 70
     4
  0
LAYER
  5
1
330
2
100
AcDbSymbolTableRecord
100
AcDbLayerTableRecord
  2
0
 70
     0
 62
     7
  6
CONTINUOUS
370
    -3
390
3
  0
LAYER
  5
86
330
2
100
AcDbSymbolTableRecord
100
AcDbLayerTableRecord
  2
2
 70
     0
 62
     2
  6
CONTINUOUS
370
    -3
390
3
  0
LAYER
  5
4D
330
2
100
AcDbSymbolTableRecord
100
AcDbLayerTableRecord
  2
3
 70
     0
 62
     7
  6
CONTINUOUS
370
    -3
390
3
  0
LAYER
  5
64
330
2
100
AcDbSymbolTableRecord
100
AcDbLayerTableRecord
  2
1
 70
     0
 62
     3
  6
CONTINUOUS
370
    -3
390
3
  0
ENDTAB
  0
TABLE
  2
STYLE
  5
D
330
0
100
AcDbSymbolTable
 70
     3
  0
STYLE
  5
C
330
D
100
AcDbSymbolTableRecord
100
AcDbTextStyleTableRecord
  2
STANDARD
 70
     0
 40
0.0
 41
1.0
 50
0.0
 71
     0
 42
0.2
  3
txt
  4

  0
STYLE
  5
84
330
D
100
AcDbSymbolTableRecord
100
AcDbTextStyleTableRecord
  2
TXT
 70
     0
 40
0.2
 41
1.0
 50
0.0
 71
     0
 42
0.2
  3
txt_____.ttf
  4

  0
STYLE
  5
87
330
D
100
AcDbSymbolTableRecord
100
AcDbTextStyleTableRecord
  2
GDT
 70
     0
 40
0.2
 41
1.0
 50
0.0
 71
     0
 42
0.2
  3
gdt_____.ttf
  4

  0
ENDTAB
  0
TABLE
  2
VIEW
  5
1C
330
0
100
AcDbSymbolTable
 70
     0
  0
ENDTAB
  0
TABLE
  2
UCS
  5
1D
330
0
100
AcDbSymbolTable
 70
     0
  0
ENDTAB
  0
TABLE
  2
APPID
  5
1F
330
0
100
AcDbSymbolTable
 70
     1
  0
APPID
  5
23
330
1F
100
AcDbSymbolTableRecord
100
AcDbRegAppTableRecord
  2
ACAD
 70
     0
  0
ENDTAB
  0
TABLE
  2
DIMSTYLE
  5
F
330
0
100
AcDbSymbolTable
 70
     1
100
AcDbDimStyleTable
  0
DIMSTYLE
105
E
330
F
100
AcDbSymbolTableRecord
100
AcDbDimStyleTableRecord
  2
STANDARD
 70
     0
178
     0
340
C
  0
ENDTAB
  0
TABLE
  2
BLOCK_RECORD
  5
12
330
0
100
AcDbSymbolTable
 70
     0
  0
BLOCK_RECORD
  5
13
102
{ACAD_XDICTIONARY
360
AF
102
}
330
12
100
AcDbSymbolTableRecord
100
AcDbBlockTableRecord
  2
*Model_Space
340
16
  0
BLOCK_RECORD
  5
18
330
12
100
AcDbSymbolTableRecord
100
AcDbBlockTableRecord
  2
*Paper_Space
340
1B
  0
ENDTAB
  0
ENDSEC
  0
SECTION
  2
BLOCKS
  0
BLOCK
  5
14
330
13
100
AcDbEntity
  8
0
100
AcDbBlockBegin
  2
*Model_Space
 70
     0
 10
0.0
 20
0.0
 30
0.0
  3
*Model_Space
  1

  0
ENDBLK
  5
15
330
13
100
AcDbEntity
  8
0
100
AcDbBlockEnd
  0
BLOCK
  5
19
330
18
100
AcDbEntity
 67
     1
  8
0
100
AcDbBlockBegin
  2
*Paper_Space
 70
     0
 10
0.0
 20
0.0
 30
0.0
  3
*Paper_Space
  1

  0
ENDBLK
  5
1A
330
18
100
AcDbEntity
 67
     1
  8
0
100
AcDbBlockEnd
  0
ENDSEC
  0
SECTION
  2
ENTITIES
  0
LINE
  5
4C
330
13
100
AcDbEntity
  8
3
  6
Continuous
 62
     7
100
AcDbLine
 10
430.9965889814
 20
241.2216330434
 30
0.0
 11
465.9965889814
 21
241.2216330434
 31
0.0
  0
LINE
  5
4E
330
13
100
AcDbEntity
  8
3
  6
Continuous
 62
     7
100
AcDbLine
 10
465.9965889814
 20
241.2216330434
 30
0.0
 11
465.9965889814
 21
227.2216330434
 31
0.0
  0
LINE
  5
4F
330
13
100
AcDbEntity
  8
3
  6
Continuous
 62
     7
100
AcDbLine
 10
465.9965889814
 20
227.2216330434
 30
0.0
 11
425.9965889814
 21
227.2216330434
 31
0.0
  0
LINE
  5
50
330
13
100
AcDbEntity
  8
3
  6
Continuous
 62
     7
100
AcDbLine
 10
425.9965889814
 20
227.2216330434
 30
0.0
 11
425.9965889814
 21
251.2216330433999
 31
0.0
  0
LINE
  5
51
330
13
100
AcDbEntity
  8
3
  6
Continuous
 62
     7
100
AcDbLine
 10
425.9965889814
 20
251.2216330433999
 30
0.0
 11
430.9965889814
 21
251.2216330433999
 31
0.0
  0
LINE
  5
52
330
13
100
AcDbEntity
  8
3
  6
Continuous
 62
     7
100
AcDbLine
 10
430.9965889814
 20
251.2216330433999
 30
0.0
 11
430.9965889814
 21
241.2216330434
 31
0.0
  0
LINE
  5
53
330
13
100
AcDbEntity
  8
3
  6
Continuous
 62
     7
100
AcDbLine
 10
422.9965889814
 20
251.2216330433999
 30
0.0
 11
425.9965889814
 21
251.2216330433999
 31
0.0
  0
LINE
  5
54
330
13
100
AcDbEntity
  8
3
  6
Continuous
 62
     7
100
AcDbLine
 10
425.9965889814
 20
227.2216330434
 30
0.0
 11
390.3202086750999
 21
227.221633063
 31
0.0
  0
LINE
  5
55
330
13
100
AcDbEntity
  8
3
  6
Continuous
 62
     7
100
AcDbLine
 10
422.9965889814
 20
247.2216330433999
 30
0.0
 11
422.9965889814
 21
251.2216330433999
 31
0.0
  0
LINE
  5
56
330
13
100
AcDbEntity
  8
3
  6
Continuous
 62
     7
100
AcDbLine
 10
388.3272671793999
 20
247.2216330594999
 30
0.0
 11
422.9965889814
 21
247.2216330433999
 31
0.0
  0
LWPOLYLINE
  5
57
330
13
100
AcDbEntity
  8
3
  6
Continuous
 62
     7
100
AcDbPolyline
 90
       13
 70
     0
 43
0.0
 10
390.3202086750999
 20
227.221633063
 10
390.8337876657
 20
228.631515371
 10
391.2044425377999
 20
230.1946468843
 10
391.4839938447
 20
232.1784509547999
 10
391.6212593756999
 20
234.2395039785
 10
391.6448105793999
 20
236.3058927655999
 10
391.5534797400999
 20
238.3319299512
 10
391.3266800633
 20
240.2890531095999
 10
390.9434904942
 20
242.1489945859999
 10
390.3829899781999
 20
243.8834867255999
 10
389.6242574605999
 20
245.4642618738999
 10
389.0235963198999
 20
246.3841059728999
 10
388.3272671793999
 20
247.2216330594999
  0
LINE
  5
58
330
13
100
AcDbEntity
  8
3
  6
Continuous
 62
     7
100
AcDbLine
 10
383.2465889814
 20
247.2216330433999
 30
0.0
 11
383.2465889814
 21
227.2216330434
 31
0.0
  0
LINE
  5
59
330
13
100
AcDbEntity
  8
3
  6
Continuous
 62
     7
100
AcDbLine
 10
377.7465889814
 20
227.2216330434
 30
0.0
 11
377.7465889814
 21
247.2216330433999
 31
0.0
  0
LINE
  5
5A
330
13
100
AcDbEntity
  8
3
  6
Continuous
 62
     7
100
AcDbLine
 10
377.7465889814
 20
227.2216330434
 30
0.0
 11
383.2465889814
 21
227.2216330434
 31
0.0
  0
LINE
  5
5B
330
13
100
AcDbEntity
  8
3
  6
Continuous
 62
     7
100
AcDbLine
 10
383.2465889814
 20
247.2216330433999
 30
0.0
 11
377.7465889814
 21
247.2216330433999
 31
0.0
  0
LINE
  5
5C
330
13
100
AcDbEntity
  8
3
  6
Continuous
 62
     7
100
AcDbLine
 10
375.9965889814
 20
247.2216330433999
 30
0.0
 11
375.9965889814
 21
227.2216330434
 31
0.0
  0
LINE
  5
5D
330
13
100
AcDbEntity
  8
3
  6
Continuous
 62
     7
100
AcDbLine
 10
375.9965889814
 20
227.2216330434
 30
0.0
 11
377.7465889814
 21
227.2216330434
 31
0.0
  0
LINE
  5
5E
330
13
100
AcDbEntity
  8
3
  6
Continuous
 62
     7
100
AcDbLine
 10
375.9965889814
 20
247.2216330433999
 30
0.0
 11
377.7465889814
 21
247.2216330433999
 31
0.0
  0
LINE
  5
5F
330
13
100
AcDbEntity
  8
3
  6
Continuous
 62
     7
100
AcDbLine
 10
383.2465889814
 20
227.2216330434
 30
0.0
 11
390.3202086750999
 21
227.221633063
 31
0.0
  0
LINE
  5
60
330
13
100
AcDbEntity
  8
3
  6
Continuous
 62
     7
100
AcDbLine
 10
383.2465889814
 20
247.2216330433999
 30
0.0
 11
388.3272671793999
 21
247.2216330594999
 31
0.0
  0
LINE
  5
61
330
13
100
AcDbEntity
  8
3
  6
Continuous
 62
     7
100
AcDbLine
 10
422.9965889814
 20
251.2216330433999
 30
0.0
 11
375.9965889814
 21
251.2216330433999
 31
0.0
  0
LINE
  5
62
330
13
100
AcDbEntity
  8
3
  6
Continuous
 62
     7
100
AcDbLine
 10
375.9965889814
 20
247.2216330433999
 30
0.0
 11
375.9965889814
 21
251.2216330433999
 31
0.0
  0
LINE
  5
63
330
13
100
AcDbEntity
  8
1
  6
Continuous
 62
     3
100
AcDbLine
 10
383.2465889813535
 20
244.0526191047816
 30
0.0
 11
386.4156029300307
 21
247.2216330534589
 31
0.0
  0
LINE
  5
65
330
13
100
AcDbEntity
  8
1
  6
Continuous
 62
     3
100
AcDbLine
 10
383.2465889813535
 20
239.5624910442471
 30
0.0
 11
389.4118931013234
 21
245.7277951642171
 31
0.0
  0
LINE
  5
66
330
13
100
AcDbEntity
  8
1
  6
Continuous
 62
     3
100
AcDbLine
 10
383.2465889813535
 20
235.0723629837125
 30
0.0
 11
390.7846703983236
 21
242.6104444006826
 31
0.0
  0
LINE
  5
67
330
13
100
AcDbEntity
  8
1
  6
Continuous
 62
     3
100
AcDbLine
 10
383.2465889813535
 20
230.5822349231779
 30
0.0
 11
391.4798850694571
 21
238.8155310112816
 31
0.0
  0
LINE
  5
68
330
13
100
AcDbEntity
  8
1
  6
Continuous
 62
     3
100
AcDbLine
 10
384.3761151652743
 20
227.2216330465642
 30
0.0
 11
391.6090278138329
 21
234.4545456951228
 31
0.0
  0
LINE
  5
69
330
13
100
AcDbEntity
  8
1
  6
Continuous
 62
     3
100
AcDbLine
 10
388.8662432381895
 20
227.2216330589447
 30
0.0
 11
391.007584134237
 21
229.3629739549924
 31
0.0
  0
LINE
  5
6A
330
13
100
AcDbEntity
  8
1
  6
Continuous
 62
     3
100
AcDbLine
 10
375.9965889813535
 20
245.7828752258508
 30
0.0
 11
377.4353467989525
 21
247.2216330434497
 31
0.0
  0
LINE
  5
6B
330
13
100
AcDbEntity
  8
1
  6
Continuous
 62
     3
100
AcDbLine
 10
375.9965889813535
 20
241.2927471653163
 30
0.0
 11
377.7465889813535
 21
243.0427471653161
 31
0.0
  0
LINE
  5
6C
330
13
100
AcDbEntity
  8
1
  6
Continuous
 62
     3
100
AcDbLine
 10
375.9965889813535
 20
236.8026191047816
 30
0.0
 11
377.7465889813535
 21
238.5526191047816
 31
0.0
  0
LINE
  5
6D
330
13
100
AcDbEntity
  8
1
  6
Continuous
 62
     3
100
AcDbLine
 10
375.9965889813535
 20
232.3124910442471
 30
0.0
 11
377.7465889813535
 21
234.0624910442471
 31
0.0
  0
LINE
  5
6E
330
13
100
AcDbEntity
  8
1
  6
Continuous
 62
     3
100
AcDbLine
 10
375.9965889813535
 20
227.8223629837125
 30
0.0
 11
377.7465889813535
 21
229.5723629837125
 31
0.0
  0
HATCH
  5
6F
330
13
100
AcDbEntity
  8
1
 62
     3
100
AcDbHatch
 10
0.0
 20
0.0
 30
0.0
210
0.0
220
0.0
230
1.0
  2
SOLID
 70
     1
 71
     0
 91
        1
 92
        2
 72
     0
 73
     1
 93
        3
 10
383.2465889814
 20
282.1435063239999
 10
386.7465889814
 20
282.6435063239999
 10
386.7465889814
 20
281.6435063239999
 97
        0
 75
     0
 76
     1
 98
        0
  0
HATCH
  5
70
330
13
100
AcDbEntity
  8
1
 62
     3
100
AcDbHatch
 10
0.0
 20
0.0
 30
0.0
210
0.0
220
0.0
230
1.0
  2
SOLID
 70
     1
 71
     0
 91
        1
 92
        2
 72
     0
 73
     1
 93
        3
 10
377.7465889814
 20
282.1435063239999
 10
374.2465889814
 20
281.6435063239999
 10
374.2465889814
 20
282.6435063239999
 97
        0
 75
     0
 76
     1
 98
        0
  0
LINE
  5
71
330
13
100
AcDbEntity
  8
1
  6
Continuous
 62
     3
100
AcDbLine
 10
383.2465889814
 20
247.2216330433999
 30
0.0
 11
383.2465889814
 21
283.143506324
 31
0.0
  0
LINE
  5
72
330
13
100
AcDbEntity
  8
1
  6
Continuous
 62
     3
100
AcDbLine
 10
377.7465889814
 20
247.2216330433999
 30
0.0
 11
377.7465889814
 21
283.143506324
 31
0.0
  0
LINE
  5
73
330
13
100
AcDbEntity
  8
1
  6
Continuous
 62
     3
100
AcDbLine
 10
383.2465889814
 20
282.1435063239999
 30
0.0
 11
390.2465889814
 21
282.1435063239999
 31
0.0
  0
LINE
  5
74
330
13
100
AcDbEntity
  8
1
  6
Continuous
 62
     3
100
AcDbLine
 10
383.2465889814
 20
282.1435063239999
 30
0.0
 11
377.7465889814
 21
282.1435063239999
 31
0.0
  0
LINE
  5
75
330
13
100
AcDbEntity
  8
1
  6
Continuous
 62
     3
100
AcDbLine
 10
377.7465889814
 20
282.1435063239999
 30
0.0
 11
327.0181317307
 21
282.1435063239999
 31
0.0
  0
HATCH
  5
76
330
13
100
AcDbEntity
  8
1
 62
     3
100
AcDbHatch
 10
0.0
 20
0.0
 30
0.0
210
0.0
220
0.0
230
1.0
  2
SOLID
 70
     1
 71
     0
 91
        2
 92
        2
 72
     0
 73
     1
 93
        9
 10
351.7873549459499
 20
284.5189855882999
 10
351.4071072896999
 20
284.5189855882999
 10
351.4071072896999
 20
283.3897434007999
 10
351.3523268209499
 20
283.3897434007999
 10
351.3523268209499
 20
284.5189855882999
 10
350.1003385396999
 20
284.5189855882999
 10
351.4071072896999
 20
287.0052434007999
 10
351.4071072896999
 20
284.5948918382999
 10
351.7873549459499
 20
284.5948918382999
 97
        0
 92
        2
 72
     0
 73
     1
 93
        3
 10
351.3523268209499
 20
284.5947824632999
 10
351.3523268209499
 20
286.7723293382999
 10
350.2099377584499
 20
284.5947824632999
 97
        0
 75
     0
 76
     1
 98
        0
  0
HATCH
  5
77
330
13
100
AcDbEntity
  8
1
 62
     3
100
AcDbHatch
 10
0.0
 20
0.0
 30
0.0
210
0.0
220
0.0
230
1.0
  2
SOLID
 70
     1
 71
     0
 91
        1
 92
        2
 72
     0
 73
     1
 93
       12
 10
354.2572611959499
 20
283.4221184007999
 10
354.2174104146999
 20
283.3652434007999
 10
353.4220791646999
 20
284.5038371507999
 10
352.6250635397
 20
283.3652434007999
 10
352.58521275845
 20
283.4221184007999
 10
353.3838744771999
 20
284.5575402757999
 10
352.58521275845
 20
285.6929621507999
 10
352.6250635397
 20
285.7522434007999
 10
353.4220791646999
 20
284.6088918382999
 10
354.2174104146999
 20
285.7522434007999
 10
354.2572611959499
 20
285.6929621507999
 10
353.4585994772
 20
284.5575402757999
 97
        0
 75
     0
 76
     1
 98
        0
  0
HATCH
  5
78
330
13
100
AcDbEntity
  8
1
 62
     3
100
AcDbHatch
 10
0.0
 20
0.0
 30
0.0
210
0.0
220
0.0
230
1.0
  2
SOLID
 70
     1
 71
     0
 91
        3
 92
        2
 72
     0
 73
     1
 93
       14
 10
359.1373545674499
 20
284.2898996632999
 10
358.7122795674499
 20
283.6825402882999
 10
357.9019803487
 20
283.6825402882999
 10
357.70441081745
 20
283.1202434133
 10
357.6578990986999
 20
283.1581965383
 10
357.8505303487
 20
283.7109777882999
 10
357.4503381612
 20
284.2898996632999
 10
357.4503381612
 20
285.4855871633
 10
357.8754131612
 20
286.0929465382999
 10
358.6840662861999
 20
286.0929465382999
 10
358.8816740986999
 20
286.6552434133
 10
358.9297936299499
 20
286.6172902883
 10
358.7355545674499
 20
286.0621027883
 10
359.1373545674499
 20
285.4855871633
 97
        0
 92
        2
 72
     0
 73
     1
 93
        5
 10
358.6574990986999
 20
286.0150715383
 10
357.8953576924499
 20
286.0150715383
 10
357.5051569112
 20
285.4552356007999
 10
357.5051569112
 20
284.3190481007999
 10
357.87874362995
 20
283.7900559133
 97
        0
 92
        2
 72
     0
 73
     1
 93
        5
 10
359.0825740986999
 20
284.3190481007999
 10
359.0825740986999
 20
285.4552356007999
 10
358.70898737995
 20
285.9865793508
 10
357.9302319112
 20
283.7616184133
 10
358.6906889424499
 20
283.7616184133
 97
        0
 75
     0
 76
     1
 98
        0
  0
HATCH
  5
79
330
13
100
AcDbEntity
  8
1
 62
     3
100
AcDbHatch
 10
0.0
 20
0.0
 30
0.0
210
0.0
220
0.0
230
1.0
  2
SOLID
 70
     1
 71
     0
 91
        1
 92
        2
 72
     0
 73
     1
 93
       18
 10
365.4545483424499
 20
284.0366965257999
 10
365.0294733424499
 20
283.4317434007999
 10
364.1926069362
 20
283.4317434007999
 10
363.7741928737
 20
284.0225871507999
 10
363.81404365495
 20
284.0795168382999
 10
364.2125514674499
 20
283.5076496507999
 10
365.0078827174499
 20
283.5076496507999
 10
365.3997678736999
 20
284.0652980882999
 10
365.3997678736999
 20
285.2042746507999
 10
365.0078827174499
 20
285.7618684008
 10
363.7675319362
 20
285.7618684008
 10
363.7675319362
 20
287.0052434007999
 10
365.4263350611999
 20
287.0052434007999
 10
365.4263350611999
 20
286.9292824632999
 10
363.8223506862
 20
286.9292824632999
 10
363.8223506862
 20
285.8397434007999
 10
365.0294733424499
 20
285.8397434007999
 10
365.4545483424499
 20
285.2323840257999
 97
        0
 75
     0
 76
     1
 98
        0
  0
HATCH
  5
7A
330
13
100
AcDbEntity
  8
1
 62
     3
100
AcDbHatch
 10
0.0
 20
0.0
 30
0.0
210
0.0
220
0.0
230
1.0
  2
SOLID
 70
     1
 71
     0
 91
        1
 92
        2
 72
     0
 73
     1
 93
        6
 10
366.67916552995
 20
283.4556965257999
 10
366.2640436549499
 20
282.8577434008
 10
366.2241928737
 20
282.9170793382999
 10
366.62603115495
 20
283.4841340257999
 10
366.62603115495
 20
284.0512434008
 10
366.67916552995
 20
284.0512434008
 97
        0
 75
     0
 76
     1
 98
        0
  0
HATCH
  5
7B
330
13
100
AcDbEntity
  8
1
 62
     3
100
AcDbHatch
 10
0.0
 20
0.0
 30
0.0
210
0.0
220
0.0
230
1.0
  2
SOLID
 70
     1
 71
     0
 91
        1
 92
        2
 72
     0
 73
     1
 93
       18
 10
369.1295483424499
 20
284.0366965257999
 10
368.7044733424499
 20
283.4317434007999
 10
367.8676069362
 20
283.4317434007999
 10
367.4491928737
 20
284.0225871507999
 10
367.48904365495
 20
284.0795168382999
 10
367.88755146745
 20
283.5076496507999
 10
368.68288271745
 20
283.5076496507999
 10
369.0747678737
 20
284.0652980882999
 10
369.0747678737
 20
285.2042746507999
 10
368.68288271745
 20
285.7618684008
 10
367.4425319362
 20
285.7618684008
 10
367.4425319362
 20
287.0052434007999
 10
369.1013350612
 20
287.0052434007999
 10
369.1013350612
 20
286.9292824632999
 10
367.4973506862
 20
286.9292824632999
 10
367.4973506862
 20
285.8397434007999
 10
368.7044733424499
 20
285.8397434007999
 10
369.1295483424499
 20
285.2323840257999
 97
        0
 75
     0
 76
     1
 98
        0
  0
HATCH
  5
7C
330
13
100
AcDbEntity
  8
1
 62
     3
100
AcDbHatch
 10
0.0
 20
0.0
 30
0.0
210
0.0
220
0.0
230
1.0
  2
SOLID
 70
     1
 71
     0
 91
        1
 92
        2
 72
     0
 73
     1
 93
        3
 10
361.9445045017999
 20
251.2216330433999
 10
361.4445045017999
 20
254.7216330433999
 10
362.4445045017999
 20
254.7216330433999
 97
        0
 75
     0
 76
     1
 98
        0
  0
HATCH
  5
7D
330
13
100
AcDbEntity
  8
1
 62
     3
100
AcDbHatch
 10
0.0
 20
0.0
 30
0.0
210
0.0
220
0.0
230
1.0
  2
SOLID
 70
     1
 71
     0
 91
        1
 92
        2
 72
     0
 73
     1
 93
        3
 10
361.9445045017999
 20
247.2216330433999
 10
362.4445045017999
 20
243.7216330433999
 10
361.4445045017999
 20
243.7216330433999
 97
        0
 75
     0
 76
     1
 98
        0
  0
LINE
  5
7E
330
13
100
AcDbEntity
  8
1
  6
Continuous
 62
     3
100
AcDbLine
 10
375.9965889814
 20
251.2216330433999
 30
0.0
 11
360.9445045017999
 21
251.2216330433999
 31
0.0
  0
LINE
  5
7F
330
13
100
AcDbEntity
  8
1
  6
Continuous
 62
     3
100
AcDbLine
 10
377.9965889814
 20
247.2216330433999
 30
0.0
 11
360.9445045017999
 21
247.2216330433999
 31
0.0
  0
LINE
  5
80
330
13
100
AcDbEntity
  8
1
  6
Continuous
 62
     3
100
AcDbLine
 10
361.9445045017999
 20
251.2216330433999
 30
0.0
 11
361.9445045017999
 21
258.2216330433999
 31
0.0
  0
LINE
  5
81
330
13
100
AcDbEntity
  8
1
  6
Continuous
 62
     3
100
AcDbLine
 10
361.9445045017999
 20
251.2216330433999
 30
0.0
 11
361.9445045017999
 21
247.2216330433999
 31
0.0
  0
LINE
  5
82
330
13
100
AcDbEntity
  8
1
  6
Continuous
 62
     3
100
AcDbLine
 10
361.9445045017999
 20
247.2216330433999
 30
0.0
 11
361.9445045017999
 21
235.9633961037999
 31
0.0
  0
TEXT
  5
83
330
13
100
AcDbEntity
  8
1
  6
Continuous
 62
     3
100
AcDbText
 10
360.8837331006358
 20
234.1244719112812
 30
0.0
 40
3.4999668
  1
4
 50
90.0
  7
TXT
100
AcDbText
  0
TEXT
  5
85
330
13
100
AcDbEntity
  8
2
  6
Continuous
 62
     2
100
AcDbText
 10
328.0331352167
 20
275.8295562567999
 30
0.0
 40
3.4999668
  1
j
  7
GDT
100
AcDbText
  0
TEXT
  5
88
330
13
100
AcDbEntity
  8
2
  6
Continuous
 62
     2
100
AcDbText
 10
336.8785637754
 20
275.8120564227999
 30
0.0
 40
3.4999668
  1
n
  7
GDT
100
AcDbText
  0
TEXT
  5
89
330
13
100
AcDbEntity
  8
2
  6
Continuous
 62
     2
100
AcDbText
 10
340.61000409325
 20
276.5750491851999
 30
0.0
 40
3.4999668
  1
0,2
  7
TXT
100
AcDbText
  0
TEXT
  5
8A
330
13
100
AcDbEntity
  8
2
  6
Continuous
 62
     2
100
AcDbText
 10
351.1874415932499
 20
276.6135488199999
 30
0.0
 40
3.4999668
  1
A
  7
TXT
100
AcDbText
  0
TEXT
  5
8B
330
13
100
AcDbEntity
  8
2
  6
Continuous
 62
     2
100
AcDbText
 10
357.0215591407625
 20
276.5750491851999
 30
0.0
 40
3.4999668
  1
B
  7
TXT
100
AcDbText
  0
TEXT
  5
8C
330
13
100
AcDbEntity
  8
2
  6
Continuous
 62
     2
100
AcDbText
 10
362.9686603474
 20
276.5750491851999
 30
0.0
 40
3.4999668
  1
C
  7
TXT
100
AcDbText
  0
LINE
  5
8D
330
13
100
AcDbEntity
  8
2
  6
Continuous
 62
     2
100
AcDbLine
 10
327.0181317307
 20
282.1435063239999
 30
0.0
 11
327.0181317307
 21
275.143506324
 31
0.0
  0
LINE
  5
8E
330
13
100
AcDbEntity
  8
2
  6
Continuous
 62
     2
100
AcDbLine
 10
335.6255614181999
 20
282.1435063239999
 30
0.0
 11
335.6255614181999
 21
275.143506324
 31
0.0
  0
LINE
  5
8F
330
13
100
AcDbEntity
  8
2
  6
Continuous
 62
     2
100
AcDbLine
 10
350.5285614182
 20
282.1435063239999
 30
0.0
 11
350.5285614182
 21
275.143506324
 31
0.0
  0
LINE
  5
90
330
13
100
AcDbEntity
  8
2
  6
Continuous
 62
     2
100
AcDbLine
 10
356.4385848557
 20
282.1435063239999
 30
0.0
 11
356.4385848557
 21
275.143506324
 31
0.0
  0
LINE
  5
91
330
13
100
AcDbEntity
  8
2
  6
Continuous
 62
     2
100
AcDbLine
 10
362.3106551682
 20
282.1435063239999
 30
0.0
 11
362.3106551682
 21
275.143506324
 31
0.0
  0
LINE
  5
92
330
13
100
AcDbEntity
  8
2
  6
Continuous
 62
     2
100
AcDbLine
 10
368.2081551682
 20
282.1435063239999
 30
0.0
 11
368.2081551682
 21
275.143506324
 31
0.0
  0
LINE
  5
93
330
13
100
AcDbEntity
  8
2
  6
Continuous
 62
     2
100
AcDbLine
 10
327.0181317307
 20
282.1435063239999
 30
0.0
 11
368.2081551682
 21
282.1435063239999
 31
0.0
  0
LINE
  5
94
330
13
100
AcDbEntity
  8
2
  6
Continuous
 62
     2
100
AcDbLine
 10
327.0181317307
 20
275.143506324
 30
0.0
 11
368.2081551682
 21
275.143506324
 31
0.0
  0
LINE
  5
95
330
13
100
AcDbEntity
  8
2
  6
Continuous
 62
     2
100
AcDbLine
 10
377.9965889814
 20
247.2216330433999
 30
0.0
 11
354.3142839901
 21
247.2216330433999
 31
0.0
  0
TEXT
  5
96
330
13
100
AcDbEntity
  8
2
  6
Continuous
 62
     2
100
AcDbText
 10
327.5486662478999
 20
258.9257075362
 30
0.0
 40
3.4999668
  1
c
  7
GDT
100
AcDbText
  0
TEXT
  5
97
330
13
100
AcDbEntity
  8
2
  6
Continuous
 62
     2
100
AcDbText
 10
337.77709044275
 20
258.8872079014
 30
0.0
 40
3.4999668
  1
0,05
  7
TXT
100
AcDbText
  0
LINE
  5
98
330
13
100
AcDbEntity
  8
2
  6
Continuous
 62
     2
100
AcDbLine
 10
326.4006633927
 20
264.4556650402
 30
0.0
 11
326.4006633927
 21
257.4556650402
 31
0.0
  0
LINE
  5
99
330
13
100
AcDbEntity
  8
2
  6
Continuous
 62
     2
100
AcDbLine
 10
337.1182102677
 20
264.4556650402
 30
0.0
 11
337.1182102677
 21
257.4556650402
 31
0.0
  0
LINE
  5
9A
330
13
100
AcDbEntity
  8
2
  6
Continuous
 62
     2
100
AcDbLine
 10
350.6146477677
 20
264.4556650402
 30
0.0
 11
350.6146477677
 21
257.4556650402
 31
0.0
  0
LINE
  5
9B
330
13
100
AcDbEntity
  8
2
  6
Continuous
 62
     2
100
AcDbLine
 10
326.4006633927
 20
264.4556650402
 30
0.0
 11
350.6146477677
 21
264.4556650402
 31
0.0
  0
LINE
  5
9C
330
13
100
AcDbEntity
  8
2
  6
Continuous
 62
     2
100
AcDbLine
 10
326.4006633927
 20
257.4556650402
 30
0.0
 11
350.6146477677
 21
257.4556650402
 31
0.0
  0
HATCH
  5
9D
330
13
100
AcDbEntity
  8
2
 62
     2
100
AcDbHatch
 10
0.0
 20
0.0
 30
0.0
210
0.0
220
0.0
230
1.0
  2
SOLID
 70
     1
 71
     0
 91
        1
 92
        2
 72
     0
 73
     1
 93
        3
 10
355.8980962675648
 20
250.7215531856974
 10
355.3142839901
 20
247.2216330433999
 10
354.7314296118216
 20
250.7217128355618
 97
        0
 75
     0
 76
     1
 98
        0
  0
LINE
  5
9E
330
13
100
AcDbEntity
  8
2
  6
Continuous
 62
     2
100
AcDbLine
 10
355.3147629396932
 20
250.7216330106295
 30
0.0
 11
355.3161633926999
 21
260.9556650402
 31
0.0
  0
LINE
  5
9F
330
13
100
AcDbEntity
  8
2
  6
Continuous
 62
     2
100
AcDbLine
 10
355.3161633926999
 20
260.9556650402
 30
0.0
 11
350.3161633927
 21
260.9556650402
 31
0.0
  0
LINE
  5
A0
330
13
100
AcDbEntity
  8
2
  6
Continuous
 62
     2
100
AcDbLine
 10
377.9965889814
 20
247.2216330434999
 30
0.0
 11
366.1310965458999
 21
247.2216330434999
 31
0.0
  0
LINE
  5
A1
330
13
100
AcDbEntity
  8
2
  6
Continuous
 62
     2
100
AcDbLine
 10
367.1310965459
 20
247.2216330434999
 30
0.0
 11
364.1816465459
 21
252.2213830434999
 31
0.0
  0
LINE
  5
A2
330
13
100
AcDbEntity
  8
2
  6
Continuous
 62
     2
100
AcDbLine
 10
367.1310965459
 20
247.2216330434999
 30
0.0
 11
373.0299965458999
 21
257.2211330434999
 31
0.0
  0
HATCH
  5
A3
330
13
100
AcDbEntity
  8
2
 62
     2
100
AcDbHatch
 10
0.0
 20
0.0
 30
0.0
210
0.0
220
0.0
230
1.0
  2
SOLID
 70
     1
 71
     0
 91
        2
 92
        2
 72
     0
 73
     1
 93
       15
 10
369.3295160771499
 20
253.8030733740999
 10
368.90444107715
 20
253.1981202491
 10
368.47607388965
 20
253.1981202491
 10
367.6973184209
 20
254.3076749366
 10
367.6973184209
 20
253.2331202491
 10
367.6424996709
 20
253.2331202491
 10
367.6424996709
 20
254.3863155616
 10
367.6325465459
 20
254.4005889991
 10
367.6424996709
 20
254.4148077491
 10
367.6424996709
 20
256.7331202491
 10
367.6973184209
 20
256.7331202491
 10
367.6973184209
 20
254.4936124366
 10
368.47607388965
 20
255.6061202490999
 10
368.90444107715
 20
255.6061202490999
 10
369.3295160771499
 20
254.9987608741
 97
        0
 92
        2
 72
     0
 73
     1
 93
        7
 10
369.2747356083999
 20
253.8309093116
 10
369.2747356083999
 20
254.9695030616
 10
368.88285045215
 20
255.5269327491
 10
368.4959801396499
 20
255.5269327491
 10
367.7072715459
 20
254.4002061866
 10
368.4959801396499
 20
253.2734249366
 10
368.88285045215
 20
253.2734249366
 97
        0
 75
     0
 76
     1
 98
        0
  0
LINE
  5
A4
330
13
100
AcDbEntity
  8
2
  6
Continuous
 62
     2
100
AcDbLine
 10
397.2348633989
 20
247.2216330434999
 30
0.0
 11
397.2348633989
 21
261.7067153363
 31
0.0
  0
LINE
  5
A5
330
13
100
AcDbEntity
  8
2
  6
Continuous
 62
     2
100
AcDbLine
 10
400.7348633988999
 20
261.7067153363
 30
0.0
 11
393.7348633988999
 21
261.7067153363
 31
0.0
  0
LINE
  5
A6
330
13
100
AcDbEntity
  8
2
  6
Continuous
 62
     2
100
AcDbLine
 10
393.7348633988999
 20
261.7067153363
 30
0.0
 11
393.7348633988999
 21
268.7067153362999
 31
0.0
  0
LINE
  5
A7
330
13
100
AcDbEntity
  8
2
  6
Continuous
 62
     2
100
AcDbLine
 10
393.7348633988999
 20
268.7067153362999
 30
0.0
 11
400.7348633988999
 21
268.7067153362999
 31
0.0
  0
LINE
  5
A8
330
13
100
AcDbEntity
  8
2
  6
Continuous
 62
     2
100
AcDbLine
 10
400.7348633988999
 20
268.7067153362999
 30
0.0
 11
400.7348633988999
 21
261.7067153363
 31
0.0
  0
HATCH
  5
A9
330
13
100
AcDbEntity
  8
2
 62
     2
100
AcDbHatch
 10
0.0
 20
0.0
 30
0.0
210
0.0
220
0.0
230
1.0
  2
SOLID
 70
     1
 71
     0
 91
        2
 92
        2
 72
     0
 73
     1
 93
       10
 10
397.3468798031499
 20
262.8934526022999
 10
397.2920993343999
 20
262.8934526022999
 10
397.2920993343999
 20
264.0225854147999
 10
395.7146821469
 20
264.0225854147999
 10
395.7146821469
 20
262.8934526022999
 10
395.6598633968999
 20
262.8934526022999
 10
395.6598633968999
 20
264.0703822897999
 10
396.47184699065
 20
266.3934526022999
 10
396.5349344906499
 20
266.3934526022999
 10
397.3468798031499
 20
264.0703822897999
 97
        0
 92
        2
 72
     0
 73
     1
 93
        3
 10
397.2754852718999
 20
264.0984916647999
 10
396.5033907406499
 20
266.3044760397999
 10
395.7312579281499
 20
264.0984916647999
 97
        0
 75
     0
 76
     1
 98
        0
  0
HATCH
  5
AA
330
13
100
AcDbEntity
  8
2
 62
     2
100
AcDbHatch
 10
0.0
 20
0.0
 30
0.0
210
0.0
220
0.0
230
1.0
  2
SOLID
 70
     1
 71
     0
 91
        1
 92
        2
 72
     0
 73
     1
 93
        3
 10
398.6348633988999
 20
247.2216330434999
 10
397.2348633989
 20
249.6716330435
 10
395.8348633988999
 20
247.2216330434999
 97
        0
 75
     0
 76
     1
 98
        0
  0
LINE
  5
AB
330
13
100
AcDbEntity
  8
1
  6
Continuous
 62
     3
100
AcDbLine
 10
380.4965889814
 20
249.2216330433999
 30
0.0
 11
380.4965889814
 21
241.0316330434
 31
0.0
  0
LINE
  5
AC
330
13
100
AcDbEntity
  8
1
  6
Continuous
 62
     3
100
AcDbLine
 10
380.4965889814
 20
238.4916330433999
 30
0.0
 11
380.4965889814
 21
235.9516330434
 31
0.0
  0
LINE
  5
AD
330
13
100
AcDbEntity
  8
1
  6
Continuous
 62
     3
100
AcDbLine
 10
380.4965889814
 20
233.4116330433999
 30
0.0
 11
380.4965889814
 21
225.2216330434
 31
0.0
  0
ENDSEC
  0
SECTION
  2
OBJECTS
  0
DICTIONARY
  5
5
330
0
100
AcDbDictionary
281
     1
  3
ACAD_GROUP
350
20
  3
ACAD_LAYOUT
350
17
  3
ACAD_MLINESTYLE
350
11
  3
ACAD_PLOTSETTINGS
350
21
  3
ACAD_PLOTSTYLENAME
350
4
  3
ACAD_SCALELIST
350
27
  3
DWGPROPS
350
B1
  0
DICTIONARY
  5
AF
330
13
100
AcDbDictionary
280
     1
281
     1
  3
DIM_BOUNDING_BOXES_V1
360
B0
  0
DICTIONARY
  5
20
102
{ACAD_REACTORS
330
5
102
}
330
5
100
AcDbDictionary
281
     1
  0
DICTIONARY
  5
17
102
{ACAD_REACTORS
330
5
102
}
330
5
100
AcDbDictionary
281
     1
  3
Blatt1
350
1B
  3
Model
350
16
  0
DICTIONARY
  5
11
102
{ACAD_REACTORS
330
5
102
}
330
5
100
AcDbDictionary
281
     1
  3
Standard
350
10
  0
DICTIONARY
  5
21
102
{ACAD_REACTORS
330
5
102
}
330
5
100
AcDbDictionary
281
     1
  0
ACDBDICTIONARYWDFLT
  5
4
102
{ACAD_REACTORS
330
5
102
}
330
5
100
AcDbDictionary
281
     1
  3
Normal
350
3
100
AcDbDictionaryWithDefault
340
3
  0
DICTIONARY
  5
27
102
{ACAD_REACTORS
330
5
102
}
330
5
100
AcDbDictionary
281
     1
  3
*A1
350
49
  0
XRECORD
  5
B1
102
{ACAD_REACTORS
330
5
102
}
330
5
100
AcDbXrecord
280
     1
  1
DWGPROPS COOKIE
  2

  3

  4

  6

  7

  8
wno
  9

300
=
301
=
302
=
303
=
304
=
305
=
306
=
307
=
308
=
309
=
 40
0.0
 41
2460000.748436991
 42
2460000.752627303
  1

 90
        0
  0
DICTIONARY
  5
B0
102
{ACAD_REACTORS
330
AF
102
}
330
AF
100
AcDbDictionary
281
     1
  0
LAYOUT
  5
1B
102
{ACAD_REACTORS
330
17
330
17
102
}
330
17
100
AcDbPlotSettings
  1

  2
none_device
  4

  6

 40
0.0
 41
0.0
 42
0.0
 43
0.0
 44
0.0
 45
0.0
 46
0.0
 47
0.0
 48
0.0
 49
0.0
140
0.0
141
0.0
142
1.0
143
1.0
 70
   688
 72
     0
 73
     0
 74
     5
  7

 75
    16
147
1.0
148
0.0
149
0.0
100
AcDbLayout
  1
Blatt1
 70
     1
 71
     1
 10
0.0
 20
0.0
 11
0.0
 21
0.0
 12
0.0
 22
0.0
 32
0.0
 14
1.000000000000000E+20
 24
1.000000000000000E+20
 34
1.000000000000000E+20
 15
-1.000000000000000E+20
 25
-1.000000000000000E+20
 35
-1.000000000000000E+20
146
0.0
 13
0.0
 23
0.0
 33
0.0
 16
1.0
 26
0.0
 36
0.0
 17
0.0
 27
1.0
 37
0.0
 76
     0
330
18
  0
LAYOUT
  5
16
102
{ACAD_REACTORS
330
17
330
17
102
}
330
17
100
AcDbPlotSettings
  1

  2
none_device
  4
Letter_(8.50_x_11.00_Inches)
  6

 40
6.35
 41
6.35
 42
6.35
 43
6.35
 44
215.9
 45
279.4
 46
0.0
 47
0.0
 48
0.0
 49
0.0
140
0.0
141
0.0
142
1.0
143
1.0
 70
  1712
 72
     0
 73
     0
 74
     0
  7

 75
     0
147
1.0
148
0.0
149
0.0
100
AcDbLayout
  1
Model
 70
     1
 71
     0
 10
0.0
 20
0.0
 11
12.0
 21
9.0
 12
0.0
 22
0.0
 32
0.0
 14
0.0000543091999816
 24
-0.0000353189999771
 34
0.0
 15
594.0000543092
 25
419.9999646809999
 35
0.0
146
0.0
 13
0.0
 23
0.0
 33
0.0
 16
1.0
 26
0.0
 36
0.0
 17
0.0
 27
1.0
 37
0.0
 76
     0
330
13
331
24
  0
MLINESTYLE
  5
10
102
{ACAD_REACTORS
330
11
102
}
330
11
100
AcDbMlineStyle
  2
Standard
 70
     0
  3

 62
   256
 51
90.0
 52
90.0
 71
     2
 49
0.5
 62
   256
  6
BYLAYER
 49
-0.5
 62
   256
  6
BYLAYER
  0
ACDBPLACEHOLDER
  5
3
102
{ACAD_REACTORS
330
4
102
}
330
4
  0
SCALE
  5
49
102
{ACAD_REACTORS
330
27
102
}
330
27
100
AcDbScale
 70
     0
300
1:1
140
1.0
141
1.0
290
     1
  0
ENDSEC
  0
EOF
