  0
SECTION
  2
HEADER
  9
$ACADVER
  1
AC1032
  9
$ACADMAINTVER
 90
      174
  9
$DWGCODEPAGE
  3
ANSI_1252
  9
$LASTSAVEDBY
  1
BeoCAD
  9
$REQUIREDVERSIONS
160
                 0
  9
$INSBASE
 10
0.0
 20
0.0
 30
0.0
  9
$EXTMIN
 10
-38.39265362830161
 20
-64.76731577602954
 30
0.0
  9
$EXTMAX
 10
135.8272997356742
 20
11.2106
 30
0.0
  9
$LIMMIN
 10
0.0
 20
0.0
  9
$LIMMAX
 10
12.0
 20
9.0
  9
$ORTHOMODE
 70
     0
  9
$REGENMODE
 70
     1
  9
$FILLMODE
 70
     1
  9
$QTEXTMODE
 70
     0
  9
$MIRRTEXT
 70
     1
  9
$LTSCALE
 40
1.0
  9
$ATTMODE
 70
     1
  9
$TEXTSIZE
 40
0.2
  9
$TRACEWID
 40
0.05
  9
$TEXTSTYLE
  7
Standard
  9
$CLAYER
  8
0
  9
$CELTYPE
  6
ByLayer
  9
$CECOLOR
 62
   256
  9
$CELTSCALE
 40
1.0
  9
$DISPSILH
 70
     0
  9
$DIMSCALE
 40
1.0
  9
$DIMASZ
 40
0.18
  9
$DIMEXO
 40
0.0625
  9
$DIMDLI
 40
0.38
  9
$DIMRND
 40
0.0
  9
$DIMDLE
 40
0.0
  9
$DIMEXE
 40
0.18
  9
$DIMTP
 40
0.0
  9
$DIMTM
 40
0.0
  9
$DIMTXT
 40
0.18
  9
$DIMCEN
 40
0.09
  9
$DIMTSZ
 40
0.0
  9
$DIMTOL
 70
     0
  9
$DIMLIM
 70
     0
  9
$DIMTIH
 70
     1
  9
$DIMTOH
 70
     1
  9
$DIMSE1
 70
     0
  9
$DIMSE2
 70
     0
  9
$DIMTAD
 70
     0
  9
$DIMZIN
 70
     0
  9
$DIMBLK
  1

  9
$DIMASO
 70
     1
  9
$DIMSHO
 70
     1
  9
$DIMPOST
  1

  9
$DIMAPOST
  1

  9
$DIMALT
 70
     0
  9
$DIMALTD
 70
     2
  9
$DIMALTF
 40
25.4
  9
$DIMLFAC
 40
1.0
  9
$DIMTOFL
 70
     0
  9
$DIMTVP
 40
0.0
  9
$DIMTIX
 70
     0
  9
$DIMSOXD
 70
     0
  9
$DIMSAH
 70
     0
  9
$DIMBLK1
  1

  9
$DIMBLK2
  1

  9
$DIMSTYLE
  2
Standard
  9
$DIMCLRD
 70
     0
  9
$DIMCLRE
 70
     0
  9
$DIMCLRT
 70
     0
  9
$DIMTFAC
 40
1.0
  9
$DIMGAP
 40
0.09
  9
$DIMJUST
 70
     0
  9
$DIMSD1
 70
     0
  9
$DIMSD2
 70
     0
  9
$DIMTOLJ
 70
     1
  9
$DIMTZIN
 70
     0
  9
$DIMALTZ
 70
     0
  9
$DIMALTTZ
 70
     0
  9
$DIMUPT
 70
     0
  9
$DIMDEC
 70
     4
  9
$DIMTDEC
 70
     4
  9
$DIMALTU
 70
     2
  9
$DIMALTTD
 70
     2
  9
$DIMTXSTY
  7
Standard
  9
$DIMAUNIT
 70
     0
  9
$DIMADEC
 70
     0
  9
$DIMALTRND
 40
0.0
  9
$DIMAZIN
 70
     0
  9
$DIMDSEP
 70
    46
  9
$DIMATFIT
 70
     3
  9
$DIMFRAC
 70
     0
  9
$DIMLDRBLK
  1

  9
$DIMLUNIT
 70
     2
  9
$DIMLWD
 70
    -2
  9
$DIMLWE
 70
    -2
  9
$DIMTMOVE
 70
     0
  9
$DIMFXL
 40
1.0
  9
$DIMFXLON
 70
     0
  9
$DIMJOGANG
 40
0.7853981633974483
  9
$DIMTFILL
 70
     0
  9
$DIMTFILLCLR
 70
     0
  9
$DIMARCSYM
 70
     0
  9
$DIMLTYPE
  6

  9
$DIMLTEX1
  6

  9
$DIMLTEX2
  6

  9
$DIMTXTDIRECTION
 70
     0
  9
$LUNITS
 70
     2
  9
$LUPREC
 70
     4
  9
$SKETCHINC
 40
0.1
  9
$FILLETRAD
 40
0.5
  9
$AUNITS
 70
     0
  9
$AUPREC
 70
     0
  9
$MENU
  1
.
  9
$ELEVATION
 40
0.0
  9
$PELEVATION
 40
0.0
  9
$THICKNESS
 40
0.0
  9
$LIMCHECK
 70
     0
  9
$CHAMFERA
 40
0.0
  9
$CHAMFERB
 40
0.0
  9
$CHAMFERC
 40
0.0
  9
$CHAMFERD
 40
0.0
  9
$SKPOLY
 70
     0
  9
$TDCREATE
 40
2459012.648645833
  9
$TDUCREATE
 40
2459012.565313785
  9
$TDUPDATE
 40
2459012.671550926
  9
$TDUUPDATE
 40
2459012.588217593
  9
$TDINDWG
 40
0.0222569560
  9
$TDUSRTIMER
 40
0.0222569560
  9
$USRTIMER
 70
     1
  9
$ANGBASE
 50
0.0
  9
$ANGDIR
 70
     0
  9
$PDMODE
 70
     0
  9
$PDSIZE
 40
0.0
  9
$PLINEWID
 40
0.0
  9
$SPLFRAME
 70
     0
  9
$SPLINETYPE
 70
     6
  9
$SPLINESEGS
 70
     8
  9
$HANDSEED
  5
138
  9
$SURFTAB1
 70
     6
  9
$SURFTAB2
 70
     6
  9
$SURFTYPE
 70
     6
  9
$SURFU
 70
     6
  9
$SURFV
 70
     6
  9
$UCSBASE
  2

  9
$UCSNAME
  2

  9
$UCSORG
 10
0.0
 20
0.0
 30
0.0
  9
$UCSXDIR
 10
1.0
 20
0.0
 30
0.0
  9
$UCSYDIR
 10
0.0
 20
1.0
 30
0.0
  9
$UCSORTHOREF
  2

  9
$UCSORTHOVIEW
 70
     0
  9
$UCSORGTOP
 10
0.0
 20
0.0
 30
0.0
  9
$UCSORGBOTTOM
 10
0.0
 20
0.0
 30
0.0
  9
$UCSORGLEFT
 10
0.0
 20
0.0
 30
0.0
  9
$UCSORGRIGHT
 10
0.0
 20
0.0
 30
0.0
  9
$UCSORGFRONT
 10
0.0
 20
0.0
 30
0.0
  9
$UCSORGBACK
 10
0.0
 20
0.0
 30
0.0
  9
$PUCSBASE
  2

  9
$PUCSNAME
  2

  9
$PUCSORG
 10
0.0
 20
0.0
 30
0.0
  9
$PUCSXDIR
 10
1.0
 20
0.0
 30
0.0
  9
$PUCSYDIR
 10
0.0
 20
1.0
 30
0.0
  9
$PUCSORTHOREF
  2

  9
$PUCSORTHOVIEW
 70
     0
  9
$PUCSORGTOP
 10
0.0
 20
0.0
 30
0.0
  9
$PUCSORGBOTTOM
 10
0.0
 20
0.0
 30
0.0
  9
$PUCSORGLEFT
 10
0.0
 20
0.0
 30
0.0
  9
$PUCSORGRIGHT
 10
0.0
 20
0.0
 30
0.0
  9
$PUCSORGFRONT
 10
0.0
 20
0.0
 30
0.0
  9
$PUCSORGBACK
 10
0.0
 20
0.0
 30
0.0
  9
$USERI1
 70
     0
  9
$USERI2
 70
     0
  9
$USERI3
 70
     0
  9
$USERI4
 70
     0
  9
$USERI5
 70
     0
  9
$USERR1
 40
0.0
  9
$USERR2
 40
0.0
  9
$USERR3
 40
0.0
  9
$USERR4
 40
0.0
  9
$USERR5
 40
0.0
  9
$WORLDVIEW
 70
     1
  9
$SHADEDGE
 70
     3
  9
$SHADEDIF
 70
    70
  9
$TILEMODE
 70
     1
  9
$MAXACTVP
 70
    64
  9
$PINSBASE
 10
0.0
 20
0.0
 30
0.0
  9
$PLIMCHECK
 70
     0
  9
$PEXTMIN
 10
1.000000000000000E+20
 20
1.000000000000000E+20
 30
1.000000000000000E+20
  9
$PEXTMAX
 10
-1.000000000000000E+20
 20
-1.000000000000000E+20
 30
-1.000000000000000E+20
  9
$PLIMMIN
 10
0.0
 20
0.0
  9
$PLIMMAX
 10
12.0
 20
9.0
  9
$UNITMODE
 70
     0
  9
$VISRETAIN
 70
     1
  9
$PLINEGEN
 70
     0
  9
$PSLTSCALE
 70
     1
  9
$TREEDEPTH
 70
  3020
  9
$CMLSTYLE
  2
Standard
  9
$CMLJUST
 70
     0
  9
$CMLSCALE
 40
1.0
  9
$PROXYGRAPHICS
 70
     1
  9
$MEASUREMENT
 70
     0
  9
$CELWEIGHT
370
    -1
  9
$ENDCAPS
280
     0
  9
$JOINSTYLE
280
     0
  9
$LWDISPLAY
290
     0
  9
$INSUNITS
 70
     4
  9
$HYPERLINKBASE
  1

  9
$STYLESHEET
  1

  9
$XEDIT
290
     1
  9
$CEPSNTYPE
380
     0
  9
$PSTYLEMODE
290
     1
  9
$FINGERPRINTGUID
  2
{8079A3A8-6C52-4AC0-BB79-46B5F29FD5E6}
  9
$VERSIONGUID
  2
{A3517274-CA00-AD46-ADFF-8530EFB6237F}
  9
$EXTNAMES
290
     1
  9
$PSVPSCALE
 40
0.0
  9
$OLESTARTUP
290
     0
  9
$SORTENTS
280
   127
  9
$INDEXCTL
280
     0
  9
$HIDETEXT
280
     1
  9
$XCLIPFRAME
280
     2
  9
$HALOGAP
280
     0
  9
$OBSCOLOR
 70
   257
  9
$OBSLTYPE
280
     0
  9
$INTERSECTIONDISPLAY
280
     0
  9
$INTERSECTIONCOLOR
 70
   257
  9
$DIMASSOC
280
     2
  9
$PROJECTNAME
  1

  9
$CAMERADISPLAY
290
     0
  9
$LENSLENGTH
 40
50.0
  9
$CAMERAHEIGHT
 40
0.0
  9
$STEPSPERSEC
 40
2.0
  9
$STEPSIZE
 40
6.0
  9
$3DDWFPREC
 40
2.0
  9
$PSOLWIDTH
 40
0.25
  9
$PSOLHEIGHT
 40
4.0
  9
$LOFTANG1
 40
1.570796326794897
  9
$LOFTANG2
 40
1.570796326794897
  9
$LOFTMAG1
 40
0.0
  9
$LOFTMAG2
 40
0.0
  9
$LOFTPARAM
 70
     7
  9
$LOFTNORMALS
280
     1
  9
$LATITUDE
 40
37.795
  9
$LONGITUDE
 40
-122.394
  9
$NORTHDIRECTION
 40
0.0
  9
$TIMEZONE
 70
 -8000
  9
$LIGHTGLYPHDISPLAY
280
     1
  9
$TILEMODELIGHTSYNCH
280
     1
  9
$CMATERIAL
347
44
  9
$SOLIDHIST
280
     0
  9
$SHOWHIST
280
     1
  9
$DWFFRAME
280
     2
  9
$DGNFRAME
280
     2
  9
$REALWORLDSCALE
290
     1
  9
$INTERFERECOLOR
 62
   256
  9
$INTERFEREOBJVS
345
33
  9
$INTERFEREVPVS
346
30
  9
$CSHADOW
280
     0
  9
$SHADOWPLANELOCATION
 40
0.0
  0
ENDSEC
  0
SECTION
  2
CLASSES
  0
CLASS
  1
ACDBDICTIONARYWDFLT
  2
AcDbDictionaryWithDefault
  3
ObjectDBX Classes
 90
        0
 91
        1
280
     0
281
     0
  0
CLASS
  1
VISUALSTYLE
  2
AcDbVisualStyle
  3
ObjectDBX Classes
 90
     4095
 91
       24
280
     0
281
     0
  0
CLASS
  1
MATERIAL
  2
AcDbMaterial
  3
ObjectDBX Classes
 90
     1153
 91
        3
280
     0
281
     0
  0
CLASS
  1
SCALE
  2
AcDbScale
  3
ObjectDBX Classes
 90
     1153
 91
       33
280
     0
281
     0
  0
CLASS
  1
TABLESTYLE
  2
AcDbTableStyle
  3
ObjectDBX Classes
 90
     4095
 91
        1
280
     0
281
     0
  0
CLASS
  1
MLEADERSTYLE
  2
AcDbMLeaderStyle
  3
ACDB_MLEADERSTYLE_CLASS
 90
     4095
 91
        1
280
     0
281
     0
  0
CLASS
  1
SUN
  2
AcDbSun
  3
SCENEOE
 90
     1153
 91
        1
280
     0
281
     0
  0
CLASS
  1
DICTIONARYVAR
  2
AcDbDictionaryVar
  3
ObjectDBX Classes
 90
        0
 91
        8
280
     0
281
     0
  0
CLASS
  1
CELLSTYLEMAP
  2
AcDbCellStyleMap
  3
ObjectDBX Classes
 90
     1152
 91
        2
280
     0
281
     0
  0
CLASS
  1
ACDBSECTIONVIEWSTYLE
  2
AcDbSectionViewStyle
  3
ObjectDBX Classes
 90
     1025
 91
        1
280
     0
281
     0
  0
CLASS
  1
ACDBDETAILVIEWSTYLE
  2
AcDbDetailViewStyle
  3
ObjectDBX Classes
 90
     1025
 91
        1
280
     0
281
     0
  0
ENDSEC
  0
SECTION
  2
TABLES
  0
TABLE
  2
VPORT
  5
8
330
0
100
AcDbSymbolTable
 70
     1
  0
VPORT
  5
29
330
8
100
AcDbSymbolTableRecord
100
AcDbViewportTableRecord
  2
*Active
 70
     0
 10
0.0
 20
0.0
 11
1.0
 21
1.0
 12
56.34487599795605
 22
-18.08738258902231
 13
0.0
 23
0.0
 14
0.5
 24
0.5
 15
0.5
 25
0.5
 16
0.0
 26
0.0
 36
1.0
 17
0.0
 27
0.0
 37
0.0
 40
130.1440758564424
 41
2.671406003159557
 42
50.0
 43
0.0
 44
0.0
 50
0.0
 51
0.0
 71
     0
 72
   100
 73
     1
 74
     3
 75
     0
 76
     0
 77
     0
 78
     0
281
     0
 65
     1
110
0.0
120
0.0
130
0.0
111
1.0
121
0.0
131
0.0
112
0.0
122
1.0
132
0.0
 79
     0
146
0.0
348
2F
 60
     3
 61
     5
292
     1
282
     1
141
0.0
142
0.0
 63
   250
421
  3355443
361
6D
1001
ACAD_NAV_VCDISPLAY
1070
     3
  0
ENDTAB
  0
TABLE
  2
LTYPE
  5
5
330
0
100
AcDbSymbolTable
 70
     1
  0
LTYPE
  5
14
330
5
100
AcDbSymbolTableRecord
100
AcDbLinetypeTableRecord
  2
ByBlock
 70
     0
  3

 72
    65
 73
     0
 40
0.0
  0
LTYPE
  5
15
330
5
100
AcDbSymbolTableRecord
100
AcDbLinetypeTableRecord
  2
ByLayer
 70
     0
  3

 72
    65
 73
     0
 40
0.0
  0
LTYPE
  5
16
330
5
100
AcDbSymbolTableRecord
100
AcDbLinetypeTableRecord
  2
Continuous
 70
     0
  3
Solid line
 72
    65
 73
     0
 40
0.0
  0
ENDTAB
  0
TABLE
  2
LAYER
  5
2
102
{ACAD_XDICTIONARY
360
F7
102
}
330
0
100
AcDbSymbolTable
 70
     3
  0
LAYER
  5
10
102
{ACAD_XDICTIONARY
360
F0
102
}
330
2
100
AcDbSymbolTableRecord
100
AcDbLayerTableRecord
  2
0
 70
     0
 62
     7
  6
Continuous
370
    -3
390
F
347
46
348
0
  0
LAYER
  5
6F
102
{ACAD_XDICTIONARY
360
F2
102
}
330
2
100
AcDbSymbolTableRecord
100
AcDbLayerTableRecord
  2
Ebene 1
 70
     0
 62
     7
  6
Continuous
370
    -3
390
F
347
46
348
0
  0
LAYER
  5
107
102
{ACAD_XDICTIONARY
360
108
102
}
330
2
100
AcDbSymbolTableRecord
100
AcDbLayerTableRecord
  2
H1_HILFSLINIE
 70
     0
 62
   253
  6
Continuous
370
    -3
390
F
347
46
348
0
  0
ENDTAB
  0
TABLE
  2
STYLE
  5
3
330
0
100
AcDbSymbolTable
 70
     1
  0
STYLE
  5
11
330
3
100
AcDbSymbolTableRecord
100
AcDbTextStyleTableRecord
  2
Standard
 70
     0
 40
0.0
 41
1.0
 50
0.0
 71
     0
 42
0.2
  3
txt
  4

  0
ENDTAB
  0
TABLE
  2
VIEW
  5
6
330
0
100
AcDbSymbolTable
 70
     0
  0
ENDTAB
  0
TABLE
  2
UCS
  5
7
330
0
100
AcDbSymbolTable
 70
     0
  0
ENDTAB
  0
TABLE
  2
APPID
  5
9
330
0
100
AcDbSymbolTable
 70
     5
  0
APPID
  5
12
330
9
100
AcDbSymbolTableRecord
100
AcDbRegAppTableRecord
  2
ACAD
 70
     0
  0
APPID
  5
6E
330
9
100
AcDbSymbolTableRecord
100
AcDbRegAppTableRecord
  2
ODA
 70
     0
  0
APPID
  5
D7
330
9
100
AcDbSymbolTableRecord
100
AcDbRegAppTableRecord
  2
ACAD_MLEADERVER
 70
     0
  0
APPID
  5
E7
330
9
100
AcDbSymbolTableRecord
100
AcDbRegAppTableRecord
  2
ACAD_NAV_VCDISPLAY
 70
     0
  0
APPID
  5
109
330
9
100
AcDbSymbolTableRecord
100
AcDbRegAppTableRecord
  2
RevcloudProps
 70
     0
  0
ENDTAB
  0
TABLE
  2
DIMSTYLE
  5
A
330
0
100
AcDbSymbolTable
 70
     1
100
AcDbDimStyleTable
 71
     0
  0
DIMSTYLE
105
27
330
A
100
AcDbSymbolTableRecord
100
AcDbDimStyleTableRecord
  2
Standard
 70
     0
340
11
  0
ENDTAB
  0
TABLE
  2
BLOCK_RECORD
  5
1
330
0
100
AcDbSymbolTable
 70
     2
  0
BLOCK_RECORD
  5
1F
330
1
100
AcDbSymbolTableRecord
100
AcDbBlockTableRecord
  2
*Model_Space
340
22
 70
     0
280
     1
281
     0
  0
BLOCK_RECORD
  5
1B
330
1
100
AcDbSymbolTableRecord
100
AcDbBlockTableRecord
  2
*Paper_Space
340
1E
 70
     0
280
     1
281
     0
  0
BLOCK_RECORD
  5
23
330
1
100
AcDbSymbolTableRecord
100
AcDbBlockTableRecord
  2
*Paper_Space0
340
26
 70
     0
280
     1
281
     0
  0
ENDTAB
  0
ENDSEC
  0
SECTION
  2
BLOCKS
  0
BLOCK
  5
20
330
1F
100
AcDbEntity
  8
0
100
AcDbBlockBegin
  2
*Model_Space
 70
     0
 10
0.0
 20
0.0
 30
0.0
  3
*Model_Space
  1

  0
ENDBLK
  5
21
330
1F
100
AcDbEntity
  8
0
100
AcDbBlockEnd
  0
BLOCK
  5
1C
330
1B
100
AcDbEntity
 67
     1
  8
0
100
AcDbBlockBegin
  2
*Paper_Space
 70
     0
 10
0.0
 20
0.0
 30
0.0
  3
*Paper_Space
  1

  0
ENDBLK
  5
1D
330
1B
100
AcDbEntity
 67
     1
  8
0
100
AcDbBlockEnd
  0
BLOCK
  5
24
330
23
100
AcDbEntity
 67
     1
  8
0
100
AcDbBlockBegin
  2
*Paper_Space0
 70
     0
 10
0.0
 20
0.0
 30
0.0
  3
*Paper_Space0
  1

  0
ENDBLK
  5
25
330
23
100
AcDbEntity
 67
     1
  8
0
100
AcDbBlockEnd
  0
ENDSEC
  0
SECTION
  2
ENTITIES
  0
SPLINE
  5
70
330
1F
100
AcDbEntity
  8
Ebene 1
 62
     4
100
AcDbSpline
210
0.0
220
0.0
230
1.0
 70
     9
 71
     3
 72
    17
 73
    13
 74
     0
 42
0.000000001
 43
0.0000000001
 40
0.0
 40
0.0
 40
0.0
 40
0.0
 40
0.25
 40
0.25
 40
0.25
 40
0.5
 40
0.5
 40
0.5
 40
0.75
 40
0.75
 40
0.75
 40
1.0
 40
1.0
 40
1.0
 40
1.0
 10
10.9037
 20
3.058399999999998
 30
0.0
 10
10.9037
 20
3.9123
 30
0.0
 10
11.0441
 20
4.706699999999998
 30
0.0
 10
11.6759
 20
5.011099999999998
 30
0.0
 10
12.6352
 20
5.463999999999998
 30
0.0
 10
15.7238
 20
5.4343
 30
0.0
 10
16.613
 20
5.040799999999999
 30
0.0
 10
17.2915
 20
4.7438
 30
0.0
 10
17.3851
 20
3.934499999999998
 30
0.0
 10
17.3617
 20
3.058399999999998
 30
0.0
 10
17.3617
 20
3.058399999999998
 30
0.0
 10
10.9037
 20
3.058399999999998
 30
0.0
 10
10.9037
 20
3.058399999999998
 30
0.0
  0
SPLINE
  5
72
330
1F
100
AcDbEntity
  8
Ebene 1
 62
     4
100
AcDbSpline
210
0.0
220
0.0
230
1.0
 70
     9
 71
     3
 72
    53
 73
    49
 74
     0
 42
0.000000001
 43
0.0000000001
 40
0.0
 40
0.0
 40
0.0
 40
0.0
 40
0.0625
 40
0.0625
 40
0.0625
 40
0.125
 40
0.125
 40
0.125
 40
0.1875
 40
0.1875
 40
0.1875
 40
0.25
 40
0.25
 40
0.25
 40
0.3125
 40
0.3125
 40
0.3125
 40
0.375
 40
0.375
 40
0.375
 40
0.4375
 40
0.4375
 40
0.4375
 40
0.5
 40
0.5
 40
0.5
 40
0.5625
 40
0.5625
 40
0.5625
 40
0.625
 40
0.625
 40
0.625
 40
0.6875
 40
0.6875
 40
0.6875
 40
0.75
 40
0.75
 40
0.75
 40
0.8125
 40
0.8125
 40
0.8125
 40
0.875
 40
0.875
 40
0.875
 40
0.9375
 40
0.9375
 40
0.9375
 40
1.0
 40
1.0
 40
1.0
 40
1.0
 10
20.8949
 20
0.2742
 30
0.0
 10
20.8949
 20
0.2742
 30
0.0
 10
17.3383
 20
0.2742
 30
0.0
 10
17.3383
 20
0.2742
 30
0.0
 10
17.2915
 20
-0.149
 30
0.0
 10
17.2915
 20
-0.4608
 30
0.0
 10
17.0341
 20
-0.7504
 30
0.0
 10
16.7767
 20
-1.025099999999999
 30
0.0
 10
16.5194
 20
-1.0919
 30
0.0
 10
16.0748
 20
-1.1587
 30
0.0
 10
15.3026
 20
-1.284899999999999
 30
0.0
 10
14.2965
 20
-1.2998
 30
0.0
 10
13.4776
 20
-1.2552
 30
0.0
 10
11.3483
 20
-1.143899999999999
 30
0.0
 10
10.7633
 20
-0.6316000000000001
 30
0.0
 10
10.8569
 20
1.573499999999999
 30
0.0
 10
10.8569
 20
1.573499999999999
 30
0.0
 10
20.8949
 20
1.580999999999999
 30
0.0
 10
20.8949
 20
1.580999999999999
 30
0.0
 10
20.8949
 20
2.508999999999999
 30
0.0
 10
20.8949
 20
3.407399999999998
 30
0.0
 10
20.6843
 20
4.2686
 30
0.0
 10
20.4737
 20
5.0705
 30
0.0
 10
20.0993
 20
5.723799999999998
 30
0.0
 10
19.608
 20
6.0876
 30
0.0
 10
18.5082
 20
6.9043
 30
0.0
 10
16.379
 20
7.089999999999998
 30
0.0
 10
14.8347
 20
7.0974
 30
0.0
 10
12.799
 20
7.112199999999998
 30
0.0
 10
9.078599999999999
 20
7.2087
 30
0.0
 10
7.908699999999998
 20
5.3452
 30
0.0
 10
6.996199999999999
 20
3.852899999999998
 30
0.0
 10
7.042999999999998
 20
0.9275999999999999
 30
0.0
 10
7.651299999999999
 20
-0.7355000000000002
 30
0.0
 10
8.072499999999998
 20
-1.864
 30
0.0
 10
8.821199999999997
 20
-2.354
 30
0.0
 10
10.0848
 20
-2.6585
 30
0.0
 10
10.9037
 20
-2.8589
 30
0.0
 10
11.7929
 20
-2.9554
 30
0.0
 10
12.6586
 20
-3.0
 30
0.0
 10
14.3901
 20
-3.0891
 30
0.0
 10
16.4258
 20
-3.0817
 30
0.0
 10
18.0637
 20
-2.703
 30
0.0
 10
19.14
 20
-2.458
 30
0.0
 10
20.2865
 20
-1.990199999999999
 30
0.0
 10
20.7077
 20
-1.002799999999999
 30
0.0
 10
20.9417
 20
-0.4979
 30
0.0
 10
20.8481
 20
-0.2603
 30
0.0
 10
20.8949
 20
0.2742
 30
0.0
  0
SPLINE
  5
74
330
1F
100
AcDbEntity
  8
Ebene 1
 62
     4
100
AcDbSpline
210
0.0
220
0.0
230
1.0
 70
     9
 71
     3
 72
    77
 73
    73
 74
     0
 42
0.000000001
 43
0.0000000001
 40
0.0
 40
0.0
 40
0.0
 40
0.0
 40
0.0416666666666667
 40
0.0416666666666667
 40
0.0416666666666667
 40
0.0833333333333333
 40
0.0833333333333333
 40
0.0833333333333333
 40
0.125
 40
0.125
 40
0.125
 40
0.1666666666666667
 40
0.1666666666666667
 40
0.1666666666666667
 40
0.2083333333333333
 40
0.2083333333333333
 40
0.2083333333333333
 40
0.25
 40
0.25
 40
0.25
 40
0.2916666666666666
 40
0.2916666666666666
 40
0.2916666666666666
 40
0.3333333333333333
 40
0.3333333333333333
 40
0.3333333333333333
 40
0.375
 40
0.375
 40
0.375
 40
0.4166666666666666
 40
0.4166666666666666
 40
0.4166666666666666
 40
0.4583333333333333
 40
0.4583333333333333
 40
0.4583333333333333
 40
0.5
 40
0.5
 40
0.5
 40
0.5416666666666666
 40
0.5416666666666666
 40
0.5416666666666666
 40
0.5833333333333333
 40
0.5833333333333333
 40
0.5833333333333333
 40
0.625
 40
0.625
 40
0.625
 40
0.6666666666666666
 40
0.6666666666666666
 40
0.6666666666666666
 40
0.7083333333333333
 40
0.7083333333333333
 40
0.7083333333333333
 40
0.75
 40
0.75
 40
0.75
 40
0.7916666666666666
 40
0.7916666666666666
 40
0.7916666666666666
 40
0.8333333333333332
 40
0.8333333333333332
 40
0.8333333333333332
 40
0.875
 40
0.875
 40
0.875
 40
0.9166666666666666
 40
0.9166666666666666
 40
0.9166666666666666
 40
0.9583333333333332
 40
0.9583333333333332
 40
0.9583333333333332
 40
1.0
 40
1.0
 40
1.0
 40
1.0
 10
25.7384
 20
7.030599999999998
 30
0.0
 10
25.7384
 20
7.030599999999998
 30
0.0
 10
21.9478
 20
7.030599999999998
 30
0.0
 10
21.9478
 20
7.030599999999998
 30
0.0
 10
21.9712
 20
6.889499999999999
 30
0.0
 10
25.2236
 20
0.2891
 30
0.0
 10
25.5746
 20
-0.4608
 30
0.0
 10
25.5746
 20
-0.4608
 30
0.0
 10
26.4871
 20
-2.316899999999999
 30
0.0
 10
26.4871
 20
-2.316899999999999
 30
0.0
 10
26.5339
 20
-2.4209
 30
0.0
 10
26.5807
 20
-2.524799999999999
 30
0.0
 10
26.6509
 20
-2.6362
 30
0.0
 10
26.7211
 20
-2.784699999999998
 30
0.0
 10
26.7445
 20
-2.888599999999998
 30
0.0
 10
26.8381
 20
-2.910899999999998
 30
0.0
 10
26.8381
 20
-2.910899999999998
 30
0.0
 10
28.59300000000001
 20
-2.8589
 30
0.0
 10
28.59300000000001
 20
-2.8589
 30
0.0
 10
28.4292
 20
-3.749899999999998
 30
0.0
 10
27.9846
 20
-4.514599999999998
 30
0.0
 10
27.4933
 20
-4.930399999999998
 30
0.0
 10
26.7679
 20
-5.553999999999998
 30
0.0
 10
26.1128
 20
-5.591099999999999
 30
0.0
 10
24.9428
 20
-5.5021
 30
0.0
 10
24.9428
 20
-5.8287
 30
0.0
 10
24.896
 20
-7.038899999999999
 30
0.0
 10
24.9662
 20
-7.2617
 30
0.0
 10
25.949
 20
-7.350799999999998
 30
0.0
 10
27.0487
 20
-7.350799999999998
 30
0.0
 10
28.008
 20
-7.2171
 30
0.0
 10
29.5289
 20
-7.009199999999998
 30
0.0
 10
30.2543
 20
-6.5712
 30
0.0
 10
31.0264
 20
-5.5095
 30
0.0
 10
31.6348
 20
-4.685399999999998
 30
0.0
 10
32.1262
 20
-3.2153
 30
0.0
 10
32.5006
 20
-2.2427
 30
0.0
 10
33.0621
 20
-0.7058
 30
0.0
 10
33.6471
 20
0.8310999999999999
 30
0.0
 10
34.2086
 20
2.3605
 30
0.0
 10
34.4894
 20
3.132699999999998
 30
0.0
 10
34.7702
 20
3.9197
 30
0.0
 10
35.0744
 20
4.676999999999998
 30
0.0
 10
35.1914
 20
4.966499999999999
 30
0.0
 10
35.8933
 20
6.815199999999999
 30
0.0
 10
35.9167
 20
6.971199999999998
 30
0.0
 10
35.9167
 20
6.971199999999998
 30
0.0
 10
32.29
 20
6.971199999999998
 30
0.0
 10
32.29
 20
6.971199999999998
 30
0.0
 10
32.173
 20
6.6668
 30
0.0
 10
32.0326
 20
6.2361
 30
0.0
 10
31.939
 20
5.9095
 30
0.0
 10
31.354
 20
4.179499999999999
 30
0.0
 10
30.7223
 20
2.4199
 30
0.0
 10
30.1373
 20
0.7123000000000001
 30
0.0
 10
30.0437
 20
0.3633
 30
0.0
 10
29.5757
 20
-1.2552
 30
0.0
 10
29.4587
 20
-1.403699999999999
 30
0.0
 10
29.3418
 20
-1.336899999999998
 30
0.0
 10
29.061
 20
-0.5499000000000001
 30
0.0
 10
28.9674
 20
-0.3717
 30
0.0
 10
28.827
 20
-0.0153
 30
0.0
 10
28.6866
 20
0.3411
 30
0.0
 10
28.5228
 20
0.7049
 30
0.0
 10
28.2186
 20
1.4028
 30
0.0
 10
27.891
 20
2.108099999999998
 30
0.0
 10
27.5869
 20
2.8208
 30
0.0
 10
27.5869
 20
2.8208
 30
0.0
 10
26.2063
 20
6.006
 30
0.0
 10
26.2063
 20
6.006
 30
0.0
 10
26.0894
 20
6.251
 30
0.0
 10
25.8554
 20
6.8524
 30
0.0
 10
25.7384
 20
7.030599999999998
 30
0.0
  0
SPLINE
  5
76
330
1F
100
AcDbEntity
  8
Ebene 1
 62
     4
100
AcDbSpline
210
0.0
220
0.0
230
1.0
 70
     9
 71
     3
 72
    77
 73
    73
 74
     0
 42
0.000000001
 43
0.0000000001
 40
0.0
 40
0.0
 40
0.0
 40
0.0
 40
0.0416666666666667
 40
0.0416666666666667
 40
0.0416666666666667
 40
0.0833333333333333
 40
0.0833333333333333
 40
0.0833333333333333
 40
0.125
 40
0.125
 40
0.125
 40
0.1666666666666667
 40
0.1666666666666667
 40
0.1666666666666667
 40
0.2083333333333333
 40
0.2083333333333333
 40
0.2083333333333333
 40
0.25
 40
0.25
 40
0.25
 40
0.2916666666666666
 40
0.2916666666666666
 40
0.2916666666666666
 40
0.3333333333333333
 40
0.3333333333333333
 40
0.3333333333333333
 40
0.375
 40
0.375
 40
0.375
 40
0.4166666666666666
 40
0.4166666666666666
 40
0.4166666666666666
 40
0.4583333333333333
 40
0.4583333333333333
 40
0.4583333333333333
 40
0.5
 40
0.5
 40
0.5
 40
0.5416666666666666
 40
0.5416666666666666
 40
0.5416666666666666
 40
0.5833333333333333
 40
0.5833333333333333
 40
0.5833333333333333
 40
0.625
 40
0.625
 40
0.625
 40
0.6666666666666666
 40
0.6666666666666666
 40
0.6666666666666666
 40
0.7083333333333333
 40
0.7083333333333333
 40
0.7083333333333333
 40
0.75
 40
0.75
 40
0.75
 40
0.7916666666666666
 40
0.7916666666666666
 40
0.7916666666666666
 40
0.8333333333333332
 40
0.8333333333333332
 40
0.8333333333333332
 40
0.875
 40
0.875
 40
0.875
 40
0.9166666666666666
 40
0.9166666666666666
 40
0.9166666666666666
 40
0.9583333333333332
 40
0.9583333333333332
 40
0.9583333333333332
 40
1.0
 40
1.0
 40
1.0
 40
1.0
 10
-8.774399999999998
 20
-1.448299999999998
 30
0.0
 10
-9.804
 20
-1.448299999999998
 30
0.0
 10
-12.0502
 20
-1.4557
 30
0.0
 10
-12.0502
 20
-0.2603
 30
0.0
 10
-12.0502
 20
-0.0673
 30
0.0
 10
-11.98
 20
0.0515
 30
0.0
 10
-11.9566
 20
0.2297
 30
0.0
 10
-11.9566
 20
0.2297
 30
0.0
 10
-15.6302
 20
0.2297
 30
0.0
 10
-15.6302
 20
0.2297
 30
0.0
 10
-15.794
 20
-1.321999999999998
 30
0.0
 10
-15.0453
 20
-2.2501
 30
0.0
 10
-13.6179
 20
-2.6362
 30
0.0
 10
-11.4185
 20
-3.2227
 30
0.0
 10
-6.4112
 20
-3.178199999999999
 30
0.0
 10
-4.2351
 20
-2.5916
 30
0.0
 10
-2.9716
 20
-2.2501
 30
0.0
 10
-2.0123
 20
-1.4631
 30
0.0
 10
-2.0123
 20
0.0589
 30
0.0
 10
-2.0123
 20
1.254299999999998
 30
0.0
 10
-2.3165
 20
2.085799999999998
 30
0.0
 10
-3.322599999999998
 20
2.486699999999999
 30
0.0
 10
-5.1711
 20
3.2366
 30
0.0
 10
-9.1722
 20
2.976799999999999
 30
0.0
 10
-11.1611
 20
3.2886
 30
0.0
 10
-11.7227
 20
3.377699999999998
 30
0.0
 10
-11.8865
 20
3.6524
 30
0.0
 10
-11.8865
 20
4.2835
 30
0.0
 10
-11.8865
 20
5.412
 30
0.0
 10
-10.2018
 20
5.516
 30
0.0
 10
-9.1722
 20
5.516
 30
0.0
 10
-8.517099999999999
 20
5.516
 30
0.0
 10
-7.7449
 20
5.508499999999998
 30
0.0
 10
-7.0898
 20
5.412
 30
0.0
 10
-6.0602
 20
5.263499999999998
 30
0.0
 10
-6.2708
 20
4.6844
 30
0.0
 10
-6.0602
 20
4.231499999999998
 30
0.0
 10
-6.0602
 20
4.231499999999998
 30
0.0
 10
-2.597199999999999
 20
4.231499999999998
 30
0.0
 10
-2.597199999999999
 20
4.231499999999998
 30
0.0
 10
-2.526999999999999
 20
4.810599999999999
 30
0.0
 10
-2.807799999999998
 20
5.5754
 30
0.0
 10
-3.065199999999998
 20
5.9095
 30
0.0
 10
-3.416199999999999
 20
6.325199999999998
 30
0.0
 10
-3.813999999999998
 20
6.547999999999999
 30
0.0
 10
-4.4691
 20
6.7336
 30
0.0
 10
-6.317599999999998
 20
7.230999999999998
 30
0.0
 10
-10.4123
 20
7.1791
 30
0.0
 10
-12.4246
 20
6.9192
 30
0.0
 10
-13.0564
 20
6.8375
 30
0.0
 10
-13.8987
 20
6.6816
 30
0.0
 10
-14.4603
 20
6.3475
 30
0.0
 10
-14.6709
 20
6.213899999999998
 30
0.0
 10
-14.7879
 20
6.0951
 30
0.0
 10
-14.9283
 20
5.9466
 30
0.0
 10
-15.5366
 20
5.4046
 30
0.0
 10
-15.6536
 20
4.1127
 30
0.0
 10
-15.3962
 20
3.184699999999998
 30
0.0
 10
-15.1154
 20
2.271399999999998
 30
0.0
 10
-14.4837
 20
1.8037
 30
0.0
 10
-13.5243
 20
1.5438
 30
0.0
 10
-12.2608
 20
1.202299999999999
 30
0.0
 10
-10.155
 20
1.1281
 30
0.0
 10
-8.7277
 20
1.105799999999999
 30
0.0
 10
-7.838499999999998
 20
1.0984
 30
0.0
 10
-6.434599999999998
 20
1.231999999999998
 30
0.0
 10
-5.849599999999998
 20
0.5044
 30
0.0
 10
-5.5221
 20
0.1109
 30
0.0
 10
-5.615599999999998
 20
-0.4756000000000002
 30
0.0
 10
-5.9198
 20
-0.7800000000000002
 30
0.0
 10
-6.457999999999998
 20
-1.329499999999999
 30
0.0
 10
-7.8151
 20
-1.448299999999998
 30
0.0
 10
-8.774399999999998
 20
-1.448299999999998
 30
0.0
  0
SPLINE
  5
78
330
1F
100
AcDbEntity
  8
Ebene 1
 62
     4
100
AcDbSpline
210
0.0
220
0.0
230
1.0
 70
     9
 71
     3
 72
    71
 73
    67
 74
     0
 42
0.000000001
 43
0.0000000001
 40
0.0
 40
0.0
 40
0.0
 40
0.0
 40
0.0454545454545455
 40
0.0454545454545455
 40
0.0454545454545455
 40
0.0909090909090909
 40
0.0909090909090909
 40
0.0909090909090909
 40
0.1363636363636364
 40
0.1363636363636364
 40
0.1363636363636364
 40
0.1818181818181818
 40
0.1818181818181818
 40
0.1818181818181818
 40
0.2272727272727273
 40
0.2272727272727273
 40
0.2272727272727273
 40
0.2727272727272727
 40
0.2727272727272727
 40
0.2727272727272727
 40
0.3181818181818182
 40
0.3181818181818182
 40
0.3181818181818182
 40
0.3636363636363636
 40
0.3636363636363636
 40
0.3636363636363636
 40
0.4090909090909091
 40
0.4090909090909091
 40
0.4090909090909091
 40
0.4545454545454546
 40
0.4545454545454546
 40
0.4545454545454546
 40
0.5
 40
0.5
 40
0.5
 40
0.5454545454545455
 40
0.5454545454545455
 40
0.5454545454545455
 40
0.590909090909091
 40
0.590909090909091
 40
0.590909090909091
 40
0.6363636363636364
 40
0.6363636363636364
 40
0.6363636363636364
 40
0.6818181818181819
 40
0.6818181818181819
 40
0.6818181818181819
 40
0.7272727272727275
 40
0.7272727272727275
 40
0.7272727272727275
 40
0.7727272727272727
 40
0.7727272727272727
 40
0.7727272727272727
 40
0.8181818181818181
 40
0.8181818181818181
 40
0.8181818181818181
 40
0.8636363636363636
 40
0.8636363636363636
 40
0.8636363636363636
 40
0.9090909090909091
 40
0.9090909090909091
 40
0.9090909090909091
 40
0.9545454545454546
 40
0.9545454545454546
 40
0.9545454545454546
 40
1.0
 40
1.0
 40
1.0
 40
1.0
 10
-38.2566
 20
4.3132
 30
0.0
 10
-38.2566
 20
2.768899999999999
 30
0.0
 10
-37.7184
 20
1.9076
 30
0.0
 10
-36.1975
 20
1.529
 30
0.0
 10
-34.9106
 20
1.209699999999998
 30
0.0
 10
-33.3429
 20
1.1503
 30
0.0
 10
-31.9624
 20
1.1206
 30
0.0
 10
-30.7223
 20
1.083499999999999
 30
0.0
 10
-28.59300000000001
 20
1.3508
 30
0.0
 10
-28.4058
 20
0.0441
 30
0.0
 10
-28.1718
 20
-1.4408
 30
0.0
 10
-30.7691
 20
-1.448299999999998
 30
0.0
 10
-31.939
 20
-1.448299999999998
 30
0.0
 10
-32.5941
 20
-1.448299999999998
 30
0.0
 10
-33.3663
 20
-1.381399999999999
 30
0.0
 10
-33.9513
 20
-1.181
 30
0.0
 10
-34.8638
 20
-0.8542999999999999
 30
0.0
 10
-34.8404
 20
-0.4385
 30
0.0
 10
-34.70000000000001
 20
0.2297
 30
0.0
 10
-34.70000000000001
 20
0.2297
 30
0.0
 10
-38.3502
 20
0.2297
 30
0.0
 10
-38.3502
 20
0.2297
 30
0.0
 10
-38.6076
 20
-1.307199999999999
 30
0.0
 10
-37.695
 20
-2.257499999999998
 30
0.0
 10
-36.3847
 20
-2.6288
 30
0.0
 10
-34.232
 20
-3.2227
 30
0.0
 10
-29.1078
 20
-3.178199999999999
 30
0.0
 10
-27.0019
 20
-2.5916
 30
0.0
 10
-25.715
 20
-2.2353
 30
0.0
 10
-24.7556
 20
-1.4631
 30
0.0
 10
-24.7556
 20
0.0292
 30
0.0
 10
-24.7556
 20
0.7791000000000002
 30
0.0
 10
-24.8492
 20
1.462199999999999
 30
0.0
 10
-25.3172
 20
1.981899999999999
 30
0.0
 10
-25.7384
 20
2.427299999999998
 30
0.0
 10
-26.183
 20
2.5684
 30
0.0
 10
-26.8147
 20
2.709499999999998
 30
0.0
 10
-29.2482
 20
3.2515
 30
0.0
 10
-32.2666
 20
2.976799999999999
 30
0.0
 10
-33.9747
 20
3.303399999999999
 30
0.0
 10
-34.3256
 20
3.370299999999998
 30
0.0
 10
-34.466
 20
3.4965
 30
0.0
 10
-34.583
 20
3.8083
 30
0.0
 10
-35.0744
 20
5.3303
 30
0.0
 10
-33.15570000000001
 20
5.516
 30
0.0
 10
-31.9624
 20
5.516
 30
0.0
 10
-31.2838
 20
5.516
 30
0.0
 10
-30.3713
 20
5.516
 30
0.0
 10
-29.7161
 20
5.397199999999998
 30
0.0
 10
-29.3652
 20
5.3303
 30
0.0
 10
-29.2014
 20
5.226399999999999
 30
0.0
 10
-29.061
 20
5.0259
 30
0.0
 10
-28.8504
 20
4.729
 30
0.0
 10
-28.9206
 20
4.550799999999998
 30
0.0
 10
-28.8036
 20
4.2464
 30
0.0
 10
-28.8036
 20
4.2464
 30
0.0
 10
-25.3172
 20
4.231499999999998
 30
0.0
 10
-25.3172
 20
4.231499999999998
 30
0.0
 10
-25.3406
 20
5.7164
 30
0.0
 10
-25.9958
 20
6.429199999999998
 30
0.0
 10
-27.2593
 20
6.7484
 30
0.0
 10
-29.2482
 20
7.245899999999998
 30
0.0
 10
-34.1151
 20
7.230999999999998
 30
0.0
 10
-36.10390000000001
 20
6.755899999999998
 30
0.0
 10
-37.36740000000001
 20
6.443999999999999
 30
0.0
 10
-38.2566
 20
5.8055
 30
0.0
 10
-38.2566
 20
4.3132
 30
0.0
  0
SPLINE
  5
7A
330
1F
100
AcDbEntity
  8
Ebene 1
 62
     4
100
AcDbSpline
210
0.0
220
0.0
230
1.0
 70
    11
 71
     3
 72
    17
 73
    13
 74
     0
 42
0.000000001
 43
0.0000000001
 40
0.0
 40
0.0
 40
0.0
 40
0.0
 40
0.25
 40
0.25
 40
0.25
 40
0.5
 40
0.5
 40
0.5
 40
0.75
 40
0.75
 40
0.75
 40
1.0
 40
1.0
 40
1.0
 40
1.0
 10
4.3287
 20
11.2106
 30
0.0
 10
4.3287
 20
11.2106
 30
0.0
 10
0.7722
 20
11.1957
 30
0.0
 10
0.7722
 20
11.1957
 30
0.0
 10
0.7722
 20
11.1957
 30
0.0
 10
0.7722
 20
-2.896
 30
0.0
 10
0.7722
 20
-2.896
 30
0.0
 10
0.7722
 20
-2.896
 30
0.0
 10
4.3287
 20
-2.896
 30
0.0
 10
4.3287
 20
-2.896
 30
0.0
 10
4.3287
 20
-2.896
 30
0.0
 10
4.3287
 20
11.2106
 30
0.0
 10
4.3287
 20
11.2106
 30
0.0
  0
SPLINE
  5
7C
330
1F
100
AcDbEntity
  8
Ebene 1
 62
     4
100
AcDbSpline
210
0.0
220
0.0
230
1.0
 70
    11
 71
     3
 72
    17
 73
    13
 74
     0
 42
0.000000001
 43
0.0000000001
 40
0.0
 40
0.0
 40
0.0
 40
0.0
 40
0.25
 40
0.25
 40
0.25
 40
0.5
 40
0.5
 40
0.5
 40
0.75
 40
0.75
 40
0.75
 40
1.0
 40
1.0
 40
1.0
 40
1.0
 10
-21.9712
 20
-2.896
 30
0.0
 10
-21.9712
 20
-2.896
 30
0.0
 10
-18.438
 20
-2.896
 30
0.0
 10
-18.438
 20
-2.896
 30
0.0
 10
-18.438
 20
-2.896
 30
0.0
 10
-18.4146
 20
6.9637
 30
0.0
 10
-18.4146
 20
6.9637
 30
0.0
 10
-18.4146
 20
6.9637
 30
0.0
 10
-21.9712
 20
6.9637
 30
0.0
 10
-21.9712
 20
6.9637
 30
0.0
 10
-21.9712
 20
6.9637
 30
0.0
 10
-21.9712
 20
-2.896
 30
0.0
 10
-21.9712
 20
-2.896
 30
0.0
  0
SPLINE
  5
80
330
1F
100
AcDbEntity
  8
Ebene 1
 62
     4
100
AcDbSpline
210
0.0
220
0.0
230
1.0
 70
    11
 71
     3
 72
    20
 73
    16
 74
     0
 42
0.000000001
 43
0.0000000001
 40
0.0
 40
0.0
 40
0.0
 40
0.0
 40
0.2
 40
0.2
 40
0.2
 40
0.4
 40
0.4
 40
0.4
 40
0.6000000000000001
 40
0.6000000000000001
 40
0.6000000000000001
 40
0.8
 40
0.8
 40
0.8
 40
1.0
 40
1.0
 40
1.0
 40
1.0
 10
-1.825099999999999
 20
-7.0167
 30
0.0
 10
-1.825099999999999
 20
-7.0167
 30
0.0
 10
-0.1638
 20
-7.0167
 30
0.0
 10
-0.1638
 20
-7.0167
 30
0.0
 10
0.3744
 20
-7.0167
 30
0.0
 10
0.8189
 20
-7.1726
 30
0.0
 10
0.7488000000000002
 20
-7.744299999999999
 30
0.0
 10
0.7020000000000001
 20
-8.234299999999999
 30
0.0
 10
0.2106
 20
-8.323399999999999
 30
0.0
 10
-0.2808
 20
-8.323399999999999
 30
0.0
 10
-0.2808
 20
-8.323399999999999
 30
0.0
 10
-1.825099999999999
 20
-8.323399999999999
 30
0.0
 10
-1.825099999999999
 20
-8.323399999999999
 30
0.0
 10
-1.825099999999999
 20
-8.323399999999999
 30
0.0
 10
-1.825099999999999
 20
-7.0167
 30
0.0
 10
-1.825099999999999
 20
-7.0167
 30
0.0
  0
SPLINE
  5
82
330
1F
100
AcDbEntity
  8
Ebene 1
 62
     4
100
AcDbSpline
210
0.0
220
0.0
230
1.0
 70
     9
 71
     3
 72
    44
 73
    40
 74
     0
 42
0.000000001
 43
0.0000000001
 40
0.0
 40
0.0
 40
0.0
 40
0.0
 40
0.0769230769230769
 40
0.0769230769230769
 40
0.0769230769230769
 40
0.1538461538461539
 40
0.1538461538461539
 40
0.1538461538461539
 40
0.2307692307692308
 40
0.2307692307692308
 40
0.2307692307692308
 40
0.3076923076923077
 40
0.3076923076923077
 40
0.3076923076923077
 40
0.3846153846153846
 40
0.3846153846153846
 40
0.3846153846153846
 40
0.4615384615384616
 40
0.4615384615384616
 40
0.4615384615384616
 40
0.5384615384615385
 40
0.5384615384615385
 40
0.5384615384615385
 40
0.6153846153846155
 40
0.6153846153846155
 40
0.6153846153846155
 40
0.6923076923076925
 40
0.6923076923076925
 40
0.6923076923076925
 40
0.7692307692307693
 40
0.7692307692307693
 40
0.7692307692307693
 40
0.8461538461538463
 40
0.8461538461538463
 40
0.8461538461538463
 40
0.9230769230769231
 40
0.9230769230769231
 40
0.9230769230769231
 40
1.0
 40
1.0
 40
1.0
 40
1.0
 10
0.7955
 20
-8.5164
 30
0.0
 10
1.1933
 20
-8.353099999999999
 30
0.0
 10
1.474099999999999
 20
-8.0858
 30
0.0
 10
1.4507
 20
-7.5289
 30
0.0
 10
1.427299999999999
 20
-7.0464
 30
0.0
 10
1.0763
 20
-6.8013
 30
0.0
 10
0.6552
 20
-6.675099999999998
 30
0.0
 10
0.1872
 20
-6.534099999999998
 30
0.0
 10
-0.3744
 20
-6.578599999999998
 30
0.0
 10
-0.8891
 20
-6.578599999999998
 30
0.0
 10
-1.1933
 20
-6.578599999999998
 30
0.0
 10
-2.293099999999999
 20
-6.5415
 30
0.0
 10
-2.5036
 20
-6.6009
 30
0.0
 10
-2.5036
 20
-6.6009
 30
0.0
 10
-2.5036
 20
-10.4171
 30
0.0
 10
-2.5036
 20
-10.4171
 30
0.0
 10
-2.5036
 20
-10.4171
 30
0.0
 10
-1.825099999999999
 20
-10.4097
 30
0.0
 10
-1.825099999999999
 20
-10.4097
 30
0.0
 10
-1.825099999999999
 20
-10.4097
 30
0.0
 10
-1.825099999999999
 20
-8.7688
 30
0.0
 10
-1.825099999999999
 20
-8.7688
 30
0.0
 10
-1.3337
 20
-8.7688
 30
0.0
 10
-0.1404
 20
-8.7094
 30
0.0
 10
0.2574
 20
-8.8208
 30
0.0
 10
0.9358999999999999
 20
-9.013899999999999
 30
0.0
 10
0.585
 20
-9.7934
 30
0.0
 10
0.8189
 20
-10.3948
 30
0.0
 10
1.006099999999998
 20
-10.4691
 30
0.0
 10
1.403899999999999
 20
-10.4171
 30
0.0
 10
1.661299999999999
 20
-10.4171
 30
0.0
 10
1.637899999999999
 20
-10.1498
 30
0.0
 10
1.4507
 20
-10.4097
 30
0.0
 10
1.403899999999999
 20
-9.9716
 30
0.0
 10
1.3805
 20
-9.7489
 30
0.0
 10
1.3805
 20
-9.526099999999999
 30
0.0
 10
1.357099999999999
 20
-9.3108
 30
0.0
 10
1.3103
 20
-8.5907
 30
0.0
 10
1.006099999999998
 20
-8.672299999999998
 30
0.0
 10
0.7955
 20
-8.5164
 30
0.0
  0
SPLINE
  5
84
330
1F
100
AcDbEntity
  8
Ebene 1
 62
     4
100
AcDbSpline
210
0.0
220
0.0
230
1.0
 70
    11
 71
     3
 72
    17
 73
    13
 74
     0
 42
0.000000001
 43
0.0000000001
 40
0.0
 40
0.0
 40
0.0
 40
0.0
 40
0.25
 40
0.25
 40
0.25
 40
0.5
 40
0.5
 40
0.5
 40
0.75
 40
0.75
 40
0.75
 40
1.0
 40
1.0
 40
1.0
 40
1.0
 10
-18.4146
 20
9.228199999999999
 30
0.0
 10
-18.4146
 20
9.228199999999999
 30
0.0
 10
-18.4146
 20
11.2031
 30
0.0
 10
-18.4146
 20
11.2031
 30
0.0
 10
-18.4146
 20
11.2031
 30
0.0
 10
-21.9478
 20
11.2031
 30
0.0
 10
-21.9478
 20
11.2031
 30
0.0
 10
-21.9478
 20
11.2031
 30
0.0
 10
-21.9478
 20
9.228199999999999
 30
0.0
 10
-21.9478
 20
9.228199999999999
 30
0.0
 10
-21.9478
 20
9.228199999999999
 30
0.0
 10
-18.4146
 20
9.228199999999999
 30
0.0
 10
-18.4146
 20
9.228199999999999
 30
0.0
  0
SPLINE
  5
86
330
1F
100
AcDbEntity
  8
Ebene 1
 62
     4
100
AcDbSpline
210
0.0
220
0.0
230
1.0
 70
     9
 71
     3
 72
    50
 73
    46
 74
     0
 42
0.000000001
 43
0.0000000001
 40
0.0
 40
0.0
 40
0.0
 40
0.0
 40
0.0666666666666667
 40
0.0666666666666667
 40
0.0666666666666667
 40
0.1333333333333333
 40
0.1333333333333333
 40
0.1333333333333333
 40
0.2
 40
0.2
 40
0.2
 40
0.2666666666666667
 40
0.2666666666666667
 40
0.2666666666666667
 40
0.3333333333333333
 40
0.3333333333333333
 40
0.3333333333333333
 40
0.4
 40
0.4
 40
0.4
 40
0.4666666666666667
 40
0.4666666666666667
 40
0.4666666666666667
 40
0.5333333333333333
 40
0.5333333333333333
 40
0.5333333333333333
 40
0.6
 40
0.6
 40
0.6
 40
0.6666666666666666
 40
0.6666666666666666
 40
0.6666666666666666
 40
0.7333333333333333
 40
0.7333333333333333
 40
0.7333333333333333
 40
0.8
 40
0.8
 40
0.8
 40
0.8666666666666667
 40
0.8666666666666667
 40
0.8666666666666667
 40
0.9333333333333332
 40
0.9333333333333332
 40
0.9333333333333332
 40
1.0
 40
1.0
 40
1.0
 40
1.0
 10
4.609499999999998
 20
-9.1698
 30
0.0
 10
4.492499999999998
 20
-9.7415
 30
0.0
 10
5.007299999999998
 20
-10.135
 30
0.0
 10
5.3817
 20
-10.3057
 30
0.0
 10
5.849599999999998
 20
-10.5285
 30
0.0
 10
6.5048
 20
-10.5507
 30
0.0
 10
7.066399999999998
 20
-10.4913
 30
0.0
 10
8.914799999999997
 20
-10.2909
 30
0.0
 10
8.750999999999999
 20
-9.013899999999999
 30
0.0
 10
8.1895
 20
-8.612899999999998
 30
0.0
 10
7.3471
 20
-8.011499999999998
 30
0.0
 10
5.4051
 20
-8.382799999999999
 30
0.0
 10
5.428499999999998
 20
-7.5586
 30
0.0
 10
5.4519
 20
-6.8013
 30
0.0
 10
6.902599999999998
 20
-6.8013
 30
0.0
 10
7.440699999999998
 20
-7.135399999999998
 30
0.0
 10
7.674699999999998
 20
-7.269099999999999
 30
0.0
 10
7.721499999999998
 20
-7.380499999999998
 30
0.0
 10
7.791699999999998
 20
-7.699699999999999
 30
0.0
 10
7.791699999999998
 20
-7.699699999999999
 30
0.0
 10
8.4001
 20
-7.699699999999999
 30
0.0
 10
8.4001
 20
-7.699699999999999
 30
0.0
 10
8.470299999999998
 20
-7.4473
 30
0.0
 10
8.283099999999999
 20
-7.135399999999998
 30
0.0
 10
8.1661
 20
-7.009199999999998
 30
0.0
 10
7.487499999999998
 20
-6.2519
 30
0.0
 10
5.194499999999998
 20
-6.192499999999999
 30
0.0
 10
4.7967
 20
-7.350799999999998
 30
0.0
 10
4.305299999999999
 20
-8.9099
 30
0.0
 10
7.206699999999998
 20
-8.509
 30
0.0
 10
7.768299999999999
 20
-9.065799999999999
 30
0.0
 10
7.955499999999998
 20
-9.236599999999999
 30
0.0
 10
7.9321
 20
-9.578099999999999
 30
0.0
 10
7.768299999999999
 20
-9.7489
 30
0.0
 10
7.4173
 20
-10.1424
 30
0.0
 10
6.0368
 20
-10.1869
 30
0.0
 10
5.5221
 20
-9.7786
 30
0.0
 10
5.4519
 20
-9.7192
 30
0.0
 10
5.358299999999998
 20
-9.607799999999999
 30
0.0
 10
5.311499999999998
 20
-9.5187
 30
0.0
 10
5.2647
 20
-9.4519
 30
0.0
 10
5.2647
 20
-9.4074
 30
0.0
 10
5.241299999999998
 20
-9.325699999999999
 30
0.0
 10
5.2179
 20
-9.1401
 30
0.0
 10
5.3349
 20
-9.1698
 30
0.0
 10
4.609499999999998
 20
-9.1698
 30
0.0
  0
SPLINE
  5
88
330
1F
100
AcDbEntity
  8
Ebene 1
 62
     4
100
AcDbSpline
210
0.0
220
0.0
230
1.0
 70
     9
 71
     3
 72
    14
 73
    10
 74
     0
 42
0.000000001
 43
0.0000000001
 40
0.0
 40
0.0
 40
0.0
 40
0.0
 40
0.3333333333333333
 40
0.3333333333333333
 40
0.3333333333333333
 40
0.6666666666666666
 40
0.6666666666666666
 40
0.6666666666666666
 40
1.0
 40
1.0
 40
1.0
 40
1.0
 10
-5.615599999999998
 20
-7.179999999999998
 30
0.0
 10
-5.5221
 20
-7.306199999999998
 30
0.0
 10
-4.9839
 20
-8.583199999999997
 30
0.0
 10
-4.890299999999998
 20
-8.8282
 30
0.0
 10
-4.890299999999998
 20
-8.8282
 30
0.0
 10
-6.4112
 20
-8.8208
 30
0.0
 10
-6.4112
 20
-8.8208
 30
0.0
 10
-6.4112
 20
-8.8208
 30
0.0
 10
-5.615599999999998
 20
-7.179999999999998
 30
0.0
 10
-5.615599999999998
 20
-7.179999999999998
 30
0.0
  0
SPLINE
  5
8A
330
1F
100
AcDbEntity
  8
Ebene 1
 62
     4
100
AcDbSpline
210
0.0
220
0.0
230
1.0
 70
    11
 71
     3
 72
    29
 73
    25
 74
     0
 42
0.000000001
 43
0.0000000001
 40
0.0
 40
0.0
 40
0.0
 40
0.0
 40
0.125
 40
0.125
 40
0.125
 40
0.25
 40
0.25
 40
0.25
 40
0.375
 40
0.375
 40
0.375
 40
0.5
 40
0.5
 40
0.5
 40
0.625
 40
0.625
 40
0.625
 40
0.75
 40
0.75
 40
0.75
 40
0.875
 40
0.875
 40
0.875
 40
1.0
 40
1.0
 40
1.0
 40
1.0
 10
-6.645199999999999
 20
-9.295999999999999
 30
0.0
 10
-6.645199999999999
 20
-9.295999999999999
 30
0.0
 10
-4.6329
 20
-9.295999999999999
 30
0.0
 10
-4.6329
 20
-9.295999999999999
 30
0.0
 10
-4.5627
 20
-9.474199999999999
 30
0.0
 10
-4.4691
 20
-9.6895
 30
0.0
 10
-4.375499999999998
 20
-9.875099999999999
 30
0.0
 10
-4.071299999999999
 20
-10.5507
 30
0.0
 10
-4.2819
 20
-10.4171
 30
0.0
 10
-3.392799999999998
 20
-10.4097
 30
0.0
 10
-3.7204
 20
-9.541
 30
0.0
 10
-4.7967
 20
-7.5438
 30
0.0
 10
-5.194499999999998
 20
-6.578599999999998
 30
0.0
 10
-5.194499999999998
 20
-6.578599999999998
 30
0.0
 10
-5.9432
 20
-6.578599999999998
 30
0.0
 10
-5.9432
 20
-6.578599999999998
 30
0.0
 10
-6.0368
 20
-6.6009
 30
0.0
 10
-7.791699999999998
 20
-10.276
 30
0.0
 10
-7.838499999999998
 20
-10.4171
 30
0.0
 10
-7.838499999999998
 20
-10.4171
 30
0.0
 10
-7.136599999999998
 20
-10.4171
 30
0.0
 10
-7.136599999999998
 20
-10.4171
 30
0.0
 10
-7.136599999999998
 20
-10.4171
 30
0.0
 10
-6.645199999999999
 20
-9.295999999999999
 30
0.0
 10
-6.645199999999999
 20
-9.295999999999999
 30
0.0
  0
SPLINE
  5
8C
330
1F
100
AcDbEntity
  8
Ebene 1
 62
     4
100
AcDbSpline
210
0.0
220
0.0
230
1.0
 70
     9
 71
     3
 72
    20
 73
    16
 74
     0
 42
0.000000001
 43
0.0000000001
 40
0.0
 40
0.0
 40
0.0
 40
0.0
 40
0.2
 40
0.2
 40
0.2
 40
0.4
 40
0.4
 40
0.4
 40
0.6000000000000001
 40
0.6000000000000001
 40
0.6000000000000001
 40
0.8
 40
0.8
 40
0.8
 40
1.0
 40
1.0
 40
1.0
 40
1.0
 10
-9.218999999999999
 20
-8.3085
 30
0.0
 10
-9.312599999999999
 20
-8.412499999999999
 30
0.0
 10
-10.6229
 20
-8.3679
 30
0.0
 10
-10.8569
 20
-8.345599999999999
 30
0.0
 10
-10.8803
 20
-7.9744
 30
0.0
 10
-10.8803
 20
-7.424999999999998
 30
0.0
 10
-10.8335
 20
-7.038899999999999
 30
0.0
 10
-10.8335
 20
-7.0315
 30
0.0
 10
-10.8335
 20
-7.024099999999998
 30
0.0
 10
-10.8335
 20
-7.0167
 30
0.0
 10
-10.3187
 20
-7.0167
 30
0.0
 10
-9.1722
 20
-6.949799999999998
 30
0.0
 10
-8.7978
 20
-7.1577
 30
0.0
 10
-8.2597
 20
-7.4473
 30
0.0
 10
-8.4937
 20
-8.353099999999999
 30
0.0
 10
-9.218999999999999
 20
-8.3085
 30
0.0
  0
SPLINE
  5
8E
330
1F
100
AcDbEntity
  8
Ebene 1
 62
     4
100
AcDbSpline
210
0.0
220
0.0
230
1.0
 70
     9
 71
     3
 72
    23
 73
    19
 74
     0
 42
0.000000001
 43
0.0000000001
 40
0.0
 40
0.0
 40
0.0
 40
0.0
 40
0.1666666666666667
 40
0.1666666666666667
 40
0.1666666666666667
 40
0.3333333333333333
 40
0.3333333333333333
 40
0.3333333333333333
 40
0.5
 40
0.5
 40
0.5
 40
0.6666666666666666
 40
0.6666666666666666
 40
0.6666666666666666
 40
0.8333333333333332
 40
0.8333333333333332
 40
0.8333333333333332
 40
1.0
 40
1.0
 40
1.0
 40
1.0
 10
-10.8569
 20
-8.806
 30
0.0
 10
-10.1784
 20
-8.7391
 30
0.0
 10
-9.312599999999999
 20
-8.895099999999997
 30
0.0
 10
-8.680899999999999
 20
-8.724299999999999
 30
0.0
 10
-7.4173
 20
-8.382799999999999
 30
0.0
 10
-7.3939
 20
-6.578599999999998
 30
0.0
 10
-9.312599999999999
 20
-6.578599999999998
 30
0.0
 10
-10.038
 20
-6.5712
 30
0.0
 10
-10.7867
 20
-6.578599999999998
 30
0.0
 10
-11.5355
 20
-6.578599999999998
 30
0.0
 10
-11.5355
 20
-6.578599999999998
 30
0.0
 10
-11.5355
 20
-10.4171
 30
0.0
 10
-11.5355
 20
-10.4171
 30
0.0
 10
-11.5355
 20
-10.4171
 30
0.0
 10
-10.8569
 20
-10.4171
 30
0.0
 10
-10.8569
 20
-10.4171
 30
0.0
 10
-10.8569
 20
-10.4171
 30
0.0
 10
-10.8569
 20
-8.806
 30
0.0
 10
-10.8569
 20
-8.806
 30
0.0
  0
SPLINE
  5
94
330
1F
100
AcDbEntity
  8
Ebene 1
 62
     4
100
AcDbSpline
210
0.0
220
0.0
230
1.0
 70
    11
 71
     3
 72
    20
 73
    16
 74
     0
 42
0.000000001
 43
0.0000000001
 40
0.0
 40
0.0
 40
0.0
 40
0.0
 40
0.2
 40
0.2
 40
0.2
 40
0.4
 40
0.4
 40
0.4
 40
0.6000000000000001
 40
0.6000000000000001
 40
0.6000000000000001
 40
0.8
 40
0.8
 40
0.8
 40
1.0
 40
1.0
 40
1.0
 40
1.0
 10
2.7376
 20
-10.4171
 30
0.0
 10
2.7376
 20
-10.4171
 30
0.0
 10
3.439599999999998
 20
-10.4171
 30
0.0
 10
3.439599999999998
 20
-10.4171
 30
0.0
 10
3.439599999999998
 20
-10.4171
 30
0.0
 10
3.439599999999998
 20
-6.578599999999998
 30
0.0
 10
3.439599999999998
 20
-6.578599999999998
 30
0.0
 10
3.439599999999998
 20
-6.578599999999998
 30
0.0
 10
2.854599999999998
 20
-6.5712
 30
0.0
 10
2.854599999999998
 20
-6.5712
 30
0.0
 10
2.854599999999998
 20
-6.5712
 30
0.0
 10
2.7376
 20
-6.593499999999998
 30
0.0
 10
2.7376
 20
-6.593499999999998
 30
0.0
 10
2.7376
 20
-6.593499999999998
 30
0.0
 10
2.7376
 20
-10.4171
 30
0.0
 10
2.7376
 20
-10.4171
 30
0.0
  0
SPLINE
  5
121
330
1F
100
AcDbEntity
  8
Ebene 1
 62
     7
420
 15921907
100
AcDbSpline
210
0.0
220
0.0
230
1.0
 70
     9
 71
     3
 72
    29
 73
    25
 74
     0
 42
0.000000001
 43
0.0000000001
 40
0.0
 40
0.0
 40
0.0
 40
0.0
 40
0.125
 40
0.125
 40
0.125
 40
0.25
 40
0.25
 40
0.25
 40
0.375
 40
0.375
 40
0.375
 40
0.5
 40
0.5
 40
0.5
 40
0.625
 40
0.625
 40
0.625
 40
0.75
 40
0.75
 40
0.75
 40
0.875
 40
0.875
 40
0.875
 40
1.0
 40
1.0
 40
1.0
 40
1.0
 10
3.220017237314642
 20
-45.00883459500528
 30
0.0
 10
3.220017237314642
 20
-45.21103459500529
 30
0.0
 10
3.220017237314642
 20
-45.56063459500528
 30
0.0
 10
3.220017237314642
 20
-45.76263459500528
 30
0.0
 10
2.888417237314634
 20
-45.76263459500528
 30
0.0
 10
-2.58968276268537
 20
-45.76263459500528
 30
0.0
 10
-2.58968276268537
 20
-45.76263459500528
 30
0.0
 10
-2.58968276268537
 20
-45.76263459500528
 30
0.0
 10
-2.58968276268537
 20
-62.32563459500529
 30
0.0
 10
-2.58968276268537
 20
-62.67113459500528
 30
0.0
 10
-2.868182762685364
 20
-62.67113459500528
 30
0.0
 10
-4.348482762685357
 20
-62.67113459500528
 30
0.0
 10
-4.626982762685365
 20
-62.67113459500528
 30
0.0
 10
-4.626982762685365
 20
-62.32563459500529
 30
0.0
 10
-4.626982762685365
 20
-45.76263459500528
 30
0.0
 10
-4.626982762685365
 20
-45.76263459500528
 30
0.0
 10
-4.626982762685365
 20
-45.76263459500528
 30
0.0
 10
-10.10948276268536
 20
-45.76263459500528
 30
0.0
 10
-10.44118276268536
 20
-45.76263459500528
 30
0.0
 10
-10.44118276268536
 20
-45.56063459500528
 30
0.0
 10
-10.44118276268536
 20
-45.21103459500529
 30
0.0
 10
-10.44118276268536
 20
-45.00883459500528
 30
0.0
 10
-10.10178276268536
 20
-45.00883459500528
 30
0.0
 10
2.880617237314645
 20
-45.00883459500528
 30
0.0
 10
3.220017237314642
 20
-45.00883459500528
 30
0.0
  0
SPLINE
  5
122
330
1F
100
AcDbEntity
  8
Ebene 1
 62
     7
420
 15921907
100
AcDbSpline
210
0.0
220
0.0
230
1.0
 70
     9
 71
     3
 72
    17
 73
    13
 74
     0
 42
0.000000001
 43
0.0000000001
 40
0.0
 40
0.0
 40
0.0
 40
0.0
 40
0.25
 40
0.25
 40
0.25
 40
0.5
 40
0.5
 40
0.5
 40
0.75
 40
0.75
 40
0.75
 40
1.0
 40
1.0
 40
1.0
 40
1.0
 10
16.25761723731463
 20
-41.87793459500528
 30
0.0
 10
16.25761723731463
 20
-42.07323459500527
 30
0.0
 10
16.25761723731463
 20
-42.38143459500528
 30
0.0
 10
16.25761723731463
 20
-42.57663459500528
 30
0.0
 10
15.92211723731463
 20
-42.57663459500528
 30
0.0
 10
6.360117237314639
 20
-42.57663459500528
 30
0.0
 10
6.024617237314629
 20
-42.57663459500528
 30
0.0
 10
6.024617237314629
 20
-42.38143459500528
 30
0.0
 10
6.024617237314629
 20
-42.07323459500527
 30
0.0
 10
6.024617237314629
 20
-41.87793459500528
 30
0.0
 10
6.360117237314639
 20
-41.87793459500528
 30
0.0
 10
15.92211723731463
 20
-41.87793459500528
 30
0.0
 10
16.25761723731463
 20
-41.87793459500528
 30
0.0
  0
SPLINE
  5
123
330
1F
100
AcDbEntity
  8
Ebene 1
 62
     7
420
 15921907
100
AcDbSpline
210
0.0
220
0.0
230
1.0
 70
     9
 71
     3
 72
    41
 73
    37
 74
     0
 42
0.000000001
 43
0.0000000001
 40
0.0
 40
0.0
 40
0.0
 40
0.0
 40
0.0833333333333333
 40
0.0833333333333333
 40
0.0833333333333333
 40
0.1666666666666666
 40
0.1666666666666666
 40
0.1666666666666666
 40
0.25
 40
0.25
 40
0.25
 40
0.3333333333333333
 40
0.3333333333333333
 40
0.3333333333333333
 40
0.4166666666666666
 40
0.4166666666666666
 40
0.4166666666666666
 40
0.5
 40
0.5
 40
0.5
 40
0.5833333333333333
 40
0.5833333333333333
 40
0.5833333333333333
 40
0.6666666666666666
 40
0.6666666666666666
 40
0.6666666666666666
 40
0.75
 40
0.75
 40
0.75
 40
0.8333333333333332
 40
0.8333333333333332
 40
0.8333333333333332
 40
0.9166666666666666
 40
0.9166666666666666
 40
0.9166666666666666
 40
1.0
 40
1.0
 40
1.0
 40
1.0
 10
16.25761723731463
 20
-45.00883459500528
 30
0.0
 10
16.25761723731463
 20
-45.21103459500529
 30
0.0
 10
16.25761723731463
 20
-45.56063459500528
 30
0.0
 10
16.25761723731463
 20
-45.76263459500528
 30
0.0
 10
15.91971723731463
 20
-45.76263459500528
 30
0.0
 10
8.088417237314629
 20
-45.76263459500528
 30
0.0
 10
8.088417237314629
 20
-45.76263459500528
 30
0.0
 10
8.088417237314629
 20
-45.76263459500528
 30
0.0
 10
8.088417237314629
 20
-52.73133459500527
 30
0.0
 10
8.088417237314629
 20
-52.73133459500527
 30
0.0
 10
8.088417237314629
 20
-52.73133459500527
 30
0.0
 10
15.27731723731463
 20
-52.73133459500527
 30
0.0
 10
15.61351723731463
 20
-52.73133459500527
 30
0.0
 10
15.61351723731463
 20
-52.92833459500528
 30
0.0
 10
15.61351723731463
 20
-53.24703459500528
 30
0.0
 10
15.61351723731463
 20
-53.44393459500528
 30
0.0
 10
15.27731723731463
 20
-53.44393459500528
 30
0.0
 10
8.088417237314629
 20
-53.44393459500528
 30
0.0
 10
8.088417237314629
 20
-53.44393459500528
 30
0.0
 10
8.088417237314629
 20
-53.44393459500528
 30
0.0
 10
8.088417237314629
 20
-61.87543459500528
 30
0.0
 10
8.088417237314629
 20
-61.87543459500528
 30
0.0
 10
8.088417237314629
 20
-61.87543459500528
 30
0.0
 10
16.04071723731463
 20
-61.87543459500528
 30
0.0
 10
16.37861723731463
 20
-61.87543459500528
 30
0.0
 10
16.37861723731463
 20
-62.08243459500528
 30
0.0
 10
16.37861723731463
 20
-62.46413459500528
 30
0.0
 10
16.37861723731463
 20
-62.67113459500528
 30
0.0
 10
16.04311723731463
 20
-62.67113459500528
 30
0.0
 10
6.395717237314642
 20
-62.67113459500528
 30
0.0
 10
6.059917237314643
 20
-62.67113459500528
 30
0.0
 10
6.059917237314643
 20
-62.32873459500528
 30
0.0
 10
6.059917237314643
 20
-45.35133459500528
 30
0.0
 10
6.059917237314643
 20
-45.00883459500528
 30
0.0
 10
6.395417237314632
 20
-45.00883459500528
 30
0.0
 10
15.92211723731463
 20
-45.00883459500528
 30
0.0
 10
16.25761723731463
 20
-45.00883459500528
 30
0.0
  0
SPLINE
  5
124
330
1F
100
AcDbEntity
  8
Ebene 1
 62
     7
420
 15921907
100
AcDbSpline
210
0.0
220
0.0
230
1.0
 70
     9
 71
     3
 72
    41
 73
    37
 74
     0
 42
0.000000001
 43
0.0000000001
 40
0.0
 40
0.0
 40
0.0
 40
0.0
 40
0.0833333333333333
 40
0.0833333333333333
 40
0.0833333333333333
 40
0.1666666666666666
 40
0.1666666666666666
 40
0.1666666666666666
 40
0.25
 40
0.25
 40
0.25
 40
0.3333333333333333
 40
0.3333333333333333
 40
0.3333333333333333
 40
0.4166666666666666
 40
0.4166666666666666
 40
0.4166666666666666
 40
0.5
 40
0.5
 40
0.5
 40
0.5833333333333333
 40
0.5833333333333333
 40
0.5833333333333333
 40
0.6666666666666666
 40
0.6666666666666666
 40
0.6666666666666666
 40
0.75
 40
0.75
 40
0.75
 40
0.8333333333333332
 40
0.8333333333333332
 40
0.8333333333333332
 40
0.9166666666666666
 40
0.9166666666666666
 40
0.9166666666666666
 40
1.0
 40
1.0
 40
1.0
 40
1.0
 10
30.30911723731464
 20
-45.00883459500528
 30
0.0
 10
30.30911723731464
 20
-45.21103459500529
 30
0.0
 10
30.30911723731464
 20
-45.56063459500528
 30
0.0
 10
30.30911723731464
 20
-45.76263459500528
 30
0.0
 10
29.97121723731464
 20
-45.76263459500528
 30
0.0
 10
22.13981723731463
 20
-45.76263459500528
 30
0.0
 10
22.13981723731463
 20
-45.76263459500528
 30
0.0
 10
22.13981723731463
 20
-45.76263459500528
 30
0.0
 10
22.13981723731463
 20
-52.73133459500527
 30
0.0
 10
22.13981723731463
 20
-52.73133459500527
 30
0.0
 10
22.13981723731463
 20
-52.73133459500527
 30
0.0
 10
29.32881723731464
 20
-52.73133459500527
 30
0.0
 10
29.66491723731463
 20
-52.73133459500527
 30
0.0
 10
29.66491723731463
 20
-52.92833459500528
 30
0.0
 10
29.66491723731463
 20
-53.24703459500528
 30
0.0
 10
29.66491723731463
 20
-53.44393459500528
 30
0.0
 10
29.32881723731464
 20
-53.44393459500528
 30
0.0
 10
22.13981723731463
 20
-53.44393459500528
 30
0.0
 10
22.13981723731463
 20
-53.44393459500528
 30
0.0
 10
22.13981723731463
 20
-53.44393459500528
 30
0.0
 10
22.13981723731463
 20
-61.87543459500528
 30
0.0
 10
22.13981723731463
 20
-61.87543459500528
 30
0.0
 10
22.13981723731463
 20
-61.87543459500528
 30
0.0
 10
30.09221723731463
 20
-61.87543459500528
 30
0.0
 10
30.43011723731464
 20
-61.87543459500528
 30
0.0
 10
30.43011723731464
 20
-62.08243459500528
 30
0.0
 10
30.43011723731464
 20
-62.46413459500528
 30
0.0
 10
30.43011723731464
 20
-62.67113459500528
 30
0.0
 10
30.09461723731464
 20
-62.67113459500528
 30
0.0
 10
20.44721723731463
 20
-62.67113459500528
 30
0.0
 10
20.11141723731463
 20
-62.67113459500528
 30
0.0
 10
20.11141723731463
 20
-62.32873459500528
 30
0.0
 10
20.11141723731463
 20
-45.35133459500528
 30
0.0
 10
20.11141723731463
 20
-45.00883459500528
 30
0.0
 10
20.44691723731464
 20
-45.00883459500528
 30
0.0
 10
29.97361723731463
 20
-45.00883459500528
 30
0.0
 10
30.30911723731464
 20
-45.00883459500528
 30
0.0
  0
SPLINE
  5
125
330
1F
100
AcDbEntity
  8
Ebene 1
 62
     7
420
 15921907
100
AcDbSpline
210
0.0
220
0.0
230
1.0
 70
     9
 71
     3
 72
    41
 73
    37
 74
     0
 42
0.000000001
 43
0.0000000001
 40
0.0
 40
0.0
 40
0.0
 40
0.0
 40
0.0833333333333333
 40
0.0833333333333333
 40
0.0833333333333333
 40
0.1666666666666666
 40
0.1666666666666666
 40
0.1666666666666666
 40
0.25
 40
0.25
 40
0.25
 40
0.3333333333333333
 40
0.3333333333333333
 40
0.3333333333333333
 40
0.4166666666666666
 40
0.4166666666666666
 40
0.4166666666666666
 40
0.5
 40
0.5
 40
0.5
 40
0.5833333333333333
 40
0.5833333333333333
 40
0.5833333333333333
 40
0.6666666666666666
 40
0.6666666666666666
 40
0.6666666666666666
 40
0.75
 40
0.75
 40
0.75
 40
0.8333333333333332
 40
0.8333333333333332
 40
0.8333333333333332
 40
0.9166666666666666
 40
0.9166666666666666
 40
0.9166666666666666
 40
1.0
 40
1.0
 40
1.0
 40
1.0
 10
-25.95018276268537
 20
-45.00883459500528
 30
0.0
 10
-25.95018276268537
 20
-45.21103459500529
 30
0.0
 10
-25.95018276268537
 20
-45.56063459500528
 30
0.0
 10
-25.95018276268537
 20
-45.76263459500528
 30
0.0
 10
-26.28778276268537
 20
-45.76263459500528
 30
0.0
 10
-34.11918276268537
 20
-45.76263459500528
 30
0.0
 10
-34.11918276268537
 20
-45.76263459500528
 30
0.0
 10
-34.11918276268537
 20
-45.76263459500528
 30
0.0
 10
-34.11918276268537
 20
-52.73133459500527
 30
0.0
 10
-34.11918276268537
 20
-52.73133459500527
 30
0.0
 10
-34.11918276268537
 20
-52.73133459500527
 30
0.0
 10
-26.93038276268537
 20
-52.73133459500527
 30
0.0
 10
-26.59388276268537
 20
-52.73133459500527
 30
0.0
 10
-26.59388276268537
 20
-52.92833459500528
 30
0.0
 10
-26.59388276268537
 20
-53.24703459500528
 30
0.0
 10
-26.59388276268537
 20
-53.44393459500528
 30
0.0
 10
-26.93038276268537
 20
-53.44393459500528
 30
0.0
 10
-34.11918276268537
 20
-53.44393459500528
 30
0.0
 10
-34.11918276268537
 20
-53.44393459500528
 30
0.0
 10
-34.11918276268537
 20
-53.44393459500528
 30
0.0
 10
-34.11918276268537
 20
-61.87543459500528
 30
0.0
 10
-34.11918276268537
 20
-61.87543459500528
 30
0.0
 10
-34.11918276268537
 20
-61.87543459500528
 30
0.0
 10
-26.16698276268536
 20
-61.87543459500528
 30
0.0
 10
-25.82898276268539
 20
-61.87543459500528
 30
0.0
 10
-25.82898276268539
 20
-62.08243459500528
 30
0.0
 10
-25.82898276268539
 20
-62.46413459500528
 30
0.0
 10
-25.82898276268539
 20
-62.67113459500528
 30
0.0
 10
-26.16448276268537
 20
-62.67113459500528
 30
0.0
 10
-35.81218276268537
 20
-62.67113459500528
 30
0.0
 10
-36.14768276268537
 20
-62.67113459500528
 30
0.0
 10
-36.14768276268537
 20
-62.32873459500528
 30
0.0
 10
-36.14768276268537
 20
-45.35133459500528
 30
0.0
 10
-36.14768276268537
 20
-45.00883459500528
 30
0.0
 10
-35.81258276268537
 20
-45.00883459500528
 30
0.0
 10
-26.28548276268535
 20
-45.00883459500528
 30
0.0
 10
-25.95018276268537
 20
-45.00883459500528
 30
0.0
  0
SPLINE
  5
126
330
1F
100
AcDbEntity
  8
Ebene 1
 62
     7
420
 15921907
100
AcDbSpline
210
0.0
220
0.0
230
1.0
 70
     9
 71
     3
 72
    41
 73
    37
 74
     0
 42
0.000000001
 43
0.0000000001
 40
0.0
 40
0.0
 40
0.0
 40
0.0
 40
0.0833333333333333
 40
0.0833333333333333
 40
0.0833333333333333
 40
0.1666666666666666
 40
0.1666666666666666
 40
0.1666666666666666
 40
0.25
 40
0.25
 40
0.25
 40
0.3333333333333333
 40
0.3333333333333333
 40
0.3333333333333333
 40
0.4166666666666666
 40
0.4166666666666666
 40
0.4166666666666666
 40
0.5
 40
0.5
 40
0.5
 40
0.5833333333333333
 40
0.5833333333333333
 40
0.5833333333333333
 40
0.6666666666666666
 40
0.6666666666666666
 40
0.6666666666666666
 40
0.75
 40
0.75
 40
0.75
 40
0.8333333333333332
 40
0.8333333333333332
 40
0.8333333333333332
 40
0.9166666666666666
 40
0.9166666666666666
 40
0.9166666666666666
 40
1.0
 40
1.0
 40
1.0
 40
1.0
 10
118.4305172373146
 20
-45.00883459500528
 30
0.0
 10
118.4305172373146
 20
-45.20973459500528
 30
0.0
 10
118.4305172373146
 20
-45.55223459500528
 30
0.0
 10
118.4305172373146
 20
-45.75293459500528
 30
0.0
 10
118.0929172373146
 20
-45.75293459500528
 30
0.0
 10
110.2616172373146
 20
-45.75293459500528
 30
0.0
 10
110.2616172373146
 20
-45.75293459500528
 30
0.0
 10
110.2616172373146
 20
-45.75293459500528
 30
0.0
 10
110.2616172373146
 20
-52.73133459500527
 30
0.0
 10
110.2616172373146
 20
-52.73133459500527
 30
0.0
 10
110.2616172373146
 20
-52.73133459500527
 30
0.0
 10
117.4505172373146
 20
-52.73133459500527
 30
0.0
 10
117.7871172373146
 20
-52.73133459500527
 30
0.0
 10
117.7871172373146
 20
-52.92833459500528
 30
0.0
 10
117.7871172373146
 20
-53.24703459500528
 30
0.0
 10
117.7871172373146
 20
-53.44393459500528
 30
0.0
 10
117.4505172373146
 20
-53.44393459500528
 30
0.0
 10
110.2616172373146
 20
-53.44393459500528
 30
0.0
 10
110.2616172373146
 20
-53.44393459500528
 30
0.0
 10
110.2616172373146
 20
-53.44393459500528
 30
0.0
 10
110.2616172373146
 20
-61.87543459500528
 30
0.0
 10
110.2616172373146
 20
-61.87543459500528
 30
0.0
 10
110.2616172373146
 20
-61.87543459500528
 30
0.0
 10
118.2139172373146
 20
-61.87543459500528
 30
0.0
 10
118.5519172373146
 20
-61.87543459500528
 30
0.0
 10
118.5519172373146
 20
-62.08243459500528
 30
0.0
 10
118.5519172373146
 20
-62.46413459500528
 30
0.0
 10
118.5519172373146
 20
-62.67113459500528
 30
0.0
 10
118.2164172373146
 20
-62.67113459500528
 30
0.0
 10
108.5686172373146
 20
-62.67113459500528
 30
0.0
 10
108.2331172373146
 20
-62.67113459500528
 30
0.0
 10
108.2331172373146
 20
-62.32873459500528
 30
0.0
 10
108.2331172373146
 20
-45.35133459500528
 30
0.0
 10
108.2331172373146
 20
-45.00883459500528
 30
0.0
 10
108.5683172373146
 20
-45.00883459500528
 30
0.0
 10
118.0954172373146
 20
-45.00883459500528
 30
0.0
 10
118.4305172373146
 20
-45.00883459500528
 30
0.0
  0
SPLINE
  5
127
330
1F
100
AcDbEntity
  8
Ebene 1
 62
     7
420
 15921907
100
AcDbSpline
210
0.0
220
0.0
230
1.0
 70
     9
 71
     3
 72
    23
 73
    19
 74
     0
 42
0.000000001
 43
0.0000000001
 40
0.0
 40
0.0
 40
0.0
 40
0.0
 40
0.1666666666666666
 40
0.1666666666666666
 40
0.1666666666666666
 40
0.3333333333333333
 40
0.3333333333333333
 40
0.3333333333333333
 40
0.5
 40
0.5
 40
0.5
 40
0.6666666666666666
 40
0.6666666666666666
 40
0.6666666666666666
 40
0.8333333333333332
 40
0.8333333333333332
 40
0.8333333333333332
 40
1.0
 40
1.0
 40
1.0
 40
1.0
 10
43.43251723731462
 20
-45.00883459500528
 30
0.0
 10
43.43251723731462
 20
-45.35433459500528
 30
0.0
 10
43.43251723731462
 20
-61.86473459500528
 30
0.0
 10
43.43251723731462
 20
-61.86473459500528
 30
0.0
 10
43.43251723731462
 20
-61.86473459500528
 30
0.0
 10
51.30471723731464
 20
-61.84363459500528
 30
0.0
 10
51.64341723731464
 20
-61.84263459500527
 30
0.0
 10
51.64341723731464
 20
-62.05353459500528
 30
0.0
 10
51.64341723731464
 20
-62.46073459500529
 30
0.0
 10
51.64341723731464
 20
-62.67113459500528
 30
0.0
 10
51.30821723731464
 20
-62.67113459500528
 30
0.0
 10
41.75681723731464
 20
-62.67113459500528
 30
0.0
 10
41.42161723731463
 20
-62.67113459500528
 30
0.0
 10
41.42161723731463
 20
-62.32873459500528
 30
0.0
 10
41.42161723731463
 20
-45.35133459500528
 30
0.0
 10
41.42161723731463
 20
-45.00883459500528
 30
0.0
 10
41.69931723731463
 20
-45.00883459500528
 30
0.0
 10
43.15481723731463
 20
-45.00883459500528
 30
0.0
 10
43.43251723731462
 20
-45.00883459500528
 30
0.0
  0
SPLINE
  5
128
330
1F
100
AcDbEntity
  8
Ebene 1
 62
     7
420
 15921907
100
AcDbSpline
210
0.0
220
0.0
230
1.0
 70
     9
 71
     3
 72
    47
 73
    43
 74
     0
 42
0.000000001
 43
0.0000000001
 40
0.0
 40
0.0
 40
0.0
 40
0.0
 40
0.0714285714285714
 40
0.0714285714285714
 40
0.0714285714285714
 40
0.1428571428571428
 40
0.1428571428571428
 40
0.1428571428571428
 40
0.2142857142857143
 40
0.2142857142857143
 40
0.2142857142857143
 40
0.2857142857142857
 40
0.2857142857142857
 40
0.2857142857142857
 40
0.3571428571428571
 40
0.3571428571428571
 40
0.3571428571428571
 40
0.4285714285714287
 40
0.4285714285714287
 40
0.4285714285714287
 40
0.5
 40
0.5
 40
0.5
 40
0.5714285714285714
 40
0.5714285714285714
 40
0.5714285714285714
 40
0.6428571428571428
 40
0.6428571428571428
 40
0.6428571428571428
 40
0.7142857142857144
 40
0.7142857142857144
 40
0.7142857142857144
 40
0.7857142857142857
 40
0.7857142857142857
 40
0.7857142857142857
 40
0.8571428571428571
 40
0.8571428571428571
 40
0.8571428571428571
 40
0.9285714285714284
 40
0.9285714285714284
 40
0.9285714285714284
 40
1.0
 40
1.0
 40
1.0
 40
1.0
 10
-12.96498276268536
 20
-58.32043459500528
 30
0.0
 10
-12.94428276268537
 20
-55.94913459500528
 30
0.0
 10
-15.20018276268537
 20
-55.20323459500528
 30
0.0
 10
-17.58868276268536
 20
-54.41323459500527
 30
0.0
 10
-20.28968276268537
 20
-53.52003459500529
 30
0.0
 10
-23.08248276268537
 20
-52.59633459500528
 30
0.0
 10
-23.05348276268535
 20
-49.26703459500529
 30
0.0
 10
-23.02698276268536
 20
-46.21293459500528
 30
0.0
 10
-19.98058276268537
 20
-44.59133459500528
 30
0.0
 10
-17.12788276268537
 20
-44.61613459500529
 30
0.0
 10
-14.85808276268537
 20
-44.63603459500528
 30
0.0
 10
-13.08628276268535
 20
-45.41373459500528
 30
0.0
 10
-12.34898276268536
 20
-45.79543459500528
 30
0.0
 10
-12.35038276268537
 20
-45.94043459500528
 30
0.0
 10
-12.35578276268536
 20
-46.55953459500528
 30
0.0
 10
-12.35918276268536
 20
-46.96493459500529
 30
0.0
 10
-13.10688276268536
 20
-46.37253459500528
 30
0.0
 10
-14.69658276268535
 20
-45.29543459500528
 30
0.0
 10
-17.02718276268537
 20
-45.27523459500528
 30
0.0
 10
-19.46658276268536
 20
-45.25383459500528
 30
0.0
 10
-21.31908276268537
 20
-46.70973459500529
 30
0.0
 10
-21.33598276268536
 20
-48.66133459500528
 30
0.0
 10
-21.35648276268536
 20
-51.01223459500528
 30
0.0
 10
-19.05658276268535
 20
-51.78123459500529
 30
0.0
 10
-16.62148276268536
 20
-52.59563459500528
 30
0.0
 10
-13.92748276268536
 20
-53.49653459500529
 30
0.0
 10
-11.14168276268537
 20
-54.42773459500529
 30
0.0
 10
-11.16928276268537
 20
-57.57513459500528
 30
0.0
 10
-11.20148276268536
 20
-61.26803459500528
 30
0.0
 10
-14.70688276268535
 20
-63.16973459500528
 30
0.0
 10
-18.15318276268536
 20
-63.13983459500528
 30
0.0
 10
-19.96108276268536
 20
-63.12523459500528
 30
0.0
 10
-21.73738276268538
 20
-62.68123459500529
 30
0.0
 10
-23.17588276268535
 20
-61.89643459500528
 30
0.0
 10
-23.17618276268537
 20
-61.74483459500528
 30
0.0
 10
-23.17758276268535
 20
-61.08293459500528
 30
0.0
 10
-23.17858276268537
 20
-60.70023459500529
 30
0.0
 10
-22.19228276268537
 20
-61.34103459500528
 30
0.0
 10
-20.42768276268537
 20
-62.37903459500528
 30
0.0
 10
-18.17598276268536
 20
-62.39873459500528
 30
0.0
 10
-14.81468276268536
 20
-62.42833459500528
 30
0.0
 10
-12.98228276268536
 20
-60.31953459500527
 30
0.0
 10
-12.96498276268536
 20
-58.32043459500528
 30
0.0
  0
SPLINE
  5
129
330
1F
100
AcDbEntity
  8
Ebene 1
 62
     7
420
 15921907
100
AcDbSpline
210
0.0
220
0.0
230
1.0
 70
     9
 71
     3
 72
    32
 73
    28
 74
     0
 42
0.000000001
 43
0.0000000001
 40
0.0
 40
0.0
 40
0.0
 40
0.0
 40
0.1111111111111111
 40
0.1111111111111111
 40
0.1111111111111111
 40
0.2222222222222222
 40
0.2222222222222222
 40
0.2222222222222222
 40
0.3333333333333333
 40
0.3333333333333333
 40
0.3333333333333333
 40
0.4444444444444445
 40
0.4444444444444445
 40
0.4444444444444445
 40
0.5555555555555556
 40
0.5555555555555556
 40
0.5555555555555556
 40
0.6666666666666666
 40
0.6666666666666666
 40
0.6666666666666666
 40
0.7777777777777777
 40
0.7777777777777777
 40
0.7777777777777777
 40
0.8888888888888889
 40
0.8888888888888889
 40
0.8888888888888889
 40
1.0
 40
1.0
 40
1.0
 40
1.0
 10
62.05451723731463
 20
-44.85393459500528
 30
0.0
 10
62.14311723731462
 20
-45.06213459500528
 30
0.0
 10
64.99001723731463
 20
-51.75593459500529
 30
0.0
 10
64.99001723731463
 20
-51.75593459500529
 30
0.0
 10
64.99001723731463
 20
-51.75593459500529
 30
0.0
 10
68.97321723731463
 20
-61.10243459500528
 30
0.0
 10
69.64141723731462
 20
-62.67113459500528
 30
0.0
 10
69.22931723731463
 20
-62.67113459500528
 30
0.0
 10
67.52891723731463
 20
-62.67113459500528
 30
0.0
 10
67.33461723731463
 20
-62.67113459500528
 30
0.0
 10
67.24781723731464
 20
-62.45863459500529
 30
0.0
 10
64.54091723731463
 20
-55.82523459500528
 30
0.0
 10
64.54091723731463
 20
-55.82523459500528
 30
0.0
 10
64.54091723731463
 20
-55.82523459500528
 30
0.0
 10
56.99681723731463
 20
-55.82523459500528
 30
0.0
 10
56.99681723731463
 20
-55.82523459500528
 30
0.0
 10
56.99681723731463
 20
-55.82523459500528
 30
0.0
 10
54.31351723731463
 20
-62.45773459500528
 30
0.0
 10
54.22751723731463
 20
-62.67113459500528
 30
0.0
 10
54.05851723731463
 20
-62.67113459500528
 30
0.0
 10
53.31691723731463
 20
-62.67113459500528
 30
0.0
 10
52.97761723731463
 20
-62.67113459500528
 30
0.0
 10
53.17511723731463
 20
-62.19843459500528
 30
0.0
 10
60.33091723731463
 20
-45.06523459500527
 30
0.0
 10
60.41911723731463
 20
-44.85393459500528
 30
0.0
 10
60.61171723731463
 20
-44.85393459500528
 30
0.0
 10
61.86331723731463
 20
-44.85393459500528
 30
0.0
 10
62.05451723731463
 20
-44.85393459500528
 30
0.0
  0
SPLINE
  5
12A
330
1F
100
AcDbEntity
  8
Ebene 1
 62
     7
420
 15921907
100
AcDbSpline
210
0.0
220
0.0
230
1.0
 70
     9
 71
     3
 72
    23
 73
    19
 74
     0
 42
0.000000001
 43
0.0000000001
 40
0.0
 40
0.0
 40
0.0
 40
0.0
 40
0.1666666666666666
 40
0.1666666666666666
 40
0.1666666666666666
 40
0.3333333333333333
 40
0.3333333333333333
 40
0.3333333333333333
 40
0.5
 40
0.5
 40
0.5
 40
0.6666666666666666
 40
0.6666666666666666
 40
0.6666666666666666
 40
0.8333333333333332
 40
0.8333333333333332
 40
0.8333333333333332
 40
1.0
 40
1.0
 40
1.0
 40
1.0
 10
60.59581723731463
 20
-46.84303459500529
 30
0.0
 10
59.36281723731463
 20
-50.04613459500529
 30
0.0
 10
57.72981723731463
 20
-54.02163459500528
 30
0.0
 10
57.39151723731463
 20
-54.83393459500528
 30
0.0
 10
57.39151723731463
 20
-54.83393459500528
 30
0.0
 10
57.28991723731462
 20
-55.07813459500528
 30
0.0
 10
57.28991723731462
 20
-55.07813459500528
 30
0.0
 10
57.28991723731462
 20
-55.07813459500528
 30
0.0
 10
64.24391723731464
 20
-55.07813459500528
 30
0.0
 10
64.24391723731464
 20
-55.07813459500528
 30
0.0
 10
64.24391723731464
 20
-55.07813459500528
 30
0.0
 10
63.25641723731464
 20
-52.64713459500528
 30
0.0
 10
63.25641723731464
 20
-52.64713459500528
 30
0.0
 10
63.25641723731464
 20
-52.64713459500528
 30
0.0
 10
60.75771723731463
 20
-46.42613459500528
 30
0.0
 10
60.75771723731463
 20
-46.42613459500528
 30
0.0
 10
60.75771723731463
 20
-46.42613459500528
 30
0.0
 10
60.59581723731463
 20
-46.84303459500529
 30
0.0
 10
60.59581723731463
 20
-46.84303459500529
 30
0.0
  0
SPLINE
  5
12B
330
1F
100
AcDbEntity
  8
Ebene 1
 62
     7
420
 15921907
100
AcDbSpline
210
0.0
220
0.0
230
1.0
 70
     9
 71
     3
 72
    35
 73
    31
 74
     0
 42
0.000000001
 43
0.0000000001
 40
0.0
 40
0.0
 40
0.0
 40
0.0
 40
0.1
 40
0.1
 40
0.1
 40
0.2
 40
0.2
 40
0.2
 40
0.3
 40
0.3
 40
0.3
 40
0.4
 40
0.4
 40
0.4
 40
0.5
 40
0.5
 40
0.5
 40
0.6000000000000001
 40
0.6000000000000001
 40
0.6000000000000001
 40
0.7000000000000001
 40
0.7000000000000001
 40
0.7000000000000001
 40
0.8
 40
0.8
 40
0.8
 40
0.9
 40
0.9
 40
0.9
 40
1.0
 40
1.0
 40
1.0
 40
1.0
 10
85.40631723731463
 20
-45.00883459500528
 30
0.0
 10
85.40631723731463
 20
-45.35153459500528
 30
0.0
 10
85.40631723731463
 20
-57.01583459500528
 30
0.0
 10
85.40631723731463
 20
-57.01583459500528
 30
0.0
 10
85.40631723731463
 20
-60.79843459500528
 30
0.0
 10
82.78621723731463
 20
-63.05703459500528
 30
0.0
 10
78.39801723731463
 20
-63.05703459500528
 30
0.0
 10
73.78861723731464
 20
-63.05703459500528
 30
0.0
 10
71.35271723731463
 20
-60.92283459500528
 30
0.0
 10
71.35271723731463
 20
-56.88543459500528
 30
0.0
 10
71.35271723731463
 20
-56.88543459500528
 30
0.0
 10
71.35271723731463
 20
-45.35133459500528
 30
0.0
 10
71.35271723731463
 20
-45.00883459500528
 30
0.0
 10
71.63001723731463
 20
-45.00883459500528
 30
0.0
 10
73.07711723731464
 20
-45.00883459500528
 30
0.0
 10
73.35441723731463
 20
-45.00883459500528
 30
0.0
 10
73.35441723731463
 20
-45.35183459500529
 30
0.0
 10
73.35441723731463
 20
-57.35813459500528
 30
0.0
 10
73.35441723731463
 20
-57.35813459500528
 30
0.0
 10
73.35441723731463
 20
-60.52943459500529
 30
0.0
 10
75.33731723731463
 20
-62.42243459500528
 30
0.0
 10
78.65911723731463
 20
-62.42243459500528
 30
0.0
 10
82.17661723731463
 20
-62.42243459500528
 30
0.0
 10
84.36141723731465
 20
-60.34953459500528
 30
0.0
 10
84.36141723731465
 20
-57.01303459500528
 30
0.0
 10
84.36141723731465
 20
-57.01303459500528
 30
0.0
 10
84.36141723731465
 20
-45.35153459500528
 30
0.0
 10
84.36141723731465
 20
-45.00883459500528
 30
0.0
 10
84.59171723731463
 20
-45.00883459500528
 30
0.0
 10
85.17591723731463
 20
-45.00883459500528
 30
0.0
 10
85.40631723731463
 20
-45.00883459500528
 30
0.0
  0
SPLINE
  5
12C
330
1F
100
AcDbEntity
  8
Ebene 1
 62
     7
420
 15921907
100
AcDbSpline
210
0.0
220
0.0
230
1.0
 70
     9
 71
     3
 72
    44
 73
    40
 74
     0
 42
0.000000001
 43
0.0000000001
 40
0.0
 40
0.0
 40
0.0
 40
0.0
 40
0.0769230769230769
 40
0.0769230769230769
 40
0.0769230769230769
 40
0.1538461538461539
 40
0.1538461538461539
 40
0.1538461538461539
 40
0.2307692307692308
 40
0.2307692307692308
 40
0.2307692307692308
 40
0.3076923076923077
 40
0.3076923076923077
 40
0.3076923076923077
 40
0.3846153846153846
 40
0.3846153846153846
 40
0.3846153846153846
 40
0.4615384615384616
 40
0.4615384615384616
 40
0.4615384615384616
 40
0.5384615384615385
 40
0.5384615384615385
 40
0.5384615384615385
 40
0.6153846153846155
 40
0.6153846153846155
 40
0.6153846153846155
 40
0.6923076923076925
 40
0.6923076923076925
 40
0.6923076923076925
 40
0.7692307692307693
 40
0.7692307692307693
 40
0.7692307692307693
 40
0.8461538461538463
 40
0.8461538461538463
 40
0.8461538461538463
 40
0.9230769230769231
 40
0.9230769230769231
 40
0.9230769230769231
 40
1.0
 40
1.0
 40
1.0
 40
1.0
 10
128.6502172373146
 20
-45.00883459500528
 30
0.0
 10
130.7855172373146
 20
-44.96813459500528
 30
0.0
 10
132.5321172373146
 20
-45.50583459500528
 30
0.0
 10
133.5711172373146
 20
-46.52263459500528
 30
0.0
 10
134.3292172373146
 20
-47.26443459500528
 30
0.0
 10
134.7148172373146
 20
-48.24833459500528
 30
0.0
 10
134.7179172373146
 20
-49.44733459500529
 30
0.0
 10
134.7179172373146
 20
-49.45093459500528
 30
0.0
 10
134.7179172373146
 20
-49.45433459500528
 30
0.0
 10
134.7179172373146
 20
-49.45813459500528
 30
0.0
 10
134.7179172373146
 20
-52.90213459500527
 30
0.0
 10
130.4398172373146
 20
-53.76343459500528
 30
0.0
 10
130.2574172373146
 20
-53.79833459500528
 30
0.0
 10
130.2574172373146
 20
-53.79833459500528
 30
0.0
 10
129.9974172373146
 20
-53.84843459500529
 30
0.0
 10
129.9974172373146
 20
-53.84843459500529
 30
0.0
 10
129.9974172373146
 20
-53.84843459500529
 30
0.0
 10
135.4958172373146
 20
-62.15683459500528
 30
0.0
 10
135.8362172373146
 20
-62.67113459500528
 30
0.0
 10
135.3533172373146
 20
-62.67113459500528
 30
0.0
 10
133.7644172373146
 20
-62.67113459500528
 30
0.0
 10
133.6085172373146
 20
-62.67113459500528
 30
0.0
 10
133.5061172373146
 20
-62.51213459500529
 30
0.0
 10
128.0942172373146
 20
-54.07563459500528
 30
0.0
 10
128.0942172373146
 20
-54.07563459500528
 30
0.0
 10
128.0942172373146
 20
-54.07563459500528
 30
0.0
 10
124.3375172373146
 20
-54.07563459500528
 30
0.0
 10
124.3375172373146
 20
-54.07563459500528
 30
0.0
 10
124.3375172373146
 20
-54.07563459500528
 30
0.0
 10
124.3375172373146
 20
-62.33283459500528
 30
0.0
 10
124.3375172373146
 20
-62.67113459500528
 30
0.0
 10
124.0591172373146
 20
-62.67113459500528
 30
0.0
 10
122.5785172373146
 20
-62.67113459500528
 30
0.0
 10
122.3002172373146
 20
-62.67113459500528
 30
0.0
 10
122.3002172373146
 20
-62.32873459500528
 30
0.0
 10
122.3002172373146
 20
-45.35133459500528
 30
0.0
 10
122.3002172373146
 20
-45.00883459500528
 30
0.0
 10
122.6339172373146
 20
-45.00883459500528
 30
0.0
 10
128.6502172373146
 20
-45.00883459500528
 30
0.0
 10
128.6502172373146
 20
-45.00883459500528
 30
0.0
  0
SPLINE
  5
12D
330
1F
100
AcDbEntity
  8
Ebene 1
 62
     7
420
 15921907
100
AcDbSpline
210
0.0
220
0.0
230
1.0
 70
     9
 71
     3
 72
    26
 73
    22
 74
     0
 42
0.000000001
 43
0.0000000001
 40
0.0
 40
0.0
 40
0.0
 40
0.0
 40
0.1428571428571428
 40
0.1428571428571428
 40
0.1428571428571428
 40
0.2857142857142857
 40
0.2857142857142857
 40
0.2857142857142857
 40
0.4285714285714287
 40
0.4285714285714287
 40
0.4285714285714287
 40
0.5714285714285714
 40
0.5714285714285714
 40
0.5714285714285714
 40
0.7142857142857144
 40
0.7142857142857144
 40
0.7142857142857144
 40
0.8571428571428571
 40
0.8571428571428571
 40
0.8571428571428571
 40
1.0
 40
1.0
 40
1.0
 40
1.0
 10
128.4494172373146
 20
-45.68613459500528
 30
0.0
 10
128.4494172373146
 20
-45.68613459500528
 30
0.0
 10
124.3375172373146
 20
-45.68613459500528
 30
0.0
 10
124.3375172373146
 20
-45.68613459500528
 30
0.0
 10
124.3375172373146
 20
-45.68613459500528
 30
0.0
 10
124.3375172373146
 20
-53.42663459500528
 30
0.0
 10
124.3375172373146
 20
-53.42663459500528
 30
0.0
 10
124.3375172373146
 20
-53.42663459500528
 30
0.0
 10
127.3145172373146
 20
-53.42663459500528
 30
0.0
 10
127.3160172373146
 20
-53.42663459500528
 30
0.0
 10
129.2936172373146
 20
-53.44503459500528
 30
0.0
 10
130.8264172373146
 20
-52.97113459500528
 30
0.0
 10
131.7490172373146
 20
-52.05593459500528
 30
0.0
 10
132.4157172373146
 20
-51.39453459500528
 30
0.0
 10
132.7530172373146
 20
-50.52013459500528
 30
0.0
 10
132.7512172373146
 20
-49.45683459500529
 30
0.0
 10
132.7494172373146
 20
-48.30633459500528
 30
0.0
 10
132.4168172373146
 20
-47.39623459500528
 30
0.0
 10
131.7624172373146
 20
-46.75193459500528
 30
0.0
 10
131.0240172373146
 20
-46.02483459500528
 30
0.0
 10
129.9092172373146
 20
-45.66643459500528
 30
0.0
 10
128.4494172373146
 20
-45.68613459500528
 30
0.0
  0
SPLINE
  5
12E
330
1F
100
AcDbEntity
  8
Ebene 1
 62
     7
420
 15921907
100
AcDbSpline
210
0.0
220
0.0
230
1.0
 70
     9
 71
     3
 72
    26
 73
    22
 74
     0
 42
0.000000001
 43
0.0000000001
 40
0.0
 40
0.0
 40
0.0
 40
0.0
 40
0.1428571428571428
 40
0.1428571428571428
 40
0.1428571428571428
 40
0.2857142857142857
 40
0.2857142857142857
 40
0.2857142857142857
 40
0.4285714285714287
 40
0.4285714285714287
 40
0.4285714285714287
 40
0.5714285714285714
 40
0.5714285714285714
 40
0.5714285714285714
 40
0.7142857142857144
 40
0.7142857142857144
 40
0.7142857142857144
 40
0.8571428571428571
 40
0.8571428571428571
 40
0.8571428571428571
 40
1.0
 40
1.0
 40
1.0
 40
1.0
 10
96.08421723731465
 20
-45.00883459500528
 30
0.0
 10
98.85811723731462
 20
-44.96333459500529
 30
0.0
 10
101.1268172373146
 20
-45.73063459500528
 30
0.0
 10
102.6487172373146
 20
-47.22743459500528
 30
0.0
 10
104.1512172373146
 20
-48.70563459500528
 30
0.0
 10
104.9453172373146
 20
-50.91623459500528
 30
0.0
 10
104.9453172373146
 20
-53.62033459500528
 30
0.0
 10
104.9453172373146
 20
-56.40313459500529
 30
0.0
 10
104.1469172373146
 20
-58.60253459500528
 30
0.0
 10
102.5728172373146
 20
-60.15733459500528
 30
0.0
 10
100.8689172373146
 20
-61.84063459500528
 30
0.0
 10
98.30391723731464
 20
-62.70973459500528
 30
0.0
 10
95.15641723731462
 20
-62.67113459500528
 30
0.0
 10
95.15641723731462
 20
-62.67113459500528
 30
0.0
 10
89.67671723731463
 20
-62.67113459500528
 30
0.0
 10
89.34441723731463
 20
-62.67113459500528
 30
0.0
 10
89.34441723731463
 20
-62.32873459500528
 30
0.0
 10
89.34441723731463
 20
-45.35133459500528
 30
0.0
 10
89.34441723731463
 20
-45.00883459500528
 30
0.0
 10
89.67921723731462
 20
-45.00883459500528
 30
0.0
 10
96.08421723731465
 20
-45.00883459500528
 30
0.0
 10
96.08421723731465
 20
-45.00883459500528
 30
0.0
  0
SPLINE
  5
12F
330
1F
100
AcDbEntity
  8
Ebene 1
 62
     7
420
 15921907
100
AcDbSpline
210
0.0
220
0.0
230
1.0
 70
     9
 71
     3
 72
    26
 73
    22
 74
     0
 42
0.000000001
 43
0.0000000001
 40
0.0
 40
0.0
 40
0.0
 40
0.0
 40
0.1428571428571428
 40
0.1428571428571428
 40
0.1428571428571428
 40
0.2857142857142857
 40
0.2857142857142857
 40
0.2857142857142857
 40
0.4285714285714287
 40
0.4285714285714287
 40
0.4285714285714287
 40
0.5714285714285714
 40
0.5714285714285714
 40
0.5714285714285714
 40
0.7142857142857144
 40
0.7142857142857144
 40
0.7142857142857144
 40
0.8571428571428571
 40
0.8571428571428571
 40
0.8571428571428571
 40
1.0
 40
1.0
 40
1.0
 40
1.0
 10
95.75931723731462
 20
-45.69783459500528
 30
0.0
 10
95.75931723731462
 20
-45.69783459500528
 30
0.0
 10
91.37951723731465
 20
-45.69783459500528
 30
0.0
 10
91.37951723731465
 20
-45.69783459500528
 30
0.0
 10
91.37951723731465
 20
-45.69783459500528
 30
0.0
 10
91.37951723731465
 20
-61.97533459500529
 30
0.0
 10
91.37951723731465
 20
-61.97533459500529
 30
0.0
 10
91.37951723731465
 20
-61.97533459500529
 30
0.0
 10
94.72631723731462
 20
-61.97533459500529
 30
0.0
 10
94.72631723731462
 20
-61.97533459500529
 30
0.0
 10
97.47621723731464
 20
-62.00323459500528
 30
0.0
 10
99.47541723731461
 20
-61.36203459500528
 30
0.0
 10
100.8361172373146
 20
-60.01493459500529
 30
0.0
 10
102.1816172373146
 20
-58.68313459500528
 30
0.0
 10
102.8635172373146
 20
-56.63213459500529
 30
0.0
 10
102.8635172373146
 20
-53.91853459500528
 30
0.0
 10
102.8635172373146
 20
-51.03263459500528
 30
0.0
 10
102.1453172373146
 20
-48.85903459500529
 30
0.0
 10
100.7289172373146
 20
-47.45803459500528
 30
0.0
 10
99.52481723731461
 20
-46.26723459500528
 30
0.0
 10
97.85301723731464
 20
-45.67493459500528
 30
0.0
 10
95.75931723731462
 20
-45.69783459500528
 30
0.0
  0
XLINE
  5
130
330
1F
100
AcDbEntity
  8
H1_HILFSLINIE
100
AcDbXline
 10
-30.53016412258734
 20
-61.87543459500528
 30
0.0
 11
1.0
 21
0.0
 31
0.0
  0
XLINE
  5
131
330
1F
100
AcDbEntity
  8
H1_HILFSLINIE
100
AcDbXline
 10
-30.53016412259821
 20
-62.67113459500528
 30
0.0
 11
1.0
 21
0.0
 31
0.0
  0
LWPOLYLINE
  5
132
330
1F
100
AcDbEntity
  8
H1_HILFSLINIE
 62
     1
100
AcDbPolyline
 90
       16
 70
     1
 43
0.0
 10
39.62565588259457
 20
-64.05840426796348
 42
-0.52056705
 10
39.62565588259457
 20
-62.36770109862408
 42
-0.52056705
 10
39.62565588259457
 20
-60.03533874661108
 42
-0.52056705
 10
41.80354925758192
 20
-60.03412570083881
 42
-0.52056705
 10
44.39190048940227
 20
-60.03412570083881
 42
-0.52056705
 10
46.41005141476426
 20
-60.03412570083881
 42
-0.52056705
 10
48.77459621466113
 20
-60.03412570083881
 42
-0.52056705
 10
50.24157946403369
 20
-60.03412570083881
 42
-0.52056705
 10
52.36458288088826
 20
-60.03412570083881
 42
-0.52056705
 10
52.77048466142969
 20
-61.51543899922867
 42
-0.52056705
 10
52.57893674753828
 20
-64.05840426796348
 42
-0.52056705
 10
51.09845763292409
 20
-64.05840426796348
 42
-0.52056705
 10
48.46343320047646
 20
-64.05840426796348
 42
-0.52056705
 10
45.94671386878469
 20
-64.05840426796348
 42
-0.52056705
 10
43.22310119269978
 20
-64.05840426796348
 42
-0.52056705
 10
41.28298405226047
 20
-64.05840426796348
 42
-0.52056705
1001
RevcloudProps
1070
     0
1040
2.126052963327428
  0
LWPOLYLINE
  5
135
330
1F
100
AcDbEntity
  8
0
 62
     1
100
AcDbPolyline
 90
        6
 70
     1
 43
0.0
 10
-12.0781177065146
 20
-5.915281476102336
 42
0.52056705
 10
-12.0781177065146
 20
-8.579506662010922
 42
0.52056705
 10
-10.16864058547604
 20
-8.977066091973881
 42
0.52056705
 10
-8.289337953102403
 20
-8.546646544512121
 42
0.52056705
 10
-8.289337953102403
 20
-6.489821079867812
 42
0.52056705
 10
-10.28490445202154
 20
-5.915281476102336
 42
0.52056705
1001
RevcloudProps
1070
     0
1040
2.0
  0
ENDSEC
  0
SECTION
  2
OBJECTS
  0
DICTIONARY
  5
C
330
0
100
AcDbDictionary
281
     1
  3
ACAD_CIP_PREVIOUS_PRODUCT_INFO
350
E6
  3
ACAD_COLOR
350
E1
  3
ACAD_DETAILVIEWSTYLE
350
DD
  3
ACAD_GROUP
350
D
  3
ACAD_LAYOUT
350
1A
  3
ACAD_MATERIAL
350
43
  3
ACAD_MLEADERSTYLE
350
6B
  3
ACAD_MLINESTYLE
350
17
  3
ACAD_PLOTSETTINGS
350
19
  3
ACAD_PLOTSTYLENAME
350
E
  3
ACAD_SCALELIST
350
47
  3
ACAD_SECTIONVIEWSTYLE
350
DE
  3
ACAD_TABLESTYLE
350
69
  3
ACAD_VISUALSTYLE
350
2A
  3
ACDB_RECOMPOSE_DATA
350
137
  3
AcDbVariableDictionary
350
A2
  3
AEC_PROPERTY_SET_DEFS
350
11F
  0
SUN
  5
6D
330
29
100
AcDbSun
 90
        1
290
     1
 63
     7
421
 16777215
 40
1.0
291
     1
 91
  2455826
 92
 54000000
292
     0
 70
     0
 71
   256
280
     1
  0
DICTIONARY
  5
F7
330
2
100
AcDbDictionary
280
     1
281
     1
  3
ACAD_LAYERSTATES
360
F8
  0
DICTIONARY
  5
F0
330
10
100
AcDbDictionary
280
     1
281
     1
  3
ADSK_XREC_LAYER_RECONCILED
360
F1
  0
DICTIONARY
  5
F2
330
6F
100
AcDbDictionary
280
     1
281
     1
  3
ADSK_XREC_LAYER_RECONCILED
360
F3
  0
DICTIONARY
  5
108
330
107
100
AcDbDictionary
280
     1
281
     1
  0
XRECORD
  5
E6
102
{ACAD_REACTORS
330
C
102
}
330
C
100
AcDbXrecord
280
     1
300
ACD
300
2021
300
ACD_F_S
  0
DICTIONARY
  5
E1
102
{ACAD_REACTORS
330
C
102
}
330
C
100
AcDbDictionary
281
     1
  0
DICTIONARY
  5
DD
102
{ACAD_REACTORS
330
C
102
}
330
C
100
AcDbDictionary
281
     1
  3
Imperial24
350
E3
  0
DICTIONARY
  5
D
102
{ACAD_REACTORS
330
C
102
}
330
C
100
AcDbDictionary
281
     1
  0
DICTIONARY
  5
1A
102
{ACAD_REACTORS
330
C
102
}
330
C
100
AcDbDictionary
281
     1
  3
Layout1
350
1E
  3
Layout2
350
26
  3
Model
350
22
  0
DICTIONARY
  5
43
102
{ACAD_REACTORS
330
C
102
}
330
C
100
AcDbDictionary
281
     1
  3
ByBlock
350
45
  3
ByLayer
350
44
  3
Global
350
46
  0
DICTIONARY
  5
6B
102
{ACAD_REACTORS
330
C
102
}
330
C
100
AcDbDictionary
281
     1
  3
Standard
350
6C
  0
DICTIONARY
  5
17
102
{ACAD_REACTORS
330
C
102
}
330
C
100
AcDbDictionary
281
     1
  3
Standard
350
18
  0
DICTIONARY
  5
19
102
{ACAD_REACTORS
330
C
102
}
330
C
100
AcDbDictionary
281
     1
  0
ACDBDICTIONARYWDFLT
  5
E
102
{ACAD_REACTORS
330
C
102
}
330
C
100
AcDbDictionary
281
     1
  3
Normal
350
F
100
AcDbDictionaryWithDefault
340
F
  0
DICTIONARY
  5
47
102
{ACAD_REACTORS
330
C
102
}
330
C
100
AcDbDictionary
281
     1
  3
A0
350
48
  3
A1
350
49
  3
A2
350
4A
  3
A3
350
4B
  3
A4
350
4C
  3
A5
350
4D
  3
A6
350
4E
  3
A7
350
4F
  3
A8
350
50
  3
A9
350
51
  3
B0
350
52
  3
B1
350
53
  3
B2
350
54
  3
B3
350
55
  3
B4
350
56
  3
B5
350
57
  3
B6
350
58
  3
B7
350
59
  3
B8
350
5A
  3
B9
350
5B
  3
C0
350
5C
  3
C1
350
5D
  3
C2
350
5E
  3
C3
350
5F
  3
C4
350
60
  3
C5
350
61
  3
C6
350
62
  3
C7
350
63
  3
C8
350
64
  3
C9
350
65
  3
D0
350
66
  3
D1
350
67
  3
D2
350
68
  0
DICTIONARY
  5
DE
102
{ACAD_REACTORS
330
C
102
}
330
C
100
AcDbDictionary
281
     1
  3
Imperial24
350
E2
  0
DICTIONARY
  5
69
102
{ACAD_REACTORS
330
C
102
}
330
C
100
AcDbDictionary
281
     1
  3
Standard
350
6A
  0
DICTIONARY
  5
2A
102
{ACAD_REACTORS
330
C
102
}
330
C
100
AcDbDictionary
281
     1
  3
2dWireframe
350
2F
  3
Basic
350
32
  3
Brighten
350
36
  3
ColorChange
350
3A
  3
Conceptual
350
34
  3
Dim
350
35
  3
EdgeColorOff
350
3D
  3
Facepattern
350
39
  3
Flat
350
2B
  3
FlatWithEdges
350
2C
  3
Gouraud
350
2D
  3
GouraudWithEdges
350
2E
  3
Hidden
350
31
  3
JitterOff
350
3B
  3
Linepattern
350
38
  3
OverhangOff
350
3C
  3
Realistic
350
33
  3
Shaded
350
42
  3
Shaded with edges
350
41
  3
Shades of Gray
350
3E
  3
Sketchy
350
3F
  3
Thicken
350
37
  3
Wireframe
350
30
  3
X-Ray
350
40
  0
XRECORD
  5
137
102
{ACAD_REACTORS
330
C
102
}
330
C
100
AcDbXrecord
280
     1
 90
        1
330
6A
  0
DICTIONARY
  5
A2
102
{ACAD_REACTORS
330
C
102
}
330
C
100
AcDbDictionary
281
     1
  3
#REVCLOUDAPPROXARCLEN
350
134
  3
CANNOSCALE
350
A3
  3
CMLEADERSTYLE
350
DC
  3
CTABLESTYLE
350
DB
  3
CVIEWDETAILSTYLE
350
EC
  3
CVIEWSECTIONSTYLE
350
ED
  3
LAYEREVAL
350
EE
  3
LAYERNOTIFY
350
EF
  0
DICTIONARY
  5
11F
102
{ACAD_REACTORS
330
C
102
}
330
C
100
AcDbDictionary
281
     1
  0
DICTIONARY
  5
F8
102
{ACAD_REACTORS
330
F7
102
}
330
F7
100
AcDbDictionary
281
     1
  0
XRECORD
  5
F1
102
{ACAD_REACTORS
330
F0
102
}
330
F0
100
AcDbXrecord
280
     1
290
     1
  0
XRECORD
  5
F3
102
{ACAD_REACTORS
330
F2
102
}
330
F2
100
AcDbXrecord
280
     1
290
     1
  0
ACDBDETAILVIEWSTYLE
  5
E3
102
{ACAD_REACTORS
330
DD
102
}
330
DD
100
AcDbModelDocViewStyle
 70
     0
  3
Imperial24
290
     0
300
Imperial24
 90
        0
100
AcDbDetailViewStyle
 70
     0
 71
     0
 90
        3
 71
     1
340
11
 62
   256
 40
0.24
340
0
 62
   256
 40
0.24
300

 40
0.36
280
     3
 71
     2
340
16
 90
       25
 62
   256
 71
     3
340
11
 62
   256
 40
0.24
 90
        1
 40
0.75
 90
        1
300
%<\AcVar ViewType \f "%tc1">% %<\AcVar ViewDetailId>%\PVARIA %<\AcVar ViewScale \f "%sn">%
 71
     4
340
16
 90
       25
 62
   256
340
16
 90
       25
 62
   256
280
     0
  0
LAYOUT
  5
1E
102
{ACAD_REACTORS
330
1A
102
}
330
1A
100
AcDbPlotSettings
  1

  2
none_device
  4

  6

 40
0.0
 41
0.0
 42
0.0
 43
0.0
 44
0.0
 45
0.0
 46
0.0
 47
0.0
 48
0.0
 49
0.0
140
0.0
141
0.0
142
1.0
143
1.0
 70
   688
 72
     0
 73
     0
 74
     5
  7

 75
    16
147
1.0
 76
     0
 77
     2
 78
   300
148
0.0
149
0.0
100
AcDbLayout
  1
Layout1
 70
     1
 71
     1
 10
0.0
 20
0.0
 11
12.0
 21
9.0
 12
0.0
 22
0.0
 32
0.0
 14
1.000000000000000E+20
 24
1.000000000000000E+20
 34
1.000000000000000E+20
 15
-1.000000000000000E+20
 25
-1.000000000000000E+20
 35
-1.000000000000000E+20
146
0.0
 13
0.0
 23
0.0
 33
0.0
 16
1.0
 26
0.0
 36
0.0
 17
0.0
 27
1.0
 37
0.0
 76
     0
330
1B
  0
LAYOUT
  5
26
102
{ACAD_REACTORS
330
1A
102
}
330
1A
100
AcDbPlotSettings
  1

  2
none_device
  4

  6

 40
0.0
 41
0.0
 42
0.0
 43
0.0
 44
0.0
 45
0.0
 46
0.0
 47
0.0
 48
0.0
 49
0.0
140
0.0
141
0.0
142
1.0
143
1.0
 70
   688
 72
     0
 73
     0
 74
     5
  7

 75
    16
147
1.0
 76
     0
 77
     2
 78
   300
148
0.0
149
0.0
100
AcDbLayout
  1
Layout2
 70
     1
 71
     2
 10
0.0
 20
0.0
 11
0.0
 21
0.0
 12
0.0
 22
0.0
 32
0.0
 14
0.0
 24
0.0
 34
0.0
 15
0.0
 25
0.0
 35
0.0
146
0.0
 13
0.0
 23
0.0
 33
0.0
 16
1.0
 26
0.0
 36
0.0
 17
0.0
 27
1.0
 37
0.0
 76
     0
330
23
  0
LAYOUT
  5
22
102
{ACAD_REACTORS
330
1A
102
}
330
1A
100
AcDbPlotSettings
  1

  2
none_device
  4
Letter_(8.50_x_11.00_Inches)
  6

 40
6.349999999999998
 41
6.349999999999998
 42
6.350005079999998
 43
6.350005079999998
 44
215.9
 45
279.4
 46
0.0
 47
0.0
 48
0.0
 49
0.0
140
0.0
141
0.0
142
1.0
143
1.0
 70
  1712
 72
     0
 73
     0
 74
     0
  7

 75
     0
147
1.0
 76
     0
 77
     2
 78
   300
148
0.0
149
0.0
100
AcDbLayout
  1
Model
 70
     1
 71
     0
 10
0.0
 20
0.0
 11
12.0
 21
9.0
 12
0.0
 22
0.0
 32
0.0
 14
-38.3938
 24
-10.5196
 34
0.0
 15
35.9167
 25
11.2106
 35
0.0
146
0.0
 13
0.0
 23
0.0
 33
0.0
 16
1.0
 26
0.0
 36
0.0
 17
0.0
 27
1.0
 37
0.0
 76
     0
330
1F
331
29
  0
MATERIAL
  5
45
102
{ACAD_REACTORS
330
43
102
}
330
43
100
AcDbMaterial
  1
ByBlock
  0
MATERIAL
  5
44
102
{ACAD_REACTORS
330
43
102
}
330
43
100
AcDbMaterial
  1
ByLayer
  0
MATERIAL
  5
46
102
{ACAD_REACTORS
330
43
102
}
330
43
100
AcDbMaterial
  1
Global
  0
MLEADERSTYLE
  5
6C
102
{ACAD_REACTORS
330
6B
102
}
330
6B
100
AcDbMLeaderStyle
179
     2
170
     2
171
     1
172
     0
 90
        2
 40
0.0
 41
0.0
173
     1
 91
-1056964608
340
14
 92
       -2
290
     1
 42
0.09
291
     1
 43
0.36
  3
Standard
 44
0.18
300

342
11
174
     1
178
     6
175
     1
176
     0
 93
-1056964608
 45
0.18
292
     0
297
     0
 46
0.18
 94
-1056964608
 47
1.0
 49
1.0
140
1.0
293
     1
141
0.0
294
     1
177
     0
142
1.0
295
     0
296
     0
143
0.125
271
     0
272
     9
273
     9
298
     0
1001
ACAD_MLEADERVER
1070
     2
  0
MLINESTYLE
  5
18
102
{ACAD_REACTORS
330
17
102
}
330
17
100
AcDbMlineStyle
  2
STANDARD
 70
     0
  3

 62
   256
 51
90.0
 52
90.0
 71
     2
 49
0.5
 62
   256
  6
BYLAYER
 49
-0.5
 62
   256
  6
BYLAYER
  0
ACDBPLACEHOLDER
  5
F
102
{ACAD_REACTORS
330
E
102
}
330
E
  0
SCALE
  5
48
102
{ACAD_REACTORS
330
47
102
}
330
47
100
AcDbScale
 70
     0
300
1:1
140
1.0
141
1.0
290
     1
  0
SCALE
  5
49
102
{ACAD_REACTORS
330
47
102
}
330
47
100
AcDbScale
 70
     0
300
1:2
140
1.0
141
2.0
290
     0
  0
SCALE
  5
4A
102
{ACAD_REACTORS
330
47
102
}
330
47
100
AcDbScale
 70
     0
300
1:4
140
1.0
141
4.0
290
     0
  0
SCALE
  5
4B
102
{ACAD_REACTORS
330
47
102
}
330
47
100
AcDbScale
 70
     0
300
1:5
140
1.0
141
5.0
290
     0
  0
SCALE
  5
4C
102
{ACAD_REACTORS
330
47
102
}
330
47
100
AcDbScale
 70
     0
300
1:8
140
1.0
141
8.0
290
     0
  0
SCALE
  5
4D
102
{ACAD_REACTORS
330
47
102
}
330
47
100
AcDbScale
 70
     0
300
1:10
140
1.0
141
10.0
290
     0
  0
SCALE
  5
4E
102
{ACAD_REACTORS
330
47
102
}
330
47
100
AcDbScale
 70
     0
300
1:16
140
1.0
141
16.0
290
     0
  0
SCALE
  5
4F
102
{ACAD_REACTORS
330
47
102
}
330
47
100
AcDbScale
 70
     0
300
1:20
140
1.0
141
20.0
290
     0
  0
SCALE
  5
50
102
{ACAD_REACTORS
330
47
102
}
330
47
100
AcDbScale
 70
     0
300
1:30
140
1.0
141
30.0
290
     0
  0
SCALE
  5
51
102
{ACAD_REACTORS
330
47
102
}
330
47
100
AcDbScale
 70
     0
300
1:40
140
1.0
141
40.0
290
     0
  0
SCALE
  5
52
102
{ACAD_REACTORS
330
47
102
}
330
47
100
AcDbScale
 70
     0
300
1:50
140
1.0
141
50.0
290
     0
  0
SCALE
  5
53
102
{ACAD_REACTORS
330
47
102
}
330
47
100
AcDbScale
 70
     0
300
1:100
140
1.0
141
100.0
290
     0
  0
SCALE
  5
54
102
{ACAD_REACTORS
330
47
102
}
330
47
100
AcDbScale
 70
     0
300
2:1
140
2.0
141
1.0
290
     0
  0
SCALE
  5
55
102
{ACAD_REACTORS
330
47
102
}
330
47
100
AcDbScale
 70
     0
300
4:1
140
4.0
141
1.0
290
     0
  0
SCALE
  5
56
102
{ACAD_REACTORS
330
47
102
}
330
47
100
AcDbScale
 70
     0
300
8:1
140
8.0
141
1.0
290
     0
  0
SCALE
  5
57
102
{ACAD_REACTORS
330
47
102
}
330
47
100
AcDbScale
 70
     0
300
10:1
140
10.0
141
1.0
290
     0
  0
SCALE
  5
58
102
{ACAD_REACTORS
330
47
102
}
330
47
100
AcDbScale
 70
     0
300
100:1
140
100.0
141
1.0
290
     0
  0
SCALE
  5
59
102
{ACAD_REACTORS
330
47
102
}
330
47
100
AcDbScale
 70
     0
300
1/128" = 1'-0"
140
0.0078125
141
12.0
290
     0
  0
SCALE
  5
5A
102
{ACAD_REACTORS
330
47
102
}
330
47
100
AcDbScale
 70
     0
300
1/64" = 1'-0"
140
0.015625
141
12.0
290
     0
  0
SCALE
  5
5B
102
{ACAD_REACTORS
330
47
102
}
330
47
100
AcDbScale
 70
     0
300
1/32" = 1'-0"
140
0.03125
141
12.0
290
     0
  0
SCALE
  5
5C
102
{ACAD_REACTORS
330
47
102
}
330
47
100
AcDbScale
 70
     0
300
1/16" = 1'-0"
140
0.0625
141
12.0
290
     0
  0
SCALE
  5
5D
102
{ACAD_REACTORS
330
47
102
}
330
47
100
AcDbScale
 70
     0
300
3/32" = 1'-0"
140
0.09375
141
12.0
290
     0
  0
SCALE
  5
5E
102
{ACAD_REACTORS
330
47
102
}
330
47
100
AcDbScale
 70
     0
300
1/8" = 1'-0"
140
0.125
141
12.0
290
     0
  0
SCALE
  5
5F
102
{ACAD_REACTORS
330
47
102
}
330
47
100
AcDbScale
 70
     0
300
3/16" = 1'-0"
140
0.1875
141
12.0
290
     0
  0
SCALE
  5
60
102
{ACAD_REACTORS
330
47
102
}
330
47
100
AcDbScale
 70
     0
300
1/4" = 1'-0"
140
0.25
141
12.0
290
     0
  0
SCALE
  5
61
102
{ACAD_REACTORS
330
47
102
}
330
47
100
AcDbScale
 70
     0
300
3/8" = 1'-0"
140
0.375
141
12.0
290
     0
  0
SCALE
  5
62
102
{ACAD_REACTORS
330
47
102
}
330
47
100
AcDbScale
 70
     0
300
1/2" = 1'-0"
140
0.5
141
12.0
290
     0
  0
SCALE
  5
63
102
{ACAD_REACTORS
330
47
102
}
330
47
100
AcDbScale
 70
     0
300
3/4" = 1'-0"
140
0.75
141
12.0
290
     0
  0
SCALE
  5
64
102
{ACAD_REACTORS
330
47
102
}
330
47
100
AcDbScale
 70
     0
300
1" = 1'-0"
140
1.0
141
12.0
290
     0
  0
SCALE
  5
65
102
{ACAD_REACTORS
330
47
102
}
330
47
100
AcDbScale
 70
     0
300
1-1/2" = 1'-0"
140
1.5
141
12.0
290
     0
  0
SCALE
  5
66
102
{ACAD_REACTORS
330
47
102
}
330
47
100
AcDbScale
 70
     0
300
3" = 1'-0"
140
3.0
141
12.0
290
     0
  0
SCALE
  5
67
102
{ACAD_REACTORS
330
47
102
}
330
47
100
AcDbScale
 70
     0
300
6" = 1'-0"
140
6.0
141
12.0
290
     0
  0
SCALE
  5
68
102
{ACAD_REACTORS
330
47
102
}
330
47
100
AcDbScale
 70
     0
300
1'-0" = 1'-0"
140
12.0
141
12.0
290
     0
  0
ACDBSECTIONVIEWSTYLE
  5
E2
102
{ACAD_REACTORS
330
DE
102
}
330
DE
100
AcDbModelDocViewStyle
 70
     0
  3
Imperial24
290
     0
300
Imperial24
 90
        0
100
AcDbSectionViewStyle
 70
     0
 71
     0
 90
       78
 71
     1
340
11
 62
   256
 40
0.24
340
0
340
0
 62
   256
 40
0.24
300
I, O, Q, S, X, Z
 40
0.48
 90
        3
 40
0.18
 90
        1
 71
     2
340
16
 90
       25
 62
   256
340
16
 90
       50
 62
   256
 40
0.24
 40
0.0
 40
0.24
 71
     3
340
11
 62
   256
 40
0.24
 90
        1
 40
0.75
 90
        1
300
%<\AcVar ViewType \f "%tc1">% %<\AcVar ViewSectionStartId>%-%<\AcVar ViewSectionEndId>%\PVARIA %<\AcVar ViewScale \f "%sn">%
 71
     4
 62
   256
 62
   257
300
ANSI31
 40
1.0
 90
        0
290
     0
290
     0
 90
        6
 40
0.0
 40
1.570796326794896
 40
0.2617993877991494
 40
1.308996938995747
 40
-0.2617993877991494
 40
1.832595714594045
  0
TABLESTYLE
  5
6A
102
{ACAD_XDICTIONARY
360
D5
102
}
102
{ACAD_REACTORS
330
69
102
}
330
69
100
AcDbTableStyle
280
     0
  3
Standard
 70
     0
 71
     0
 40
0.06
 41
0.06
280
     0
281
     0
  7
Standard
140
0.18
170
     2
 62
     0
 63
     7
283
     0
 90
        4
 91
        0
  1

274
    -2
284
     1
 64
     0
275
    -2
285
     1
 65
     0
276
    -2
286
     1
 66
     0
277
    -2
287
     1
 67
     0
278
    -2
288
     1
 68
     0
279
    -2
289
     1
 69
     0
  7
Standard
140
0.25
170
     5
 62
     0
 63
     7
283
     0
 90
        4
 91
        0
  1

274
    -2
284
     1
 64
     0
275
    -2
285
     1
 65
     0
276
    -2
286
     1
 66
     0
277
    -2
287
     1
 67
     0
278
    -2
288
     1
 68
     0
279
    -2
289
     1
 69
     0
  7
Standard
140
0.18
170
     5
 62
     0
 63
     7
283
     0
 90
        4
 91
        0
  1

274
    -2
284
     1
 64
     0
275
    -2
285
     1
 65
     0
276
    -2
286
     1
 66
     0
277
    -2
287
     1
 67
     0
278
    -2
288
     1
 68
     0
279
    -2
289
     1
 69
     0
  0
VISUALSTYLE
  5
2F
102
{ACAD_REACTORS
330
2A
102
}
330
2A
100
AcDbVisualStyle
  2

 70
     4
177
     3
291
     0
 70
    58
 90
        0
176
     1
 90
        2
176
     1
 90
        0
176
     1
 90
        0
176
     1
 40
0.6
176
     1
 40
30.0
176
     1
 62
     7
420
 16777215
176
     1
 90
        1
176
     1
 90
        4
176
     1
 62
     7
176
     1
 62
   257
176
     1
 90
        1
176
     1
 90
        1
176
     1
 40
1.0
176
     1
 90
        0
176
     1
 62
   257
176
     1
 40
1.0
176
     1
 90
        1
176
     1
 90
        6
176
     1
 90
        2
176
     1
 62
     7
176
     1
 90
        5
176
     1
 90
        0
176
     1
 90
        0
176
     1
290
     0
176
     1
 90
        1
176
     1
 40
0.0
176
     1
 90
        0
176
     1
290
     1
176
     1
290
     1
176
     1
290
     0
176
     1
290
     0
176
     1
290
     0
176
     1
290
     0
176
     1
290
     0
176
     1
290
     0
176
     1
290
     0
176
     1
 90
       50
176
     1
 40
0.0
176
     1
 40
1.0
176
     1
 90
        0
176
     1
 62
    18
176
     1
 90
       50
176
     1
 90
        3
176
     1
 62
     5
420
      255
176
     1
290
     0
176
     1
 90
       50
176
     1
 90
       50
176
     1
 90
       50
176
     1
290
     0
176
     1
 90
       50
176
     1
 62
   256
176
     0
 40
1.0
176
     0
 90
        2
176
     1
  1
strokes_ogs.tif
176
     1
290
     0
176
     1
 40
1.0
176
     1
 40
1.0
176
     1
  0
VISUALSTYLE
  5
32
102
{ACAD_REACTORS
330
2A
102
}
330
2A
100
AcDbVisualStyle
  2

 70
     7
177
     3
291
     1
 70
    58
 90
        1
176
     1
 90
        0
176
     1
 90
        1
176
     1
 90
        0
176
     1
 40
0.6
176
     1
 40
30.0
176
     1
 62
     7
420
 16777215
176
     1
 90
        0
176
     1
 90
        4
176
     1
 62
     7
176
     1
 62
   257
176
     1
 90
        1
176
     1
 90
        1
176
     1
 40
1.0
176
     1
 90
        8
176
     1
 62
     7
176
     1
 40
1.0
176
     1
 90
        1
176
     1
 90
        6
176
     1
 90
        2
176
     1
 62
     7
176
     1
 90
        5
176
     1
 90
        0
176
     1
 90
        0
176
     1
290
     0
176
     1
 90
        1
176
     1
 40
0.0
176
     1
 90
        0
176
     1
290
     0
176
     1
290
     1
176
     1
290
     1
176
     1
290
     0
176
     1
290
     0
176
     1
290
     0
176
     1
290
     0
176
     1
290
     0
176
     1
290
     0
176
     1
 90
       50
176
     1
 40
0.0
176
     1
 40
1.0
176
     1
 90
        0
176
     1
 62
    18
176
     1
 90
       50
176
     1
 90
        3
176
     1
 62
     5
420
      255
176
     1
290
     0
176
     1
 90
       50
176
     1
 90
       50
176
     1
 90
       50
176
     1
290
     0
176
     1
 90
       50
176
     1
 62
   256
176
     0
 40
1.0
176
     0
 90
        2
176
     1
  1
strokes_ogs.tif
176
     1
290
     0
176
     1
 40
1.0
176
     1
 40
1.0
176
     1
  0
VISUALSTYLE
  5
36
102
{ACAD_REACTORS
330
2A
102
}
330
2A
100
AcDbVisualStyle
  2

 70
    12
177
     3
291
     1
 70
    58
 90
        2
176
     1
 90
        2
176
     1
 90
        0
176
     1
 90
        0
176
     1
 40
0.6
176
     1
 40
30.0
176
     1
 62
     7
420
 16777215
176
     1
 90
        1
176
     1
 90
        4
176
     1
 62
     7
176
     1
 62
   257
176
     1
 90
        1
176
     1
 90
        1
176
     1
 40
1.0
176
     1
 90
        8
176
     1
 62
     7
176
     1
 40
1.0
176
     1
 90
        1
176
     1
 90
        6
176
     1
 90
        2
176
     1
 62
     7
176
     1
 90
        5
176
     1
 90
        0
176
     1
 90
        0
176
     1
290
     0
176
     1
 90
        1
176
     1
 40
50.0
176
     1
 90
        0
176
     1
290
     0
176
     1
290
     1
176
     1
290
     1
176
     1
290
     0
176
     1
290
     0
176
     1
290
     0
176
     1
290
     0
176
     1
290
     0
176
     1
290
     0
176
     1
 90
       50
176
     1
 40
0.0
176
     1
 40
1.0
176
     1
 90
        0
176
     1
 62
    18
176
     1
 90
       50
176
     1
 90
        3
176
     1
 62
     5
420
      255
176
     1
290
     0
176
     1
 90
       50
176
     1
 90
       50
176
     1
 90
       50
176
     1
290
     0
176
     1
 90
       50
176
     1
 62
   256
176
     0
 40
1.0
176
     0
 90
        2
176
     1
  1
strokes_ogs.tif
176
     1
290
     0
176
     1
 40
1.0
176
     1
 40
1.0
176
     1
  0
VISUALSTYLE
  5
3A
102
{ACAD_REACTORS
330
2A
102
}
330
2A
100
AcDbVisualStyle
  2

 70
    16
177
     3
291
     1
 70
    58
 90
        2
176
     1
 90
        2
176
     1
 90
        3
176
     1
 90
        0
176
     1
 40
0.6
176
     1
 40
30.0
176
     1
 62
     8
420
  8421504
176
     1
 90
        1
176
     1
 90
        4
176
     1
 62
     7
176
     1
 62
   257
176
     1
 90
        1
176
     1
 90
        1
176
     1
 40
1.0
176
     1
 90
        8
176
     1
 62
     8
420
  8421504
176
     1
 40
1.0
176
     1
 90
        1
176
     1
 90
        6
176
     1
 90
        2
176
     1
 62
     7
176
     1
 90
        5
176
     1
 90
        0
176
     1
 90
        0
176
     1
290
     0
176
     1
 90
        1
176
     1
 40
0.0
176
     1
 90
        0
176
     1
290
     0
176
     1
290
     1
176
     1
290
     1
176
     1
290
     0
176
     1
290
     0
176
     1
290
     0
176
     1
290
     0
176
     1
290
     0
176
     1
290
     0
176
     1
 90
       50
176
     1
 40
0.0
176
     1
 40
1.0
176
     1
 90
        0
176
     1
 62
    18
176
     1
 90
       50
176
     1
 90
        3
176
     1
 62
     5
420
      255
176
     1
290
     0
176
     1
 90
       50
176
     1
 90
       50
176
     1
 90
       50
176
     1
290
     0
176
     1
 90
       50
176
     1
 62
   256
176
     0
 40
1.0
176
     0
 90
        2
176
     1
  1
strokes_ogs.tif
176
     1
290
     0
176
     1
 40
1.0
176
     1
 40
1.0
176
     1
  0
VISUALSTYLE
  5
34
102
{ACAD_REACTORS
330
2A
102
}
330
2A
100
AcDbVisualStyle
  2

 70
     9
177
     3
291
     0
 70
    58
 90
        3
176
     1
 90
        2
176
     1
 90
        0
176
     1
 90
        0
176
     1
 40
0.6
176
     1
 40
30.0
176
     1
 62
     7
420
 16777215
176
     1
 90
        2
176
     1
 90
        2
176
     1
 62
     7
176
     1
 62
   257
176
     1
 90
        1
176
     1
 90
        1
176
     1
 40
179.0
176
     1
 90
        8
176
     1
 62
     7
176
     1
 40
1.0
176
     1
 90
        1
176
     1
 90
        6
176
     1
 90
        2
176
     1
 62
     7
176
     1
 90
        3
176
     1
 90
        0
176
     1
 90
        0
176
     1
290
     0
176
     1
 90
        1
176
     1
 40
0.0
176
     1
 90
        0
176
     1
290
     0
176
     1
290
     1
176
     1
290
     1
176
     1
290
     0
176
     1
290
     0
176
     1
290
     0
176
     1
290
     0
176
     1
290
     0
176
     1
290
     0
176
     1
 90
       50
176
     1
 40
0.0
176
     1
 40
1.0
176
     1
 90
        0
176
     1
 62
    18
176
     1
 90
       50
176
     1
 90
        3
176
     1
 62
     5
420
      255
176
     1
290
     0
176
     1
 90
       50
176
     1
 90
       50
176
     1
 90
       50
176
     1
290
     0
176
     1
 90
       50
176
     1
 62
   256
176
     0
 40
1.0
176
     0
 90
        2
176
     1
  1
strokes_ogs.tif
176
     1
290
     0
176
     1
 40
1.0
176
     1
 40
1.0
176
     1
  0
VISUALSTYLE
  5
35
102
{ACAD_REACTORS
330
2A
102
}
330
2A
100
AcDbVisualStyle
  2

 70
    11
177
     3
291
     1
 70
    58
 90
        2
176
     1
 90
        2
176
     1
 90
        0
176
     1
 90
        0
176
     1
 40
0.6
176
     1
 40
30.0
176
     1
 62
     7
420
 16777215
176
     1
 90
        1
176
     1
 90
        4
176
     1
 62
     7
176
     1
 62
   257
176
     1
 90
        1
176
     1
 90
        1
176
     1
 40
1.0
176
     1
 90
        8
176
     1
 62
     7
176
     1
 40
1.0
176
     1
 90
        1
176
     1
 90
        6
176
     1
 90
        2
176
     1
 62
     7
176
     1
 90
        5
176
     1
 90
        0
176
     1
 90
        0
176
     1
290
     0
176
     1
 90
        1
176
     1
 40
-50.0
176
     1
 90
        0
176
     1
290
     0
176
     1
290
     1
176
     1
290
     1
176
     1
290
     0
176
     1
290
     0
176
     1
290
     0
176
     1
290
     0
176
     1
290
     0
176
     1
290
     0
176
     1
 90
       50
176
     1
 40
0.0
176
     1
 40
1.0
176
     1
 90
        0
176
     1
 62
    18
176
     1
 90
       50
176
     1
 90
        3
176
     1
 62
     5
420
      255
176
     1
290
     0
176
     1
 90
       50
176
     1
 90
       50
176
     1
 90
       50
176
     1
290
     0
176
     1
 90
       50
176
     1
 62
   256
176
     0
 40
1.0
176
     0
 90
        2
176
     1
  1
strokes_ogs.tif
176
     1
290
     0
176
     1
 40
1.0
176
     1
 40
1.0
176
     1
  0
VISUALSTYLE
  5
3D
102
{ACAD_REACTORS
330
2A
102
}
330
2A
100
AcDbVisualStyle
  2

 70
    22
177
     3
291
     1
 70
    58
 90
        2
176
     0
 90
        2
176
     0
 90
        0
176
     0
 90
        0
176
     0
 40
0.6
176
     0
 40
30.0
176
     0
 62
     7
420
 16777215
176
     0
 90
        1
176
     0
 90
        4
176
     0
 62
     7
176
     0
 62
   257
176
     0
 90
        1
176
     0
 90
        1
176
     0
 40
1.0
176
     0
 90
        8
176
     2
 62
     7
176
     0
 40
1.0
176
     0
 90
        1
176
     0
 90
        6
176
     0
 90
        2
176
     0
 62
     7
176
     0
 90
        5
176
     0
 90
        0
176
     0
 90
        0
176
     0
290
     0
176
     0
 90
        1
176
     0
 40
0.0
176
     0
 90
        0
176
     0
290
     0
176
     0
290
     1
176
     0
290
     1
176
     0
290
     0
176
     0
290
     0
176
     0
290
     0
176
     0
290
     0
176
     0
290
     0
176
     0
290
     0
176
     0
 90
       50
176
     0
 40
0.0
176
     0
 40
1.0
176
     0
 90
        0
176
     0
 62
    18
176
     0
 90
       50
176
     0
 90
        3
176
     0
 62
     5
420
      255
176
     0
290
     0
176
     0
 90
       50
176
     0
 90
       50
176
     0
 90
       50
176
     0
290
     0
176
     0
 90
       50
176
     0
 62
   256
176
     0
 40
1.0
176
     0
 90
        2
176
     0
  1
strokes_ogs.tif
176
     0
290
     0
176
     0
 40
1.0
176
     0
 40
1.0
176
     0
  0
VISUALSTYLE
  5
39
102
{ACAD_REACTORS
330
2A
102
}
330
2A
100
AcDbVisualStyle
  2

 70
    15
177
     3
291
     1
 70
    58
 90
        2
176
     1
 90
        2
176
     1
 90
        0
176
     1
 90
        0
176
     1
 40
0.6
176
     1
 40
30.0
176
     1
 62
     7
420
 16777215
176
     1
 90
        1
176
     1
 90
        4
176
     1
 62
     7
176
     1
 62
   257
176
     1
 90
        1
176
     1
 90
        1
176
     1
 40
1.0
176
     1
 90
        8
176
     1
 62
     7
176
     1
 40
1.0
176
     1
 90
        1
176
     1
 90
        6
176
     1
 90
        2
176
     1
 62
     7
176
     1
 90
        5
176
     1
 90
        0
176
     1
 90
        0
176
     1
290
     0
176
     1
 90
        1
176
     1
 40
0.0
176
     1
 90
        0
176
     1
290
     0
176
     1
290
     1
176
     1
290
     1
176
     1
290
     0
176
     1
290
     0
176
     1
290
     0
176
     1
290
     0
176
     1
290
     0
176
     1
290
     0
176
     1
 90
       50
176
     1
 40
0.0
176
     1
 40
1.0
176
     1
 90
        0
176
     1
 62
    18
176
     1
 90
       50
176
     1
 90
        3
176
     1
 62
     5
420
      255
176
     1
290
     0
176
     1
 90
       50
176
     1
 90
       50
176
     1
 90
       50
176
     1
290
     0
176
     1
 90
       50
176
     1
 62
   256
176
     0
 40
1.0
176
     0
 90
        2
176
     1
  1
strokes_ogs.tif
176
     1
290
     0
176
     1
 40
1.0
176
     1
 40
1.0
176
     1
  0
VISUALSTYLE
  5
2B
102
{ACAD_REACTORS
330
2A
102
}
330
2A
100
AcDbVisualStyle
  2

 70
     0
177
     3
291
     1
 70
    58
 90
        2
176
     1
 90
        1
176
     1
 90
        1
176
     1
 90
        2
176
     1
 40
0.6
176
     1
 40
30.0
176
     1
 62
     7
420
 16777215
176
     1
 90
        0
176
     1
 90
        0
176
     1
 62
     7
176
     1
 62
   257
176
     1
 90
        1
176
     1
 90
        1
176
     1
 40
1.0
176
     1
 90
        8
176
     1
 62
     7
176
     1
 40
1.0
176
     1
 90
        1
176
     1
 90
        6
176
     1
 90
        2
176
     1
 62
     7
176
     1
 90
        5
176
     1
 90
        0
176
     1
 90
        0
176
     1
290
     0
176
     1
 90
       13
176
     1
 40
0.0
176
     1
 90
        0
176
     1
290
     0
176
     1
290
     1
176
     1
290
     1
176
     1
290
     0
176
     1
290
     0
176
     1
290
     0
176
     1
290
     0
176
     1
290
     0
176
     1
290
     0
176
     1
 90
       50
176
     1
 40
0.0
176
     1
 40
1.0
176
     1
 90
        0
176
     1
 62
    18
176
     1
 90
       50
176
     1
 90
        3
176
     1
 62
     5
420
      255
176
     1
290
     0
176
     1
 90
       50
176
     1
 90
       50
176
     1
 90
       50
176
     1
290
     0
176
     1
 90
       50
176
     1
 62
   256
176
     0
 40
1.0
176
     0
 90
        2
176
     1
  1
strokes_ogs.tif
176
     1
290
     0
176
     1
 40
1.0
176
     1
 40
1.0
176
     1
  0
VISUALSTYLE
  5
2C
102
{ACAD_REACTORS
330
2A
102
}
330
2A
100
AcDbVisualStyle
  2

 70
     1
177
     3
291
     1
 70
    58
 90
        2
176
     1
 90
        1
176
     1
 90
        1
176
     1
 90
        2
176
     1
 40
0.6
176
     1
 40
30.0
176
     1
 62
     7
420
 16777215
176
     1
 90
        1
176
     1
 90
        0
176
     1
 62
     7
176
     1
 62
   257
176
     1
 90
        1
176
     1
 90
        1
176
     1
 40
1.0
176
     1
 90
        0
176
     1
 62
   257
176
     1
 40
1.0
176
     1
 90
        1
176
     1
 90
        6
176
     1
 90
        2
176
     1
 62
     7
176
     1
 90
        5
176
     1
 90
        0
176
     1
 90
        0
176
     1
290
     0
176
     1
 90
       13
176
     1
 40
0.0
176
     1
 90
        0
176
     1
290
     0
176
     1
290
     1
176
     1
290
     1
176
     1
290
     0
176
     1
290
     0
176
     1
290
     0
176
     1
290
     0
176
     1
290
     0
176
     1
290
     0
176
     1
 90
       50
176
     1
 40
0.0
176
     1
 40
1.0
176
     1
 90
        0
176
     1
 62
    18
176
     1
 90
       50
176
     1
 90
        3
176
     1
 62
     5
420
      255
176
     1
290
     0
176
     1
 90
       50
176
     1
 90
       50
176
     1
 90
       50
176
     1
290
     0
176
     1
 90
       50
176
     1
 62
   256
176
     0
 40
1.0
176
     0
 90
        2
176
     1
  1
strokes_ogs.tif
176
     1
290
     0
176
     1
 40
1.0
176
     1
 40
1.0
176
     1
  0
VISUALSTYLE
  5
2D
102
{ACAD_REACTORS
330
2A
102
}
330
2A
100
AcDbVisualStyle
  2

 70
     2
177
     3
291
     1
 70
    58
 90
        2
176
     1
 90
        2
176
     1
 90
        1
176
     1
 90
        2
176
     1
 40
0.6
176
     1
 40
30.0
176
     1
 62
     7
420
 16777215
176
     1
 90
        0
176
     1
 90
        0
176
     1
 62
     7
176
     1
 62
   257
176
     1
 90
        1
176
     1
 90
        1
176
     1
 40
1.0
176
     1
 90
        0
176
     1
 62
     7
176
     1
 40
1.0
176
     1
 90
        1
176
     1
 90
        6
176
     1
 90
        2
176
     1
 62
     7
176
     1
 90
        5
176
     1
 90
        0
176
     1
 90
        0
176
     1
290
     0
176
     1
 90
       13
176
     1
 40
0.0
176
     1
 90
        0
176
     1
290
     0
176
     1
290
     1
176
     1
290
     1
176
     1
290
     0
176
     1
290
     0
176
     1
290
     0
176
     1
290
     0
176
     1
290
     0
176
     1
290
     0
176
     1
 90
       50
176
     1
 40
0.0
176
     1
 40
1.0
176
     1
 90
        0
176
     1
 62
    18
176
     1
 90
       50
176
     1
 90
        3
176
     1
 62
     5
420
      255
176
     1
290
     0
176
     1
 90
       50
176
     1
 90
       50
176
     1
 90
       50
176
     1
290
     0
176
     1
 90
       50
176
     1
 62
   256
176
     0
 40
1.0
176
     0
 90
        2
176
     1
  1
strokes_ogs.tif
176
     1
290
     0
176
     1
 40
1.0
176
     1
 40
1.0
176
     1
  0
VISUALSTYLE
  5
2E
102
{ACAD_REACTORS
330
2A
102
}
330
2A
100
AcDbVisualStyle
  2

 70
     3
177
     3
291
     1
 70
    58
 90
        2
176
     1
 90
        2
176
     1
 90
        1
176
     1
 90
        2
176
     1
 40
0.6
176
     1
 40
30.0
176
     1
 62
     7
420
 16777215
176
     1
 90
        1
176
     1
 90
        0
176
     1
 62
     7
176
     1
 62
   257
176
     1
 90
        1
176
     1
 90
        1
176
     1
 40
1.0
176
     1
 90
        0
176
     1
 62
   257
176
     1
 40
1.0
176
     1
 90
        1
176
     1
 90
        6
176
     1
 90
        2
176
     1
 62
     7
176
     1
 90
        5
176
     1
 90
        0
176
     1
 90
        0
176
     1
290
     0
176
     1
 90
       13
176
     1
 40
0.0
176
     1
 90
        0
176
     1
290
     0
176
     1
290
     1
176
     1
290
     1
176
     1
290
     0
176
     1
290
     0
176
     1
290
     0
176
     1
290
     0
176
     1
290
     0
176
     1
290
     0
176
     1
 90
       50
176
     1
 40
0.0
176
     1
 40
1.0
176
     1
 90
        0
176
     1
 62
    18
176
     1
 90
       50
176
     1
 90
        3
176
     1
 62
     5
420
      255
176
     1
290
     0
176
     1
 90
       50
176
     1
 90
       50
176
     1
 90
       50
176
     1
290
     0
176
     1
 90
       50
176
     1
 62
   256
176
     0
 40
1.0
176
     0
 90
        2
176
     1
  1
strokes_ogs.tif
176
     1
290
     0
176
     1
 40
1.0
176
     1
 40
1.0
176
     1
  0
VISUALSTYLE
  5
31
102
{ACAD_REACTORS
330
2A
102
}
330
2A
100
AcDbVisualStyle
  2

 70
     6
177
     3
291
     0
 70
    58
 90
        1
176
     1
 90
        2
176
     1
 90
        2
176
     1
 90
        0
176
     1
 40
0.6
176
     1
 40
30.0
176
     1
 62
     7
420
 16777215
176
     1
 90
        2
176
     1
 90
        2
176
     1
 62
     7
176
     1
 62
   257
176
     1
 90
        2
176
     1
 90
        1
176
     1
 40
40.0
176
     1
 90
        0
176
     1
 62
   257
176
     1
 40
1.0
176
     1
 90
        1
176
     1
 90
        6
176
     1
 90
        2
176
     1
 62
     7
176
     1
 90
        3
176
     1
 90
        0
176
     1
 90
        0
176
     1
290
     0
176
     1
 90
        1
176
     1
 40
0.0
176
     1
 90
        0
176
     1
290
     0
176
     1
290
     1
176
     1
290
     1
176
     1
290
     0
176
     1
290
     0
176
     1
290
     0
176
     1
290
     0
176
     1
290
     0
176
     1
290
     0
176
     1
 90
       50
176
     1
 40
0.0
176
     1
 40
1.0
176
     1
 90
        0
176
     1
 62
    18
176
     1
 90
       50
176
     1
 90
        3
176
     1
 62
     5
420
      255
176
     1
290
     0
176
     1
 90
       50
176
     1
 90
       50
176
     1
 90
       50
176
     1
290
     0
176
     1
 90
       50
176
     1
 62
   256
176
     0
 40
1.0
176
     0
 90
        2
176
     1
  1
strokes_ogs.tif
176
     1
290
     0
176
     1
 40
1.0
176
     1
 40
1.0
176
     1
  0
VISUALSTYLE
  5
3B
102
{ACAD_REACTORS
330
2A
102
}
330
2A
100
AcDbVisualStyle
  2

 70
    20
177
     3
291
     1
 70
    58
 90
        2
176
     0
 90
        2
176
     0
 90
        0
176
     0
 90
        0
176
     0
 40
0.6
176
     0
 40
30.0
176
     0
 62
     7
420
 16777215
176
     0
 90
        1
176
     0
 90
        4
176
     0
 62
     7
176
     0
 62
   257
176
     0
 90
        1
176
     0
 90
        1
176
     0
 40
1.0
176
     0
 90
       10
176
     2
 62
     7
176
     0
 40
1.0
176
     0
 90
        1
176
     0
 90
        6
176
     0
 90
        2
176
     0
 62
     7
176
     0
 90
        5
176
     0
 90
        0
176
     0
 90
        0
176
     0
290
     0
176
     0
 90
        1
176
     0
 40
0.0
176
     0
 90
        0
176
     0
290
     0
176
     0
290
     1
176
     0
290
     1
176
     0
290
     0
176
     0
290
     0
176
     0
290
     0
176
     0
290
     0
176
     0
290
     0
176
     0
290
     0
176
     0
 90
       50
176
     0
 40
0.0
176
     0
 40
1.0
176
     0
 90
        0
176
     0
 62
    18
176
     0
 90
       50
176
     0
 90
        3
176
     0
 62
     5
420
      255
176
     0
290
     0
176
     0
 90
       50
176
     0
 90
       50
176
     0
 90
       50
176
     0
290
     0
176
     0
 90
       50
176
     0
 62
   256
176
     0
 40
1.0
176
     0
 90
        2
176
     0
  1
strokes_ogs.tif
176
     0
290
     0
176
     0
 40
1.0
176
     0
 40
1.0
176
     0
  0
VISUALSTYLE
  5
38
102
{ACAD_REACTORS
330
2A
102
}
330
2A
100
AcDbVisualStyle
  2

 70
    14
177
     3
291
     1
 70
    58
 90
        2
176
     1
 90
        2
176
     1
 90
        0
176
     1
 90
        0
176
     1
 40
0.6
176
     1
 40
30.0
176
     1
 62
     7
420
 16777215
176
     1
 90
        1
176
     1
 90
        4
176
     1
 62
     7
176
     1
 62
   257
176
     1
 90
        7
176
     1
 90
        7
176
     1
 40
1.0
176
     1
 90
        8
176
     1
 62
     7
176
     1
 40
1.0
176
     1
 90
        1
176
     1
 90
        6
176
     1
 90
        2
176
     1
 62
     7
176
     1
 90
        5
176
     1
 90
        0
176
     1
 90
        0
176
     1
290
     0
176
     1
 90
        1
176
     1
 40
0.0
176
     1
 90
        0
176
     1
290
     0
176
     1
290
     1
176
     1
290
     1
176
     1
290
     0
176
     1
290
     0
176
     1
290
     0
176
     1
290
     0
176
     1
290
     0
176
     1
290
     0
176
     1
 90
       50
176
     1
 40
0.0
176
     1
 40
1.0
176
     1
 90
        0
176
     1
 62
    18
176
     1
 90
       50
176
     1
 90
        3
176
     1
 62
     5
420
      255
176
     1
290
     0
176
     1
 90
       50
176
     1
 90
       50
176
     1
 90
       50
176
     1
290
     0
176
     1
 90
       50
176
     1
 62
   256
176
     0
 40
1.0
176
     0
 90
        2
176
     1
  1
strokes_ogs.tif
176
     1
290
     0
176
     1
 40
1.0
176
     1
 40
1.0
176
     1
  0
VISUALSTYLE
  5
3C
102
{ACAD_REACTORS
330
2A
102
}
330
2A
100
AcDbVisualStyle
  2

 70
    21
177
     3
291
     1
 70
    58
 90
        2
176
     0
 90
        2
176
     0
 90
        0
176
     0
 90
        0
176
     0
 40
0.6
176
     0
 40
30.0
176
     0
 62
     7
420
 16777215
176
     0
 90
        1
176
     0
 90
        4
176
     0
 62
     7
176
     0
 62
   257
176
     0
 90
        1
176
     0
 90
        1
176
     0
 40
1.0
176
     0
 90
        9
176
     2
 62
     7
176
     0
 40
1.0
176
     0
 90
        1
176
     0
 90
        6
176
     0
 90
        2
176
     0
 62
     7
176
     0
 90
        5
176
     0
 90
        0
176
     0
 90
        0
176
     0
290
     0
176
     0
 90
        1
176
     0
 40
0.0
176
     0
 90
        0
176
     0
290
     0
176
     0
290
     1
176
     0
290
     1
176
     0
290
     0
176
     0
290
     0
176
     0
290
     0
176
     0
290
     0
176
     0
290
     0
176
     0
290
     0
176
     0
 90
       50
176
     0
 40
0.0
176
     0
 40
1.0
176
     0
 90
        0
176
     0
 62
    18
176
     0
 90
       50
176
     0
 90
        3
176
     0
 62
     5
420
      255
176
     0
290
     0
176
     0
 90
       50
176
     0
 90
       50
176
     0
 90
       50
176
     0
290
     0
176
     0
 90
       50
176
     0
 62
   256
176
     0
 40
1.0
176
     0
 90
        2
176
     0
  1
strokes_ogs.tif
176
     0
290
     0
176
     0
 40
1.0
176
     0
 40
1.0
176
     0
  0
VISUALSTYLE
  5
33
102
{ACAD_REACTORS
330
2A
102
}
330
2A
100
AcDbVisualStyle
  2

 70
     8
177
     3
291
     0
 70
    58
 90
        2
176
     1
 90
        3
176
     1
 90
        0
176
     1
 90
        2
176
     1
 40
0.6
176
     1
 40
30.0
176
     1
 62
     7
420
 16777215
176
     1
 90
        0
176
     1
 90
        0
176
     1
 62
     7
176
     1
 62
   257
176
     1
 90
        1
176
     1
 90
        1
176
     1
 40
1.0
176
     1
 90
        8
176
     1
 62
   257
176
     1
 40
1.0
176
     1
 90
        1
176
     1
 90
        6
176
     1
 90
        2
176
     1
 62
     7
176
     1
 90
        3
176
     1
 90
        0
176
     1
 90
        0
176
     1
290
     0
176
     1
 90
       13
176
     1
 40
0.0
176
     1
 90
        0
176
     1
290
     0
176
     1
290
     1
176
     1
290
     1
176
     1
290
     0
176
     1
290
     0
176
     1
290
     0
176
     1
290
     0
176
     1
290
     0
176
     1
290
     0
176
     1
 90
       50
176
     1
 40
0.0
176
     1
 40
1.0
176
     1
 90
        0
176
     1
 62
    18
176
     1
 90
       50
176
     1
 90
        3
176
     1
 62
     5
420
      255
176
     1
290
     0
176
     1
 90
       50
176
     1
 90
       50
176
     1
 90
       50
176
     1
290
     0
176
     1
 90
       50
176
     1
 62
   256
176
     0
 40
1.0
176
     0
 90
        2
176
     1
  1
strokes_ogs.tif
176
     1
290
     0
176
     1
 40
1.0
176
     1
 40
1.0
176
     1
  0
VISUALSTYLE
  5
42
102
{ACAD_REACTORS
330
2A
102
}
330
2A
100
AcDbVisualStyle
  2

 70
    27
177
     3
291
     0
 70
    58
 90
        2
176
     1
 90
        2
176
     1
 90
        1
176
     1
 90
        2
176
     1
 40
0.6
176
     1
 40
30.0
176
     1
 62
     7
420
 16777215
176
     1
 90
        0
176
     1
 90
        4
176
     1
 62
     7
176
     1
 62
   257
176
     1
 90
        1
176
     1
 90
        1
176
     1
 40
1.0
176
     1
 90
        8
176
     1
 62
   257
176
     1
 40
1.0
176
     1
 90
        1
176
     1
 90
        6
176
     1
 90
        2
176
     1
 62
     8
420
  7895160
176
     1
 90
        3
176
     1
 90
        0
176
     1
 90
        0
176
     1
290
     0
176
     1
 90
        5
176
     1
 40
0.0
176
     1
 90
        0
176
     1
290
     0
176
     1
290
     1
176
     1
290
     1
176
     1
290
     0
176
     1
290
     0
176
     1
290
     0
176
     1
290
     0
176
     1
290
     0
176
     1
290
     0
176
     1
 90
       50
176
     1
 40
0.0
176
     1
 40
1.0
176
     1
 90
        0
176
     1
 62
    18
176
     1
 90
       50
176
     1
 90
        3
176
     1
 62
     5
420
      255
176
     1
290
     0
176
     1
 90
       50
176
     1
 90
       50
176
     1
 90
       50
176
     1
290
     0
176
     1
 90
       50
176
     1
 62
   256
176
     0
 40
1.0
176
     0
 90
        2
176
     1
  1
strokes_ogs.tif
176
     1
290
     0
176
     1
 40
1.0
176
     1
 40
1.0
176
     1
  0
VISUALSTYLE
  5
41
102
{ACAD_REACTORS
330
2A
102
}
330
2A
100
AcDbVisualStyle
  2

 70
    26
177
     3
291
     0
 70
    58
 90
        2
176
     1
 90
        2
176
     1
 90
        1
176
     1
 90
        2
176
     1
 40
0.6
176
     1
 40
30.0
176
     1
 62
     7
420
 16777215
176
     1
 90
        1
176
     1
 90
        2
176
     1
 62
     7
176
     1
 62
   257
176
     1
 90
        2
176
     1
 90
        1
176
     1
 40
1.0
176
     1
 90
        8
176
     1
 62
   257
176
     1
 40
1.0
176
     1
 90
        1
176
     1
 90
        6
176
     1
 90
        2
176
     1
 62
     7
176
     1
 90
        3
176
     1
 90
        0
176
     1
 90
        0
176
     1
290
     0
176
     1
 90
        5
176
     1
 40
0.0
176
     1
 90
        0
176
     1
290
     0
176
     1
290
     1
176
     1
290
     1
176
     1
290
     0
176
     1
290
     0
176
     1
290
     0
176
     1
290
     0
176
     1
290
     0
176
     1
290
     0
176
     1
 90
       50
176
     1
 40
0.0
176
     1
 40
1.0
176
     1
 90
        0
176
     1
 62
    18
176
     1
 90
       50
176
     1
 90
        3
176
     1
 62
     5
420
      255
176
     1
290
     0
176
     1
 90
       50
176
     1
 90
       50
176
     1
 90
       50
176
     1
290
     0
176
     1
 90
       50
176
     1
 62
   256
176
     0
 40
1.0
176
     0
 90
        2
176
     1
  1
strokes_ogs.tif
176
     1
290
     0
176
     1
 40
1.0
176
     1
 40
1.0
176
     1
  0
VISUALSTYLE
  5
3E
102
{ACAD_REACTORS
330
2A
102
}
330
2A
100
AcDbVisualStyle
  2

 70
    23
177
     3
291
     0
 70
    58
 90
        2
176
     1
 90
        2
176
     1
 90
        3
176
     1
 90
        0
176
     1
 40
0.6
176
     1
 40
30.0
176
     1
 62
     7
420
 16777215
176
     1
 90
        2
176
     1
 90
        2
176
     1
 62
     7
176
     1
 62
     7
176
     1
 90
        1
176
     1
 90
        1
176
     1
 40
40.0
176
     1
 90
        8
176
     1
 62
     7
176
     1
 40
1.0
176
     1
 90
        1
176
     1
 90
        6
176
     1
 90
        2
176
     1
 62
     7
176
     1
 90
        3
176
     1
 90
        0
176
     1
 90
        0
176
     1
290
     0
176
     1
 90
        1
176
     1
 40
0.0
176
     1
 90
        0
176
     1
290
     0
176
     1
290
     1
176
     1
290
     1
176
     1
290
     0
176
     1
290
     0
176
     1
290
     0
176
     1
290
     0
176
     1
290
     0
176
     1
290
     0
176
     1
 90
       50
176
     1
 40
0.0
176
     1
 40
1.0
176
     1
 90
        0
176
     1
 62
    18
176
     1
 90
       50
176
     1
 90
        3
176
     1
 62
     5
420
      255
176
     1
290
     0
176
     1
 90
       50
176
     1
 90
       50
176
     1
 90
       50
176
     1
290
     0
176
     1
 90
       50
176
     1
 62
   256
176
     0
 40
1.0
176
     0
 90
        2
176
     1
  1
strokes_ogs.tif
176
     1
290
     0
176
     1
 40
1.0
176
     1
 40
1.0
176
     1
  0
VISUALSTYLE
  5
3F
102
{ACAD_REACTORS
330
2A
102
}
330
2A
100
AcDbVisualStyle
  2

 70
    24
177
     3
291
     0
 70
    58
 90
        1
176
     1
 90
        2
176
     1
 90
        2
176
     1
 90
        0
176
     1
 40
0.6
176
     1
 40
30.0
176
     1
 62
     7
420
 16777215
176
     1
 90
        2
176
     1
 90
        2
176
     1
 62
     7
176
     1
 62
     7
176
     1
 90
        1
176
     1
 90
        1
176
     1
 40
40.0
176
     1
 90
       11
176
     1
 62
     7
176
     1
 40
1.0
176
     1
 90
        1
176
     1
 90
        6
176
     1
 90
        2
176
     1
 62
     7
176
     1
 90
        6
176
     1
 90
        0
176
     1
 90
        0
176
     1
290
     0
176
     1
 90
        1
176
     1
 40
0.0
176
     1
 90
        0
176
     1
290
     0
176
     1
290
     1
176
     1
290
     1
176
     1
290
     0
176
     1
290
     0
176
     1
290
     0
176
     1
290
     0
176
     1
290
     0
176
     1
290
     0
176
     1
 90
       50
176
     1
 40
0.0
176
     1
 40
1.0
176
     1
 90
        0
176
     1
 62
    18
176
     1
 90
       50
176
     1
 90
        3
176
     1
 62
     5
420
      255
176
     1
290
     0
176
     1
 90
       50
176
     1
 90
       50
176
     1
 90
       50
176
     1
290
     0
176
     1
 90
       50
176
     1
 62
   256
176
     0
 40
1.0
176
     0
 90
        2
176
     1
  1
strokes_ogs.tif
176
     1
290
     0
176
     1
 40
1.0
176
     1
 40
1.0
176
     1
  0
VISUALSTYLE
  5
37
102
{ACAD_REACTORS
330
2A
102
}
330
2A
100
AcDbVisualStyle
  2

 70
    13
177
     3
291
     1
 70
    58
 90
        2
176
     1
 90
        2
176
     1
 90
        0
176
     1
 90
        0
176
     1
 40
0.6
176
     1
 40
30.0
176
     1
 62
     7
420
 16777215
176
     1
 90
        1
176
     1
 90
        4
176
     1
 62
     7
176
     1
 62
   257
176
     1
 90
        1
176
     1
 90
        1
176
     1
 40
1.0
176
     1
 90
       12
176
     1
 62
     7
176
     1
 40
1.0
176
     1
 90
        1
176
     1
 90
        6
176
     1
 90
        2
176
     1
 62
     7
176
     1
 90
        5
176
     1
 90
        0
176
     1
 90
        0
176
     1
290
     0
176
     1
 90
        1
176
     1
 40
0.0
176
     1
 90
        0
176
     1
290
     0
176
     1
290
     1
176
     1
290
     1
176
     1
290
     0
176
     1
290
     0
176
     1
290
     0
176
     1
290
     0
176
     1
290
     0
176
     1
290
     0
176
     1
 90
       50
176
     1
 40
0.0
176
     1
 40
1.0
176
     1
 90
        0
176
     1
 62
    18
176
     1
 90
       50
176
     1
 90
        3
176
     1
 62
     5
420
      255
176
     1
290
     0
176
     1
 90
       50
176
     1
 90
       50
176
     1
 90
       50
176
     1
290
     0
176
     1
 90
       50
176
     1
 62
   256
176
     0
 40
1.0
176
     0
 90
        2
176
     1
  1
strokes_ogs.tif
176
     1
290
     0
176
     1
 40
1.0
176
     1
 40
1.0
176
     1
  0
VISUALSTYLE
  5
30
102
{ACAD_REACTORS
330
2A
102
}
330
2A
100
AcDbVisualStyle
  2

 70
     5
177
     3
291
     0
 70
    58
 90
        0
176
     1
 90
        2
176
     1
 90
        0
176
     1
 90
        0
176
     1
 40
0.6
176
     1
 40
30.0
176
     1
 62
     7
420
 16777215
176
     1
 90
        1
176
     1
 90
        4
176
     1
 62
     7
176
     1
 62
   257
176
     1
 90
        1
176
     1
 90
        1
176
     1
 40
1.0
176
     1
 90
        0
176
     1
 62
   257
176
     1
 40
1.0
176
     1
 90
        1
176
     1
 90
        6
176
     1
 90
        2
176
     1
 62
     7
176
     1
 90
        3
176
     1
 90
        0
176
     1
 90
        0
176
     1
290
     0
176
     1
 90
        1
176
     1
 40
0.0
176
     1
 90
        0
176
     1
290
     0
176
     1
290
     1
176
     1
290
     1
176
     1
290
     0
176
     1
290
     0
176
     1
290
     0
176
     1
290
     0
176
     1
290
     0
176
     1
290
     0
176
     1
 90
       50
176
     1
 40
0.0
176
     1
 40
1.0
176
     1
 90
        0
176
     1
 62
    18
176
     1
 90
       50
176
     1
 90
        3
176
     1
 62
     5
420
      255
176
     1
290
     0
176
     1
 90
       50
176
     1
 90
       50
176
     1
 90
       50
176
     1
290
     0
176
     1
 90
       50
176
     1
 62
   256
176
     0
 40
1.0
176
     0
 90
        2
176
     1
  1
strokes_ogs.tif
176
     1
290
     0
176
     1
 40
1.0
176
     1
 40
1.0
176
     1
  0
VISUALSTYLE
  5
40
102
{ACAD_REACTORS
330
2A
102
}
330
2A
100
AcDbVisualStyle
  2

 70
    25
177
     3
291
     0
 70
    58
 90
        2
176
     1
 90
        2
176
     1
 90
        1
176
     1
 90
        1
176
     1
 40
0.5
176
     1
 40
30.0
176
     1
 62
     7
420
 16777215
176
     1
 90
        1
176
     1
 90
        0
176
     1
 62
     7
176
     1
 62
   257
176
     1
 90
        1
176
     1
 90
        1
176
     1
 40
1.0
176
     1
 90
        8
176
     1
 62
     7
176
     1
 40
1.0
176
     1
 90
        1
176
     1
 90
        6
176
     1
 90
        2
176
     1
 62
     7
176
     1
 90
        3
176
     1
 90
        0
176
     1
 90
        0
176
     1
290
     0
176
     1
 90
       13
176
     1
 40
0.0
176
     1
 90
        0
176
     1
290
     0
176
     1
290
     1
176
     1
290
     1
176
     1
290
     0
176
     1
290
     0
176
     1
290
     0
176
     1
290
     0
176
     1
290
     0
176
     1
290
     0
176
     1
 90
       50
176
     1
 40
0.0
176
     1
 40
1.0
176
     1
 90
        0
176
     1
 62
    18
176
     1
 90
       50
176
     1
 90
        3
176
     1
 62
     5
420
      255
176
     1
290
     0
176
     1
 90
       50
176
     1
 90
       50
176
     1
 90
       50
176
     1
290
     0
176
     1
 90
       50
176
     1
 62
   256
176
     0
 40
1.0
176
     0
 90
        2
176
     1
  1
strokes_ogs.tif
176
     1
290
     0
176
     1
 40
1.0
176
     1
 40
1.0
176
     1
  0
DICTIONARYVAR
  5
134
102
{ACAD_REACTORS
330
A2
102
}
330
A2
100
DictionaryVariables
280
     0
  1
2.000000
  0
DICTIONARYVAR
  5
A3
102
{ACAD_REACTORS
330
A2
102
}
330
A2
100
DictionaryVariables
280
     0
  1
1:1
  0
DICTIONARYVAR
  5
DC
102
{ACAD_REACTORS
330
A2
102
}
330
A2
100
DictionaryVariables
280
     0
  1
STANDARD
  0
DICTIONARYVAR
  5
DB
102
{ACAD_REACTORS
330
A2
102
}
330
A2
100
DictionaryVariables
280
     0
  1
STANDARD
  0
DICTIONARYVAR
  5
EC
102
{ACAD_REACTORS
330
A2
102
}
330
A2
100
DictionaryVariables
280
     0
  1
Imperial24
  0
DICTIONARYVAR
  5
ED
102
{ACAD_REACTORS
330
A2
102
}
330
A2
100
DictionaryVariables
280
     0
  1
Imperial24
  0
DICTIONARYVAR
  5
EE
102
{ACAD_REACTORS
330
A2
102
}
330
A2
100
DictionaryVariables
280
     0
  1
1
  0
DICTIONARYVAR
  5
EF
102
{ACAD_REACTORS
330
A2
102
}
330
A2
100
DictionaryVariables
280
     0
  1
15
  0
DICTIONARY
  5
D5
330
6A
100
AcDbDictionary
280
     1
281
     1
  3
ACAD_ROUNDTRIP_2008_TABLESTYLE_CELLSTYLEMAP
360
136
  0
CELLSTYLEMAP
  5
136
102
{ACAD_REACTORS
330
D5
102
}
330
D5
100
AcDbCellStyleMap
 90
        3
300
CELLSTYLE
  1
TABLEFORMAT_BEGIN
 90
        5
170
     1
 91
        0
 92
    32768
 62
   257
 93
        1
300
CONTENTFORMAT
  1
CONTENTFORMAT_BEGIN
 90
        0
 91
        0
 92
        4
 93
        0
300

 40
0.0
140
1.0
 94
        5
 62
     0
340
11
144
0.25
309
CONTENTFORMAT_END
171
     1
301
MARGIN
  1
CELLMARGIN_BEGIN
 40
0.06
 40
0.06
 40
0.06
 40
0.06
 40
0.18
 40
0.18
309
CELLMARGIN_END
 94
        6
 95
        1
302
GRIDFORMAT
  1
GRIDFORMAT_BEGIN
 90
        0
 91
        1
 62
     0
 92
       -2
340
14
 93
        0
 40
0.045
309
GRIDFORMAT_END
 95
        2
302
GRIDFORMAT
  1
GRIDFORMAT_BEGIN
 90
        0
 91
        1
 62
     0
 92
       -2
340
14
 93
        0
 40
0.045
309
GRIDFORMAT_END
 95
        4
302
GRIDFORMAT
  1
GRIDFORMAT_BEGIN
 90
        0
 91
        1
 62
     0
 92
       -2
340
14
 93
        0
 40
0.045
309
GRIDFORMAT_END
 95
        8
302
GRIDFORMAT
  1
GRIDFORMAT_BEGIN
 90
        0
 91
        1
 62
     0
 92
       -2
340
14
 93
        0
 40
0.045
309
GRIDFORMAT_END
 95
       16
302
GRIDFORMAT
  1
GRIDFORMAT_BEGIN
 90
        0
 91
        1
 62
     0
 92
       -2
340
14
 93
        0
 40
0.045
309
GRIDFORMAT_END
 95
       32
302
GRIDFORMAT
  1
GRIDFORMAT_BEGIN
 90
        0
 91
        1
 62
     0
 92
       -2
340
14
 93
        0
 40
0.045
309
GRIDFORMAT_END
309
TABLEFORMAT_END
  1
CELLSTYLE_BEGIN
 90
        1
 91
        1
300
_TITLE
309
CELLSTYLE_END
300
CELLSTYLE
  1
TABLEFORMAT_BEGIN
 90
        5
170
     1
 91
        0
 92
        0
 62
   257
 93
        1
300
CONTENTFORMAT
  1
CONTENTFORMAT_BEGIN
 90
        0
 91
        0
 92
        4
 93
        0
300

 40
0.0
140
1.0
 94
        5
 62
     0
340
11
144
0.18
309
CONTENTFORMAT_END
171
     1
301
MARGIN
  1
CELLMARGIN_BEGIN
 40
0.06
 40
0.06
 40
0.06
 40
0.06
 40
0.18
 40
0.18
309
CELLMARGIN_END
 94
        6
 95
        1
302
GRIDFORMAT
  1
GRIDFORMAT_BEGIN
 90
        0
 91
        1
 62
     0
 92
       -2
340
14
 93
        0
 40
0.045
309
GRIDFORMAT_END
 95
        2
302
GRIDFORMAT
  1
GRIDFORMAT_BEGIN
 90
        0
 91
        1
 62
     0
 92
       -2
340
14
 93
        0
 40
0.045
309
GRIDFORMAT_END
 95
        4
302
GRIDFORMAT
  1
GRIDFORMAT_BEGIN
 90
        0
 91
        1
 62
     0
 92
       -2
340
14
 93
        0
 40
0.045
309
GRIDFORMAT_END
 95
        8
302
GRIDFORMAT
  1
GRIDFORMAT_BEGIN
 90
        0
 91
        1
 62
     0
 92
       -2
340
14
 93
        0
 40
0.045
309
GRIDFORMAT_END
 95
       16
302
GRIDFORMAT
  1
GRIDFORMAT_BEGIN
 90
        0
 91
        1
 62
     0
 92
       -2
340
14
 93
        0
 40
0.045
309
GRIDFORMAT_END
 95
       32
302
GRIDFORMAT
  1
GRIDFORMAT_BEGIN
 90
        0
 91
        1
 62
     0
 92
       -2
340
14
 93
        0
 40
0.045
309
GRIDFORMAT_END
309
TABLEFORMAT_END
  1
CELLSTYLE_BEGIN
 90
        2
 91
        1
300
_HEADER
309
CELLSTYLE_END
300
CELLSTYLE
  1
TABLEFORMAT_BEGIN
 90
        5
170
     1
 91
        0
 92
        0
 62
   257
 93
        1
300
CONTENTFORMAT
  1
CONTENTFORMAT_BEGIN
 90
        0
 91
        0
 92
        4
 93
        0
300

 40
0.0
140
1.0
 94
        2
 62
     0
340
11
144
0.18
309
CONTENTFORMAT_END
171
     1
301
MARGIN
  1
CELLMARGIN_BEGIN
 40
0.06
 40
0.06
 40
0.06
 40
0.06
 40
0.18
 40
0.18
309
CELLMARGIN_END
 94
        6
 95
        1
302
GRIDFORMAT
  1
GRIDFORMAT_BEGIN
 90
        0
 91
        1
 62
     0
 92
       -2
340
14
 93
        0
 40
0.045
309
GRIDFORMAT_END
 95
        2
302
GRIDFORMAT
  1
GRIDFORMAT_BEGIN
 90
        0
 91
        1
 62
     0
 92
       -2
340
14
 93
        0
 40
0.045
309
GRIDFORMAT_END
 95
        4
302
GRIDFORMAT
  1
GRIDFORMAT_BEGIN
 90
        0
 91
        1
 62
     0
 92
       -2
340
14
 93
        0
 40
0.045
309
GRIDFORMAT_END
 95
        8
302
GRIDFORMAT
  1
GRIDFORMAT_BEGIN
 90
        0
 91
        1
 62
     0
 92
       -2
340
14
 93
        0
 40
0.045
309
GRIDFORMAT_END
 95
       16
302
GRIDFORMAT
  1
GRIDFORMAT_BEGIN
 90
        0
 91
        1
 62
     0
 92
       -2
340
14
 93
        0
 40
0.045
309
GRIDFORMAT_END
 95
       32
302
GRIDFORMAT
  1
GRIDFORMAT_BEGIN
 90
        0
 91
        1
 62
     0
 92
       -2
340
14
 93
        0
 40
0.045
309
GRIDFORMAT_END
309
TABLEFORMAT_END
  1
CELLSTYLE_BEGIN
 90
        3
 91
        2
300
_DATA
309
CELLSTYLE_END
  0
ENDSEC
  0
SECTION
  2
ACDSDATA
 70
     2
 71
     8
  0
ACDSSCHEMA
 90
        0
  1
AcDb_Thumbnail_Schema
  2
AcDbDs::ID
280
    10
 91
        8
  2
Thumbnail_Data
280
    15
 91
        0
101
ACDSRECORD
 95
        0
 90
        1
  2
AcDbDs::TreatedAsObjectData
280
     1
291
     1
101
ACDSRECORD
 95
        0
 90
        2
  2
AcDbDs::Legacy
280
     1
291
     1
101
ACDSRECORD
  1
AcDbDs::ID
 90
        3
  2
AcDs:Indexable
280
     1
291
     1
101
ACDSRECORD
  1
AcDbDs::ID
 90
        4
  2
AcDbDs::HandleAttribute
280
     7
282
     1
  0
ACDSSCHEMA
 90
        1
  1
AcDbDs::TreatedAsObjectDataSchema
  2
AcDbDs::TreatedAsObjectData
280
     1
 91
        0
  0
ACDSSCHEMA
 90
        2
  1
AcDbDs::LegacySchema
  2
AcDbDs::Legacy
280
     1
 91
        0
  0
ACDSSCHEMA
 90
        3
  1
AcDbDs::IndexedPropertySchema
  2
AcDs:Indexable
280
     1
 91
        0
  0
ACDSSCHEMA
 90
        4
  1
AcDbDs::HandleAttributeSchema
  2
AcDbDs::HandleAttribute
280
     7
 91
        1
284
     1
  0
ACDSRECORD
 90
        0
  2
AcDbDs::ID
280
    10
320
22
  2
Thumbnail_Data
280
    15
 94
     1178
310
89504E470D0A1A0A0000000D49484452000001000000005F08030000003003E9C200000300504C5445212830FFFFFF2128300000000000000000000000000000000000000000000000000000330000660000990000CC0000FF0033000033330033660033990033CC0033FF0066000066330066660066990066CC0066FF0099
310
000099330099660099990099CC0099FF00CC0000CC3300CC6600CC9900CCCC00CCFF00FF0000FF3300FF6600FF9900FFCC00FFFF3300003300333300663300993300CC3300FF3333003333333333663333993333CC3333FF3366003366333366663366993366CC3366FF3399003399333399663399993399CC3399FF33CC00
310
33CC3333CC6633CC9933CCCC33CCFF33FF0033FF3333FF6633FF9933FFCC33FFFF6600006600336600666600996600CC6600FF6633006633336633666633996633CC6633FF6666006666336666666666996666CC6666FF6699006699336699666699996699CC6699FF66CC0066CC3366CC6666CC9966CCCC66CCFF66FF0066
310
FF3366FF6666FF9966FFCC66FFFF9900009900339900669900999900CC9900FF9933009933339933669933999933CC9933FF9966009966339966669966999966CC9966FF9999009999339999669999999999CC9999FF99CC0099CC3399CC6699CC9999CCCC99CCFF99FF0099FF3399FF6699FF9999FFCC99FFFFCC0000CC00
310
33CC0066CC0099CC00CCCC00FFCC3300CC3333CC3366CC3399CC33CCCC33FFCC6600CC6633CC6666CC6699CC66CCCC66FFCC9900CC9933CC9966CC9999CC99CCCC99FFCCCC00CCCC33CCCC66CCCC99CCCCCCCCCCFFCCFF00CCFF33CCFF66CCFF99CCFFCCCCFFFFFF0000FF0033FF0066FF0099FF00CCFF00FFFF3300FF3333
310
FF3366FF3399FF33CCFF33FFFF6600FF6633FF6666FF6699FF66CCFF66FFFF9900FF9933FF9966FF9999FF99CCFF99FFFFCC00FFCC33FFCC66FFCC99FFCCCCFFCCFFFFFF00FFFF33FFFF66FFFF99FFFFCCFFFFFF0000000D0D0D1A1A1A2828283535354343435050505D5D5D6B6B6B787878868686939393A1A1A1AEAEAEBB
310
BBBBC9C9C9D6D6D6E4E4E4F1F1F1FFFFFF0000000000000000000000000000000000000000000000000000000000002E4550F1000001554944415478DAEDD9016EC3200C40515FC8F7BF5ED5362136264449952A86FFB44951BD49C31803990800000000000000E077FA7629384A0296EFF3C1292A6082045C2F0F1290B5DE
310
8B6A09B4825B02EA98DAB593A559FA3F7219C83AC693C11217FFFCF8F19B595435630C419F80F89BEA1390A102DCA4D981EAB9E0F7D97C96A555348AB93DC67E3064264FAFD4AA9B49BD0464A709FA58583869F68A6AF655F7FB9CC425104AA3FB138FDF062516F2FEEC6BD8264D4FC9B207F8AD3B4C5F3FE87AC07614C896
310
805E2B6B35FA7EB0242E570B68B6B2BACA4386B411B4B948D3023A7D4EE56487ACCA29E15D408FEF02BDE0F269AA047061BCB7B14E387CCD720FBA71F8438D7F6971DBAE279FAF9DB71D6AB2304C02A4F4797539383A590EF7CACC9C7B66F8E740EBB2B43D8C56E7C787E5EF5A580F3A3A5109D857852501F3CC3F00000000
310
000000000000000000000000E0DF5E3A356BC2B264ACCC0000000049454E44AE426082
  0
ENDSEC
  0
EOF
