ISO-10303-21;
HEADER;
FILE_DESCRIPTION(('STEP AP214'),'1');
FILE_NAME('tmp0.STEP','2020-04-03T10:56:21',(' '),(' '),'Spatial InterOp 3D',' ',' ');
FILE_SCHEMA(('AUTOMOTIVE_DESIGN { 1 0 10303 214 1 1 1 1 }'));
ENDSEC;
DATA;
#1=MECHANICAL_DESIGN_GEOMETRIC_PRESENTATION_REPRESENTATION(' ',(#10,#11,#12,#13,#14),#6);
#2=PRODUCT_DEFINITION_CONTEXT('',#15,'design');
#3=APPLICATION_PROTOCOL_DEFINITION('INTERNATIONAL STANDARD','automotive_design',1994,#15);
#4=PRODUCT_CATEGORY_RELATIONSHIP('NONE','NONE',#16,#17);
#5=SHAPE_DEFINITION_REPRESENTATION(#18,#19);
#6= (GEOMETRIC_REPRESENTATION_CONTEXT(3)GLOBAL_UNCERTAINTY_ASSIGNED_CONTEXT((#22))GLOBAL_UNIT_ASSIGNED_CONTEXT((#24,#25,#26))REPRESENTATION_CONTEXT('NONE','WORKSPACE'));
#10=STYLED_ITEM('',(#28),#29);
#11=STYLED_ITEM('',(#30),#31);
#12=STYLED_ITEM('',(#32),#33);
#13=STYLED_ITEM('',(#34),#35);
#14=STYLED_ITEM('',(#36),#37);
#15=APPLICATION_CONTEXT(' ');
#16=PRODUCT_CATEGORY('part','NONE');
#17=PRODUCT_RELATED_PRODUCT_CATEGORY('detail',' ',(#38));
#18=PRODUCT_DEFINITION_SHAPE('NONE','NONE',#39);
#19=ADVANCED_BREP_SHAPE_REPRESENTATION('1',(#37,#40),#6);
#22=UNCERTAINTY_MEASURE_WITH_UNIT(LENGTH_MEASURE(1.0E-006),#24,'','');
#24= (CONVERSION_BASED_UNIT('MILLIMETRE',#43)LENGTH_UNIT()NAMED_UNIT(#46));
#25= (NAMED_UNIT(#48)PLANE_ANGLE_UNIT()SI_UNIT($,.RADIAN.));
#26= (NAMED_UNIT(#48)SOLID_ANGLE_UNIT()SI_UNIT($,.STERADIAN.));
#28=PRESENTATION_STYLE_ASSIGNMENT((#54));
#29=ADVANCED_FACE('',(#55),#56,.T.);
#30=PRESENTATION_STYLE_ASSIGNMENT((#57));
#31=ADVANCED_FACE('',(#58),#59,.T.);
#32=PRESENTATION_STYLE_ASSIGNMENT((#60));
#33=ADVANCED_FACE('',(#61),#62,.T.);
#34=PRESENTATION_STYLE_ASSIGNMENT((#63));
#35=ADVANCED_FACE('',(#64),#65,.T.);
#36=PRESENTATION_STYLE_ASSIGNMENT((#66));
#37=MANIFOLD_SOLID_BREP('1',#67);
#38=PRODUCT('1','','PART--DESC',(#68));
#39=PRODUCT_DEFINITION('','NONE',#69,#2);
#40=AXIS2_PLACEMENT_3D('',#70,#71,#72);
#43=LENGTH_MEASURE_WITH_UNIT(LENGTH_MEASURE(1.0),#73);
#46=DIMENSIONAL_EXPONENTS(1.0,0.0,0.0,0.0,0.0,0.0,0.0);
#48=DIMENSIONAL_EXPONENTS(0.0,0.0,0.0,0.0,0.0,0.0,0.0);
#54=SURFACE_STYLE_USAGE(.BOTH.,#74);
#55=FACE_OUTER_BOUND('',#75,.T.);
#56=TOROIDAL_SURFACE('',#76,-58.95,60.0);
#57=SURFACE_STYLE_USAGE(.BOTH.,#77);
#58=FACE_OUTER_BOUND('',#78,.T.);
#59=TOROIDAL_SURFACE('',#79,-58.95,60.0);
#60=SURFACE_STYLE_USAGE(.BOTH.,#80);
#61=FACE_OUTER_BOUND('',#81,.T.);
#62=PLANE('',#82);
#63=SURFACE_STYLE_USAGE(.BOTH.,#83);
#64=FACE_OUTER_BOUND('',#84,.T.);
#65=PLANE('',#85);
#66=SURFACE_STYLE_USAGE(.BOTH.,#86);
#67=CLOSED_SHELL('',(#29,#31,#33,#35));
#68=PRODUCT_CONTEXT('',#15,'mechanical');
#69=PRODUCT_DEFINITION_FORMATION_WITH_SPECIFIED_SOURCE(' ','NONE',#38,.NOT_KNOWN.);
#70=CARTESIAN_POINT('',(0.0,0.0,0.0));
#71=DIRECTION('',(0.0,0.0,1.0));
#72=DIRECTION('',(1.0,0.0,0.0));
#73= (NAMED_UNIT(#46)LENGTH_UNIT()SI_UNIT(.MILLI.,.METRE.));
#74=SURFACE_SIDE_STYLE('',(#88));
#75=EDGE_LOOP('',(#89,#90,#91,#92));
#76=AXIS2_PLACEMENT_3D('',#93,#94,#95);
#77=SURFACE_SIDE_STYLE('',(#96));
#78=EDGE_LOOP('',(#97,#98,#99,#100,#101,#102));
#79=AXIS2_PLACEMENT_3D('',#103,#104,#105);
#80=SURFACE_SIDE_STYLE('',(#106));
#81=EDGE_LOOP('',(#107,#108,#109));
#82=AXIS2_PLACEMENT_3D('',#110,#111,#112);
#83=SURFACE_SIDE_STYLE('',(#113));
#84=EDGE_LOOP('',(#114,#115,#116));
#85=AXIS2_PLACEMENT_3D('',#117,#118,#119);
#86=SURFACE_SIDE_STYLE('',(#120));
#88=SURFACE_STYLE_FILL_AREA(#121);
#89=ORIENTED_EDGE('',*,*,#122,.F.);
#90=ORIENTED_EDGE('',*,*,#123,.T.);
#91=ORIENTED_EDGE('',*,*,#124,.F.);
#92=ORIENTED_EDGE('',*,*,#125,.F.);
#93=CARTESIAN_POINT('',(3.10862446895044E-015,0.0,0.0));
#94=DIRECTION('',(0.0,1.0,0.0));
#95=DIRECTION('',(0.0,0.0,1.0));
#96=SURFACE_STYLE_FILL_AREA(#126);
#97=ORIENTED_EDGE('',*,*,#122,.T.);
#98=ORIENTED_EDGE('',*,*,#127,.F.);
#99=ORIENTED_EDGE('',*,*,#128,.F.);
#100=ORIENTED_EDGE('',*,*,#124,.T.);
#101=ORIENTED_EDGE('',*,*,#129,.T.);
#102=ORIENTED_EDGE('',*,*,#130,.T.);
#103=CARTESIAN_POINT('',(3.10862446895044E-015,0.0,0.0));
#104=DIRECTION('',(0.0,1.0,0.0));
#105=DIRECTION('',(0.0,0.0,1.0));
#106=SURFACE_STYLE_FILL_AREA(#131);
#107=ORIENTED_EDGE('',*,*,#127,.T.);
#108=ORIENTED_EDGE('',*,*,#125,.T.);
#109=ORIENTED_EDGE('',*,*,#128,.T.);
#110=CARTESIAN_POINT('',(-0.524999999999999,0.0,0.0));
#111=DIRECTION('',(0.0,1.0,0.0));
#112=DIRECTION('',(-1.0,0.0,0.0));
#113=SURFACE_STYLE_FILL_AREA(#132);
#114=ORIENTED_EDGE('',*,*,#130,.F.);
#115=ORIENTED_EDGE('',*,*,#129,.F.);
#116=ORIENTED_EDGE('',*,*,#123,.F.);
#117=CARTESIAN_POINT('',(-0.420651857753495,-5.0,0.0));
#118=DIRECTION('',(0.0,-1.0,0.0));
#119=DIRECTION('',(1.0,0.0,0.0));
#120=SURFACE_STYLE_FILL_AREA(#133);
#121=FILL_AREA_STYLE('',(#134));
#122=EDGE_CURVE('',#135,#136,#137,.T.);
#123=EDGE_CURVE('',#135,#138,#139,.T.);
#124=EDGE_CURVE('',#140,#138,#141,.T.);
#125=EDGE_CURVE('',#136,#140,#142,.T.);
#126=FILL_AREA_STYLE('',(#143));
#127=EDGE_CURVE('',#144,#136,#145,.T.);
#128=EDGE_CURVE('',#140,#144,#146,.T.);
#129=EDGE_CURVE('',#138,#147,#148,.T.);
#130=EDGE_CURVE('',#147,#135,#149,.T.);
#131=FILL_AREA_STYLE('',(#150));
#132=FILL_AREA_STYLE('',(#151));
#133=FILL_AREA_STYLE('',(#152));
#134=FILL_AREA_STYLE_COLOUR('',#153);
#135=VERTEX_POINT('',#154);
#136=VERTEX_POINT('',#155);
#137=CIRCLE('',#156,60.0);
#138=VERTEX_POINT('',#157);
#139=CIRCLE('',#158,0.841303715506991);
#140=VERTEX_POINT('',#159);
#141=CIRCLE('',#160,60.0);
#142=CIRCLE('',#161,1.05);
#143=FILL_AREA_STYLE_COLOUR('',#162);
#144=VERTEX_POINT('',#163);
#145=CIRCLE('',#164,1.05);
#146=CIRCLE('',#165,1.05);
#147=VERTEX_POINT('',#166);
#148=CIRCLE('',#167,0.841303715506991);
#149=CIRCLE('',#168,0.841303715506991);
#150=FILL_AREA_STYLE_COLOUR('',#169);
#151=FILL_AREA_STYLE_COLOUR('',#170);
#152=FILL_AREA_STYLE_COLOUR('',#171);
#153=COLOUR_RGB('',0.0,0.0,0.0);
#154=CARTESIAN_POINT('',(3.0055944787198E-015,-5.0,0.841303715506991));
#155=CARTESIAN_POINT('',(2.98003655503997E-015,0.0,1.05));
#156=AXIS2_PLACEMENT_3D('',#172,#173,#174);
#157=CARTESIAN_POINT('',(3.21165445918108E-015,-5.0,-0.841303715506991));
#158=AXIS2_PLACEMENT_3D('',#175,#176,#177);
#159=CARTESIAN_POINT('',(3.23721238286091E-015,0.0,-1.05));
#160=AXIS2_PLACEMENT_3D('',#178,#179,#180);
#161=AXIS2_PLACEMENT_3D('',#181,#182,#183);
#162=COLOUR_RGB('',0.0,0.0,0.0);
#163=CARTESIAN_POINT('',(-1.05,0.0,0.0));
#164=AXIS2_PLACEMENT_3D('',#184,#185,#186);
#165=AXIS2_PLACEMENT_3D('',#187,#188,#189);
#166=CARTESIAN_POINT('',(-0.841303715506991,-5.0,0.0));
#167=AXIS2_PLACEMENT_3D('',#190,#191,#192);
#168=AXIS2_PLACEMENT_3D('',#193,#194,#195);
#169=COLOUR_RGB('',0.0,0.0,0.0);
#170=COLOUR_RGB('',0.0,0.0,0.0);
#171=COLOUR_RGB('',0.0,0.0,0.0);
#172=CARTESIAN_POINT('',(1.03279173499241E-014,0.0,-58.95));
#173=DIRECTION('',(-1.0,0.0,-1.22464679914735E-016));
#174=DIRECTION('',(-1.22464679914735E-016,-0.0,1.0));
#175=CARTESIAN_POINT('',(0.0,-5.0,0.0));
#176=DIRECTION('',(0.0,1.0,0.0));
#177=DIRECTION('',(-1.0,0.0,0.0));
#178=CARTESIAN_POINT('',(-4.11066841202321E-015,0.0,58.95));
#179=DIRECTION('',(-1.0,0.0,-1.22464679914735E-016));
#180=DIRECTION('',(1.22464679914735E-016,0.0,-1.0));
#181=CARTESIAN_POINT('',(0.0,0.0,0.0));
#182=DIRECTION('',(0.0,1.0,0.0));
#183=DIRECTION('',(-1.0,0.0,0.0));
#184=CARTESIAN_POINT('',(0.0,0.0,0.0));
#185=DIRECTION('',(0.0,1.0,0.0));
#186=DIRECTION('',(-1.0,0.0,0.0));
#187=CARTESIAN_POINT('',(0.0,0.0,0.0));
#188=DIRECTION('',(0.0,1.0,0.0));
#189=DIRECTION('',(-1.0,0.0,0.0));
#190=CARTESIAN_POINT('',(0.0,-5.0,0.0));
#191=DIRECTION('',(0.0,1.0,0.0));
#192=DIRECTION('',(-1.0,0.0,0.0));
#193=CARTESIAN_POINT('',(0.0,-5.0,0.0));
#194=DIRECTION('',(0.0,1.0,0.0));
#195=DIRECTION('',(-1.0,0.0,0.0));
#196=PRESENTATION_LAYER_ASSIGNMENT('0','0',(#37));
ENDSEC;
END-ISO-10303-21;
